  0
SECTION
  2
HEADER
  9
$ACADVER
  1
AC1015
  9
$ACADMAINTVER
 70
     6
  9
$DWGCODEPAGE
  3
ANSI_1250
  9
$INSBASE
 10
0.0
 20
0.0
 30
0.0
  9
$EXTMIN
 10
0.0
 20
0.0
 30
0.0
  9
$EXTMAX
 10
20000.0
 20
10000.0
 30
0.0
  9
$LIMMIN
 10
0.0
 20
0.0
  9
$LIMMAX
 10
20000.0
 20
10000.0
  9
$ORTHOMODE
 70
     0
  9
$REGENMODE
 70
     1
  9
$FILLMODE
 70
     1
  9
$QTEXTMODE
 70
     0
  9
$MIRRTEXT
 70
     1
  9
$LTSCALE
 40
1.0
  9
$ATTMODE
 70
     1
  9
$TEXTSIZE
 40
2.0
  9
$TRACEWID
 40
1.0
  9
$TEXTSTYLE
  7
Standard
  9
$CLAYER
  8
0
  9
$CELTYPE
  6
ByLayer
  9
$CECOLOR
 62
   256
  9
$CELTSCALE
 40
1.0
  9
$DISPSILH
 70
     0
  9
$DIMSCALE
 40
1.0
  9
$DIMASZ
 40
2.0
  9
$DIMEXO
 40
1.0
  9
$DIMDLI
 40
3.75
  9
$DIMRND
 40
0.0
  9
$DIMDLE
 40
0.0
  9
$DIMEXE
 40
1.0
  9
$DIMTP
 40
0.0
  9
$DIMTM
 40
0.0
  9
$DIMTXT
 40
2.0
  9
$DIMCEN
 40
2.5
  9
$DIMTSZ
 40
0.0
  9
$DIMTOL
 70
     0
  9
$DIMLIM
 70
     0
  9
$DIMTIH
 70
     1
  9
$DIMTOH
 70
     1
  9
$DIMSE1
 70
     0
  9
$DIMSE2
 70
     0
  9
$DIMTAD
 70
     1
  9
$DIMZIN
 70
     0
  9
$DIMBLK
  1

  9
$DIMASO
 70
     1
  9
$DIMSHO
 70
     1
  9
$DIMPOST
  1

  9
$DIMAPOST
  1

  9
$DIMALT
 70
     0
  9
$DIMALTD
 70
     3
  9
$DIMALTF
 40
0.0393700787
  9
$DIMLFAC
 40
1.0
  9
$DIMTOFL
 70
     1
  9
$DIMTVP
 40
0.0
  9
$DIMTIX
 70
     0
  9
$DIMSOXD
 70
     0
  9
$DIMSAH
 70
     0
  9
$DIMBLK1
  1

  9
$DIMBLK2
  1

  9
$DIMSTYLE
  2
ISO-25
  9
$DIMCLRD
 70
     0
  9
$DIMCLRE
 70
     0
  9
$DIMCLRT
 70
     0
  9
$DIMTFAC
 40
1.0
  9
$DIMGAP
 40
1.524
  9
$DIMJUST
 70
     0
  9
$DIMSD1
 70
     0
  9
$DIMSD2
 70
     0
  9
$DIMTOLJ
 70
     0
  9
$DIMTZIN
 70
     0
  9
$DIMALTZ
 70
     0
  9
$DIMALTTZ
 70
     0
  9
$DIMUPT
 70
     0
  9
$DIMDEC
 70
     2
  9
$DIMTDEC
 70
     0
  9
$DIMALTU
 70
     2
  9
$DIMALTTD
 70
     3
  9
$DIMTXSTY
  7
Standard
  9
$DIMAUNIT
 70
     0
  9
$DIMADEC
 70
     2
  9
$DIMALTRND
 40
0.0
  9
$DIMAZIN
 70
     0
  9
$DIMDSEP
 70
    44
  9
$DIMATFIT
 70
     3
  9
$DIMFRAC
 70
     0
  9
$DIMLDRBLK
  1

  9
$DIMLUNIT
 70
     2
  9
$DIMLWD
 70
    -2
  9
$DIMLWE
 70
    -2
  9
$DIMTMOVE
 70
     0
  9
$LUNITS
 70
     2
  9
$LUPREC
 70
     3
  9
$SKETCHINC
 40
1.0
  9
$FILLETRAD
 40
10.0
  9
$AUNITS
 70
     0
  9
$AUPREC
 70
     2
  9
$MENU
  1
.
  9
$ELEVATION
 40
0.0
  9
$PELEVATION
 40
0.0
  9
$THICKNESS
 40
0.0
  9
$LIMCHECK
 70
     0
  9
$CHAMFERA
 40
0.0
  9
$CHAMFERB
 40
0.0
  9
$CHAMFERC
 40
0.0
  9
$CHAMFERD
 40
0.0
  9
$SKPOLY
 70
     0
  9
$TDCREATE
 40
2459130.280896644
  9
$TDUCREATE
 40
2459130.19756331
  9
$TDUPDATE
 40
2459130.280897002
  9
$TDUUPDATE
 40
2459130.197563669
  9
$TDINDWG
 40
0.0000000116
  9
$TDUSRTIMER
 40
0.0000000116
  9
$USRTIMER
 70
     1
  9
$ANGBASE
 50
0.0
  9
$ANGDIR
 70
     0
  9
$PDMODE
 70
     0
  9
$PDSIZE
 40
-1.0
  9
$PLINEWID
 40
0.0
  9
$SPLFRAME
 70
     0
  9
$SPLINETYPE
 70
     6
  9
$SPLINESEGS
 70
     8
  9
$HANDSEED
  5
257
  9
$SURFTAB1
 70
     6
  9
$SURFTAB2
 70
     6
  9
$SURFTYPE
 70
     6
  9
$SURFU
 70
     6
  9
$SURFV
 70
     6
  9
$UCSBASE
  2

  9
$UCSNAME
  2

  9
$UCSORG
 10
0.0
 20
0.0
 30
0.0
  9
$UCSXDIR
 10
1.0
 20
0.0
 30
0.0
  9
$UCSYDIR
 10
0.0
 20
1.0
 30
0.0
  9
$UCSORTHOREF
  2

  9
$UCSORTHOVIEW
 70
     0
  9
$UCSORGTOP
 10
0.0
 20
0.0
 30
0.0
  9
$UCSORGBOTTOM
 10
0.0
 20
0.0
 30
0.0
  9
$UCSORGLEFT
 10
0.0
 20
0.0
 30
0.0
  9
$UCSORGRIGHT
 10
0.0
 20
0.0
 30
0.0
  9
$UCSORGFRONT
 10
0.0
 20
0.0
 30
0.0
  9
$UCSORGBACK
 10
0.0
 20
0.0
 30
0.0
  9
$PUCSBASE
  2

  9
$PUCSNAME
  2

  9
$PUCSORG
 10
0.0
 20
0.0
 30
0.0
  9
$PUCSXDIR
 10
1.0
 20
0.0
 30
0.0
  9
$PUCSYDIR
 10
0.0
 20
1.0
 30
0.0
  9
$PUCSORTHOREF
  2

  9
$PUCSORTHOVIEW
 70
     0
  9
$PUCSORGTOP
 10
0.0
 20
0.0
 30
0.0
  9
$PUCSORGBOTTOM
 10
0.0
 20
0.0
 30
0.0
  9
$PUCSORGLEFT
 10
0.0
 20
0.0
 30
0.0
  9
$PUCSORGRIGHT
 10
0.0
 20
0.0
 30
0.0
  9
$PUCSORGFRONT
 10
0.0
 20
0.0
 30
0.0
  9
$PUCSORGBACK
 10
0.0
 20
0.0
 30
0.0
  9
$USERI1
 70
     0
  9
$USERI2
 70
     0
  9
$USERI3
 70
     0
  9
$USERI4
 70
     0
  9
$USERI5
 70
     0
  9
$USERR1
 40
0.0
  9
$USERR2
 40
0.0
  9
$USERR3
 40
0.0
  9
$USERR4
 40
0.0
  9
$USERR5
 40
0.0
  9
$WORLDVIEW
 70
     1
  9
$SHADEDGE
 70
     3
  9
$SHADEDIF
 70
    70
  9
$TILEMODE
 70
     1
  9
$MAXACTVP
 70
    64
  9
$PINSBASE
 10
0.0
 20
0.0
 30
0.0
  9
$PLIMCHECK
 70
     0
  9
$PEXTMIN
 10
1.0000000000E+20
 20
1.0000000000E+20
 30
1.0000000000E+20
  9
$PEXTMAX
 10
-1.0000000000E+20
 20
-1.0000000000E+20
 30
-1.0000000000E+20
  9
$PLIMMIN
 10
0.0
 20
0.0
  9
$PLIMMAX
 10
420.0
 20
297.0
  9
$UNITMODE
 70
     0
  9
$VISRETAIN
 70
     1
  9
$PLINEGEN
 70
     0
  9
$PSLTSCALE
 70
     1
  9
$TREEDEPTH
 70
  3020
  9
$CMLSTYLE
  2
Standard
  9
$CMLJUST
 70
     0
  9
$CMLSCALE
 40
20.0
  9
$PROXYGRAPHICS
 70
     1
  9
$MEASUREMENT
 70
     1
  9
$CELWEIGHT
370
    -1
  9
$ENDCAPS
280
     0
  9
$JOINSTYLE
280
     0
  9
$LWDISPLAY
290
     1
  9
$INSUNITS
 70
     4
  9
$HYPERLINKBASE
  1

  9
$STYLESHEET
  1

  9
$XEDIT
290
     1
  9
$CEPSNTYPE
380
     0
  9
$PSTYLEMODE
290
     1
  9
$FINGERPRINTGUID
  2
{f8167aa7-6992-47ba-b3e2-1b28fe499a47}
  9
$VERSIONGUID
  2
{FAEB1C32-E019-11D5-929B-00C0DF256EC4}
  9
$EXTNAMES
290
     1
  9
$PSVPSCALE
 40
0.0
  9
$OLESTARTUP
290
     0
  0
ENDSEC
  0
SECTION
  2
CLASSES
  0
CLASS
  1
ACDBDICTIONARYWDFLT
  2
AcDbDictionaryWithDefault
  3
ObjectDBX Classes
 90
        0
280
     0
281
     0
  0
CLASS
  1
VISUALSTYLE
  2
AcDbVisualStyle
  3
ObjectDBX Classes
 90
     4095
280
     0
281
     0
  0
CLASS
  1
MATERIAL
  2
AcDbMaterial
  3
ObjectDBX Classes
 90
     1153
280
     0
281
     0
  0
CLASS
  1
SCALE
  2
AcDbScale
  3
ObjectDBX Classes
 90
     1153
280
     0
281
     0
  0
CLASS
  1
TABLESTYLE
  2
AcDbTableStyle
  3
ObjectDBX Classes
 90
     4095
280
     0
281
     0
  0
CLASS
  1
MLEADERSTYLE
  2
AcDbMLeaderStyle
  3
ACDB_MLEADERSTYLE_CLASS
 90
     4095
280
     0
281
     0
  0
CLASS
  1
SUN
  2
AcDbSun
  3
SCENEOE
 90
     1153
280
     0
281
     0
  0
CLASS
  1
ACDBPLACEHOLDER
  2
AcDbPlaceHolder
  3
ObjectDBX Classes
 90
        0
280
     0
281
     0
  0
CLASS
  1
LAYOUT
  2
AcDbLayout
  3
ObjectDBX Classes
 90
        0
280
     0
281
     0
  0
ENDSEC
  0
SECTION
  2
TABLES
  0
TABLE
  2
VPORT
  5
8
330
0
100
AcDbSymbolTable
 70
     1
  0
VPORT
  5
29
330
8
100
AcDbSymbolTableRecord
100
AcDbViewportTableRecord
  2
*Active
 70
     0
 10
0.0
 20
0.0
 11
1.0
 21
1.0
 12
10000.0
 22
5000.0
 13
0.0
 23
0.0
 14
10.0
 24
10.0
 15
10.0
 25
10.0
 16
0.0
 26
0.0
 36
1.0
 17
0.0
 27
0.0
 37
0.0
 40
10000.0
 41
2.0
 42
50.0
 43
0.0
 44
0.0
 50
0.0
 51
0.0
 71
     0
 72
  2000
 73
     1
 74
     3
 75
     0
 76
     0
 77
     0
 78
     0
281
     0
 65
     1
110
0.0
120
0.0
130
0.0
111
1.0
121
0.0
131
0.0
112
0.0
122
1.0
132
0.0
 79
     0
146
0.0
  0
ENDTAB
  0
TABLE
  2
LTYPE
  5
5
330
0
100
AcDbSymbolTable
 70
     6
  0
LTYPE
  5
14
330
5
100
AcDbSymbolTableRecord
100
AcDbLinetypeTableRecord
  2
ByBlock
 70
     0
  3

 72
    65
 73
     0
 40
0.0
  0
LTYPE
  5
15
330
5
100
AcDbSymbolTableRecord
100
AcDbLinetypeTableRecord
  2
ByLayer
 70
     0
  3

 72
    65
 73
     0
 40
0.0
  0
LTYPE
  5
16
330
5
100
AcDbSymbolTableRecord
100
AcDbLinetypeTableRecord
  2
Continuous
 70
     0
  3
Solid line
 72
    65
 73
     0
 40
0.0
  0
LTYPE
  5
6E
330
5
100
AcDbSymbolTableRecord
100
AcDbLinetypeTableRecord
  2
HIDDEN
 70
     0
  3
Hidden __ __ __ __ __ __ __ __ __ __ __ __ __ __
 72
    65
 73
     2
 40
1.905
 49
1.27
 74
     0
 49
-0.635
 74
     0
  0
LTYPE
  5
6F
330
5
100
AcDbSymbolTableRecord
100
AcDbLinetypeTableRecord
  2
PHANTOM
 70
     0
  3
Phantom ______  __  __  ______  __  __  ______
 72
    65
 73
     6
 40
12.7
 49
6.35
 74
     0
 49
-1.27
 74
     0
 49
1.27
 74
     0
 49
-1.27
 74
     0
 49
1.27
 74
     0
 49
-1.27
 74
     0
  0
LTYPE
  5
70
330
5
100
AcDbSymbolTableRecord
100
AcDbLinetypeTableRecord
  2
CENTER
 70
     0
  3
Center ____ _ ____ _ ____ _ ____ _ ____ _ ____
 72
    65
 73
     4
 40
10.16
 49
6.35
 74
     0
 49
-1.27
 74
     0
 49
1.27
 74
     0
 49
-1.27
 74
     0
  0
LTYPE
  5
71
330
5
100
AcDbSymbolTableRecord
100
AcDbLinetypeTableRecord
  2
CENTERX2
 70
     0
  3
Center (2x) ________  __  ________  __  _____
 72
    65
 73
     4
 40
20.32
 49
12.7
 74
     0
 49
-2.54
 74
     0
 49
2.54
 74
     0
 49
-2.54
 74
     0
  0
LTYPE
  5
72
330
5
100
AcDbSymbolTableRecord
100
AcDbLinetypeTableRecord
  2
DOT2
 70
     0
  3
Dot (.5x) ........................................
 72
    65
 73
     2
 40
0.635
 49
0.0
 74
     0
 49
-0.635
 74
     0
  0
ENDTAB
  0
TABLE
  2
LAYER
  5
2
330
0
100
AcDbSymbolTable
 70
    13
  0
LAYER
  5
10
330
2
100
AcDbSymbolTableRecord
100
AcDbLayerTableRecord
  2
0
 70
     0
 62
     7
  6
Continuous
370
    -3
390
F
  0
LAYER
  5
73
330
2
100
AcDbSymbolTableRecord
100
AcDbLayerTableRecord
  2
FORMAT
 70
     0
 62
     7
  6
Continuous
370
    -3
390
F
  0
LAYER
  5
74
330
2
100
AcDbSymbolTableRecord
100
AcDbLayerTableRecord
  2
OSA
 70
     0
 62
     7
  6
CENTER
370
    -3
390
F
  0
LAYER
  5
75
330
2
100
AcDbSymbolTableRecord
100
AcDbLayerTableRecord
  2
0_35
 70
     0
 62
     7
  6
Continuous
370
    35
390
F
  0
LAYER
  5
76
330
2
100
AcDbSymbolTableRecord
100
AcDbLayerTableRecord
  2
0_5
 70
     0
 62
     7
  6
Continuous
370
    50
390
F
  0
LAYER
  5
77
330
2
100
AcDbSymbolTableRecord
100
AcDbLayerTableRecord
  2
0_25
 70
     0
 62
     7
  6
Continuous
370
    25
390
F
  0
LAYER
  5
78
330
2
100
AcDbSymbolTableRecord
100
AcDbLayerTableRecord
  2
0_18
 70
     0
 62
     7
  6
Continuous
370
    -3
390
F
  0
LAYER
  5
79
330
2
100
AcDbSymbolTableRecord
100
AcDbLayerTableRecord
  2
SLD-0
 70
     0
 62
   179
  6
Continuous
370
    -3
390
F
  0
LAYER
  5
7A
330
2
100
AcDbSymbolTableRecord
100
AcDbLayerTableRecord
  2
KOTY
 70
     0
 62
     7
  6
Continuous
370
    -3
390
F
  0
LAYER
  5
7B
330
2
100
AcDbSymbolTableRecord
100
AcDbLayerTableRecord
  2
SILNA
 70
     0
 62
   179
  6
Continuous
370
    -3
390
F
  0
LAYER
  5
7C
330
2
100
AcDbSymbolTableRecord
100
AcDbLayerTableRecord
  2
0_18_1
 70
     0
 62
   179
  6
Continuous
370
    -3
390
F
  0
LAYER
  5
7D
330
2
100
AcDbSymbolTableRecord
100
AcDbLayerTableRecord
  2
0_35_1
 70
     0
 62
   179
  6
Continuous
370
    35
390
F
  0
LAYER
  5
7E
330
2
100
AcDbSymbolTableRecord
100
AcDbLayerTableRecord
  2
0_5_1
 70
     0
 62
   179
  6
Continuous
370
    50
390
F
  0
ENDTAB
  0
TABLE
  2
STYLE
  5
3
330
0
100
AcDbSymbolTable
 70
     1
  0
STYLE
  5
11
330
3
100
AcDbSymbolTableRecord
100
AcDbTextStyleTableRecord
  2
Standard
 70
     0
 40
0.0
 41
1.0
 50
0.0
 71
     0
 42
2.0
  3
txt
  4

  0
ENDTAB
  0
TABLE
  2
VIEW
  5
6
330
0
100
AcDbSymbolTable
 70
     0
  0
ENDTAB
  0
TABLE
  2
UCS
  5
7
330
0
100
AcDbSymbolTable
 70
     0
  0
ENDTAB
  0
TABLE
  2
APPID
  5
9
330
0
100
AcDbSymbolTable
 70
     1
  0
APPID
  5
12
330
9
100
AcDbSymbolTableRecord
100
AcDbRegAppTableRecord
  2
ACAD
 70
     0
  0
ENDTAB
  0
TABLE
  2
DIMSTYLE
  5
A
330
0
100
AcDbSymbolTable
 70
     1
100
AcDbDimStyleTable
  0
DIMSTYLE
105
27
330
A
100
AcDbSymbolTableRecord
100
AcDbDimStyleTableRecord
  2
ISO-25
 70
     0
 41
2.5
 42
0.625
 43
3.75
 44
1.25
 73
     0
 74
     0
 77
     1
 78
     8
140
2.5
141
2.5
143
0.0393700787
147
0.625
171
     3
172
     1
178
     0
271
     2
272
     2
274
     3
278
    44
283
     0
284
     8
340
11
  0
ENDTAB
  0
TABLE
  2
BLOCK_RECORD
  5
1
330
0
100
AcDbSymbolTable
 70
     1
  0
BLOCK_RECORD
  5
1F
330
1
100
AcDbSymbolTableRecord
100
AcDbBlockTableRecord
  2
*Model_Space
340
22
  0
BLOCK_RECORD
  5
1B
330
1
100
AcDbSymbolTableRecord
100
AcDbBlockTableRecord
  2
*Paper_Space
340
1E
  0
BLOCK_RECORD
  5
23
330
1
100
AcDbSymbolTableRecord
100
AcDbBlockTableRecord
  2
*Paper_Space0
340
26
  0
ENDTAB
  0
ENDSEC
  0
SECTION
  2
BLOCKS
  0
BLOCK
  5
20
330
1F
100
AcDbEntity
  8
0
100
AcDbBlockBegin
  2
*Model_Space
 70
     0
 10
0.0
 20
0.0
 30
0.0
  3
*Model_Space
  1

  0
ENDBLK
  5
21
330
1F
100
AcDbEntity
  8
0
100
AcDbBlockEnd
  0
BLOCK
  5
1C
330
1B
100
AcDbEntity
 67
     1
  8
0
100
AcDbBlockBegin
  2
*Paper_Space
 70
     0
 10
0.0
 20
0.0
 30
0.0
  3
*Paper_Space
  1

  0
ENDBLK
  5
1D
330
1B
100
AcDbEntity
 67
     1
  8
0
100
AcDbBlockEnd
  0
BLOCK
  5
24
330
23
100
AcDbEntity
  8
0
100
AcDbBlockBegin
  2
*Paper_Space0
 70
     0
 10
0.0
 20
0.0
 30
0.0
  3
*Paper_Space0
  1

  0
ENDBLK
  5
25
330
23
100
AcDbEntity
  8
0
100
AcDbBlockEnd
  0
ENDSEC
  0
SECTION
  2
ENTITIES
  0
CIRCLE
  5
7F
330
1F
100
AcDbEntity
  8
0
  6
Continuous
 62
     7
370
    25
100
AcDbCircle
 10
7574.0295573793
 20
5038.787087674
 30
0.0
 40
7.5
  0
CIRCLE
  5
80
330
1F
100
AcDbEntity
  8
0
  6
Continuous
 62
     7
370
    25
100
AcDbCircle
 10
7574.0295573793
 20
5038.787087674
 30
0.0
 40
12.00000000000091
  0
CIRCLE
  5
81
330
1F
100
AcDbEntity
  8
0
  6
Continuous
 62
     7
370
    25
100
AcDbCircle
 10
7574.0295573793
 20
5038.787087674
 30
0.0
 40
20.00000000000091
  0
CIRCLE
  5
82
330
1F
100
AcDbEntity
  8
0
  6
Continuous
 62
     7
370
    25
100
AcDbCircle
 10
7574.0295573793
 20
5038.787087674
 30
0.0
 40
19.23076923076951
  0
CIRCLE
  5
83
330
1F
100
AcDbEntity
  8
0
  6
Continuous
 62
     7
370
    25
100
AcDbCircle
 10
7574.0295573793
 20
5038.787087674
 30
0.0
 40
22.00000000000091
  0
CIRCLE
  5
84
330
1F
100
AcDbEntity
  8
0
  6
Continuous
 62
     7
370
    25
100
AcDbCircle
 10
7574.0295573793
 20
5038.787087674
 30
0.0
 40
21.23076923076951
  0
LINE
  5
85
330
1F
100
AcDbEntity
  8
0
  6
Continuous
 62
     7
370
    25
100
AcDbLine
 10
7702.746213171
 20
5016.787087674
 30
0.0
 11
7705.246213171
 21
5017.5563184432
 31
0.0
  0
LINE
  5
86
330
1F
100
AcDbEntity
  8
0
  6
Continuous
 62
     7
370
    25
100
AcDbLine
 10
7705.246213171
 20
5060.0178569048
 30
0.0
 11
7702.746213171
 21
5060.787087674
 31
0.0
  0
LINE
  5
87
330
1F
100
AcDbEntity
  8
0
  6
Continuous
 62
     7
370
    25
100
AcDbLine
 10
7709.246213171
 20
5018.787087674
 30
0.0
 11
7711.746213171
 21
5019.5563184432
 31
0.0
  0
LINE
  5
88
330
1F
100
AcDbEntity
  8
0
  6
Continuous
 62
     7
370
    25
100
AcDbLine
 10
7711.746213171
 20
5058.0178569048
 30
0.0
 11
7709.246213171
 21
5058.787087674
 31
0.0
  0
LINE
  5
89
330
1F
100
AcDbEntity
  8
0
  6
Continuous
 62
     7
370
    25
100
AcDbLine
 10
7695.746213171
 20
5055.787087674
 30
0.0
 11
7689.746213171
 21
5055.787087674
 31
0.0
  0
LINE
  5
8A
330
1F
100
AcDbEntity
  8
0
  6
Continuous
 62
     7
370
    25
100
AcDbLine
 10
7689.746213171
 20
5021.787087674
 30
0.0
 11
7695.746213171
 21
5021.787087674
 31
0.0
  0
LINE
  5
8B
330
1F
100
AcDbEntity
  8
0
  6
Continuous
 62
     7
370
    25
100
AcDbLine
 10
7702.746213171
 20
5052.287087674
 30
0.0
 11
7695.746213171
 21
5052.287087674
 31
0.0
  0
LINE
  5
8C
330
1F
100
AcDbEntity
  8
0
  6
Continuous
 62
     7
370
    25
100
AcDbLine
 10
7695.746213171
 20
5025.287087674
 30
0.0
 11
7702.746213171
 21
5025.287087674
 31
0.0
  0
LINE
  5
8D
330
1F
100
AcDbEntity
  8
0
  6
Continuous
 62
     7
370
    25
100
AcDbLine
 10
7709.246213171
 20
5051.787087674
 30
0.0
 11
7705.246213171
 21
5051.787087674
 31
0.0
  0
LINE
  5
8E
330
1F
100
AcDbEntity
  8
0
  6
Continuous
 62
     7
370
    25
100
AcDbLine
 10
7705.246213171
 20
5025.787087674
 30
0.0
 11
7709.246213171
 21
5025.787087674
 31
0.0
  0
LINE
  5
8F
330
1F
100
AcDbEntity
  8
0
  6
Continuous
 62
     7
370
    25
100
AcDbLine
 10
7713.746213171
 20
5050.787087674
 30
0.0
 11
7711.746213171
 21
5050.787087674
 31
0.0
  0
LINE
  5
90
330
1F
100
AcDbEntity
  8
0
  6
Continuous
 62
     7
370
    25
100
AcDbLine
 10
7711.746213171
 20
5026.787087674
 30
0.0
 11
7713.746213171
 21
5026.787087674
 31
0.0
  0
LINE
  5
91
330
1F
100
AcDbEntity
  8
0
  6
Continuous
 62
     7
370
    25
100
AcDbLine
 10
7689.746213171
 20
5049.387087674
 30
0.0
 11
7665.746213171
 21
5049.387087674
 31
0.0
  0
LINE
  5
92
330
1F
100
AcDbEntity
  8
0
  6
Continuous
 62
     7
370
    25
100
AcDbLine
 10
7665.746213171
 20
5028.187087674
 30
0.0
 11
7689.746213171
 21
5028.187087674
 31
0.0
  0
LWPOLYLINE
  5
93
330
1F
100
AcDbEntity
  8
0
  6
Continuous
 62
     7
370
    25
100
AcDbPolyline
 90
        3
 70
   128
 43
0.0
 10
7658.9866303315
 20
5029.1955483687
 10
7659.2213830775
 20
5028.7892804231
 10
7659.4561354851
 20
5028.3829858565
  0
LWPOLYLINE
  5
94
330
1F
100
AcDbEntity
  8
0
  6
Continuous
 62
     7
370
    25
100
AcDbPolyline
 90
        3
 70
   128
 43
0.0
 10
7657.4866303315
 20
5029.1955483687
 10
7657.7213830775
 20
5028.7892804231
 10
7657.9561354851
 20
5028.3829858565
  0
LWPOLYLINE
  5
95
330
1F
100
AcDbEntity
  8
0
  6
Continuous
 62
     7
370
    25
100
AcDbPolyline
 90
        3
 70
   128
 43
0.0
 10
7655.9866303315
 20
5029.1955483687
 10
7656.2213830775
 20
5028.7892804231
 10
7656.4561354851
 20
5028.3829858565
  0
LWPOLYLINE
  5
96
330
1F
100
AcDbEntity
  8
0
  6
Continuous
 62
     7
370
    25
100
AcDbPolyline
 90
        3
 70
   128
 43
0.0
 10
7654.4866303315
 20
5029.1955483687
 10
7654.7213830775
 20
5028.7892804231
 10
7654.9561354851
 20
5028.3829858565
  0
LWPOLYLINE
  5
97
330
1F
100
AcDbEntity
  8
0
  6
Continuous
 62
     7
370
    25
100
AcDbPolyline
 90
        3
 70
   128
 43
0.0
 10
7652.9866303315
 20
5029.1955483687
 10
7653.2213830775
 20
5028.7892804231
 10
7653.4561354851
 20
5028.3829858565
  0
LWPOLYLINE
  5
98
330
1F
100
AcDbEntity
  8
0
  6
Continuous
 62
     7
370
    25
100
AcDbPolyline
 90
        3
 70
   128
 43
0.0
 10
7651.4866303315
 20
5029.1955483687
 10
7651.7213830775
 20
5028.7892804231
 10
7651.9561354851
 20
5028.3829858565
  0
LWPOLYLINE
  5
99
330
1F
100
AcDbEntity
  8
0
  6
Continuous
 62
     7
370
    25
100
AcDbPolyline
 90
        3
 70
   128
 43
0.0
 10
7649.9866303315
 20
5029.1955483687
 10
7650.2213830775
 20
5028.7892804231
 10
7650.4561354851
 20
5028.3829858565
  0
LWPOLYLINE
  5
9A
330
1F
100
AcDbEntity
  8
0
  6
Continuous
 62
     7
370
    25
100
AcDbPolyline
 90
        3
 70
   128
 43
0.0
 10
7648.4866303315
 20
5029.1955483687
 10
7648.7213830775
 20
5028.7892804231
 10
7648.9561354851
 20
5028.3829858565
  0
LWPOLYLINE
  5
9B
330
1F
100
AcDbEntity
  8
0
  6
Continuous
 62
     7
370
    25
100
AcDbPolyline
 90
        3
 70
   128
 43
0.0
 10
7646.9866303315
 20
5029.1955483687
 10
7647.2213830775
 20
5028.7892804231
 10
7647.4561354851
 20
5028.3829858565
  0
LWPOLYLINE
  5
9C
330
1F
100
AcDbEntity
  8
0
  6
Continuous
 62
     7
370
    25
100
AcDbPolyline
 90
        3
 70
   128
 43
0.0
 10
7645.4866303315
 20
5029.1955483687
 10
7645.7213830775
 20
5028.7892804231
 10
7645.9561354851
 20
5028.3829858565
  0
LWPOLYLINE
  5
9D
330
1F
100
AcDbEntity
  8
0
  6
Continuous
 62
     7
370
    25
100
AcDbPolyline
 90
        3
 70
   128
 43
0.0
 10
7643.9866303315
 20
5029.1955483687
 10
7644.2213830775
 20
5028.7892804231
 10
7644.4561354851
 20
5028.3829858565
  0
LWPOLYLINE
  5
9E
330
1F
100
AcDbEntity
  8
0
  6
Continuous
 62
     7
370
    25
100
AcDbPolyline
 90
        3
 70
   128
 43
0.0
 10
7642.4866303315
 20
5029.1955483687
 10
7642.7213830775
 20
5028.7892804231
 10
7642.9561354851
 20
5028.3829858565
  0
LWPOLYLINE
  5
9F
330
1F
100
AcDbEntity
  8
0
  6
Continuous
 62
     7
370
    25
100
AcDbPolyline
 90
        3
 70
   128
 43
0.0
 10
7640.9866303315
 20
5029.1955483687
 10
7641.2213830775
 20
5028.7892804231
 10
7641.4561354851
 20
5028.3829858565
  0
LWPOLYLINE
  5
A0
330
1F
100
AcDbEntity
  8
0
  6
Continuous
 62
     7
370
    25
100
AcDbPolyline
 90
        3
 70
   128
 43
0.0
 10
7639.4866303315
 20
5029.1955483687
 10
7639.7213830775
 20
5028.7892804231
 10
7639.9561354851
 20
5028.3829858565
  0
LWPOLYLINE
  5
A1
330
1F
100
AcDbEntity
  8
0
  6
Continuous
 62
     7
370
    25
100
AcDbPolyline
 90
        3
 70
   128
 43
0.0
 10
7637.9866303315
 20
5029.1955483687
 10
7638.2213830775
 20
5028.7892804231
 10
7638.4561354851
 20
5028.3829858565
  0
LINE
  5
A2
330
1F
100
AcDbEntity
  8
0
  6
Continuous
 62
     7
370
    25
100
AcDbLine
 10
7636.7425152049
 20
5028.7527062782
 30
0.0
 11
7636.9561354851
 21
5028.3829858565
 31
0.0
  0
LWPOLYLINE
  5
A3
330
1F
100
AcDbEntity
  8
0
  6
Continuous
 62
     7
370
    25
100
AcDbPolyline
 90
        3
 70
   128
 43
0.0
 10
7658.7061354851
 20
5049.1911894915
 10
7658.4713830775
 20
5048.7848949249
 10
7658.2415191526
 20
5048.387087674
  0
LWPOLYLINE
  5
A4
330
1F
100
AcDbEntity
  8
0
  6
Continuous
 62
     7
370
    25
100
AcDbPolyline
 90
        3
 70
   128
 43
0.0
 10
7657.2061354851
 20
5049.1911894915
 10
7656.9713830775
 20
5048.7848949249
 10
7656.7415191526
 20
5048.387087674
  0
LWPOLYLINE
  5
A5
330
1F
100
AcDbEntity
  8
0
  6
Continuous
 62
     7
370
    25
100
AcDbPolyline
 90
        3
 70
   128
 43
0.0
 10
7655.7061354851
 20
5049.1911894915
 10
7655.4713830775
 20
5048.7848949249
 10
7655.2415191526
 20
5048.387087674
  0
LWPOLYLINE
  5
A6
330
1F
100
AcDbEntity
  8
0
  6
Continuous
 62
     7
370
    25
100
AcDbPolyline
 90
        3
 70
   128
 43
0.0
 10
7654.2061354851
 20
5049.1911894915
 10
7653.9713830775
 20
5048.7848949249
 10
7653.7415191526
 20
5048.387087674
  0
LWPOLYLINE
  5
A7
330
1F
100
AcDbEntity
  8
0
  6
Continuous
 62
     7
370
    25
100
AcDbPolyline
 90
        3
 70
   128
 43
0.0
 10
7652.7061354851
 20
5049.1911894915
 10
7652.4713830775
 20
5048.7848949249
 10
7652.2415191526
 20
5048.387087674
  0
LWPOLYLINE
  5
A8
330
1F
100
AcDbEntity
  8
0
  6
Continuous
 62
     7
370
    25
100
AcDbPolyline
 90
        3
 70
   128
 43
0.0
 10
7651.2061354851
 20
5049.1911894915
 10
7650.9713830775
 20
5048.7848949249
 10
7650.7415191526
 20
5048.387087674
  0
LWPOLYLINE
  5
A9
330
1F
100
AcDbEntity
  8
0
  6
Continuous
 62
     7
370
    25
100
AcDbPolyline
 90
        3
 70
   128
 43
0.0
 10
7649.7061354851
 20
5049.1911894915
 10
7649.4713830775
 20
5048.7848949249
 10
7649.2415191526
 20
5048.387087674
  0
LWPOLYLINE
  5
AA
330
1F
100
AcDbEntity
  8
0
  6
Continuous
 62
     7
370
    25
100
AcDbPolyline
 90
        3
 70
   128
 43
0.0
 10
7648.2061354851
 20
5049.1911894915
 10
7647.9713830775
 20
5048.7848949249
 10
7647.7415191526
 20
5048.387087674
  0
LWPOLYLINE
  5
AB
330
1F
100
AcDbEntity
  8
0
  6
Continuous
 62
     7
370
    25
100
AcDbPolyline
 90
        3
 70
   128
 43
0.0
 10
7646.7061354851
 20
5049.1911894915
 10
7646.4713830775
 20
5048.7848949249
 10
7646.2415191526
 20
5048.387087674
  0
LWPOLYLINE
  5
AC
330
1F
100
AcDbEntity
  8
0
  6
Continuous
 62
     7
370
    25
100
AcDbPolyline
 90
        3
 70
   128
 43
0.0
 10
7645.2061354851
 20
5049.1911894915
 10
7644.9713830775
 20
5048.7848949249
 10
7644.7415191526
 20
5048.387087674
  0
LWPOLYLINE
  5
AD
330
1F
100
AcDbEntity
  8
0
  6
Continuous
 62
     7
370
    25
100
AcDbPolyline
 90
        3
 70
   128
 43
0.0
 10
7643.7061354851
 20
5049.1911894915
 10
7643.4713830775
 20
5048.7848949249
 10
7643.2415191526
 20
5048.387087674
  0
LWPOLYLINE
  5
AE
330
1F
100
AcDbEntity
  8
0
  6
Continuous
 62
     7
370
    25
100
AcDbPolyline
 90
        3
 70
   128
 43
0.0
 10
7642.2061354851
 20
5049.1911894915
 10
7641.9713830775
 20
5048.7848949249
 10
7641.7415191526
 20
5048.387087674
  0
LWPOLYLINE
  5
AF
330
1F
100
AcDbEntity
  8
0
  6
Continuous
 62
     7
370
    25
100
AcDbPolyline
 90
        3
 70
   128
 43
0.0
 10
7640.7061354851
 20
5049.1911894915
 10
7640.4713830775
 20
5048.7848949249
 10
7640.2415191526
 20
5048.387087674
  0
LWPOLYLINE
  5
B0
330
1F
100
AcDbEntity
  8
0
  6
Continuous
 62
     7
370
    25
100
AcDbPolyline
 90
        3
 70
   128
 43
0.0
 10
7639.2061354851
 20
5049.1911894915
 10
7638.9713830775
 20
5048.7848949249
 10
7638.7415191526
 20
5048.387087674
  0
LWPOLYLINE
  5
B1
330
1F
100
AcDbEntity
  8
0
  6
Continuous
 62
     7
370
    25
100
AcDbPolyline
 90
        3
 70
   128
 43
0.0
 10
7637.7061354851
 20
5049.1911894915
 10
7637.4713830775
 20
5048.7848949249
 10
7637.2415191526
 20
5048.387087674
  0
LWPOLYLINE
  5
B2
330
1F
100
AcDbEntity
  8
0
  6
Continuous
 62
     7
370
    25
100
AcDbPolyline
 90
        3
 70
   128
 43
0.0
 10
7660.2061354851
 20
5049.1911894915
 10
7659.9713830775
 20
5048.7848949249
 10
7659.7415191526
 20
5048.387087674
  0
LWPOLYLINE
  5
B3
330
1F
100
AcDbEntity
  8
0
  6
Continuous
 62
     7
370
    25
100
AcDbPolyline
 90
        3
 70
   128
 43
0.0
 10
7660.4866303315
 20
5029.1955483687
 10
7660.7213830775
 20
5028.7892804231
 10
7660.7432694766
 20
5028.7514008327
  0
LWPOLYLINE
  5
B4
330
1F
100
AcDbEntity
  8
0
  6
Continuous
 62
     7
370
    25
100
AcDbPolyline
 90
        3
 70
   128
 43
0.0
 10
7658.1612878757
 20
5028.3829806235
 10
7658.3960386268
 20
5028.7892722777
 10
7658.6259072671
 20
5029.187087674
  0
LWPOLYLINE
  5
B5
330
1F
100
AcDbEntity
  8
0
  6
Continuous
 62
     7
370
    25
100
AcDbPolyline
 90
        3
 70
   128
 43
0.0
 10
7656.6612878757
 20
5028.3829806235
 10
7656.8960386268
 20
5028.7892722777
 10
7657.1259072671
 20
5029.187087674
  0
LWPOLYLINE
  5
B6
330
1F
100
AcDbEntity
  8
0
  6
Continuous
 62
     7
370
    25
100
AcDbPolyline
 90
        3
 70
   128
 43
0.0
 10
7655.1612878757
 20
5028.3829806235
 10
7655.3960386268
 20
5028.7892722777
 10
7655.6259072671
 20
5029.187087674
  0
LWPOLYLINE
  5
B7
330
1F
100
AcDbEntity
  8
0
  6
Continuous
 62
     7
370
    25
100
AcDbPolyline
 90
        3
 70
   128
 43
0.0
 10
7653.6612878757
 20
5028.3829806235
 10
7653.8960386268
 20
5028.7892722777
 10
7654.1259072671
 20
5029.187087674
  0
LWPOLYLINE
  5
B8
330
1F
100
AcDbEntity
  8
0
  6
Continuous
 62
     7
370
    25
100
AcDbPolyline
 90
        3
 70
   128
 43
0.0
 10
7652.1612878757
 20
5028.3829806235
 10
7652.3960386268
 20
5028.7892722777
 10
7652.6259072671
 20
5029.187087674
  0
LWPOLYLINE
  5
B9
330
1F
100
AcDbEntity
  8
0
  6
Continuous
 62
     7
370
    25
100
AcDbPolyline
 90
        3
 70
   128
 43
0.0
 10
7650.6612878757
 20
5028.3829806235
 10
7650.8960386268
 20
5028.7892722777
 10
7651.1259072671
 20
5029.187087674
  0
LWPOLYLINE
  5
BA
330
1F
100
AcDbEntity
  8
0
  6
Continuous
 62
     7
370
    25
100
AcDbPolyline
 90
        3
 70
   128
 43
0.0
 10
7649.1612878757
 20
5028.3829806235
 10
7649.3960386268
 20
5028.7892722777
 10
7649.6259072671
 20
5029.187087674
  0
LWPOLYLINE
  5
BB
330
1F
100
AcDbEntity
  8
0
  6
Continuous
 62
     7
370
    25
100
AcDbPolyline
 90
        3
 70
   128
 43
0.0
 10
7647.6612878757
 20
5028.3829806235
 10
7647.8960386268
 20
5028.7892722777
 10
7648.1259072671
 20
5029.187087674
  0
LWPOLYLINE
  5
BC
330
1F
100
AcDbEntity
  8
0
  6
Continuous
 62
     7
370
    25
100
AcDbPolyline
 90
        3
 70
   128
 43
0.0
 10
7646.1612878757
 20
5028.3829806235
 10
7646.3960386268
 20
5028.7892722777
 10
7646.6259072671
 20
5029.187087674
  0
LWPOLYLINE
  5
BD
330
1F
100
AcDbEntity
  8
0
  6
Continuous
 62
     7
370
    25
100
AcDbPolyline
 90
        3
 70
   128
 43
0.0
 10
7644.6612878757
 20
5028.3829806235
 10
7644.8960386268
 20
5028.7892722777
 10
7645.1259072671
 20
5029.187087674
  0
LWPOLYLINE
  5
BE
330
1F
100
AcDbEntity
  8
0
  6
Continuous
 62
     7
370
    25
100
AcDbPolyline
 90
        3
 70
   128
 43
0.0
 10
7643.1612878757
 20
5028.3829806235
 10
7643.3960386268
 20
5028.7892722777
 10
7643.6259072671
 20
5029.187087674
  0
LWPOLYLINE
  5
BF
330
1F
100
AcDbEntity
  8
0
  6
Continuous
 62
     7
370
    25
100
AcDbPolyline
 90
        3
 70
   128
 43
0.0
 10
7641.6612878757
 20
5028.3829806235
 10
7641.8960386268
 20
5028.7892722777
 10
7642.1259072671
 20
5029.187087674
  0
LWPOLYLINE
  5
C0
330
1F
100
AcDbEntity
  8
0
  6
Continuous
 62
     7
370
    25
100
AcDbPolyline
 90
        3
 70
   128
 43
0.0
 10
7640.1612878757
 20
5028.3829806235
 10
7640.3960386268
 20
5028.7892722777
 10
7640.6259072671
 20
5029.187087674
  0
LWPOLYLINE
  5
C1
330
1F
100
AcDbEntity
  8
0
  6
Continuous
 62
     7
370
    25
100
AcDbPolyline
 90
        3
 70
   128
 43
0.0
 10
7638.6612878757
 20
5028.3829806235
 10
7638.8960386268
 20
5028.7892722777
 10
7639.1259072671
 20
5029.187087674
  0
LWPOLYLINE
  5
C2
330
1F
100
AcDbEntity
  8
0
  6
Continuous
 62
     7
370
    25
100
AcDbPolyline
 90
        3
 70
   128
 43
0.0
 10
7637.1612878757
 20
5028.3829806235
 10
7637.3960386268
 20
5028.7892722777
 10
7637.6259072671
 20
5029.187087674
  0
LWPOLYLINE
  5
C3
330
1F
100
AcDbEntity
  8
0
  6
Continuous
 62
     7
370
    25
100
AcDbPolyline
 90
        3
 70
   128
 43
0.0
 10
7659.3807897133
 20
5048.3786380122
 10
7659.1460386268
 20
5048.7849030703
 10
7658.9112878757
 20
5049.1911947246
  0
LWPOLYLINE
  5
C4
330
1F
100
AcDbEntity
  8
0
  6
Continuous
 62
     7
370
    25
100
AcDbPolyline
 90
        3
 70
   128
 43
0.0
 10
7657.8807897133
 20
5048.3786380122
 10
7657.6460386268
 20
5048.7849030703
 10
7657.4112878757
 20
5049.1911947246
  0
LWPOLYLINE
  5
C5
330
1F
100
AcDbEntity
  8
0
  6
Continuous
 62
     7
370
    25
100
AcDbPolyline
 90
        3
 70
   128
 43
0.0
 10
7656.3807897133
 20
5048.3786380122
 10
7656.1460386268
 20
5048.7849030703
 10
7655.9112878757
 20
5049.1911947246
  0
LWPOLYLINE
  5
C6
330
1F
100
AcDbEntity
  8
0
  6
Continuous
 62
     7
370
    25
100
AcDbPolyline
 90
        3
 70
   128
 43
0.0
 10
7654.8807897133
 20
5048.3786380122
 10
7654.6460386268
 20
5048.7849030703
 10
7654.4112878757
 20
5049.1911947246
  0
LWPOLYLINE
  5
C7
330
1F
100
AcDbEntity
  8
0
  6
Continuous
 62
     7
370
    25
100
AcDbPolyline
 90
        3
 70
   128
 43
0.0
 10
7653.3807897133
 20
5048.3786380122
 10
7653.1460386268
 20
5048.7849030703
 10
7652.9112878757
 20
5049.1911947246
  0
LWPOLYLINE
  5
C8
330
1F
100
AcDbEntity
  8
0
  6
Continuous
 62
     7
370
    25
100
AcDbPolyline
 90
        3
 70
   128
 43
0.0
 10
7651.8807897133
 20
5048.3786380122
 10
7651.6460386268
 20
5048.7849030703
 10
7651.4112878757
 20
5049.1911947246
  0
LWPOLYLINE
  5
C9
330
1F
100
AcDbEntity
  8
0
  6
Continuous
 62
     7
370
    25
100
AcDbPolyline
 90
        3
 70
   128
 43
0.0
 10
7650.3807897133
 20
5048.3786380122
 10
7650.1460386268
 20
5048.7849030703
 10
7649.9112878757
 20
5049.1911947246
  0
LWPOLYLINE
  5
CA
330
1F
100
AcDbEntity
  8
0
  6
Continuous
 62
     7
370
    25
100
AcDbPolyline
 90
        3
 70
   128
 43
0.0
 10
7648.8807897133
 20
5048.3786380122
 10
7648.6460386268
 20
5048.7849030703
 10
7648.4112878757
 20
5049.1911947246
  0
LWPOLYLINE
  5
CB
330
1F
100
AcDbEntity
  8
0
  6
Continuous
 62
     7
370
    25
100
AcDbPolyline
 90
        3
 70
   128
 43
0.0
 10
7647.3807897133
 20
5048.3786380122
 10
7647.1460386268
 20
5048.7849030703
 10
7646.9112878757
 20
5049.1911947246
  0
LWPOLYLINE
  5
CC
330
1F
100
AcDbEntity
  8
0
  6
Continuous
 62
     7
370
    25
100
AcDbPolyline
 90
        3
 70
   128
 43
0.0
 10
7645.8807897133
 20
5048.3786380122
 10
7645.6460386268
 20
5048.7849030703
 10
7645.4112878757
 20
5049.1911947246
  0
LWPOLYLINE
  5
CD
330
1F
100
AcDbEntity
  8
0
  6
Continuous
 62
     7
370
    25
100
AcDbPolyline
 90
        3
 70
   128
 43
0.0
 10
7644.3807897133
 20
5048.3786380122
 10
7644.1460386268
 20
5048.7849030703
 10
7643.9112878757
 20
5049.1911947246
  0
LWPOLYLINE
  5
CE
330
1F
100
AcDbEntity
  8
0
  6
Continuous
 62
     7
370
    25
100
AcDbPolyline
 90
        3
 70
   128
 43
0.0
 10
7642.8807897133
 20
5048.3786380122
 10
7642.6460386268
 20
5048.7849030703
 10
7642.4112878757
 20
5049.1911947246
  0
LWPOLYLINE
  5
CF
330
1F
100
AcDbEntity
  8
0
  6
Continuous
 62
     7
370
    25
100
AcDbPolyline
 90
        3
 70
   128
 43
0.0
 10
7641.3807897133
 20
5048.3786380122
 10
7641.1460386268
 20
5048.7849030703
 10
7640.9112878757
 20
5049.1911947246
  0
LWPOLYLINE
  5
D0
330
1F
100
AcDbEntity
  8
0
  6
Continuous
 62
     7
370
    25
100
AcDbPolyline
 90
        3
 70
   128
 43
0.0
 10
7639.8807897133
 20
5048.3786380122
 10
7639.6460386268
 20
5048.7849030703
 10
7639.4112878757
 20
5049.1911947246
  0
LWPOLYLINE
  5
D1
330
1F
100
AcDbEntity
  8
0
  6
Continuous
 62
     7
370
    25
100
AcDbPolyline
 90
        3
 70
   128
 43
0.0
 10
7638.3807897133
 20
5048.3786380122
 10
7638.1460386268
 20
5048.7849030703
 10
7637.9112878757
 20
5049.1911947246
  0
LINE
  5
D2
330
1F
100
AcDbEntity
  8
0
  6
Continuous
 62
     7
370
    25
100
AcDbLine
 10
7636.8807897133
 20
5048.3786380122
 30
0.0
 11
7636.7480917099
 21
5048.6082879058
 31
0.0
  0
LWPOLYLINE
  5
D3
330
1F
100
AcDbEntity
  8
0
  6
Continuous
 62
     7
370
    25
100
AcDbPolyline
 90
        3
 70
   128
 43
0.0
 10
7660.746213171
 20
5048.611538944
 10
7660.6460386268
 20
5048.7849030703
 10
7660.4112878757
 20
5049.1911947246
  0
LWPOLYLINE
  5
D4
330
1F
100
AcDbEntity
  8
0
  6
Continuous
 62
     7
370
    25
100
AcDbPolyline
 90
        3
 70
   128
 43
0.0
 10
7659.6612878757
 20
5028.3829806235
 10
7659.8960386268
 20
5028.7892722777
 10
7660.1259072671
 20
5029.187087674
  0
LINE
  5
D5
330
1F
100
AcDbEntity
  8
0
  6
Continuous
 62
     7
370
    25
100
AcDbLine
 10
7657.9649584635
 20
5028.3751888638
 30
0.0
 11
7658.1524584635
 21
5028.3751888638
 31
0.0
  0
LINE
  5
D6
330
1F
100
AcDbEntity
  8
0
  6
Continuous
 62
     7
370
    25
100
AcDbLine
 10
7656.4649584635
 20
5028.3751888638
 30
0.0
 11
7656.6524584635
 21
5028.3751888638
 31
0.0
  0
LINE
  5
D7
330
1F
100
AcDbEntity
  8
0
  6
Continuous
 62
     7
370
    25
100
AcDbLine
 10
7654.9649584635
 20
5028.3751888638
 30
0.0
 11
7655.1524584635
 21
5028.3751888638
 31
0.0
  0
LINE
  5
D8
330
1F
100
AcDbEntity
  8
0
  6
Continuous
 62
     7
370
    25
100
AcDbLine
 10
7653.4649584635
 20
5028.3751888638
 30
0.0
 11
7653.6524584635
 21
5028.3751888638
 31
0.0
  0
LINE
  5
D9
330
1F
100
AcDbEntity
  8
0
  6
Continuous
 62
     7
370
    25
100
AcDbLine
 10
7651.9649584635
 20
5028.3751888638
 30
0.0
 11
7652.1524584635
 21
5028.3751888638
 31
0.0
  0
LINE
  5
DA
330
1F
100
AcDbEntity
  8
0
  6
Continuous
 62
     7
370
    25
100
AcDbLine
 10
7650.4649584635
 20
5028.3751888638
 30
0.0
 11
7650.6524584635
 21
5028.3751888638
 31
0.0
  0
LINE
  5
DB
330
1F
100
AcDbEntity
  8
0
  6
Continuous
 62
     7
370
    25
100
AcDbLine
 10
7648.9649584635
 20
5028.3751888638
 30
0.0
 11
7649.1524584635
 21
5028.3751888638
 31
0.0
  0
LINE
  5
DC
330
1F
100
AcDbEntity
  8
0
  6
Continuous
 62
     7
370
    25
100
AcDbLine
 10
7647.4649584635
 20
5028.3751888638
 30
0.0
 11
7647.6524584635
 21
5028.3751888638
 31
0.0
  0
LINE
  5
DD
330
1F
100
AcDbEntity
  8
0
  6
Continuous
 62
     7
370
    25
100
AcDbLine
 10
7645.9649584635
 20
5028.3751888638
 30
0.0
 11
7646.1524584635
 21
5028.3751888638
 31
0.0
  0
LINE
  5
DE
330
1F
100
AcDbEntity
  8
0
  6
Continuous
 62
     7
370
    25
100
AcDbLine
 10
7644.4649584635
 20
5028.3751888638
 30
0.0
 11
7644.6524584635
 21
5028.3751888638
 31
0.0
  0
LINE
  5
DF
330
1F
100
AcDbEntity
  8
0
  6
Continuous
 62
     7
370
    25
100
AcDbLine
 10
7642.9649584635
 20
5028.3751888638
 30
0.0
 11
7643.1524584635
 21
5028.3751888638
 31
0.0
  0
LINE
  5
E0
330
1F
100
AcDbEntity
  8
0
  6
Continuous
 62
     7
370
    25
100
AcDbLine
 10
7641.4649584635
 20
5028.3751888638
 30
0.0
 11
7641.6524584635
 21
5028.3751888638
 31
0.0
  0
LINE
  5
E1
330
1F
100
AcDbEntity
  8
0
  6
Continuous
 62
     7
370
    25
100
AcDbLine
 10
7639.9649584635
 20
5028.3751888638
 30
0.0
 11
7640.1524584635
 21
5028.3751888638
 31
0.0
  0
LINE
  5
E2
330
1F
100
AcDbEntity
  8
0
  6
Continuous
 62
     7
370
    25
100
AcDbLine
 10
7638.4649584635
 20
5028.3751888638
 30
0.0
 11
7638.6524584635
 21
5028.3751888638
 31
0.0
  0
LINE
  5
E3
330
1F
100
AcDbEntity
  8
0
  6
Continuous
 62
     7
370
    25
100
AcDbLine
 10
7636.9649584635
 20
5028.3751888638
 30
0.0
 11
7637.1524584635
 21
5028.3751888638
 31
0.0
  0
LINE
  5
E4
330
1F
100
AcDbEntity
  8
0
  6
Continuous
 62
     7
370
    25
100
AcDbLine
 10
7658.9024584635
 20
5049.1989864843
 30
0.0
 11
7658.7149584635
 21
5049.1989864843
 31
0.0
  0
LINE
  5
E5
330
1F
100
AcDbEntity
  8
0
  6
Continuous
 62
     7
370
    25
100
AcDbLine
 10
7657.4024584635
 20
5049.1989864843
 30
0.0
 11
7657.2149584635
 21
5049.1989864843
 31
0.0
  0
LINE
  5
E6
330
1F
100
AcDbEntity
  8
0
  6
Continuous
 62
     7
370
    25
100
AcDbLine
 10
7655.9024584635
 20
5049.1989864843
 30
0.0
 11
7655.7149584635
 21
5049.1989864843
 31
0.0
  0
LINE
  5
E7
330
1F
100
AcDbEntity
  8
0
  6
Continuous
 62
     7
370
    25
100
AcDbLine
 10
7654.4024584635
 20
5049.1989864843
 30
0.0
 11
7654.2149584635
 21
5049.1989864843
 31
0.0
  0
LINE
  5
E8
330
1F
100
AcDbEntity
  8
0
  6
Continuous
 62
     7
370
    25
100
AcDbLine
 10
7652.9024584635
 20
5049.1989864843
 30
0.0
 11
7652.7149584635
 21
5049.1989864843
 31
0.0
  0
LINE
  5
E9
330
1F
100
AcDbEntity
  8
0
  6
Continuous
 62
     7
370
    25
100
AcDbLine
 10
7651.4024584635
 20
5049.1989864843
 30
0.0
 11
7651.2149584635
 21
5049.1989864843
 31
0.0
  0
LINE
  5
EA
330
1F
100
AcDbEntity
  8
0
  6
Continuous
 62
     7
370
    25
100
AcDbLine
 10
7649.9024584635
 20
5049.1989864843
 30
0.0
 11
7649.7149584635
 21
5049.1989864843
 31
0.0
  0
LINE
  5
EB
330
1F
100
AcDbEntity
  8
0
  6
Continuous
 62
     7
370
    25
100
AcDbLine
 10
7648.4024584635
 20
5049.1989864843
 30
0.0
 11
7648.2149584635
 21
5049.1989864843
 31
0.0
  0
LINE
  5
EC
330
1F
100
AcDbEntity
  8
0
  6
Continuous
 62
     7
370
    25
100
AcDbLine
 10
7646.9024584635
 20
5049.1989864843
 30
0.0
 11
7646.7149584635
 21
5049.1989864843
 31
0.0
  0
LINE
  5
ED
330
1F
100
AcDbEntity
  8
0
  6
Continuous
 62
     7
370
    25
100
AcDbLine
 10
7645.4024584635
 20
5049.1989864843
 30
0.0
 11
7645.2149584635
 21
5049.1989864843
 31
0.0
  0
LINE
  5
EE
330
1F
100
AcDbEntity
  8
0
  6
Continuous
 62
     7
370
    25
100
AcDbLine
 10
7643.9024584635
 20
5049.1989864843
 30
0.0
 11
7643.7149584635
 21
5049.1989864843
 31
0.0
  0
LINE
  5
EF
330
1F
100
AcDbEntity
  8
0
  6
Continuous
 62
     7
370
    25
100
AcDbLine
 10
7642.4024584635
 20
5049.1989864843
 30
0.0
 11
7642.2149584635
 21
5049.1989864843
 31
0.0
  0
LINE
  5
F0
330
1F
100
AcDbEntity
  8
0
  6
Continuous
 62
     7
370
    25
100
AcDbLine
 10
7640.9024584635
 20
5049.1989864843
 30
0.0
 11
7640.7149584635
 21
5049.1989864843
 31
0.0
  0
LINE
  5
F1
330
1F
100
AcDbEntity
  8
0
  6
Continuous
 62
     7
370
    25
100
AcDbLine
 10
7639.4024584635
 20
5049.1989864843
 30
0.0
 11
7639.2149584635
 21
5049.1989864843
 31
0.0
  0
LINE
  5
F2
330
1F
100
AcDbEntity
  8
0
  6
Continuous
 62
     7
370
    25
100
AcDbLine
 10
7637.9024584635
 20
5049.1989864843
 30
0.0
 11
7637.7149584635
 21
5049.1989864843
 31
0.0
  0
LINE
  5
F3
330
1F
100
AcDbEntity
  8
0
  6
Continuous
 62
     7
370
    25
100
AcDbLine
 10
7660.4024584635
 20
5049.1989864843
 30
0.0
 11
7660.2149584635
 21
5049.1989864843
 31
0.0
  0
LINE
  5
F4
330
1F
100
AcDbEntity
  8
0
  6
Continuous
 62
     7
370
    25
100
AcDbLine
 10
7659.4649584635
 20
5028.3751888638
 30
0.0
 11
7659.6524584635
 21
5028.3751888638
 31
0.0
  0
LINE
  5
F5
330
1F
100
AcDbEntity
  8
0
  6
Continuous
 62
     7
370
    25
100
AcDbLine
 10
7636.646213171
 20
5048.387087674
 30
0.0
 11
7635.746213171
 21
5047.487087674
 31
0.0
  0
LINE
  5
F6
330
1F
100
AcDbEntity
  8
0
  6
Continuous
 62
     7
370
    25
100
AcDbLine
 10
7635.746213171
 20
5030.087087674
 30
0.0
 11
7636.646213171
 21
5029.187087674
 31
0.0
  0
LINE
  5
F7
330
1F
100
AcDbEntity
  8
0
  6
Continuous
 62
     7
370
    25
100
AcDbLine
 10
7660.121213171
 20
5029.187087674
 30
0.0
 11
7660.4915191526
 21
5029.187087674
 31
0.0
  0
LINE
  5
F8
330
1F
100
AcDbEntity
  8
0
  6
Continuous
 62
     7
370
    25
100
AcDbLine
 10
7658.621213171
 20
5029.187087674
 30
0.0
 11
7658.9915191526
 21
5029.187087674
 31
0.0
  0
LINE
  5
F9
330
1F
100
AcDbEntity
  8
0
  6
Continuous
 62
     7
370
    25
100
AcDbLine
 10
7657.121213171
 20
5029.187087674
 30
0.0
 11
7657.4915191526
 21
5029.187087674
 31
0.0
  0
LINE
  5
FA
330
1F
100
AcDbEntity
  8
0
  6
Continuous
 62
     7
370
    25
100
AcDbLine
 10
7655.621213171
 20
5029.187087674
 30
0.0
 11
7655.9915191526
 21
5029.187087674
 31
0.0
  0
LINE
  5
FB
330
1F
100
AcDbEntity
  8
0
  6
Continuous
 62
     7
370
    25
100
AcDbLine
 10
7654.121213171
 20
5029.187087674
 30
0.0
 11
7654.4915191526
 21
5029.187087674
 31
0.0
  0
LINE
  5
FC
330
1F
100
AcDbEntity
  8
0
  6
Continuous
 62
     7
370
    25
100
AcDbLine
 10
7652.621213171
 20
5029.187087674
 30
0.0
 11
7652.9915191526
 21
5029.187087674
 31
0.0
  0
LINE
  5
FD
330
1F
100
AcDbEntity
  8
0
  6
Continuous
 62
     7
370
    25
100
AcDbLine
 10
7651.121213171
 20
5029.187087674
 30
0.0
 11
7651.4915191526
 21
5029.187087674
 31
0.0
  0
LINE
  5
FE
330
1F
100
AcDbEntity
  8
0
  6
Continuous
 62
     7
370
    25
100
AcDbLine
 10
7649.621213171
 20
5029.187087674
 30
0.0
 11
7649.9915191526
 21
5029.187087674
 31
0.0
  0
LINE
  5
FF
330
1F
100
AcDbEntity
  8
0
  6
Continuous
 62
     7
370
    25
100
AcDbLine
 10
7648.121213171
 20
5029.187087674
 30
0.0
 11
7648.4915191526
 21
5029.187087674
 31
0.0
  0
LINE
  5
100
330
1F
100
AcDbEntity
  8
0
  6
Continuous
 62
     7
370
    25
100
AcDbLine
 10
7646.621213171
 20
5029.187087674
 30
0.0
 11
7646.9915191526
 21
5029.187087674
 31
0.0
  0
LINE
  5
101
330
1F
100
AcDbEntity
  8
0
  6
Continuous
 62
     7
370
    25
100
AcDbLine
 10
7645.121213171
 20
5029.187087674
 30
0.0
 11
7645.4915191526
 21
5029.187087674
 31
0.0
  0
LINE
  5
102
330
1F
100
AcDbEntity
  8
0
  6
Continuous
 62
     7
370
    25
100
AcDbLine
 10
7643.621213171
 20
5029.187087674
 30
0.0
 11
7643.9915191526
 21
5029.187087674
 31
0.0
  0
LINE
  5
103
330
1F
100
AcDbEntity
  8
0
  6
Continuous
 62
     7
370
    25
100
AcDbLine
 10
7642.121213171
 20
5029.187087674
 30
0.0
 11
7642.4915191526
 21
5029.187087674
 31
0.0
  0
LINE
  5
104
330
1F
100
AcDbEntity
  8
0
  6
Continuous
 62
     7
370
    25
100
AcDbLine
 10
7640.621213171
 20
5029.187087674
 30
0.0
 11
7640.9915191526
 21
5029.187087674
 31
0.0
  0
LINE
  5
105
330
1F
100
AcDbEntity
  8
0
  6
Continuous
 62
     7
370
    25
100
AcDbLine
 10
7639.121213171
 20
5029.187087674
 30
0.0
 11
7639.4915191526
 21
5029.187087674
 31
0.0
  0
LINE
  5
106
330
1F
100
AcDbEntity
  8
0
  6
Continuous
 62
     7
370
    25
100
AcDbLine
 10
7637.621213171
 20
5029.187087674
 30
0.0
 11
7637.9915191526
 21
5029.187087674
 31
0.0
  0
LINE
  5
107
330
1F
100
AcDbEntity
  8
0
  6
Continuous
 62
     7
370
    25
100
AcDbLine
 10
7636.646213171
 20
5029.187087674
 30
0.0
 11
7636.746213171
 21
5029.187087674
 31
0.0
  0
LINE
  5
108
330
1F
100
AcDbEntity
  8
0
  6
Continuous
 62
     7
370
    25
100
AcDbLine
 10
7636.746213171
 20
5048.387087674
 30
0.0
 11
7636.646213171
 21
5048.387087674
 31
0.0
  0
LINE
  5
109
330
1F
100
AcDbEntity
  8
0
  6
Continuous
 62
     7
370
    25
100
AcDbLine
 10
7637.2462131751
 20
5048.387087674
 30
0.0
 11
7636.8759072671
 21
5048.387087674
 31
0.0
  0
LINE
  5
10A
330
1F
100
AcDbEntity
  8
0
  6
Continuous
 62
     7
370
    25
100
AcDbLine
 10
7638.7462131751
 20
5048.387087674
 30
0.0
 11
7638.3759072671
 21
5048.387087674
 31
0.0
  0
LINE
  5
10B
330
1F
100
AcDbEntity
  8
0
  6
Continuous
 62
     7
370
    25
100
AcDbLine
 10
7640.2462131751
 20
5048.387087674
 30
0.0
 11
7639.8759072671
 21
5048.387087674
 31
0.0
  0
LINE
  5
10C
330
1F
100
AcDbEntity
  8
0
  6
Continuous
 62
     7
370
    25
100
AcDbLine
 10
7641.7462131751
 20
5048.387087674
 30
0.0
 11
7641.3759072671
 21
5048.387087674
 31
0.0
  0
LINE
  5
10D
330
1F
100
AcDbEntity
  8
0
  6
Continuous
 62
     7
370
    25
100
AcDbLine
 10
7643.2462131751
 20
5048.387087674
 30
0.0
 11
7642.8759072671
 21
5048.387087674
 31
0.0
  0
LINE
  5
10E
330
1F
100
AcDbEntity
  8
0
  6
Continuous
 62
     7
370
    25
100
AcDbLine
 10
7644.7462131751
 20
5048.387087674
 30
0.0
 11
7644.3759072671
 21
5048.387087674
 31
0.0
  0
LINE
  5
10F
330
1F
100
AcDbEntity
  8
0
  6
Continuous
 62
     7
370
    25
100
AcDbLine
 10
7646.2462131751
 20
5048.387087674
 30
0.0
 11
7645.8759072671
 21
5048.387087674
 31
0.0
  0
LINE
  5
110
330
1F
100
AcDbEntity
  8
0
  6
Continuous
 62
     7
370
    25
100
AcDbLine
 10
7647.7462131751
 20
5048.387087674
 30
0.0
 11
7647.3759072671
 21
5048.387087674
 31
0.0
  0
LINE
  5
111
330
1F
100
AcDbEntity
  8
0
  6
Continuous
 62
     7
370
    25
100
AcDbLine
 10
7649.2462131751
 20
5048.387087674
 30
0.0
 11
7648.8759072671
 21
5048.387087674
 31
0.0
  0
LINE
  5
112
330
1F
100
AcDbEntity
  8
0
  6
Continuous
 62
     7
370
    25
100
AcDbLine
 10
7650.7462131751
 20
5048.387087674
 30
0.0
 11
7650.3759072671
 21
5048.387087674
 31
0.0
  0
LINE
  5
113
330
1F
100
AcDbEntity
  8
0
  6
Continuous
 62
     7
370
    25
100
AcDbLine
 10
7652.2462131751
 20
5048.387087674
 30
0.0
 11
7651.8759072671
 21
5048.387087674
 31
0.0
  0
LINE
  5
114
330
1F
100
AcDbEntity
  8
0
  6
Continuous
 62
     7
370
    25
100
AcDbLine
 10
7653.7462131751
 20
5048.387087674
 30
0.0
 11
7653.3759072671
 21
5048.387087674
 31
0.0
  0
LINE
  5
115
330
1F
100
AcDbEntity
  8
0
  6
Continuous
 62
     7
370
    25
100
AcDbLine
 10
7655.2462131751
 20
5048.387087674
 30
0.0
 11
7654.8759072671
 21
5048.387087674
 31
0.0
  0
LINE
  5
116
330
1F
100
AcDbEntity
  8
0
  6
Continuous
 62
     7
370
    25
100
AcDbLine
 10
7656.7462131751
 20
5048.387087674
 30
0.0
 11
7656.3759072671
 21
5048.387087674
 31
0.0
  0
LINE
  5
117
330
1F
100
AcDbEntity
  8
0
  6
Continuous
 62
     7
370
    25
100
AcDbLine
 10
7658.2462131751
 20
5048.387087674
 30
0.0
 11
7657.8759072671
 21
5048.387087674
 31
0.0
  0
LINE
  5
118
330
1F
100
AcDbEntity
  8
0
  6
Continuous
 62
     7
370
    25
100
AcDbLine
 10
7659.7462131751
 20
5048.387087674
 30
0.0
 11
7659.3759072671
 21
5048.387087674
 31
0.0
  0
LINE
  5
119
330
1F
100
AcDbEntity
  8
0
  6
Continuous
 62
     7
370
    25
100
AcDbLine
 10
7702.746213171
 20
5060.787087674
 30
0.0
 11
7702.746213171
 21
5016.787087674
 31
0.0
  0
LINE
  5
11A
330
1F
100
AcDbEntity
  8
0
  6
Continuous
 62
     7
370
    25
100
AcDbLine
 10
7705.246213171
 20
5060.0178569048
 30
0.0
 11
7705.246213171
 21
5017.5563184432
 31
0.0
  0
LINE
  5
11B
330
1F
100
AcDbEntity
  8
0
  6
Continuous
 62
     7
370
    25
100
AcDbLine
 10
7711.746213171
 20
5058.0178569048
 30
0.0
 11
7711.746213171
 21
5019.5563184432
 31
0.0
  0
LINE
  5
11C
330
1F
100
AcDbEntity
  8
0
  6
Continuous
 62
     7
370
    25
100
AcDbLine
 10
7709.246213171
 20
5058.787087674
 30
0.0
 11
7709.246213171
 21
5018.787087674
 31
0.0
  0
LINE
  5
11D
330
1F
100
AcDbEntity
  8
0
  6
Continuous
 62
     7
370
    25
100
AcDbLine
 10
7689.746213171
 20
5055.787087674
 30
0.0
 11
7689.746213171
 21
5021.787087674
 31
0.0
  0
LINE
  5
11E
330
1F
100
AcDbEntity
  8
0
  6
Continuous
 62
     7
370
    25
100
AcDbLine
 10
7695.746213171
 20
5055.787087674
 30
0.0
 11
7695.746213171
 21
5021.787087674
 31
0.0
  0
LINE
  5
11F
330
1F
100
AcDbEntity
  8
0
  6
Continuous
 62
     7
370
    25
100
AcDbLine
 10
7665.746213171
 20
5038.787087674
 30
0.0
 11
7660.746213171
 21
5038.787087674
 31
0.0
  0
LINE
  5
120
330
1F
100
AcDbEntity
  8
0
  6
Continuous
 62
     7
370
    25
100
AcDbLine
 10
7665.746213171
 20
5027.787087674
 30
0.0
 11
7665.746213171
 21
5038.787087674
 31
0.0
  0
LINE
  5
121
330
1F
100
AcDbEntity
  8
0
  6
Continuous
 62
     7
370
    25
100
AcDbLine
 10
7665.746213171
 20
5027.787087674
 30
0.0
 11
7660.746213171
 21
5027.787087674
 31
0.0
  0
LINE
  5
122
330
1F
100
AcDbEntity
  8
0
  6
Continuous
 62
     7
370
    25
100
AcDbLine
 10
7660.746213171
 20
5027.787087674
 30
0.0
 11
7660.746213171
 21
5038.787087674
 31
0.0
  0
LINE
  5
123
330
1F
100
AcDbEntity
  8
0
  6
Continuous
 62
     7
370
    25
100
AcDbLine
 10
7665.746213171
 20
5049.787087674
 30
0.0
 11
7660.746213171
 21
5049.787087674
 31
0.0
  0
LINE
  5
124
330
1F
100
AcDbEntity
  8
0
  6
Continuous
 62
     7
370
    25
100
AcDbLine
 10
7665.746213171
 20
5038.787087674
 30
0.0
 11
7665.746213171
 21
5049.787087674
 31
0.0
  0
LINE
  5
125
330
1F
100
AcDbEntity
  8
0
  6
Continuous
 62
     7
370
    25
100
AcDbLine
 10
7660.746213171
 20
5038.787087674
 30
0.0
 11
7660.746213171
 21
5049.787087674
 31
0.0
  0
LINE
  5
126
330
1F
100
AcDbEntity
  8
0
  6
Continuous
 62
     7
370
    25
100
AcDbLine
 10
7713.746213171
 20
5050.787087674
 30
0.0
 11
7713.746213171
 21
5026.787087674
 31
0.0
  0
LWPOLYLINE
  5
127
330
1F
100
AcDbEntity
  8
0
  6
Continuous
 62
     7
370
    25
100
AcDbPolyline
 90
       19
 70
   128
 43
0.0
 10
7660.746213171
 20
5032.4803691067
 10
7660.714934688
 20
5033.6091816089
 10
7660.6828603432
 20
5034.8361376302
 10
7660.6508079434
 20
5036.1307802593
 10
7660.6195934428
 20
5037.459232551
 10
7660.589963173
 20
5038.787087674
 10
7660.5600632559
 20
5040.1267173512
 10
7660.5285574216
 20
5041.4666484094
 10
7660.496213173
 20
5042.771548849
 10
7660.4638689245
 20
5044.0066894324
 10
7660.4323630902
 20
5045.1409574947
 10
7660.402463173
 20
5046.1494119294
 10
7660.3725632559
 20
5047.0354799527
 10
7660.3410574216
 20
5047.7961605656
 10
7660.308713173
 20
5048.4064278815
 10
7660.2763689245
 20
5048.8482800063
 10
7660.2448630902
 20
5049.1124462252
 10
7660.214963173
 20
5049.1989864865
 10
7660.205973424
 20
5049.1729671758
  0
LWPOLYLINE
  5
128
330
1F
100
AcDbEntity
  8
0
  6
Continuous
 62
     7
370
    25
100
AcDbPolyline
 90
       26
 70
   128
 43
0.0
 10
7659.455973424
 20
5028.4012081722
 10
7659.4350632559
 20
5028.4617291229
 10
7659.4035574216
 20
5028.7258953417
 10
7659.371213173
 20
5029.1677474666
 10
7659.3388689245
 20
5029.7780147824
 10
7659.3073630902
 20
5030.5386953953
 10
7659.277463173
 20
5031.4247634187
 10
7659.246213171
 20
5032.4803691067
 10
7659.214934688
 20
5033.6091816089
 10
7659.1828603432
 20
5034.8361376302
 10
7659.1508079434
 20
5036.1307802593
 10
7659.1195934428
 20
5037.459232551
 10
7659.089963173
 20
5038.787087674
 10
7659.0600632559
 20
5040.1267173512
 10
7659.0285574216
 20
5041.4666484094
 10
7658.996213173
 20
5042.771548849
 10
7658.9638689245
 20
5044.0066894324
 10
7658.9323630902
 20
5045.1409574947
 10
7658.902463173
 20
5046.1494119294
 10
7658.8725632559
 20
5047.0354799527
 10
7658.8410574216
 20
5047.7961605656
 10
7658.808713173
 20
5048.4064278815
 10
7658.7763689245
 20
5048.8482800063
 10
7658.7448630902
 20
5049.1124462252
 10
7658.714963173
 20
5049.1989864865
 10
7658.705973424
 20
5049.1729671758
  0
LWPOLYLINE
  5
129
330
1F
100
AcDbEntity
  8
0
  6
Continuous
 62
     7
370
    25
100
AcDbPolyline
 90
       26
 70
   128
 43
0.0
 10
7657.955973424
 20
5028.4012081722
 10
7657.9350632559
 20
5028.4617291229
 10
7657.9035574216
 20
5028.7258953417
 10
7657.871213173
 20
5029.1677474666
 10
7657.8388689245
 20
5029.7780147824
 10
7657.8073630902
 20
5030.5386953953
 10
7657.777463173
 20
5031.4247634187
 10
7657.746213171
 20
5032.4803691067
 10
7657.714934688
 20
5033.6091816089
 10
7657.6828603432
 20
5034.8361376302
 10
7657.6508079434
 20
5036.1307802593
 10
7657.6195934428
 20
5037.459232551
 10
7657.589963173
 20
5038.787087674
 10
7657.5600632559
 20
5040.1267173512
 10
7657.5285574216
 20
5041.4666484094
 10
7657.496213173
 20
5042.771548849
 10
7657.4638689245
 20
5044.0066894324
 10
7657.4323630902
 20
5045.1409574947
 10
7657.402463173
 20
5046.1494119294
 10
7657.3725632559
 20
5047.0354799527
 10
7657.3410574216
 20
5047.7961605656
 10
7657.308713173
 20
5048.4064278815
 10
7657.2763689245
 20
5048.8482800063
 10
7657.2448630902
 20
5049.1124462252
 10
7657.214963173
 20
5049.1989864865
 10
7657.205973424
 20
5049.1729671758
  0
LWPOLYLINE
  5
12A
330
1F
100
AcDbEntity
  8
0
  6
Continuous
 62
     7
370
    25
100
AcDbPolyline
 90
       26
 70
   128
 43
0.0
 10
7656.455973424
 20
5028.4012081722
 10
7656.4350632559
 20
5028.4617291229
 10
7656.4035574216
 20
5028.7258953417
 10
7656.371213173
 20
5029.1677474666
 10
7656.3388689245
 20
5029.7780147824
 10
7656.3073630902
 20
5030.5386953953
 10
7656.277463173
 20
5031.4247634187
 10
7656.246213171
 20
5032.4803691067
 10
7656.214934688
 20
5033.6091816089
 10
7656.1828603432
 20
5034.8361376302
 10
7656.1508079434
 20
5036.1307802593
 10
7656.1195934428
 20
5037.459232551
 10
7656.089963173
 20
5038.787087674
 10
7656.0600632559
 20
5040.1267173512
 10
7656.0285574216
 20
5041.4666484094
 10
7655.996213173
 20
5042.771548849
 10
7655.9638689245
 20
5044.0066894324
 10
7655.9323630902
 20
5045.1409574947
 10
7655.902463173
 20
5046.1494119294
 10
7655.8725632559
 20
5047.0354799527
 10
7655.8410574216
 20
5047.7961605656
 10
7655.808713173
 20
5048.4064278815
 10
7655.7763689245
 20
5048.8482800063
 10
7655.7448630902
 20
5049.1124462252
 10
7655.714963173
 20
5049.1989864865
 10
7655.705973424
 20
5049.1729671758
  0
LWPOLYLINE
  5
12B
330
1F
100
AcDbEntity
  8
0
  6
Continuous
 62
     7
370
    25
100
AcDbPolyline
 90
       26
 70
   128
 43
0.0
 10
7654.955973424
 20
5028.4012081722
 10
7654.9350632559
 20
5028.4617291229
 10
7654.9035574216
 20
5028.7258953417
 10
7654.871213173
 20
5029.1677474666
 10
7654.8388689245
 20
5029.7780147824
 10
7654.8073630902
 20
5030.5386953953
 10
7654.777463173
 20
5031.4247634187
 10
7654.746213171
 20
5032.4803691067
 10
7654.714934688
 20
5033.6091816089
 10
7654.6828603432
 20
5034.8361376302
 10
7654.6508079434
 20
5036.1307802593
 10
7654.6195934428
 20
5037.459232551
 10
7654.589963173
 20
5038.787087674
 10
7654.5600632559
 20
5040.1267173512
 10
7654.5285574216
 20
5041.4666484094
 10
7654.496213173
 20
5042.771548849
 10
7654.4638689245
 20
5044.0066894324
 10
7654.4323630902
 20
5045.1409574947
 10
7654.402463173
 20
5046.1494119294
 10
7654.3725632559
 20
5047.0354799527
 10
7654.3410574216
 20
5047.7961605656
 10
7654.308713173
 20
5048.4064278815
 10
7654.2763689245
 20
5048.8482800063
 10
7654.2448630902
 20
5049.1124462252
 10
7654.214963173
 20
5049.1989864865
 10
7654.205973424
 20
5049.1729671758
  0
LWPOLYLINE
  5
12C
330
1F
100
AcDbEntity
  8
0
  6
Continuous
 62
     7
370
    25
100
AcDbPolyline
 90
       26
 70
   128
 43
0.0
 10
7653.455973424
 20
5028.4012081722
 10
7653.4350632559
 20
5028.4617291229
 10
7653.4035574216
 20
5028.7258953417
 10
7653.371213173
 20
5029.1677474666
 10
7653.3388689245
 20
5029.7780147824
 10
7653.3073630902
 20
5030.5386953953
 10
7653.277463173
 20
5031.4247634187
 10
7653.246213171
 20
5032.4803691067
 10
7653.214934688
 20
5033.6091816089
 10
7653.1828603432
 20
5034.8361376302
 10
7653.1508079434
 20
5036.1307802593
 10
7653.1195934428
 20
5037.459232551
 10
7653.089963173
 20
5038.787087674
 10
7653.0600632559
 20
5040.1267173512
 10
7653.0285574216
 20
5041.4666484094
 10
7652.996213173
 20
5042.771548849
 10
7652.9638689245
 20
5044.0066894324
 10
7652.9323630902
 20
5045.1409574947
 10
7652.902463173
 20
5046.1494119294
 10
7652.8725632559
 20
5047.0354799527
 10
7652.8410574216
 20
5047.7961605656
 10
7652.808713173
 20
5048.4064278815
 10
7652.7763689245
 20
5048.8482800063
 10
7652.7448630902
 20
5049.1124462252
 10
7652.714963173
 20
5049.1989864865
 10
7652.705973424
 20
5049.1729671758
  0
LWPOLYLINE
  5
12D
330
1F
100
AcDbEntity
  8
0
  6
Continuous
 62
     7
370
    25
100
AcDbPolyline
 90
       26
 70
   128
 43
0.0
 10
7651.955973424
 20
5028.4012081722
 10
7651.9350632559
 20
5028.4617291229
 10
7651.9035574216
 20
5028.7258953417
 10
7651.871213173
 20
5029.1677474666
 10
7651.8388689245
 20
5029.7780147824
 10
7651.8073630902
 20
5030.5386953953
 10
7651.777463173
 20
5031.4247634187
 10
7651.746213171
 20
5032.4803691067
 10
7651.714934688
 20
5033.6091816089
 10
7651.6828603432
 20
5034.8361376302
 10
7651.6508079434
 20
5036.1307802593
 10
7651.6195934428
 20
5037.459232551
 10
7651.589963173
 20
5038.787087674
 10
7651.5600632559
 20
5040.1267173512
 10
7651.5285574216
 20
5041.4666484094
 10
7651.496213173
 20
5042.771548849
 10
7651.4638689245
 20
5044.0066894324
 10
7651.4323630902
 20
5045.1409574947
 10
7651.402463173
 20
5046.1494119294
 10
7651.3725632559
 20
5047.0354799527
 10
7651.3410574216
 20
5047.7961605656
 10
7651.308713173
 20
5048.4064278815
 10
7651.2763689245
 20
5048.8482800063
 10
7651.2448630902
 20
5049.1124462252
 10
7651.214963173
 20
5049.1989864865
 10
7651.205973424
 20
5049.1729671758
  0
LWPOLYLINE
  5
12E
330
1F
100
AcDbEntity
  8
0
  6
Continuous
 62
     7
370
    25
100
AcDbPolyline
 90
       26
 70
   128
 43
0.0
 10
7650.455973424
 20
5028.4012081722
 10
7650.4350632559
 20
5028.4617291229
 10
7650.4035574216
 20
5028.7258953417
 10
7650.371213173
 20
5029.1677474666
 10
7650.3388689245
 20
5029.7780147824
 10
7650.3073630902
 20
5030.5386953953
 10
7650.277463173
 20
5031.4247634187
 10
7650.246213171
 20
5032.4803691067
 10
7650.214934688
 20
5033.6091816089
 10
7650.1828603432
 20
5034.8361376302
 10
7650.1508079434
 20
5036.1307802593
 10
7650.1195934428
 20
5037.459232551
 10
7650.089963173
 20
5038.787087674
 10
7650.0600632559
 20
5040.1267173512
 10
7650.0285574216
 20
5041.4666484094
 10
7649.996213173
 20
5042.771548849
 10
7649.9638689245
 20
5044.0066894324
 10
7649.9323630902
 20
5045.1409574947
 10
7649.902463173
 20
5046.1494119294
 10
7649.8725632559
 20
5047.0354799527
 10
7649.8410574216
 20
5047.7961605656
 10
7649.808713173
 20
5048.4064278815
 10
7649.7763689245
 20
5048.8482800063
 10
7649.7448630902
 20
5049.1124462252
 10
7649.714963173
 20
5049.1989864865
 10
7649.705973424
 20
5049.1729671758
  0
LWPOLYLINE
  5
12F
330
1F
100
AcDbEntity
  8
0
  6
Continuous
 62
     7
370
    25
100
AcDbPolyline
 90
       26
 70
   128
 43
0.0
 10
7648.955973424
 20
5028.4012081722
 10
7648.9350632559
 20
5028.4617291229
 10
7648.9035574216
 20
5028.7258953417
 10
7648.871213173
 20
5029.1677474666
 10
7648.8388689245
 20
5029.7780147824
 10
7648.8073630902
 20
5030.5386953953
 10
7648.777463173
 20
5031.4247634187
 10
7648.746213171
 20
5032.4803691067
 10
7648.714934688
 20
5033.6091816089
 10
7648.6828603432
 20
5034.8361376302
 10
7648.6508079434
 20
5036.1307802593
 10
7648.6195934428
 20
5037.459232551
 10
7648.589963173
 20
5038.787087674
 10
7648.5600632559
 20
5040.1267173512
 10
7648.5285574216
 20
5041.4666484094
 10
7648.496213173
 20
5042.771548849
 10
7648.4638689245
 20
5044.0066894324
 10
7648.4323630902
 20
5045.1409574947
 10
7648.402463173
 20
5046.1494119294
 10
7648.3725632559
 20
5047.0354799527
 10
7648.3410574216
 20
5047.7961605656
 10
7648.308713173
 20
5048.4064278815
 10
7648.2763689245
 20
5048.8482800063
 10
7648.2448630902
 20
5049.1124462252
 10
7648.214963173
 20
5049.1989864865
 10
7648.205973424
 20
5049.1729671758
  0
LWPOLYLINE
  5
130
330
1F
100
AcDbEntity
  8
0
  6
Continuous
 62
     7
370
    25
100
AcDbPolyline
 90
       26
 70
   128
 43
0.0
 10
7647.455973424
 20
5028.4012081722
 10
7647.4350632559
 20
5028.4617291229
 10
7647.4035574216
 20
5028.7258953417
 10
7647.371213173
 20
5029.1677474666
 10
7647.3388689245
 20
5029.7780147824
 10
7647.3073630902
 20
5030.5386953953
 10
7647.277463173
 20
5031.4247634187
 10
7647.246213171
 20
5032.4803691067
 10
7647.214934688
 20
5033.6091816089
 10
7647.1828603432
 20
5034.8361376302
 10
7647.1508079434
 20
5036.1307802593
 10
7647.1195934428
 20
5037.459232551
 10
7647.089963173
 20
5038.787087674
 10
7647.0600632559
 20
5040.1267173512
 10
7647.0285574216
 20
5041.4666484094
 10
7646.996213173
 20
5042.771548849
 10
7646.9638689245
 20
5044.0066894324
 10
7646.9323630902
 20
5045.1409574947
 10
7646.902463173
 20
5046.1494119294
 10
7646.8725632559
 20
5047.0354799527
 10
7646.8410574216
 20
5047.7961605656
 10
7646.808713173
 20
5048.4064278815
 10
7646.7763689245
 20
5048.8482800063
 10
7646.7448630902
 20
5049.1124462252
 10
7646.714963173
 20
5049.1989864865
 10
7646.705973424
 20
5049.1729671758
  0
LWPOLYLINE
  5
131
330
1F
100
AcDbEntity
  8
0
  6
Continuous
 62
     7
370
    25
100
AcDbPolyline
 90
       26
 70
   128
 43
0.0
 10
7645.955973424
 20
5028.4012081722
 10
7645.9350632559
 20
5028.4617291229
 10
7645.9035574216
 20
5028.7258953417
 10
7645.871213173
 20
5029.1677474666
 10
7645.8388689245
 20
5029.7780147824
 10
7645.8073630902
 20
5030.5386953953
 10
7645.777463173
 20
5031.4247634187
 10
7645.746213171
 20
5032.4803691067
 10
7645.714934688
 20
5033.6091816089
 10
7645.6828603432
 20
5034.8361376302
 10
7645.6508079434
 20
5036.1307802593
 10
7645.6195934428
 20
5037.459232551
 10
7645.589963173
 20
5038.787087674
 10
7645.5600632559
 20
5040.1267173512
 10
7645.5285574216
 20
5041.4666484094
 10
7645.496213173
 20
5042.771548849
 10
7645.4638689245
 20
5044.0066894324
 10
7645.4323630902
 20
5045.1409574947
 10
7645.402463173
 20
5046.1494119294
 10
7645.3725632559
 20
5047.0354799527
 10
7645.3410574216
 20
5047.7961605656
 10
7645.308713173
 20
5048.4064278815
 10
7645.2763689245
 20
5048.8482800063
 10
7645.2448630902
 20
5049.1124462252
 10
7645.214963173
 20
5049.1989864865
 10
7645.205973424
 20
5049.1729671758
  0
LWPOLYLINE
  5
132
330
1F
100
AcDbEntity
  8
0
  6
Continuous
 62
     7
370
    25
100
AcDbPolyline
 90
       26
 70
   128
 43
0.0
 10
7644.455973424
 20
5028.4012081722
 10
7644.4350632559
 20
5028.4617291229
 10
7644.4035574216
 20
5028.7258953417
 10
7644.371213173
 20
5029.1677474666
 10
7644.3388689245
 20
5029.7780147824
 10
7644.3073630902
 20
5030.5386953953
 10
7644.277463173
 20
5031.4247634187
 10
7644.246213171
 20
5032.4803691067
 10
7644.214934688
 20
5033.6091816089
 10
7644.1828603432
 20
5034.8361376302
 10
7644.1508079434
 20
5036.1307802593
 10
7644.1195934428
 20
5037.459232551
 10
7644.089963173
 20
5038.787087674
 10
7644.0600632559
 20
5040.1267173512
 10
7644.0285574216
 20
5041.4666484094
 10
7643.996213173
 20
5042.771548849
 10
7643.9638689245
 20
5044.0066894324
 10
7643.9323630902
 20
5045.1409574947
 10
7643.902463173
 20
5046.1494119294
 10
7643.8725632559
 20
5047.0354799527
 10
7643.8410574216
 20
5047.7961605656
 10
7643.808713173
 20
5048.4064278815
 10
7643.7763689245
 20
5048.8482800063
 10
7643.7448630902
 20
5049.1124462252
 10
7643.714963173
 20
5049.1989864865
 10
7643.705973424
 20
5049.1729671758
  0
LWPOLYLINE
  5
133
330
1F
100
AcDbEntity
  8
0
  6
Continuous
 62
     7
370
    25
100
AcDbPolyline
 90
       26
 70
   128
 43
0.0
 10
7642.955973424
 20
5028.4012081722
 10
7642.9350632559
 20
5028.4617291229
 10
7642.9035574216
 20
5028.7258953417
 10
7642.871213173
 20
5029.1677474666
 10
7642.8388689245
 20
5029.7780147824
 10
7642.8073630902
 20
5030.5386953953
 10
7642.777463173
 20
5031.4247634187
 10
7642.746213171
 20
5032.4803691067
 10
7642.714934688
 20
5033.6091816089
 10
7642.6828603432
 20
5034.8361376302
 10
7642.6508079434
 20
5036.1307802593
 10
7642.6195934428
 20
5037.459232551
 10
7642.589963173
 20
5038.787087674
 10
7642.5600632559
 20
5040.1267173512
 10
7642.5285574216
 20
5041.4666484094
 10
7642.496213173
 20
5042.771548849
 10
7642.4638689245
 20
5044.0066894324
 10
7642.4323630902
 20
5045.1409574947
 10
7642.402463173
 20
5046.1494119294
 10
7642.3725632559
 20
5047.0354799527
 10
7642.3410574216
 20
5047.7961605656
 10
7642.308713173
 20
5048.4064278815
 10
7642.2763689245
 20
5048.8482800063
 10
7642.2448630902
 20
5049.1124462252
 10
7642.214963173
 20
5049.1989864865
 10
7642.205973424
 20
5049.1729671758
  0
LWPOLYLINE
  5
134
330
1F
100
AcDbEntity
  8
0
  6
Continuous
 62
     7
370
    25
100
AcDbPolyline
 90
       26
 70
   128
 43
0.0
 10
7641.455973424
 20
5028.4012081722
 10
7641.4350632559
 20
5028.4617291229
 10
7641.4035574216
 20
5028.7258953417
 10
7641.371213173
 20
5029.1677474666
 10
7641.3388689245
 20
5029.7780147824
 10
7641.3073630902
 20
5030.5386953953
 10
7641.277463173
 20
5031.4247634187
 10
7641.246213171
 20
5032.4803691067
 10
7641.214934688
 20
5033.6091816089
 10
7641.1828603432
 20
5034.8361376302
 10
7641.1508079434
 20
5036.1307802593
 10
7641.1195934428
 20
5037.459232551
 10
7641.089963173
 20
5038.787087674
 10
7641.0600632559
 20
5040.1267173512
 10
7641.0285574216
 20
5041.4666484094
 10
7640.996213173
 20
5042.771548849
 10
7640.9638689245
 20
5044.0066894324
 10
7640.9323630902
 20
5045.1409574947
 10
7640.902463173
 20
5046.1494119294
 10
7640.8725632559
 20
5047.0354799527
 10
7640.8410574216
 20
5047.7961605656
 10
7640.808713173
 20
5048.4064278815
 10
7640.7763689245
 20
5048.8482800063
 10
7640.7448630902
 20
5049.1124462252
 10
7640.714963173
 20
5049.1989864865
 10
7640.705973424
 20
5049.1729671758
  0
LWPOLYLINE
  5
135
330
1F
100
AcDbEntity
  8
0
  6
Continuous
 62
     7
370
    25
100
AcDbPolyline
 90
       26
 70
   128
 43
0.0
 10
7639.955973424
 20
5028.4012081722
 10
7639.9350632559
 20
5028.4617291229
 10
7639.9035574216
 20
5028.7258953417
 10
7639.871213173
 20
5029.1677474666
 10
7639.8388689245
 20
5029.7780147824
 10
7639.8073630902
 20
5030.5386953953
 10
7639.777463173
 20
5031.4247634187
 10
7639.746213171
 20
5032.4803691067
 10
7639.714934688
 20
5033.6091816089
 10
7639.6828603432
 20
5034.8361376302
 10
7639.6508079434
 20
5036.1307802593
 10
7639.6195934428
 20
5037.459232551
 10
7639.589963173
 20
5038.787087674
 10
7639.5600632559
 20
5040.1267173512
 10
7639.5285574216
 20
5041.4666484094
 10
7639.496213173
 20
5042.771548849
 10
7639.4638689245
 20
5044.0066894324
 10
7639.4323630902
 20
5045.1409574947
 10
7639.402463173
 20
5046.1494119294
 10
7639.3725632559
 20
5047.0354799527
 10
7639.3410574216
 20
5047.7961605656
 10
7639.308713173
 20
5048.4064278815
 10
7639.2763689245
 20
5048.8482800063
 10
7639.2448630902
 20
5049.1124462252
 10
7639.214963173
 20
5049.1989864865
 10
7639.205973424
 20
5049.1729671758
  0
LWPOLYLINE
  5
136
330
1F
100
AcDbEntity
  8
0
  6
Continuous
 62
     7
370
    25
100
AcDbPolyline
 90
       26
 70
   128
 43
0.0
 10
7638.455973424
 20
5028.4012081722
 10
7638.4350632559
 20
5028.4617291229
 10
7638.4035574216
 20
5028.7258953417
 10
7638.371213173
 20
5029.1677474666
 10
7638.3388689245
 20
5029.7780147824
 10
7638.3073630902
 20
5030.5386953953
 10
7638.277463173
 20
5031.4247634187
 10
7638.246213171
 20
5032.4803691067
 10
7638.214934688
 20
5033.6091816089
 10
7638.1828603432
 20
5034.8361376302
 10
7638.1508079434
 20
5036.1307802593
 10
7638.1195934428
 20
5037.459232551
 10
7638.089963173
 20
5038.787087674
 10
7638.0600632559
 20
5040.1267173512
 10
7638.0285574216
 20
5041.4666484094
 10
7637.996213173
 20
5042.771548849
 10
7637.9638689245
 20
5044.0066894324
 10
7637.9323630902
 20
5045.1409574947
 10
7637.902463173
 20
5046.1494119294
 10
7637.8725632559
 20
5047.0354799527
 10
7637.8410574216
 20
5047.7961605656
 10
7637.808713173
 20
5048.4064278815
 10
7637.7763689245
 20
5048.8482800063
 10
7637.7448630902
 20
5049.1124462252
 10
7637.714963173
 20
5049.1989864865
 10
7637.705973424
 20
5049.1729671758
  0
ARC
  5
137
330
1F
100
AcDbEntity
  8
0
  6
Continuous
 62
     7
370
    25
100
AcDbCircle
 10
7679.1446227017
 20
5032.6156235061
 30
0.0
 40
42.39862526648835
100
AcDbArc
 50
180.1827776099
 51
185.7046099785
  0
LWPOLYLINE
  5
138
330
1F
100
AcDbEntity
  8
0
  6
Continuous
 62
     7
370
    25
100
AcDbPolyline
 90
       21
 70
   128
 43
0.0
 10
7660.4864621985
 20
5029.2182294852
 10
7660.4601175521
 20
5029.3023666999
 10
7660.4219242401
 20
5029.6540328178
 10
7660.3830021101
 20
5030.2377142475
 10
7660.3448087981
 20
5031.0315520883
 10
7660.3087131751
 20
5031.9988625746
 10
7660.2726175521
 20
5033.1292022228
 10
7660.2344242401
 20
5034.420371057
 10
7660.1955021101
 20
5035.8295026806
 10
7660.1573087981
 20
5037.3038250394
 10
7660.1212131751
 20
5038.787087674
 10
7660.0851175521
 20
5040.2703503087
 10
7660.0469242401
 20
5041.7446726674
 10
7660.0080021101
 20
5043.1538042911
 10
7659.9698087981
 20
5044.4449731252
 10
7659.9337131751
 20
5045.5753127734
 10
7659.8976175521
 20
5046.5426232597
 10
7659.8594242401
 20
5047.3364611005
 10
7659.8205021101
 20
5047.9201425302
 10
7659.7823087981
 20
5048.2718086481
 10
7659.7462131751
 20
5048.387087674
  0
LWPOLYLINE
  5
139
330
1F
100
AcDbEntity
  8
0
  6
Continuous
 62
     7
370
    25
100
AcDbPolyline
 90
       21
 70
   128
 43
0.0
 10
7658.9864621985
 20
5029.2182294852
 10
7658.9601175521
 20
5029.3023666999
 10
7658.9219242401
 20
5029.6540328178
 10
7658.8830021101
 20
5030.2377142475
 10
7658.8448087981
 20
5031.0315520883
 10
7658.8087131751
 20
5031.9988625746
 10
7658.7726175521
 20
5033.1292022228
 10
7658.7344242401
 20
5034.420371057
 10
7658.6955021101
 20
5035.8295026806
 10
7658.6573087981
 20
5037.3038250394
 10
7658.6212131751
 20
5038.787087674
 10
7658.5851175521
 20
5040.2703503087
 10
7658.5469242401
 20
5041.7446726674
 10
7658.5080021101
 20
5043.1538042911
 10
7658.4698087981
 20
5044.4449731252
 10
7658.4337131751
 20
5045.5753127734
 10
7658.3976175521
 20
5046.5426232597
 10
7658.3594242401
 20
5047.3364611005
 10
7658.3205021101
 20
5047.9201425302
 10
7658.2823087981
 20
5048.2718086481
 10
7658.2462131751
 20
5048.387087674
  0
LWPOLYLINE
  5
13A
330
1F
100
AcDbEntity
  8
0
  6
Continuous
 62
     7
370
    25
100
AcDbPolyline
 90
       21
 70
   128
 43
0.0
 10
7657.4864621985
 20
5029.2182294852
 10
7657.4601175521
 20
5029.3023666999
 10
7657.4219242401
 20
5029.6540328178
 10
7657.3830021101
 20
5030.2377142475
 10
7657.3448087981
 20
5031.0315520883
 10
7657.3087131751
 20
5031.9988625746
 10
7657.2726175521
 20
5033.1292022228
 10
7657.2344242401
 20
5034.420371057
 10
7657.1955021101
 20
5035.8295026806
 10
7657.1573087981
 20
5037.3038250394
 10
7657.1212131751
 20
5038.787087674
 10
7657.0851175521
 20
5040.2703503087
 10
7657.0469242401
 20
5041.7446726674
 10
7657.0080021101
 20
5043.1538042911
 10
7656.9698087981
 20
5044.4449731252
 10
7656.9337131751
 20
5045.5753127734
 10
7656.8976175521
 20
5046.5426232597
 10
7656.8594242401
 20
5047.3364611005
 10
7656.8205021101
 20
5047.9201425302
 10
7656.7823087981
 20
5048.2718086481
 10
7656.7462131751
 20
5048.387087674
  0
LWPOLYLINE
  5
13B
330
1F
100
AcDbEntity
  8
0
  6
Continuous
 62
     7
370
    25
100
AcDbPolyline
 90
       21
 70
   128
 43
0.0
 10
7655.9864621985
 20
5029.2182294852
 10
7655.9601175521
 20
5029.3023666999
 10
7655.9219242401
 20
5029.6540328178
 10
7655.8830021101
 20
5030.2377142475
 10
7655.8448087981
 20
5031.0315520883
 10
7655.8087131751
 20
5031.9988625746
 10
7655.7726175521
 20
5033.1292022228
 10
7655.7344242401
 20
5034.420371057
 10
7655.6955021101
 20
5035.8295026806
 10
7655.6573087981
 20
5037.3038250394
 10
7655.6212131751
 20
5038.787087674
 10
7655.5851175521
 20
5040.2703503087
 10
7655.5469242401
 20
5041.7446726674
 10
7655.5080021101
 20
5043.1538042911
 10
7655.4698087981
 20
5044.4449731252
 10
7655.4337131751
 20
5045.5753127734
 10
7655.3976175521
 20
5046.5426232597
 10
7655.3594242401
 20
5047.3364611005
 10
7655.3205021101
 20
5047.9201425302
 10
7655.2823087981
 20
5048.2718086481
 10
7655.2462131751
 20
5048.387087674
  0
LWPOLYLINE
  5
13C
330
1F
100
AcDbEntity
  8
0
  6
Continuous
 62
     7
370
    25
100
AcDbPolyline
 90
       21
 70
   128
 43
0.0
 10
7654.4864621985
 20
5029.2182294852
 10
7654.4601175521
 20
5029.3023666999
 10
7654.4219242401
 20
5029.6540328178
 10
7654.3830021101
 20
5030.2377142475
 10
7654.3448087981
 20
5031.0315520883
 10
7654.3087131751
 20
5031.9988625746
 10
7654.2726175521
 20
5033.1292022228
 10
7654.2344242401
 20
5034.420371057
 10
7654.1955021101
 20
5035.8295026806
 10
7654.1573087981
 20
5037.3038250394
 10
7654.1212131751
 20
5038.787087674
 10
7654.0851175521
 20
5040.2703503087
 10
7654.0469242401
 20
5041.7446726674
 10
7654.0080021101
 20
5043.1538042911
 10
7653.9698087981
 20
5044.4449731252
 10
7653.9337131751
 20
5045.5753127734
 10
7653.8976175521
 20
5046.5426232597
 10
7653.8594242401
 20
5047.3364611005
 10
7653.8205021101
 20
5047.9201425302
 10
7653.7823087981
 20
5048.2718086481
 10
7653.7462131751
 20
5048.387087674
  0
LWPOLYLINE
  5
13D
330
1F
100
AcDbEntity
  8
0
  6
Continuous
 62
     7
370
    25
100
AcDbPolyline
 90
       21
 70
   128
 43
0.0
 10
7652.9864621985
 20
5029.2182294852
 10
7652.9601175521
 20
5029.3023666999
 10
7652.9219242401
 20
5029.6540328178
 10
7652.8830021101
 20
5030.2377142475
 10
7652.8448087981
 20
5031.0315520883
 10
7652.8087131751
 20
5031.9988625746
 10
7652.7726175521
 20
5033.1292022228
 10
7652.7344242401
 20
5034.420371057
 10
7652.6955021101
 20
5035.8295026806
 10
7652.6573087981
 20
5037.3038250394
 10
7652.6212131751
 20
5038.787087674
 10
7652.5851175521
 20
5040.2703503087
 10
7652.5469242401
 20
5041.7446726674
 10
7652.5080021101
 20
5043.1538042911
 10
7652.4698087981
 20
5044.4449731252
 10
7652.4337131751
 20
5045.5753127734
 10
7652.3976175521
 20
5046.5426232597
 10
7652.3594242401
 20
5047.3364611005
 10
7652.3205021101
 20
5047.9201425302
 10
7652.2823087981
 20
5048.2718086481
 10
7652.2462131751
 20
5048.387087674
  0
LWPOLYLINE
  5
13E
330
1F
100
AcDbEntity
  8
0
  6
Continuous
 62
     7
370
    25
100
AcDbPolyline
 90
       21
 70
   128
 43
0.0
 10
7651.4864621985
 20
5029.2182294852
 10
7651.4601175521
 20
5029.3023666999
 10
7651.4219242401
 20
5029.6540328178
 10
7651.3830021101
 20
5030.2377142475
 10
7651.3448087981
 20
5031.0315520883
 10
7651.3087131751
 20
5031.9988625746
 10
7651.2726175521
 20
5033.1292022228
 10
7651.2344242401
 20
5034.420371057
 10
7651.1955021101
 20
5035.8295026806
 10
7651.1573087981
 20
5037.3038250394
 10
7651.1212131751
 20
5038.787087674
 10
7651.0851175521
 20
5040.2703503087
 10
7651.0469242401
 20
5041.7446726674
 10
7651.0080021101
 20
5043.1538042911
 10
7650.9698087981
 20
5044.4449731252
 10
7650.9337131751
 20
5045.5753127734
 10
7650.8976175521
 20
5046.5426232597
 10
7650.8594242401
 20
5047.3364611005
 10
7650.8205021101
 20
5047.9201425302
 10
7650.7823087981
 20
5048.2718086481
 10
7650.7462131751
 20
5048.387087674
  0
LWPOLYLINE
  5
13F
330
1F
100
AcDbEntity
  8
0
  6
Continuous
 62
     7
370
    25
100
AcDbPolyline
 90
       21
 70
   128
 43
0.0
 10
7649.9864621985
 20
5029.2182294852
 10
7649.9601175521
 20
5029.3023666999
 10
7649.9219242401
 20
5029.6540328178
 10
7649.8830021101
 20
5030.2377142475
 10
7649.8448087981
 20
5031.0315520883
 10
7649.8087131751
 20
5031.9988625746
 10
7649.7726175521
 20
5033.1292022228
 10
7649.7344242401
 20
5034.420371057
 10
7649.6955021101
 20
5035.8295026806
 10
7649.6573087981
 20
5037.3038250394
 10
7649.6212131751
 20
5038.787087674
 10
7649.5851175521
 20
5040.2703503087
 10
7649.5469242401
 20
5041.7446726674
 10
7649.5080021101
 20
5043.1538042911
 10
7649.4698087981
 20
5044.4449731252
 10
7649.4337131751
 20
5045.5753127734
 10
7649.3976175521
 20
5046.5426232597
 10
7649.3594242401
 20
5047.3364611005
 10
7649.3205021101
 20
5047.9201425302
 10
7649.2823087981
 20
5048.2718086481
 10
7649.2462131751
 20
5048.387087674
  0
LWPOLYLINE
  5
140
330
1F
100
AcDbEntity
  8
0
  6
Continuous
 62
     7
370
    25
100
AcDbPolyline
 90
       21
 70
   128
 43
0.0
 10
7648.4864621985
 20
5029.2182294852
 10
7648.4601175521
 20
5029.3023666999
 10
7648.4219242401
 20
5029.6540328178
 10
7648.3830021101
 20
5030.2377142475
 10
7648.3448087981
 20
5031.0315520883
 10
7648.3087131751
 20
5031.9988625746
 10
7648.2726175521
 20
5033.1292022228
 10
7648.2344242401
 20
5034.420371057
 10
7648.1955021101
 20
5035.8295026806
 10
7648.1573087981
 20
5037.3038250394
 10
7648.1212131751
 20
5038.787087674
 10
7648.0851175521
 20
5040.2703503087
 10
7648.0469242401
 20
5041.7446726674
 10
7648.0080021101
 20
5043.1538042911
 10
7647.9698087981
 20
5044.4449731252
 10
7647.9337131751
 20
5045.5753127734
 10
7647.8976175521
 20
5046.5426232597
 10
7647.8594242401
 20
5047.3364611005
 10
7647.8205021101
 20
5047.9201425302
 10
7647.7823087981
 20
5048.2718086481
 10
7647.7462131751
 20
5048.387087674
  0
LWPOLYLINE
  5
141
330
1F
100
AcDbEntity
  8
0
  6
Continuous
 62
     7
370
    25
100
AcDbPolyline
 90
       21
 70
   128
 43
0.0
 10
7646.9864621985
 20
5029.2182294852
 10
7646.9601175521
 20
5029.3023666999
 10
7646.9219242401
 20
5029.6540328178
 10
7646.8830021101
 20
5030.2377142475
 10
7646.8448087981
 20
5031.0315520883
 10
7646.8087131751
 20
5031.9988625746
 10
7646.7726175521
 20
5033.1292022228
 10
7646.7344242401
 20
5034.420371057
 10
7646.6955021101
 20
5035.8295026806
 10
7646.6573087981
 20
5037.3038250394
 10
7646.6212131751
 20
5038.787087674
 10
7646.5851175521
 20
5040.2703503087
 10
7646.5469242401
 20
5041.7446726674
 10
7646.5080021101
 20
5043.1538042911
 10
7646.4698087981
 20
5044.4449731252
 10
7646.4337131751
 20
5045.5753127734
 10
7646.3976175521
 20
5046.5426232597
 10
7646.3594242401
 20
5047.3364611005
 10
7646.3205021101
 20
5047.9201425302
 10
7646.2823087981
 20
5048.2718086481
 10
7646.2462131751
 20
5048.387087674
  0
LWPOLYLINE
  5
142
330
1F
100
AcDbEntity
  8
0
  6
Continuous
 62
     7
370
    25
100
AcDbPolyline
 90
       21
 70
   128
 43
0.0
 10
7645.4864621985
 20
5029.2182294852
 10
7645.4601175521
 20
5029.3023666999
 10
7645.4219242401
 20
5029.6540328178
 10
7645.3830021101
 20
5030.2377142475
 10
7645.3448087981
 20
5031.0315520883
 10
7645.3087131751
 20
5031.9988625746
 10
7645.2726175521
 20
5033.1292022228
 10
7645.2344242401
 20
5034.420371057
 10
7645.1955021101
 20
5035.8295026806
 10
7645.1573087981
 20
5037.3038250394
 10
7645.1212131751
 20
5038.787087674
 10
7645.0851175521
 20
5040.2703503087
 10
7645.0469242401
 20
5041.7446726674
 10
7645.0080021101
 20
5043.1538042911
 10
7644.9698087981
 20
5044.4449731252
 10
7644.9337131751
 20
5045.5753127734
 10
7644.8976175521
 20
5046.5426232597
 10
7644.8594242401
 20
5047.3364611005
 10
7644.8205021101
 20
5047.9201425302
 10
7644.7823087981
 20
5048.2718086481
 10
7644.7462131751
 20
5048.387087674
  0
LWPOLYLINE
  5
143
330
1F
100
AcDbEntity
  8
0
  6
Continuous
 62
     7
370
    25
100
AcDbPolyline
 90
       21
 70
   128
 43
0.0
 10
7643.9864621985
 20
5029.2182294852
 10
7643.9601175521
 20
5029.3023666999
 10
7643.9219242401
 20
5029.6540328178
 10
7643.8830021101
 20
5030.2377142475
 10
7643.8448087981
 20
5031.0315520883
 10
7643.8087131751
 20
5031.9988625746
 10
7643.7726175521
 20
5033.1292022228
 10
7643.7344242401
 20
5034.420371057
 10
7643.6955021101
 20
5035.8295026806
 10
7643.6573087981
 20
5037.3038250394
 10
7643.6212131751
 20
5038.787087674
 10
7643.5851175521
 20
5040.2703503087
 10
7643.5469242401
 20
5041.7446726674
 10
7643.5080021101
 20
5043.1538042911
 10
7643.4698087981
 20
5044.4449731252
 10
7643.4337131751
 20
5045.5753127734
 10
7643.3976175521
 20
5046.5426232597
 10
7643.3594242401
 20
5047.3364611005
 10
7643.3205021101
 20
5047.9201425302
 10
7643.2823087981
 20
5048.2718086481
 10
7643.2462131751
 20
5048.387087674
  0
LWPOLYLINE
  5
144
330
1F
100
AcDbEntity
  8
0
  6
Continuous
 62
     7
370
    25
100
AcDbPolyline
 90
       21
 70
   128
 43
0.0
 10
7642.4864621985
 20
5029.2182294852
 10
7642.4601175521
 20
5029.3023666999
 10
7642.4219242401
 20
5029.6540328178
 10
7642.3830021101
 20
5030.2377142475
 10
7642.3448087981
 20
5031.0315520883
 10
7642.3087131751
 20
5031.9988625746
 10
7642.2726175521
 20
5033.1292022228
 10
7642.2344242401
 20
5034.420371057
 10
7642.1955021101
 20
5035.8295026806
 10
7642.1573087981
 20
5037.3038250394
 10
7642.1212131751
 20
5038.787087674
 10
7642.0851175521
 20
5040.2703503087
 10
7642.0469242401
 20
5041.7446726674
 10
7642.0080021101
 20
5043.1538042911
 10
7641.9698087981
 20
5044.4449731252
 10
7641.9337131751
 20
5045.5753127734
 10
7641.8976175521
 20
5046.5426232597
 10
7641.8594242401
 20
5047.3364611005
 10
7641.8205021101
 20
5047.9201425302
 10
7641.7823087981
 20
5048.2718086481
 10
7641.7462131751
 20
5048.387087674
  0
LWPOLYLINE
  5
145
330
1F
100
AcDbEntity
  8
0
  6
Continuous
 62
     7
370
    25
100
AcDbPolyline
 90
       21
 70
   128
 43
0.0
 10
7640.9864621985
 20
5029.2182294852
 10
7640.9601175521
 20
5029.3023666999
 10
7640.9219242401
 20
5029.6540328178
 10
7640.8830021101
 20
5030.2377142475
 10
7640.8448087981
 20
5031.0315520883
 10
7640.8087131751
 20
5031.9988625746
 10
7640.7726175521
 20
5033.1292022228
 10
7640.7344242401
 20
5034.420371057
 10
7640.6955021101
 20
5035.8295026806
 10
7640.6573087981
 20
5037.3038250394
 10
7640.6212131751
 20
5038.787087674
 10
7640.5851175521
 20
5040.2703503087
 10
7640.5469242401
 20
5041.7446726674
 10
7640.5080021101
 20
5043.1538042911
 10
7640.4698087981
 20
5044.4449731252
 10
7640.4337131751
 20
5045.5753127734
 10
7640.3976175521
 20
5046.5426232597
 10
7640.3594242401
 20
5047.3364611005
 10
7640.3205021101
 20
5047.9201425302
 10
7640.2823087981
 20
5048.2718086481
 10
7640.2462131751
 20
5048.387087674
  0
LWPOLYLINE
  5
146
330
1F
100
AcDbEntity
  8
0
  6
Continuous
 62
     7
370
    25
100
AcDbPolyline
 90
       21
 70
   128
 43
0.0
 10
7639.4864621985
 20
5029.2182294852
 10
7639.4601175521
 20
5029.3023666999
 10
7639.4219242401
 20
5029.6540328178
 10
7639.3830021101
 20
5030.2377142475
 10
7639.3448087981
 20
5031.0315520883
 10
7639.3087131751
 20
5031.9988625746
 10
7639.2726175521
 20
5033.1292022228
 10
7639.2344242401
 20
5034.420371057
 10
7639.1955021101
 20
5035.8295026806
 10
7639.1573087981
 20
5037.3038250394
 10
7639.1212131751
 20
5038.787087674
 10
7639.0851175521
 20
5040.2703503087
 10
7639.0469242401
 20
5041.7446726674
 10
7639.0080021101
 20
5043.1538042911
 10
7638.9698087981
 20
5044.4449731252
 10
7638.9337131751
 20
5045.5753127734
 10
7638.8976175521
 20
5046.5426232597
 10
7638.8594242401
 20
5047.3364611005
 10
7638.8205021101
 20
5047.9201425302
 10
7638.7823087981
 20
5048.2718086481
 10
7638.7462131751
 20
5048.387087674
  0
LWPOLYLINE
  5
147
330
1F
100
AcDbEntity
  8
0
  6
Continuous
 62
     7
370
    25
100
AcDbPolyline
 90
       21
 70
   128
 43
0.0
 10
7637.9864621985
 20
5029.2182294852
 10
7637.9601175521
 20
5029.3023666999
 10
7637.9219242401
 20
5029.6540328178
 10
7637.8830021101
 20
5030.2377142475
 10
7637.8448087981
 20
5031.0315520883
 10
7637.8087131751
 20
5031.9988625746
 10
7637.7726175521
 20
5033.1292022228
 10
7637.7344242401
 20
5034.420371057
 10
7637.6955021101
 20
5035.8295026806
 10
7637.6573087981
 20
5037.3038250394
 10
7637.6212131751
 20
5038.787087674
 10
7637.5851175521
 20
5040.2703503087
 10
7637.5469242401
 20
5041.7446726674
 10
7637.5080021101
 20
5043.1538042911
 10
7637.4698087981
 20
5044.4449731252
 10
7637.4337131751
 20
5045.5753127734
 10
7637.3976175521
 20
5046.5426232597
 10
7637.3594242401
 20
5047.3364611005
 10
7637.3205021101
 20
5047.9201425302
 10
7637.2823087981
 20
5048.2718086481
 10
7637.2462131751
 20
5048.387087674
  0
LINE
  5
148
330
1F
100
AcDbEntity
  8
0
  6
Continuous
 62
     7
370
    25
100
AcDbLine
 10
7636.746213171
 20
5032.4803691067
 30
0.0
 11
7636.746213171
 21
5028.7532089922
 31
0.0
  0
LWPOLYLINE
  5
149
330
1F
100
AcDbEntity
  8
0
  6
Continuous
 62
     7
370
    25
100
AcDbPolyline
 90
       21
 70
   128
 43
0.0
 10
7660.121213171
 20
5029.187087674
 10
7660.085117548
 20
5029.3023666999
 10
7660.046924236
 20
5029.6540328178
 10
7660.008002106
 20
5030.2377142475
 10
7659.969808794
 20
5031.0315520883
 10
7659.933713171
 20
5031.9988625746
 10
7659.897617548
 20
5033.1292022228
 10
7659.859424236
 20
5034.420371057
 10
7659.820502106
 20
5035.8295026806
 10
7659.782308794
 20
5037.3038250394
 10
7659.746213171
 20
5038.787087674
 10
7659.710117548
 20
5040.2703503087
 10
7659.671924236
 20
5041.7446726674
 10
7659.633002106
 20
5043.1538042911
 10
7659.594808794
 20
5044.4449731252
 10
7659.558713171
 20
5045.5753127734
 10
7659.522617548
 20
5046.5426232597
 10
7659.484424236
 20
5047.3364611005
 10
7659.445502106
 20
5047.9201425302
 10
7659.407308794
 20
5048.2718086481
 10
7659.3809577846
 20
5048.3559661841
  0
LWPOLYLINE
  5
14A
330
1F
100
AcDbEntity
  8
0
  6
Continuous
 62
     7
370
    25
100
AcDbPolyline
 90
       21
 70
   128
 43
0.0
 10
7658.621213171
 20
5029.187087674
 10
7658.585117548
 20
5029.3023666999
 10
7658.546924236
 20
5029.6540328178
 10
7658.508002106
 20
5030.2377142475
 10
7658.469808794
 20
5031.0315520883
 10
7658.433713171
 20
5031.9988625746
 10
7658.397617548
 20
5033.1292022228
 10
7658.359424236
 20
5034.420371057
 10
7658.320502106
 20
5035.8295026806
 10
7658.282308794
 20
5037.3038250394
 10
7658.246213171
 20
5038.787087674
 10
7658.210117548
 20
5040.2703503087
 10
7658.171924236
 20
5041.7446726674
 10
7658.133002106
 20
5043.1538042911
 10
7658.094808794
 20
5044.4449731252
 10
7658.058713171
 20
5045.5753127734
 10
7658.022617548
 20
5046.5426232597
 10
7657.984424236
 20
5047.3364611005
 10
7657.945502106
 20
5047.9201425302
 10
7657.907308794
 20
5048.2718086481
 10
7657.8809577846
 20
5048.3559661841
  0
LWPOLYLINE
  5
14B
330
1F
100
AcDbEntity
  8
0
  6
Continuous
 62
     7
370
    25
100
AcDbPolyline
 90
       21
 70
   128
 43
0.0
 10
7657.121213171
 20
5029.187087674
 10
7657.085117548
 20
5029.3023666999
 10
7657.046924236
 20
5029.6540328178
 10
7657.008002106
 20
5030.2377142475
 10
7656.969808794
 20
5031.0315520883
 10
7656.933713171
 20
5031.9988625746
 10
7656.897617548
 20
5033.1292022228
 10
7656.859424236
 20
5034.420371057
 10
7656.820502106
 20
5035.8295026806
 10
7656.782308794
 20
5037.3038250394
 10
7656.746213171
 20
5038.787087674
 10
7656.710117548
 20
5040.2703503087
 10
7656.671924236
 20
5041.7446726674
 10
7656.633002106
 20
5043.1538042911
 10
7656.594808794
 20
5044.4449731252
 10
7656.558713171
 20
5045.5753127734
 10
7656.522617548
 20
5046.5426232597
 10
7656.484424236
 20
5047.3364611005
 10
7656.445502106
 20
5047.9201425302
 10
7656.407308794
 20
5048.2718086481
 10
7656.3809577846
 20
5048.3559661841
  0
LWPOLYLINE
  5
14C
330
1F
100
AcDbEntity
  8
0
  6
Continuous
 62
     7
370
    25
100
AcDbPolyline
 90
       21
 70
   128
 43
0.0
 10
7655.621213171
 20
5029.187087674
 10
7655.585117548
 20
5029.3023666999
 10
7655.546924236
 20
5029.6540328178
 10
7655.508002106
 20
5030.2377142475
 10
7655.469808794
 20
5031.0315520883
 10
7655.433713171
 20
5031.9988625746
 10
7655.397617548
 20
5033.1292022228
 10
7655.359424236
 20
5034.420371057
 10
7655.320502106
 20
5035.8295026806
 10
7655.282308794
 20
5037.3038250394
 10
7655.246213171
 20
5038.787087674
 10
7655.210117548
 20
5040.2703503087
 10
7655.171924236
 20
5041.7446726674
 10
7655.133002106
 20
5043.1538042911
 10
7655.094808794
 20
5044.4449731252
 10
7655.058713171
 20
5045.5753127734
 10
7655.022617548
 20
5046.5426232597
 10
7654.984424236
 20
5047.3364611005
 10
7654.945502106
 20
5047.9201425302
 10
7654.907308794
 20
5048.2718086481
 10
7654.8809577846
 20
5048.3559661841
  0
LWPOLYLINE
  5
14D
330
1F
100
AcDbEntity
  8
0
  6
Continuous
 62
     7
370
    25
100
AcDbPolyline
 90
       21
 70
   128
 43
0.0
 10
7654.121213171
 20
5029.187087674
 10
7654.085117548
 20
5029.3023666999
 10
7654.046924236
 20
5029.6540328178
 10
7654.008002106
 20
5030.2377142475
 10
7653.969808794
 20
5031.0315520883
 10
7653.933713171
 20
5031.9988625746
 10
7653.897617548
 20
5033.1292022228
 10
7653.859424236
 20
5034.420371057
 10
7653.820502106
 20
5035.8295026806
 10
7653.782308794
 20
5037.3038250394
 10
7653.746213171
 20
5038.787087674
 10
7653.710117548
 20
5040.2703503087
 10
7653.671924236
 20
5041.7446726674
 10
7653.633002106
 20
5043.1538042911
 10
7653.594808794
 20
5044.4449731252
 10
7653.558713171
 20
5045.5753127734
 10
7653.522617548
 20
5046.5426232597
 10
7653.484424236
 20
5047.3364611005
 10
7653.445502106
 20
5047.9201425302
 10
7653.407308794
 20
5048.2718086481
 10
7653.3809577846
 20
5048.3559661841
  0
LWPOLYLINE
  5
14E
330
1F
100
AcDbEntity
  8
0
  6
Continuous
 62
     7
370
    25
100
AcDbPolyline
 90
       21
 70
   128
 43
0.0
 10
7652.621213171
 20
5029.187087674
 10
7652.585117548
 20
5029.3023666999
 10
7652.546924236
 20
5029.6540328178
 10
7652.508002106
 20
5030.2377142475
 10
7652.469808794
 20
5031.0315520883
 10
7652.433713171
 20
5031.9988625746
 10
7652.397617548
 20
5033.1292022228
 10
7652.359424236
 20
5034.420371057
 10
7652.320502106
 20
5035.8295026806
 10
7652.282308794
 20
5037.3038250394
 10
7652.246213171
 20
5038.787087674
 10
7652.210117548
 20
5040.2703503087
 10
7652.171924236
 20
5041.7446726674
 10
7652.133002106
 20
5043.1538042911
 10
7652.094808794
 20
5044.4449731252
 10
7652.058713171
 20
5045.5753127734
 10
7652.022617548
 20
5046.5426232597
 10
7651.984424236
 20
5047.3364611005
 10
7651.945502106
 20
5047.9201425302
 10
7651.907308794
 20
5048.2718086481
 10
7651.8809577846
 20
5048.3559661841
  0
LWPOLYLINE
  5
14F
330
1F
100
AcDbEntity
  8
0
  6
Continuous
 62
     7
370
    25
100
AcDbPolyline
 90
       21
 70
   128
 43
0.0
 10
7651.121213171
 20
5029.187087674
 10
7651.085117548
 20
5029.3023666999
 10
7651.046924236
 20
5029.6540328178
 10
7651.008002106
 20
5030.2377142475
 10
7650.969808794
 20
5031.0315520883
 10
7650.933713171
 20
5031.9988625746
 10
7650.897617548
 20
5033.1292022228
 10
7650.859424236
 20
5034.420371057
 10
7650.820502106
 20
5035.8295026806
 10
7650.782308794
 20
5037.3038250394
 10
7650.746213171
 20
5038.787087674
 10
7650.710117548
 20
5040.2703503087
 10
7650.671924236
 20
5041.7446726674
 10
7650.633002106
 20
5043.1538042911
 10
7650.594808794
 20
5044.4449731252
 10
7650.558713171
 20
5045.5753127734
 10
7650.522617548
 20
5046.5426232597
 10
7650.484424236
 20
5047.3364611005
 10
7650.445502106
 20
5047.9201425302
 10
7650.407308794
 20
5048.2718086481
 10
7650.3809577846
 20
5048.3559661841
  0
LWPOLYLINE
  5
150
330
1F
100
AcDbEntity
  8
0
  6
Continuous
 62
     7
370
    25
100
AcDbPolyline
 90
       21
 70
   128
 43
0.0
 10
7649.621213171
 20
5029.187087674
 10
7649.585117548
 20
5029.3023666999
 10
7649.546924236
 20
5029.6540328178
 10
7649.508002106
 20
5030.2377142475
 10
7649.469808794
 20
5031.0315520883
 10
7649.433713171
 20
5031.9988625746
 10
7649.397617548
 20
5033.1292022228
 10
7649.359424236
 20
5034.420371057
 10
7649.320502106
 20
5035.8295026806
 10
7649.282308794
 20
5037.3038250394
 10
7649.246213171
 20
5038.787087674
 10
7649.210117548
 20
5040.2703503087
 10
7649.171924236
 20
5041.7446726674
 10
7649.133002106
 20
5043.1538042911
 10
7649.094808794
 20
5044.4449731252
 10
7649.058713171
 20
5045.5753127734
 10
7649.022617548
 20
5046.5426232597
 10
7648.984424236
 20
5047.3364611005
 10
7648.945502106
 20
5047.9201425302
 10
7648.907308794
 20
5048.2718086481
 10
7648.8809577846
 20
5048.3559661841
  0
LWPOLYLINE
  5
151
330
1F
100
AcDbEntity
  8
0
  6
Continuous
 62
     7
370
    25
100
AcDbPolyline
 90
       21
 70
   128
 43
0.0
 10
7648.121213171
 20
5029.187087674
 10
7648.085117548
 20
5029.3023666999
 10
7648.046924236
 20
5029.6540328178
 10
7648.008002106
 20
5030.2377142475
 10
7647.969808794
 20
5031.0315520883
 10
7647.933713171
 20
5031.9988625746
 10
7647.897617548
 20
5033.1292022228
 10
7647.859424236
 20
5034.420371057
 10
7647.820502106
 20
5035.8295026806
 10
7647.782308794
 20
5037.3038250394
 10
7647.746213171
 20
5038.787087674
 10
7647.710117548
 20
5040.2703503087
 10
7647.671924236
 20
5041.7446726674
 10
7647.633002106
 20
5043.1538042911
 10
7647.594808794
 20
5044.4449731252
 10
7647.558713171
 20
5045.5753127734
 10
7647.522617548
 20
5046.5426232597
 10
7647.484424236
 20
5047.3364611005
 10
7647.445502106
 20
5047.9201425302
 10
7647.407308794
 20
5048.2718086481
 10
7647.3809577846
 20
5048.3559661841
  0
LWPOLYLINE
  5
152
330
1F
100
AcDbEntity
  8
0
  6
Continuous
 62
     7
370
    25
100
AcDbPolyline
 90
       21
 70
   128
 43
0.0
 10
7646.621213171
 20
5029.187087674
 10
7646.585117548
 20
5029.3023666999
 10
7646.546924236
 20
5029.6540328178
 10
7646.508002106
 20
5030.2377142475
 10
7646.469808794
 20
5031.0315520883
 10
7646.433713171
 20
5031.9988625746
 10
7646.397617548
 20
5033.1292022228
 10
7646.359424236
 20
5034.420371057
 10
7646.320502106
 20
5035.8295026806
 10
7646.282308794
 20
5037.3038250394
 10
7646.246213171
 20
5038.787087674
 10
7646.210117548
 20
5040.2703503087
 10
7646.171924236
 20
5041.7446726674
 10
7646.133002106
 20
5043.1538042911
 10
7646.094808794
 20
5044.4449731252
 10
7646.058713171
 20
5045.5753127734
 10
7646.022617548
 20
5046.5426232597
 10
7645.984424236
 20
5047.3364611005
 10
7645.945502106
 20
5047.9201425302
 10
7645.907308794
 20
5048.2718086481
 10
7645.8809577846
 20
5048.3559661841
  0
LWPOLYLINE
  5
153
330
1F
100
AcDbEntity
  8
0
  6
Continuous
 62
     7
370
    25
100
AcDbPolyline
 90
       21
 70
   128
 43
0.0
 10
7645.121213171
 20
5029.187087674
 10
7645.085117548
 20
5029.3023666999
 10
7645.046924236
 20
5029.6540328178
 10
7645.008002106
 20
5030.2377142475
 10
7644.969808794
 20
5031.0315520883
 10
7644.933713171
 20
5031.9988625746
 10
7644.897617548
 20
5033.1292022228
 10
7644.859424236
 20
5034.420371057
 10
7644.820502106
 20
5035.8295026806
 10
7644.782308794
 20
5037.3038250394
 10
7644.746213171
 20
5038.787087674
 10
7644.710117548
 20
5040.2703503087
 10
7644.671924236
 20
5041.7446726674
 10
7644.633002106
 20
5043.1538042911
 10
7644.594808794
 20
5044.4449731252
 10
7644.558713171
 20
5045.5753127734
 10
7644.522617548
 20
5046.5426232597
 10
7644.484424236
 20
5047.3364611005
 10
7644.445502106
 20
5047.9201425302
 10
7644.407308794
 20
5048.2718086481
 10
7644.3809577846
 20
5048.3559661841
  0
LWPOLYLINE
  5
154
330
1F
100
AcDbEntity
  8
0
  6
Continuous
 62
     7
370
    25
100
AcDbPolyline
 90
       21
 70
   128
 43
0.0
 10
7643.621213171
 20
5029.187087674
 10
7643.585117548
 20
5029.3023666999
 10
7643.546924236
 20
5029.6540328178
 10
7643.508002106
 20
5030.2377142475
 10
7643.469808794
 20
5031.0315520883
 10
7643.433713171
 20
5031.9988625746
 10
7643.397617548
 20
5033.1292022228
 10
7643.359424236
 20
5034.420371057
 10
7643.320502106
 20
5035.8295026806
 10
7643.282308794
 20
5037.3038250394
 10
7643.246213171
 20
5038.787087674
 10
7643.210117548
 20
5040.2703503087
 10
7643.171924236
 20
5041.7446726674
 10
7643.133002106
 20
5043.1538042911
 10
7643.094808794
 20
5044.4449731252
 10
7643.058713171
 20
5045.5753127734
 10
7643.022617548
 20
5046.5426232597
 10
7642.984424236
 20
5047.3364611005
 10
7642.945502106
 20
5047.9201425302
 10
7642.907308794
 20
5048.2718086481
 10
7642.8809577846
 20
5048.3559661841
  0
LWPOLYLINE
  5
155
330
1F
100
AcDbEntity
  8
0
  6
Continuous
 62
     7
370
    25
100
AcDbPolyline
 90
       21
 70
   128
 43
0.0
 10
7642.121213171
 20
5029.187087674
 10
7642.085117548
 20
5029.3023666999
 10
7642.046924236
 20
5029.6540328178
 10
7642.008002106
 20
5030.2377142475
 10
7641.969808794
 20
5031.0315520883
 10
7641.933713171
 20
5031.9988625746
 10
7641.897617548
 20
5033.1292022228
 10
7641.859424236
 20
5034.420371057
 10
7641.820502106
 20
5035.8295026806
 10
7641.782308794
 20
5037.3038250394
 10
7641.746213171
 20
5038.787087674
 10
7641.710117548
 20
5040.2703503087
 10
7641.671924236
 20
5041.7446726674
 10
7641.633002106
 20
5043.1538042911
 10
7641.594808794
 20
5044.4449731252
 10
7641.558713171
 20
5045.5753127734
 10
7641.522617548
 20
5046.5426232597
 10
7641.484424236
 20
5047.3364611005
 10
7641.445502106
 20
5047.9201425302
 10
7641.407308794
 20
5048.2718086481
 10
7641.3809577846
 20
5048.3559661841
  0
LWPOLYLINE
  5
156
330
1F
100
AcDbEntity
  8
0
  6
Continuous
 62
     7
370
    25
100
AcDbPolyline
 90
       21
 70
   128
 43
0.0
 10
7640.621213171
 20
5029.187087674
 10
7640.585117548
 20
5029.3023666999
 10
7640.546924236
 20
5029.6540328178
 10
7640.508002106
 20
5030.2377142475
 10
7640.469808794
 20
5031.0315520883
 10
7640.433713171
 20
5031.9988625746
 10
7640.397617548
 20
5033.1292022228
 10
7640.359424236
 20
5034.420371057
 10
7640.320502106
 20
5035.8295026806
 10
7640.282308794
 20
5037.3038250394
 10
7640.246213171
 20
5038.787087674
 10
7640.210117548
 20
5040.2703503087
 10
7640.171924236
 20
5041.7446726674
 10
7640.133002106
 20
5043.1538042911
 10
7640.094808794
 20
5044.4449731252
 10
7640.058713171
 20
5045.5753127734
 10
7640.022617548
 20
5046.5426232597
 10
7639.984424236
 20
5047.3364611005
 10
7639.945502106
 20
5047.9201425302
 10
7639.907308794
 20
5048.2718086481
 10
7639.8809577846
 20
5048.3559661841
  0
LWPOLYLINE
  5
157
330
1F
100
AcDbEntity
  8
0
  6
Continuous
 62
     7
370
    25
100
AcDbPolyline
 90
       21
 70
   128
 43
0.0
 10
7639.121213171
 20
5029.187087674
 10
7639.085117548
 20
5029.3023666999
 10
7639.046924236
 20
5029.6540328178
 10
7639.008002106
 20
5030.2377142475
 10
7638.969808794
 20
5031.0315520883
 10
7638.933713171
 20
5031.9988625746
 10
7638.897617548
 20
5033.1292022228
 10
7638.859424236
 20
5034.420371057
 10
7638.820502106
 20
5035.8295026806
 10
7638.782308794
 20
5037.3038250394
 10
7638.746213171
 20
5038.787087674
 10
7638.710117548
 20
5040.2703503087
 10
7638.671924236
 20
5041.7446726674
 10
7638.633002106
 20
5043.1538042911
 10
7638.594808794
 20
5044.4449731252
 10
7638.558713171
 20
5045.5753127734
 10
7638.522617548
 20
5046.5426232597
 10
7638.484424236
 20
5047.3364611005
 10
7638.445502106
 20
5047.9201425302
 10
7638.407308794
 20
5048.2718086481
 10
7638.3809577846
 20
5048.3559661841
  0
LWPOLYLINE
  5
158
330
1F
100
AcDbEntity
  8
0
  6
Continuous
 62
     7
370
    25
100
AcDbPolyline
 90
       21
 70
   128
 43
0.0
 10
7637.621213171
 20
5029.187087674
 10
7637.585117548
 20
5029.3023666999
 10
7637.546924236
 20
5029.6540328178
 10
7637.508002106
 20
5030.2377142475
 10
7637.469808794
 20
5031.0315520883
 10
7637.433713171
 20
5031.9988625746
 10
7637.397617548
 20
5033.1292022228
 10
7637.359424236
 20
5034.420371057
 10
7637.320502106
 20
5035.8295026806
 10
7637.282308794
 20
5037.3038250394
 10
7637.246213171
 20
5038.787087674
 10
7637.210117548
 20
5040.2703503087
 10
7637.171924236
 20
5041.7446726674
 10
7637.133002106
 20
5043.1538042911
 10
7637.094808794
 20
5044.4449731252
 10
7637.058713171
 20
5045.5753127734
 10
7637.022617548
 20
5046.5426232597
 10
7636.984424236
 20
5047.3364611005
 10
7636.945502106
 20
5047.9201425302
 10
7636.907308794
 20
5048.2718086481
 10
7636.8809577846
 20
5048.3559661841
  0
ARC
  5
159
330
1F
100
AcDbEntity
  8
0
  6
Continuous
 62
     7
370
    25
100
AcDbCircle
 10
7544.3027669553
 20
5040.3482171708
 30
0.0
 40
116.4435597794766
100
AcDbArc
 50
359.9199797715
 51
4.3463691709
  0
LWPOLYLINE
  5
15A
330
1F
100
AcDbEntity
  8
0
  6
Continuous
 62
     7
370
    25
100
AcDbPolyline
 90
       25
 70
   128
 43
0.0
 10
7659.6524583576
 20
5028.3752027991
 10
7659.6225632559
 20
5028.4617291229
 10
7659.5910574216
 20
5028.7258953417
 10
7659.558713173
 20
5029.1677474666
 10
7659.5263689245
 20
5029.7780147824
 10
7659.4948630902
 20
5030.5386953953
 10
7659.464963173
 20
5031.4247634187
 10
7659.4350632559
 20
5032.4332178533
 10
7659.4035574216
 20
5033.5674859156
 10
7659.371213173
 20
5034.802626499
 10
7659.3388689245
 20
5036.1075269386
 10
7659.3073630902
 20
5037.4474579968
 10
7659.277463173
 20
5038.787087674
 10
7659.246213171
 20
5040.185590232
 10
7659.214934688
 20
5041.5131226244
 10
7659.1828603432
 20
5042.805011693
 10
7659.1508079434
 20
5044.0274907696
 10
7659.1195934428
 20
5045.1503587476
 10
7659.089963173
 20
5046.1494119294
 10
7659.0600632559
 20
5047.0354799527
 10
7659.0285574216
 20
5047.7961605656
 10
7658.996213173
 20
5048.4064278815
 10
7658.9638689245
 20
5048.8482800063
 10
7658.9323630902
 20
5049.1124462252
 10
7658.9114498554
 20
5049.1729760519
  0
LWPOLYLINE
  5
15B
330
1F
100
AcDbEntity
  8
0
  6
Continuous
 62
     7
370
    25
100
AcDbPolyline
 90
       25
 70
   128
 43
0.0
 10
7658.1524583576
 20
5028.3752027991
 10
7658.1225632559
 20
5028.4617291229
 10
7658.0910574216
 20
5028.7258953417
 10
7658.058713173
 20
5029.1677474666
 10
7658.0263689245
 20
5029.7780147824
 10
7657.9948630902
 20
5030.5386953953
 10
7657.964963173
 20
5031.4247634187
 10
7657.9350632559
 20
5032.4332178533
 10
7657.9035574216
 20
5033.5674859156
 10
7657.871213173
 20
5034.802626499
 10
7657.8388689245
 20
5036.1075269386
 10
7657.8073630902
 20
5037.4474579968
 10
7657.777463173
 20
5038.787087674
 10
7657.746213171
 20
5040.185590232
 10
7657.714934688
 20
5041.5131226244
 10
7657.6828603432
 20
5042.805011693
 10
7657.6508079434
 20
5044.0274907696
 10
7657.6195934428
 20
5045.1503587476
 10
7657.589963173
 20
5046.1494119294
 10
7657.5600632559
 20
5047.0354799527
 10
7657.5285574216
 20
5047.7961605656
 10
7657.496213173
 20
5048.4064278815
 10
7657.4638689245
 20
5048.8482800063
 10
7657.4323630902
 20
5049.1124462252
 10
7657.4114498554
 20
5049.1729760519
  0
LWPOLYLINE
  5
15C
330
1F
100
AcDbEntity
  8
0
  6
Continuous
 62
     7
370
    25
100
AcDbPolyline
 90
       25
 70
   128
 43
0.0
 10
7656.6524583576
 20
5028.3752027991
 10
7656.6225632559
 20
5028.4617291229
 10
7656.5910574216
 20
5028.7258953417
 10
7656.558713173
 20
5029.1677474666
 10
7656.5263689245
 20
5029.7780147824
 10
7656.4948630902
 20
5030.5386953953
 10
7656.464963173
 20
5031.4247634187
 10
7656.4350632559
 20
5032.4332178533
 10
7656.4035574216
 20
5033.5674859156
 10
7656.371213173
 20
5034.802626499
 10
7656.3388689245
 20
5036.1075269386
 10
7656.3073630902
 20
5037.4474579968
 10
7656.277463173
 20
5038.787087674
 10
7656.246213171
 20
5040.185590232
 10
7656.214934688
 20
5041.5131226244
 10
7656.1828603432
 20
5042.805011693
 10
7656.1508079434
 20
5044.0274907696
 10
7656.1195934428
 20
5045.1503587476
 10
7656.089963173
 20
5046.1494119294
 10
7656.0600632559
 20
5047.0354799527
 10
7656.0285574216
 20
5047.7961605656
 10
7655.996213173
 20
5048.4064278815
 10
7655.9638689245
 20
5048.8482800063
 10
7655.9323630902
 20
5049.1124462252
 10
7655.9114498554
 20
5049.1729760519
  0
LWPOLYLINE
  5
15D
330
1F
100
AcDbEntity
  8
0
  6
Continuous
 62
     7
370
    25
100
AcDbPolyline
 90
       26
 70
   128
 43
0.0
 10
7655.1614498554
 20
5028.4011992961
 10
7655.152463173
 20
5028.3751888615
 10
7655.1225632559
 20
5028.4617291229
 10
7655.0910574216
 20
5028.7258953417
 10
7655.058713173
 20
5029.1677474666
 10
7655.0263689245
 20
5029.7780147824
 10
7654.9948630902
 20
5030.5386953953
 10
7654.964963173
 20
5031.4247634187
 10
7654.9350632559
 20
5032.4332178533
 10
7654.9035574216
 20
5033.5674859156
 10
7654.871213173
 20
5034.802626499
 10
7654.8388689245
 20
5036.1075269386
 10
7654.8073630902
 20
5037.4474579968
 10
7654.777463173
 20
5038.787087674
 10
7654.746213171
 20
5040.185590232
 10
7654.714934688
 20
5041.5131226244
 10
7654.6828603432
 20
5042.805011693
 10
7654.6508079434
 20
5044.0274907696
 10
7654.6195934428
 20
5045.1503587476
 10
7654.589963173
 20
5046.1494119294
 10
7654.5600632559
 20
5047.0354799527
 10
7654.5285574216
 20
5047.7961605656
 10
7654.496213173
 20
5048.4064278815
 10
7654.4638689245
 20
5048.8482800063
 10
7654.4323630902
 20
5049.1124462252
 10
7654.4114498554
 20
5049.1729760519
  0
LWPOLYLINE
  5
15E
330
1F
100
AcDbEntity
  8
0
  6
Continuous
 62
     7
370
    25
100
AcDbPolyline
 90
       25
 70
   128
 43
0.0
 10
7653.6524583576
 20
5028.3752027991
 10
7653.6225632559
 20
5028.4617291229
 10
7653.5910574216
 20
5028.7258953417
 10
7653.558713173
 20
5029.1677474666
 10
7653.5263689245
 20
5029.7780147824
 10
7653.4948630902
 20
5030.5386953953
 10
7653.464963173
 20
5031.4247634187
 10
7653.4350632559
 20
5032.4332178533
 10
7653.4035574216
 20
5033.5674859156
 10
7653.371213173
 20
5034.802626499
 10
7653.3388689245
 20
5036.1075269386
 10
7653.3073630902
 20
5037.4474579968
 10
7653.277463173
 20
5038.787087674
 10
7653.246213171
 20
5040.185590232
 10
7653.214934688
 20
5041.5131226244
 10
7653.1828603432
 20
5042.805011693
 10
7653.1508079434
 20
5044.0274907696
 10
7653.1195934428
 20
5045.1503587476
 10
7653.089963173
 20
5046.1494119294
 10
7653.0600632559
 20
5047.0354799527
 10
7653.0285574216
 20
5047.7961605656
 10
7652.996213173
 20
5048.4064278815
 10
7652.9638689245
 20
5048.8482800063
 10
7652.9323630902
 20
5049.1124462252
 10
7652.9114498554
 20
5049.1729760519
  0
LWPOLYLINE
  5
15F
330
1F
100
AcDbEntity
  8
0
  6
Continuous
 62
     7
370
    25
100
AcDbPolyline
 90
       25
 70
   128
 43
0.0
 10
7652.1524583576
 20
5028.3752027991
 10
7652.1225632559
 20
5028.4617291229
 10
7652.0910574216
 20
5028.7258953417
 10
7652.058713173
 20
5029.1677474666
 10
7652.0263689245
 20
5029.7780147824
 10
7651.9948630902
 20
5030.5386953953
 10
7651.964963173
 20
5031.4247634187
 10
7651.9350632559
 20
5032.4332178533
 10
7651.9035574216
 20
5033.5674859156
 10
7651.871213173
 20
5034.802626499
 10
7651.8388689245
 20
5036.1075269386
 10
7651.8073630902
 20
5037.4474579968
 10
7651.777463173
 20
5038.787087674
 10
7651.746213171
 20
5040.185590232
 10
7651.714934688
 20
5041.5131226244
 10
7651.6828603432
 20
5042.805011693
 10
7651.6508079434
 20
5044.0274907696
 10
7651.6195934428
 20
5045.1503587476
 10
7651.589963173
 20
5046.1494119294
 10
7651.5600632559
 20
5047.0354799527
 10
7651.5285574216
 20
5047.7961605656
 10
7651.496213173
 20
5048.4064278815
 10
7651.4638689245
 20
5048.8482800063
 10
7651.4323630902
 20
5049.1124462252
 10
7651.4114498554
 20
5049.1729760519
  0
LWPOLYLINE
  5
160
330
1F
100
AcDbEntity
  8
0
  6
Continuous
 62
     7
370
    25
100
AcDbPolyline
 90
       26
 70
   128
 43
0.0
 10
7650.6614498554
 20
5028.4011992961
 10
7650.652463173
 20
5028.3751888615
 10
7650.6225632559
 20
5028.4617291229
 10
7650.5910574216
 20
5028.7258953417
 10
7650.558713173
 20
5029.1677474666
 10
7650.5263689245
 20
5029.7780147824
 10
7650.4948630902
 20
5030.5386953953
 10
7650.464963173
 20
5031.4247634187
 10
7650.4350632559
 20
5032.4332178533
 10
7650.4035574216
 20
5033.5674859156
 10
7650.371213173
 20
5034.802626499
 10
7650.3388689245
 20
5036.1075269386
 10
7650.3073630902
 20
5037.4474579968
 10
7650.277463173
 20
5038.787087674
 10
7650.246213171
 20
5040.185590232
 10
7650.214934688
 20
5041.5131226244
 10
7650.1828603432
 20
5042.805011693
 10
7650.1508079434
 20
5044.0274907696
 10
7650.1195934428
 20
5045.1503587476
 10
7650.089963173
 20
5046.1494119294
 10
7650.0600632559
 20
5047.0354799527
 10
7650.0285574216
 20
5047.7961605656
 10
7649.996213173
 20
5048.4064278815
 10
7649.9638689245
 20
5048.8482800063
 10
7649.9323630902
 20
5049.1124462252
 10
7649.9114498554
 20
5049.1729760519
  0
LWPOLYLINE
  5
161
330
1F
100
AcDbEntity
  8
0
  6
Continuous
 62
     7
370
    25
100
AcDbPolyline
 90
       26
 70
   128
 43
0.0
 10
7649.1614498554
 20
5028.4011992961
 10
7649.152463173
 20
5028.3751888615
 10
7649.1225632559
 20
5028.4617291229
 10
7649.0910574216
 20
5028.7258953417
 10
7649.058713173
 20
5029.1677474666
 10
7649.0263689245
 20
5029.7780147824
 10
7648.9948630902
 20
5030.5386953953
 10
7648.964963173
 20
5031.4247634187
 10
7648.9350632559
 20
5032.4332178533
 10
7648.9035574216
 20
5033.5674859156
 10
7648.871213173
 20
5034.802626499
 10
7648.8388689245
 20
5036.1075269386
 10
7648.8073630902
 20
5037.4474579968
 10
7648.777463173
 20
5038.787087674
 10
7648.746213171
 20
5040.185590232
 10
7648.714934688
 20
5041.5131226244
 10
7648.6828603432
 20
5042.805011693
 10
7648.6508079434
 20
5044.0274907696
 10
7648.6195934428
 20
5045.1503587476
 10
7648.589963173
 20
5046.1494119294
 10
7648.5600632559
 20
5047.0354799527
 10
7648.5285574216
 20
5047.7961605656
 10
7648.496213173
 20
5048.4064278815
 10
7648.4638689245
 20
5048.8482800063
 10
7648.4323630902
 20
5049.1124462252
 10
7648.4114498554
 20
5049.1729760519
  0
LWPOLYLINE
  5
162
330
1F
100
AcDbEntity
  8
0
  6
Continuous
 62
     7
370
    25
100
AcDbPolyline
 90
       26
 70
   128
 43
0.0
 10
7647.6614498554
 20
5028.4011992961
 10
7647.652463173
 20
5028.3751888615
 10
7647.6225632559
 20
5028.4617291229
 10
7647.5910574216
 20
5028.7258953417
 10
7647.558713173
 20
5029.1677474666
 10
7647.5263689245
 20
5029.7780147824
 10
7647.4948630902
 20
5030.5386953953
 10
7647.464963173
 20
5031.4247634187
 10
7647.4350632559
 20
5032.4332178533
 10
7647.4035574216
 20
5033.5674859156
 10
7647.371213173
 20
5034.802626499
 10
7647.3388689245
 20
5036.1075269386
 10
7647.3073630902
 20
5037.4474579968
 10
7647.277463173
 20
5038.787087674
 10
7647.246213171
 20
5040.185590232
 10
7647.214934688
 20
5041.5131226244
 10
7647.1828603432
 20
5042.805011693
 10
7647.1508079434
 20
5044.0274907696
 10
7647.1195934428
 20
5045.1503587476
 10
7647.089963173
 20
5046.1494119294
 10
7647.0600632559
 20
5047.0354799527
 10
7647.0285574216
 20
5047.7961605656
 10
7646.996213173
 20
5048.4064278815
 10
7646.9638689245
 20
5048.8482800063
 10
7646.9323630902
 20
5049.1124462252
 10
7646.9114498554
 20
5049.1729760519
  0
LWPOLYLINE
  5
163
330
1F
100
AcDbEntity
  8
0
  6
Continuous
 62
     7
370
    25
100
AcDbPolyline
 90
       26
 70
   128
 43
0.0
 10
7646.1614498554
 20
5028.4011992961
 10
7646.152463173
 20
5028.3751888615
 10
7646.1225632559
 20
5028.4617291229
 10
7646.0910574216
 20
5028.7258953417
 10
7646.058713173
 20
5029.1677474666
 10
7646.0263689245
 20
5029.7780147824
 10
7645.9948630902
 20
5030.5386953953
 10
7645.964963173
 20
5031.4247634187
 10
7645.9350632559
 20
5032.4332178533
 10
7645.9035574216
 20
5033.5674859156
 10
7645.871213173
 20
5034.802626499
 10
7645.8388689245
 20
5036.1075269386
 10
7645.8073630902
 20
5037.4474579968
 10
7645.777463173
 20
5038.787087674
 10
7645.746213171
 20
5040.185590232
 10
7645.714934688
 20
5041.5131226244
 10
7645.6828603432
 20
5042.805011693
 10
7645.6508079434
 20
5044.0274907696
 10
7645.6195934428
 20
5045.1503587476
 10
7645.589963173
 20
5046.1494119294
 10
7645.5600632559
 20
5047.0354799527
 10
7645.5285574216
 20
5047.7961605656
 10
7645.496213173
 20
5048.4064278815
 10
7645.4638689245
 20
5048.8482800063
 10
7645.4323630902
 20
5049.1124462252
 10
7645.4114498554
 20
5049.1729760519
  0
LWPOLYLINE
  5
164
330
1F
100
AcDbEntity
  8
0
  6
Continuous
 62
     7
370
    25
100
AcDbPolyline
 90
       26
 70
   128
 43
0.0
 10
7644.6614498554
 20
5028.4011992961
 10
7644.652463173
 20
5028.3751888615
 10
7644.6225632559
 20
5028.4617291229
 10
7644.5910574216
 20
5028.7258953417
 10
7644.558713173
 20
5029.1677474666
 10
7644.5263689245
 20
5029.7780147824
 10
7644.4948630902
 20
5030.5386953953
 10
7644.464963173
 20
5031.4247634187
 10
7644.4350632559
 20
5032.4332178533
 10
7644.4035574216
 20
5033.5674859156
 10
7644.371213173
 20
5034.802626499
 10
7644.3388689245
 20
5036.1075269386
 10
7644.3073630902
 20
5037.4474579968
 10
7644.277463173
 20
5038.787087674
 10
7644.246213171
 20
5040.185590232
 10
7644.214934688
 20
5041.5131226244
 10
7644.1828603432
 20
5042.805011693
 10
7644.1508079434
 20
5044.0274907696
 10
7644.1195934428
 20
5045.1503587476
 10
7644.089963173
 20
5046.1494119294
 10
7644.0600632559
 20
5047.0354799527
 10
7644.0285574216
 20
5047.7961605656
 10
7643.996213173
 20
5048.4064278815
 10
7643.9638689245
 20
5048.8482800063
 10
7643.9323630902
 20
5049.1124462252
 10
7643.9114498554
 20
5049.1729760519
  0
LWPOLYLINE
  5
165
330
1F
100
AcDbEntity
  8
0
  6
Continuous
 62
     7
370
    25
100
AcDbPolyline
 90
       26
 70
   128
 43
0.0
 10
7643.1614498554
 20
5028.4011992961
 10
7643.152463173
 20
5028.3751888615
 10
7643.1225632559
 20
5028.4617291229
 10
7643.0910574216
 20
5028.7258953417
 10
7643.058713173
 20
5029.1677474666
 10
7643.0263689245
 20
5029.7780147824
 10
7642.9948630902
 20
5030.5386953953
 10
7642.964963173
 20
5031.4247634187
 10
7642.9350632559
 20
5032.4332178533
 10
7642.9035574216
 20
5033.5674859156
 10
7642.871213173
 20
5034.802626499
 10
7642.8388689245
 20
5036.1075269386
 10
7642.8073630902
 20
5037.4474579968
 10
7642.777463173
 20
5038.787087674
 10
7642.746213171
 20
5040.185590232
 10
7642.714934688
 20
5041.5131226244
 10
7642.6828603432
 20
5042.805011693
 10
7642.6508079434
 20
5044.0274907696
 10
7642.6195934428
 20
5045.1503587476
 10
7642.589963173
 20
5046.1494119294
 10
7642.5600632559
 20
5047.0354799527
 10
7642.5285574216
 20
5047.7961605656
 10
7642.496213173
 20
5048.4064278815
 10
7642.4638689245
 20
5048.8482800063
 10
7642.4323630902
 20
5049.1124462252
 10
7642.4114498554
 20
5049.1729760519
  0
LWPOLYLINE
  5
166
330
1F
100
AcDbEntity
  8
0
  6
Continuous
 62
     7
370
    25
100
AcDbPolyline
 90
       26
 70
   128
 43
0.0
 10
7641.6614498554
 20
5028.4011992961
 10
7641.652463173
 20
5028.3751888615
 10
7641.6225632559
 20
5028.4617291229
 10
7641.5910574216
 20
5028.7258953417
 10
7641.558713173
 20
5029.1677474666
 10
7641.5263689245
 20
5029.7780147824
 10
7641.4948630902
 20
5030.5386953953
 10
7641.464963173
 20
5031.4247634187
 10
7641.4350632559
 20
5032.4332178533
 10
7641.4035574216
 20
5033.5674859156
 10
7641.371213173
 20
5034.802626499
 10
7641.3388689245
 20
5036.1075269386
 10
7641.3073630902
 20
5037.4474579968
 10
7641.277463173
 20
5038.787087674
 10
7641.246213171
 20
5040.185590232
 10
7641.214934688
 20
5041.5131226244
 10
7641.1828603432
 20
5042.805011693
 10
7641.1508079434
 20
5044.0274907696
 10
7641.1195934428
 20
5045.1503587476
 10
7641.089963173
 20
5046.1494119294
 10
7641.0600632559
 20
5047.0354799527
 10
7641.0285574216
 20
5047.7961605656
 10
7640.996213173
 20
5048.4064278815
 10
7640.9638689245
 20
5048.8482800063
 10
7640.9323630902
 20
5049.1124462252
 10
7640.9114498554
 20
5049.1729760519
  0
LWPOLYLINE
  5
167
330
1F
100
AcDbEntity
  8
0
  6
Continuous
 62
     7
370
    25
100
AcDbPolyline
 90
       26
 70
   128
 43
0.0
 10
7640.1614498554
 20
5028.4011992961
 10
7640.152463173
 20
5028.3751888615
 10
7640.1225632559
 20
5028.4617291229
 10
7640.0910574216
 20
5028.7258953417
 10
7640.058713173
 20
5029.1677474666
 10
7640.0263689245
 20
5029.7780147824
 10
7639.9948630902
 20
5030.5386953953
 10
7639.964963173
 20
5031.4247634187
 10
7639.9350632559
 20
5032.4332178533
 10
7639.9035574216
 20
5033.5674859156
 10
7639.871213173
 20
5034.802626499
 10
7639.8388689245
 20
5036.1075269386
 10
7639.8073630902
 20
5037.4474579968
 10
7639.777463173
 20
5038.787087674
 10
7639.746213171
 20
5040.185590232
 10
7639.714934688
 20
5041.5131226244
 10
7639.6828603432
 20
5042.805011693
 10
7639.6508079434
 20
5044.0274907696
 10
7639.6195934428
 20
5045.1503587476
 10
7639.589963173
 20
5046.1494119294
 10
7639.5600632559
 20
5047.0354799527
 10
7639.5285574216
 20
5047.7961605656
 10
7639.496213173
 20
5048.4064278815
 10
7639.4638689245
 20
5048.8482800063
 10
7639.4323630902
 20
5049.1124462252
 10
7639.4114498554
 20
5049.1729760519
  0
LWPOLYLINE
  5
168
330
1F
100
AcDbEntity
  8
0
  6
Continuous
 62
     7
370
    25
100
AcDbPolyline
 90
       26
 70
   128
 43
0.0
 10
7638.6614498554
 20
5028.4011992961
 10
7638.652463173
 20
5028.3751888615
 10
7638.6225632559
 20
5028.4617291229
 10
7638.5910574216
 20
5028.7258953417
 10
7638.558713173
 20
5029.1677474666
 10
7638.5263689245
 20
5029.7780147824
 10
7638.4948630902
 20
5030.5386953953
 10
7638.464963173
 20
5031.4247634187
 10
7638.4350632559
 20
5032.4332178533
 10
7638.4035574216
 20
5033.5674859156
 10
7638.371213173
 20
5034.802626499
 10
7638.3388689245
 20
5036.1075269386
 10
7638.3073630902
 20
5037.4474579968
 10
7638.277463173
 20
5038.787087674
 10
7638.246213171
 20
5040.185590232
 10
7638.214934688
 20
5041.5131226244
 10
7638.1828603432
 20
5042.805011693
 10
7638.1508079434
 20
5044.0274907696
 10
7638.1195934428
 20
5045.1503587476
 10
7638.089963173
 20
5046.1494119294
 10
7638.0600632559
 20
5047.0354799527
 10
7638.0285574216
 20
5047.7961605656
 10
7637.996213173
 20
5048.4064278815
 10
7637.9638689245
 20
5048.8482800063
 10
7637.9323630902
 20
5049.1124462252
 10
7637.9114498554
 20
5049.1729760519
  0
LWPOLYLINE
  5
169
330
1F
100
AcDbEntity
  8
0
  6
Continuous
 62
     7
370
    25
100
AcDbPolyline
 90
       15
 70
   128
 43
0.0
 10
7637.1614498554
 20
5028.4011992961
 10
7637.152463173
 20
5028.3751888615
 10
7637.1225632559
 20
5028.4617291229
 10
7637.0910574216
 20
5028.7258953417
 10
7637.058713173
 20
5029.1677474666
 10
7637.0263689245
 20
5029.7780147824
 10
7636.9948630902
 20
5030.5386953953
 10
7636.964963173
 20
5031.4247634187
 10
7636.9350632559
 20
5032.4332178533
 10
7636.9035574216
 20
5033.5674859156
 10
7636.871213173
 20
5034.802626499
 10
7636.8388689245
 20
5036.1075269386
 10
7636.8073630902
 20
5037.4474579968
 10
7636.777463173
 20
5038.787087674
 10
7636.746213171
 20
5040.185590232
  0
LINE
  5
16A
330
1F
100
AcDbEntity
  8
0
  6
Continuous
 62
     7
370
    25
100
AcDbLine
 10
7636.746213171
 20
5040.185590232
 30
0.0
 11
7636.746213171
 21
5048.610785789
 31
0.0
  0
LINE
  5
16B
330
1F
100
AcDbEntity
  8
0
  6
Continuous
 62
     7
370
    25
100
AcDbLine
 10
7636.746213171
 20
5032.4803691067
 30
0.0
 11
7636.746213171
 21
5040.185590232
 31
0.0
  0
LINE
  5
16C
330
1F
100
AcDbEntity
  8
0
  6
Continuous
 62
     7
370
    25
100
AcDbLine
 10
7635.746213171
 20
5030.087087674
 30
0.0
 11
7635.746213171
 21
5047.487087674
 31
0.0
  0
LINE
  5
16D
330
1F
100
AcDbEntity
  8
0
  6
Continuous
 62
     7
370
    25
100
AcDbLine
 10
7636.646213171
 20
5048.387087674
 30
0.0
 11
7636.646213171
 21
5029.187087674
 31
0.0
  0
LINE
  5
16E
330
1F
100
AcDbEntity
  8
0
  6
Continuous
 62
     7
370
    25
100
AcDbLine
 10
7552.0295573793
 20
4914.4496844157
 30
0.0
 11
7552.7987881485
 21
4911.9496844157
 31
0.0
  0
LINE
  5
16F
330
1F
100
AcDbEntity
  8
0
  6
Continuous
 62
     7
370
    25
100
AcDbLine
 10
7595.2603266101
 20
4911.9496844157
 30
0.0
 11
7596.0295573793
 21
4914.4496844157
 31
0.0
  0
LINE
  5
170
330
1F
100
AcDbEntity
  8
0
  6
Continuous
 62
     7
370
    25
100
AcDbLine
 10
7554.0295573793
 20
4907.9496844157
 30
0.0
 11
7554.7987881485
 21
4905.4496844157
 31
0.0
  0
LINE
  5
171
330
1F
100
AcDbEntity
  8
0
  6
Continuous
 62
     7
370
    25
100
AcDbLine
 10
7593.2603266101
 20
4905.4496844157
 30
0.0
 11
7594.0295573793
 21
4907.9496844157
 31
0.0
  0
LINE
  5
172
330
1F
100
AcDbEntity
  8
0
  6
Continuous
 62
     7
370
    25
100
AcDbLine
 10
7591.0295573793
 20
4921.4496844157
 30
0.0
 11
7591.0295573793
 21
4927.4496844157
 31
0.0
  0
LINE
  5
173
330
1F
100
AcDbEntity
  8
0
  6
Continuous
 62
     7
370
    25
100
AcDbLine
 10
7557.0295573793
 20
4927.4496844157
 30
0.0
 11
7557.0295573793
 21
4921.4496844157
 31
0.0
  0
LINE
  5
174
330
1F
100
AcDbEntity
  8
0
  6
Continuous
 62
     7
370
    25
100
AcDbLine
 10
7587.5295573793
 20
4914.4496844157
 30
0.0
 11
7587.5295573793
 21
4921.4496844157
 31
0.0
  0
LINE
  5
175
330
1F
100
AcDbEntity
  8
0
  6
Continuous
 62
     7
370
    25
100
AcDbLine
 10
7560.5295573793
 20
4921.4496844157
 30
0.0
 11
7560.5295573793
 21
4914.4496844157
 31
0.0
  0
LINE
  5
176
330
1F
100
AcDbEntity
  8
0
  6
Continuous
 62
     7
370
    25
100
AcDbLine
 10
7587.0295573793
 20
4907.9496844157
 30
0.0
 11
7587.0295573793
 21
4911.9496844157
 31
0.0
  0
LINE
  5
177
330
1F
100
AcDbEntity
  8
0
  6
Continuous
 62
     7
370
    25
100
AcDbLine
 10
7561.0295573793
 20
4911.9496844157
 30
0.0
 11
7561.0295573793
 21
4907.9496844157
 31
0.0
  0
LINE
  5
178
330
1F
100
AcDbEntity
  8
0
  6
Continuous
 62
     7
370
    25
100
AcDbLine
 10
7586.0295573793
 20
4903.4496844157
 30
0.0
 11
7586.0295573793
 21
4905.4496844157
 31
0.0
  0
LINE
  5
179
330
1F
100
AcDbEntity
  8
0
  6
Continuous
 62
     7
370
    25
100
AcDbLine
 10
7562.0295573793
 20
4905.4496844157
 30
0.0
 11
7562.0295573793
 21
4903.4496844157
 31
0.0
  0
LINE
  5
17A
330
1F
100
AcDbEntity
  8
0
  6
Continuous
 62
     7
370
    25
100
AcDbLine
 10
7584.6295573793
 20
4927.4496844157
 30
0.0
 11
7584.6295573793
 21
4951.4496844157
 31
0.0
  0
LINE
  5
17B
330
1F
100
AcDbEntity
  8
0
  6
Continuous
 62
     7
370
    25
100
AcDbLine
 10
7563.4295573793
 20
4951.4496844157
 30
0.0
 11
7563.4295573793
 21
4927.4496844157
 31
0.0
  0
LWPOLYLINE
  5
17C
330
1F
100
AcDbEntity
  8
0
  6
Continuous
 62
     7
370
    25
100
AcDbPolyline
 90
        3
 70
   128
 43
0.0
 10
7563.6254503287
 20
4957.909609711
 10
7564.031741983
 20
4957.6748589599
 10
7564.4295573793
 20
4957.4449903195
  0
LWPOLYLINE
  5
17D
330
1F
100
AcDbEntity
  8
0
  6
Continuous
 62
     7
370
    25
100
AcDbPolyline
 90
        3
 70
   128
 43
0.0
 10
7563.6254503287
 20
4959.409609711
 10
7564.031741983
 20
4959.1748589599
 10
7564.4295573793
 20
4958.9449903195
  0
LWPOLYLINE
  5
17E
330
1F
100
AcDbEntity
  8
0
  6
Continuous
 62
     7
370
    25
100
AcDbPolyline
 90
        3
 70
   128
 43
0.0
 10
7563.6254503287
 20
4960.909609711
 10
7564.031741983
 20
4960.6748589599
 10
7564.4295573793
 20
4960.4449903195
  0
LWPOLYLINE
  5
17F
330
1F
100
AcDbEntity
  8
0
  6
Continuous
 62
     7
370
    25
100
AcDbPolyline
 90
        3
 70
   128
 43
0.0
 10
7563.6254503287
 20
4962.409609711
 10
7564.031741983
 20
4962.1748589599
 10
7564.4295573793
 20
4961.9449903195
  0
LWPOLYLINE
  5
180
330
1F
100
AcDbEntity
  8
0
  6
Continuous
 62
     7
370
    25
100
AcDbPolyline
 90
        3
 70
   128
 43
0.0
 10
7563.6254503287
 20
4963.909609711
 10
7564.031741983
 20
4963.6748589599
 10
7564.4295573793
 20
4963.4449903195
  0
LWPOLYLINE
  5
181
330
1F
100
AcDbEntity
  8
0
  6
Continuous
 62
     7
370
    25
100
AcDbPolyline
 90
        3
 70
   128
 43
0.0
 10
7563.6254503287
 20
4965.409609711
 10
7564.031741983
 20
4965.1748589599
 10
7564.4295573793
 20
4964.9449903195
  0
LWPOLYLINE
  5
182
330
1F
100
AcDbEntity
  8
0
  6
Continuous
 62
     7
370
    25
100
AcDbPolyline
 90
        3
 70
   128
 43
0.0
 10
7563.6254503287
 20
4966.909609711
 10
7564.031741983
 20
4966.6748589599
 10
7564.4295573793
 20
4966.4449903195
  0
LWPOLYLINE
  5
183
330
1F
100
AcDbEntity
  8
0
  6
Continuous
 62
     7
370
    25
100
AcDbPolyline
 90
        3
 70
   128
 43
0.0
 10
7563.6254503287
 20
4968.409609711
 10
7564.031741983
 20
4968.1748589599
 10
7564.4295573793
 20
4967.9449903195
  0
LWPOLYLINE
  5
184
330
1F
100
AcDbEntity
  8
0
  6
Continuous
 62
     7
370
    25
100
AcDbPolyline
 90
        3
 70
   128
 43
0.0
 10
7563.6254503287
 20
4969.909609711
 10
7564.031741983
 20
4969.6748589599
 10
7564.4295573793
 20
4969.4449903195
  0
LWPOLYLINE
  5
185
330
1F
100
AcDbEntity
  8
0
  6
Continuous
 62
     7
370
    25
100
AcDbPolyline
 90
        3
 70
   128
 43
0.0
 10
7563.6254503287
 20
4971.409609711
 10
7564.031741983
 20
4971.1748589599
 10
7564.4295573793
 20
4970.9449903195
  0
LWPOLYLINE
  5
186
330
1F
100
AcDbEntity
  8
0
  6
Continuous
 62
     7
370
    25
100
AcDbPolyline
 90
        3
 70
   128
 43
0.0
 10
7563.6254503287
 20
4972.909609711
 10
7564.031741983
 20
4972.6748589599
 10
7564.4295573793
 20
4972.4449903195
  0
LWPOLYLINE
  5
187
330
1F
100
AcDbEntity
  8
0
  6
Continuous
 62
     7
370
    25
100
AcDbPolyline
 90
        3
 70
   128
 43
0.0
 10
7563.6254503287
 20
4974.409609711
 10
7564.031741983
 20
4974.1748589599
 10
7564.4295573793
 20
4973.9449903195
  0
LWPOLYLINE
  5
188
330
1F
100
AcDbEntity
  8
0
  6
Continuous
 62
     7
370
    25
100
AcDbPolyline
 90
        3
 70
   128
 43
0.0
 10
7563.6254503287
 20
4975.909609711
 10
7564.031741983
 20
4975.6748589599
 10
7564.4295573793
 20
4975.4449903195
  0
LWPOLYLINE
  5
189
330
1F
100
AcDbEntity
  8
0
  6
Continuous
 62
     7
370
    25
100
AcDbPolyline
 90
        3
 70
   128
 43
0.0
 10
7563.6254503287
 20
4977.409609711
 10
7564.031741983
 20
4977.1748589599
 10
7564.4295573793
 20
4976.9449903195
  0
LWPOLYLINE
  5
18A
330
1F
100
AcDbEntity
  8
0
  6
Continuous
 62
     7
370
    25
100
AcDbPolyline
 90
        3
 70
   128
 43
0.0
 10
7563.6254503287
 20
4978.909609711
 10
7564.031741983
 20
4978.6748589599
 10
7564.4295573793
 20
4978.4449903195
  0
LWPOLYLINE
  5
18B
330
1F
100
AcDbEntity
  8
0
  6
Continuous
 62
     7
370
    25
100
AcDbPolyline
 90
        3
 70
   128
 43
0.0
 10
7563.6254503287
 20
4980.409609711
 10
7564.031741983
 20
4980.1748589599
 10
7564.4295573793
 20
4979.9449903195
  0
LWPOLYLINE
  5
18C
330
1F
100
AcDbEntity
  8
0
  6
Continuous
 62
     7
370
    25
100
AcDbPolyline
 90
        3
 70
   128
 43
0.0
 10
7583.6211077175
 20
4958.1901078733
 10
7584.0273727756
 20
4958.4248589599
 10
7584.4336644298
 20
4958.659609711
  0
LWPOLYLINE
  5
18D
330
1F
100
AcDbEntity
  8
0
  6
Continuous
 62
     7
370
    25
100
AcDbPolyline
 90
        3
 70
   128
 43
0.0
 10
7583.6211077175
 20
4959.6901078733
 10
7584.0273727756
 20
4959.9248589599
 10
7584.4336644298
 20
4960.159609711
  0
LWPOLYLINE
  5
18E
330
1F
100
AcDbEntity
  8
0
  6
Continuous
 62
     7
370
    25
100
AcDbPolyline
 90
        3
 70
   128
 43
0.0
 10
7583.6211077175
 20
4961.1901078733
 10
7584.0273727756
 20
4961.4248589599
 10
7584.4336644298
 20
4961.659609711
  0
LWPOLYLINE
  5
18F
330
1F
100
AcDbEntity
  8
0
  6
Continuous
 62
     7
370
    25
100
AcDbPolyline
 90
        3
 70
   128
 43
0.0
 10
7583.6211077175
 20
4962.6901078733
 10
7584.0273727756
 20
4962.9248589599
 10
7584.4336644298
 20
4963.159609711
  0
LWPOLYLINE
  5
190
330
1F
100
AcDbEntity
  8
0
  6
Continuous
 62
     7
370
    25
100
AcDbPolyline
 90
        3
 70
   128
 43
0.0
 10
7583.6211077175
 20
4964.1901078733
 10
7584.0273727756
 20
4964.4248589599
 10
7584.4336644298
 20
4964.659609711
  0
LWPOLYLINE
  5
191
330
1F
100
AcDbEntity
  8
0
  6
Continuous
 62
     7
370
    25
100
AcDbPolyline
 90
        3
 70
   128
 43
0.0
 10
7583.6211077175
 20
4965.6901078733
 10
7584.0273727756
 20
4965.9248589599
 10
7584.4336644298
 20
4966.159609711
  0
LWPOLYLINE
  5
192
330
1F
100
AcDbEntity
  8
0
  6
Continuous
 62
     7
370
    25
100
AcDbPolyline
 90
        3
 70
   128
 43
0.0
 10
7583.6211077175
 20
4967.1901078733
 10
7584.0273727756
 20
4967.4248589599
 10
7584.4336644298
 20
4967.659609711
  0
LWPOLYLINE
  5
193
330
1F
100
AcDbEntity
  8
0
  6
Continuous
 62
     7
370
    25
100
AcDbPolyline
 90
        3
 70
   128
 43
0.0
 10
7583.6211077175
 20
4968.6901078733
 10
7584.0273727756
 20
4968.9248589599
 10
7584.4336644298
 20
4969.159609711
  0
LWPOLYLINE
  5
194
330
1F
100
AcDbEntity
  8
0
  6
Continuous
 62
     7
370
    25
100
AcDbPolyline
 90
        3
 70
   128
 43
0.0
 10
7583.6211077175
 20
4970.1901078733
 10
7584.0273727756
 20
4970.4248589599
 10
7584.4336644298
 20
4970.659609711
  0
LWPOLYLINE
  5
195
330
1F
100
AcDbEntity
  8
0
  6
Continuous
 62
     7
370
    25
100
AcDbPolyline
 90
        3
 70
   128
 43
0.0
 10
7583.6211077175
 20
4971.6901078733
 10
7584.0273727756
 20
4971.9248589599
 10
7584.4336644298
 20
4972.159609711
  0
LWPOLYLINE
  5
196
330
1F
100
AcDbEntity
  8
0
  6
Continuous
 62
     7
370
    25
100
AcDbPolyline
 90
        3
 70
   128
 43
0.0
 10
7583.6211077175
 20
4973.1901078733
 10
7584.0273727756
 20
4973.4248589599
 10
7584.4336644298
 20
4973.659609711
  0
LWPOLYLINE
  5
197
330
1F
100
AcDbEntity
  8
0
  6
Continuous
 62
     7
370
    25
100
AcDbPolyline
 90
        3
 70
   128
 43
0.0
 10
7583.6211077175
 20
4974.6901078733
 10
7584.0273727756
 20
4974.9248589599
 10
7584.4336644298
 20
4975.159609711
  0
LWPOLYLINE
  5
198
330
1F
100
AcDbEntity
  8
0
  6
Continuous
 62
     7
370
    25
100
AcDbPolyline
 90
        3
 70
   128
 43
0.0
 10
7583.6211077175
 20
4976.1901078733
 10
7584.0273727756
 20
4976.4248589599
 10
7584.4336644298
 20
4976.659609711
  0
LWPOLYLINE
  5
199
330
1F
100
AcDbEntity
  8
0
  6
Continuous
 62
     7
370
    25
100
AcDbPolyline
 90
        3
 70
   128
 43
0.0
 10
7583.6211077175
 20
4977.6901078733
 10
7584.0273727756
 20
4977.9248589599
 10
7584.4336644298
 20
4978.159609711
  0
LWPOLYLINE
  5
19A
330
1F
100
AcDbEntity
  8
0
  6
Continuous
 62
     7
370
    25
100
AcDbPolyline
 90
        3
 70
   128
 43
0.0
 10
7583.6211077175
 20
4979.1901078733
 10
7584.0273727756
 20
4979.4248589599
 10
7584.4336644298
 20
4979.659609711
  0
LWPOLYLINE
  5
19B
330
1F
100
AcDbEntity
  8
0
  6
Continuous
 62
     7
370
    25
100
AcDbPolyline
 90
        3
 70
   128
 43
0.0
 10
7583.6211077175
 20
4956.6901078733
 10
7584.0273727756
 20
4956.9248589599
 10
7584.4336644298
 20
4957.159609711
  0
LWPOLYLINE
  5
19C
330
1F
100
AcDbEntity
  8
0
  6
Continuous
 62
     7
370
    25
100
AcDbPolyline
 90
        3
 70
   128
 43
0.0
 10
7564.438018074
 20
4958.5842672552
 10
7564.0317501284
 20
4958.3495145092
 10
7563.6254555618
 20
4958.1147621016
  0
LWPOLYLINE
  5
19D
330
1F
100
AcDbEntity
  8
0
  6
Continuous
 62
     7
370
    25
100
AcDbPolyline
 90
        3
 70
   128
 43
0.0
 10
7564.438018074
 20
4960.0842672552
 10
7564.0317501284
 20
4959.8495145092
 10
7563.6254555618
 20
4959.6147621016
  0
LWPOLYLINE
  5
19E
330
1F
100
AcDbEntity
  8
0
  6
Continuous
 62
     7
370
    25
100
AcDbPolyline
 90
        3
 70
   128
 43
0.0
 10
7564.438018074
 20
4961.5842672552
 10
7564.0317501284
 20
4961.3495145092
 10
7563.6254555618
 20
4961.1147621016
  0
LWPOLYLINE
  5
19F
330
1F
100
AcDbEntity
  8
0
  6
Continuous
 62
     7
370
    25
100
AcDbPolyline
 90
        3
 70
   128
 43
0.0
 10
7564.438018074
 20
4963.0842672552
 10
7564.0317501284
 20
4962.8495145092
 10
7563.6254555618
 20
4962.6147621016
  0
LWPOLYLINE
  5
1A0
330
1F
100
AcDbEntity
  8
0
  6
Continuous
 62
     7
370
    25
100
AcDbPolyline
 90
        3
 70
   128
 43
0.0
 10
7564.438018074
 20
4964.5842672552
 10
7564.0317501284
 20
4964.3495145092
 10
7563.6254555618
 20
4964.1147621016
  0
LWPOLYLINE
  5
1A1
330
1F
100
AcDbEntity
  8
0
  6
Continuous
 62
     7
370
    25
100
AcDbPolyline
 90
        3
 70
   128
 43
0.0
 10
7564.438018074
 20
4966.0842672552
 10
7564.0317501284
 20
4965.8495145092
 10
7563.6254555618
 20
4965.6147621016
  0
LWPOLYLINE
  5
1A2
330
1F
100
AcDbEntity
  8
0
  6
Continuous
 62
     7
370
    25
100
AcDbPolyline
 90
        3
 70
   128
 43
0.0
 10
7564.438018074
 20
4967.5842672552
 10
7564.0317501284
 20
4967.3495145092
 10
7563.6254555618
 20
4967.1147621016
  0
LWPOLYLINE
  5
1A3
330
1F
100
AcDbEntity
  8
0
  6
Continuous
 62
     7
370
    25
100
AcDbPolyline
 90
        3
 70
   128
 43
0.0
 10
7564.438018074
 20
4969.0842672552
 10
7564.0317501284
 20
4968.8495145092
 10
7563.6254555618
 20
4968.6147621016
  0
LWPOLYLINE
  5
1A4
330
1F
100
AcDbEntity
  8
0
  6
Continuous
 62
     7
370
    25
100
AcDbPolyline
 90
        3
 70
   128
 43
0.0
 10
7564.438018074
 20
4970.5842672552
 10
7564.0317501284
 20
4970.3495145092
 10
7563.6254555618
 20
4970.1147621016
  0
LWPOLYLINE
  5
1A5
330
1F
100
AcDbEntity
  8
0
  6
Continuous
 62
     7
370
    25
100
AcDbPolyline
 90
        3
 70
   128
 43
0.0
 10
7564.438018074
 20
4972.0842672552
 10
7564.0317501284
 20
4971.8495145092
 10
7563.6254555618
 20
4971.6147621016
  0
LWPOLYLINE
  5
1A6
330
1F
100
AcDbEntity
  8
0
  6
Continuous
 62
     7
370
    25
100
AcDbPolyline
 90
        3
 70
   128
 43
0.0
 10
7564.438018074
 20
4973.5842672552
 10
7564.0317501284
 20
4973.3495145092
 10
7563.6254555618
 20
4973.1147621016
  0
LWPOLYLINE
  5
1A7
330
1F
100
AcDbEntity
  8
0
  6
Continuous
 62
     7
370
    25
100
AcDbPolyline
 90
        3
 70
   128
 43
0.0
 10
7564.438018074
 20
4975.0842672552
 10
7564.0317501284
 20
4974.8495145092
 10
7563.6254555618
 20
4974.6147621016
  0
LWPOLYLINE
  5
1A8
330
1F
100
AcDbEntity
  8
0
  6
Continuous
 62
     7
370
    25
100
AcDbPolyline
 90
        3
 70
   128
 43
0.0
 10
7564.438018074
 20
4976.5842672552
 10
7564.0317501284
 20
4976.3495145092
 10
7563.6254555618
 20
4976.1147621016
  0
LWPOLYLINE
  5
1A9
330
1F
100
AcDbEntity
  8
0
  6
Continuous
 62
     7
370
    25
100
AcDbPolyline
 90
        3
 70
   128
 43
0.0
 10
7564.438018074
 20
4978.0842672552
 10
7564.0317501284
 20
4977.8495145092
 10
7563.6254555618
 20
4977.6147621016
  0
LWPOLYLINE
  5
1AA
330
1F
100
AcDbEntity
  8
0
  6
Continuous
 62
     7
370
    25
100
AcDbPolyline
 90
        3
 70
   128
 43
0.0
 10
7564.438018074
 20
4979.5842672552
 10
7564.0317501284
 20
4979.3495145092
 10
7563.6254555618
 20
4979.1147621016
  0
LWPOLYLINE
  5
1AB
330
1F
100
AcDbEntity
  8
0
  6
Continuous
 62
     7
370
    25
100
AcDbPolyline
 90
        3
 70
   128
 43
0.0
 10
7584.4207861672
 20
4957.370375024
 10
7584.0150801632
 20
4957.6049555065
 10
7583.6295573793
 20
4957.827886975
  0
LWPOLYLINE
  5
1AC
330
1F
100
AcDbEntity
  8
0
  6
Continuous
 62
     7
370
    25
100
AcDbPolyline
 90
        3
 70
   128
 43
0.0
 10
7584.4207861672
 20
4958.870375024
 10
7584.0150801632
 20
4959.1049555065
 10
7583.6295573793
 20
4959.327886975
  0
LWPOLYLINE
  5
1AD
330
1F
100
AcDbEntity
  8
0
  6
Continuous
 62
     7
370
    25
100
AcDbPolyline
 90
        3
 70
   128
 43
0.0
 10
7584.4207861672
 20
4960.370375024
 10
7584.0150801632
 20
4960.6049555065
 10
7583.6295573793
 20
4960.827886975
  0
LWPOLYLINE
  5
1AE
330
1F
100
AcDbEntity
  8
0
  6
Continuous
 62
     7
370
    25
100
AcDbPolyline
 90
        3
 70
   128
 43
0.0
 10
7584.4207861672
 20
4961.870375024
 10
7584.0150801632
 20
4962.1049555065
 10
7583.6295573793
 20
4962.327886975
  0
LWPOLYLINE
  5
1AF
330
1F
100
AcDbEntity
  8
0
  6
Continuous
 62
     7
370
    25
100
AcDbPolyline
 90
        3
 70
   128
 43
0.0
 10
7584.4207861672
 20
4963.370375024
 10
7584.0150801632
 20
4963.6049555065
 10
7583.6295573793
 20
4963.827886975
  0
LWPOLYLINE
  5
1B0
330
1F
100
AcDbEntity
  8
0
  6
Continuous
 62
     7
370
    25
100
AcDbPolyline
 90
        3
 70
   128
 43
0.0
 10
7584.4207861672
 20
4964.870375024
 10
7584.0150801632
 20
4965.1049555065
 10
7583.6295573793
 20
4965.327886975
  0
LWPOLYLINE
  5
1B1
330
1F
100
AcDbEntity
  8
0
  6
Continuous
 62
     7
370
    25
100
AcDbPolyline
 90
        3
 70
   128
 43
0.0
 10
7584.4207861672
 20
4966.370375024
 10
7584.0150801632
 20
4966.6049555065
 10
7583.6295573793
 20
4966.827886975
  0
LWPOLYLINE
  5
1B2
330
1F
100
AcDbEntity
  8
0
  6
Continuous
 62
     7
370
    25
100
AcDbPolyline
 90
        3
 70
   128
 43
0.0
 10
7584.4207861672
 20
4967.870375024
 10
7584.0150801632
 20
4968.1049555065
 10
7583.6295573793
 20
4968.327886975
  0
LWPOLYLINE
  5
1B3
330
1F
100
AcDbEntity
  8
0
  6
Continuous
 62
     7
370
    25
100
AcDbPolyline
 90
        3
 70
   128
 43
0.0
 10
7584.4207861672
 20
4969.370375024
 10
7584.0150801632
 20
4969.6049555065
 10
7583.6295573793
 20
4969.827886975
  0
LWPOLYLINE
  5
1B4
330
1F
100
AcDbEntity
  8
0
  6
Continuous
 62
     7
370
    25
100
AcDbPolyline
 90
        3
 70
   128
 43
0.0
 10
7584.4207861672
 20
4970.870375024
 10
7584.0150801632
 20
4971.1049555065
 10
7583.6295573793
 20
4971.327886975
  0
LWPOLYLINE
  5
1B5
330
1F
100
AcDbEntity
  8
0
  6
Continuous
 62
     7
370
    25
100
AcDbPolyline
 90
        3
 70
   128
 43
0.0
 10
7584.4207861672
 20
4972.370375024
 10
7584.0150801632
 20
4972.6049555065
 10
7583.6295573793
 20
4972.827886975
  0
LWPOLYLINE
  5
1B6
330
1F
100
AcDbEntity
  8
0
  6
Continuous
 62
     7
370
    25
100
AcDbPolyline
 90
        3
 70
   128
 43
0.0
 10
7584.4207861672
 20
4973.870375024
 10
7584.0150801632
 20
4974.1049555065
 10
7583.6295573793
 20
4974.327886975
  0
LWPOLYLINE
  5
1B7
330
1F
100
AcDbEntity
  8
0
  6
Continuous
 62
     7
370
    25
100
AcDbPolyline
 90
        3
 70
   128
 43
0.0
 10
7584.4207861672
 20
4975.370375024
 10
7584.0150801632
 20
4975.6049555065
 10
7583.6295573793
 20
4975.827886975
  0
LWPOLYLINE
  5
1B8
330
1F
100
AcDbEntity
  8
0
  6
Continuous
 62
     7
370
    25
100
AcDbPolyline
 90
        3
 70
   128
 43
0.0
 10
7584.4207861672
 20
4976.870375024
 10
7584.0150801632
 20
4977.1049555065
 10
7583.6295573793
 20
4977.327886975
  0
LWPOLYLINE
  5
1B9
330
1F
100
AcDbEntity
  8
0
  6
Continuous
 62
     7
370
    25
100
AcDbPolyline
 90
        3
 70
   128
 43
0.0
 10
7584.4207861672
 20
4978.370375024
 10
7584.0150801632
 20
4978.6049555065
 10
7583.6295573793
 20
4978.827886975
  0
LWPOLYLINE
  5
1BA
330
1F
100
AcDbEntity
  8
0
  6
Continuous
 62
     7
370
    25
100
AcDbPolyline
 90
        3
 70
   128
 43
0.0
 10
7584.4207861672
 20
4979.870375024
 10
7584.0150801632
 20
4980.1049555065
 10
7583.6295573793
 20
4980.327886975
  0
LWPOLYLINE
  5
1BB
330
1F
100
AcDbEntity
  8
0
  6
Continuous
 62
     7
370
    25
100
AcDbPolyline
 90
        3
 70
   128
 43
0.0
 10
7564.438018074
 20
4957.0842672552
 10
7564.0317501284
 20
4956.8495145092
 10
7563.6254555618
 20
4956.6147621016
  0
LINE
  5
1BC
330
1F
100
AcDbEntity
  8
0
  6
Continuous
 62
     7
370
    25
100
AcDbLine
 10
7563.6176585691
 20
4958.1059391232
 30
0.0
 11
7563.6176585691
 21
4957.9184391232
 31
0.0
  0
LINE
  5
1BD
330
1F
100
AcDbEntity
  8
0
  6
Continuous
 62
     7
370
    25
100
AcDbLine
 10
7563.6176585691
 20
4959.6059391232
 30
0.0
 11
7563.6176585691
 21
4959.4184391232
 31
0.0
  0
LINE
  5
1BE
330
1F
100
AcDbEntity
  8
0
  6
Continuous
 62
     7
370
    25
100
AcDbLine
 10
7563.6176585691
 20
4961.1059391232
 30
0.0
 11
7563.6176585691
 21
4960.9184391232
 31
0.0
  0
LINE
  5
1BF
330
1F
100
AcDbEntity
  8
0
  6
Continuous
 62
     7
370
    25
100
AcDbLine
 10
7563.6176585691
 20
4962.6059391232
 30
0.0
 11
7563.6176585691
 21
4962.4184391232
 31
0.0
  0
LINE
  5
1C0
330
1F
100
AcDbEntity
  8
0
  6
Continuous
 62
     7
370
    25
100
AcDbLine
 10
7563.6176585691
 20
4964.1059391232
 30
0.0
 11
7563.6176585691
 21
4963.9184391232
 31
0.0
  0
LINE
  5
1C1
330
1F
100
AcDbEntity
  8
0
  6
Continuous
 62
     7
370
    25
100
AcDbLine
 10
7563.6176585691
 20
4965.6059391232
 30
0.0
 11
7563.6176585691
 21
4965.4184391232
 31
0.0
  0
LINE
  5
1C2
330
1F
100
AcDbEntity
  8
0
  6
Continuous
 62
     7
370
    25
100
AcDbLine
 10
7563.6176585691
 20
4967.1059391232
 30
0.0
 11
7563.6176585691
 21
4966.9184391232
 31
0.0
  0
LINE
  5
1C3
330
1F
100
AcDbEntity
  8
0
  6
Continuous
 62
     7
370
    25
100
AcDbLine
 10
7563.6176585691
 20
4968.6059391232
 30
0.0
 11
7563.6176585691
 21
4968.4184391232
 31
0.0
  0
LINE
  5
1C4
330
1F
100
AcDbEntity
  8
0
  6
Continuous
 62
     7
370
    25
100
AcDbLine
 10
7563.6176585691
 20
4970.1059391232
 30
0.0
 11
7563.6176585691
 21
4969.9184391232
 31
0.0
  0
LINE
  5
1C5
330
1F
100
AcDbEntity
  8
0
  6
Continuous
 62
     7
370
    25
100
AcDbLine
 10
7563.6176585691
 20
4971.6059391232
 30
0.0
 11
7563.6176585691
 21
4971.4184391232
 31
0.0
  0
LINE
  5
1C6
330
1F
100
AcDbEntity
  8
0
  6
Continuous
 62
     7
370
    25
100
AcDbLine
 10
7563.6176585691
 20
4973.1059391232
 30
0.0
 11
7563.6176585691
 21
4972.9184391232
 31
0.0
  0
LINE
  5
1C7
330
1F
100
AcDbEntity
  8
0
  6
Continuous
 62
     7
370
    25
100
AcDbLine
 10
7563.6176585691
 20
4974.6059391232
 30
0.0
 11
7563.6176585691
 21
4974.4184391232
 31
0.0
  0
LINE
  5
1C8
330
1F
100
AcDbEntity
  8
0
  6
Continuous
 62
     7
370
    25
100
AcDbLine
 10
7563.6176585691
 20
4976.1059391232
 30
0.0
 11
7563.6176585691
 21
4975.9184391232
 31
0.0
  0
LINE
  5
1C9
330
1F
100
AcDbEntity
  8
0
  6
Continuous
 62
     7
370
    25
100
AcDbLine
 10
7563.6176585691
 20
4977.6059391232
 30
0.0
 11
7563.6176585691
 21
4977.4184391232
 31
0.0
  0
LINE
  5
1CA
330
1F
100
AcDbEntity
  8
0
  6
Continuous
 62
     7
370
    25
100
AcDbLine
 10
7563.6176585691
 20
4979.1059391232
 30
0.0
 11
7563.6176585691
 21
4978.9184391232
 31
0.0
  0
LINE
  5
1CB
330
1F
100
AcDbEntity
  8
0
  6
Continuous
 62
     7
370
    25
100
AcDbLine
 10
7584.4414561895
 20
4958.6684391232
 30
0.0
 11
7584.4414561895
 21
4958.8559391232
 31
0.0
  0
LINE
  5
1CC
330
1F
100
AcDbEntity
  8
0
  6
Continuous
 62
     7
370
    25
100
AcDbLine
 10
7584.4414561895
 20
4960.1684391232
 30
0.0
 11
7584.4414561895
 21
4960.3559391232
 31
0.0
  0
LINE
  5
1CD
330
1F
100
AcDbEntity
  8
0
  6
Continuous
 62
     7
370
    25
100
AcDbLine
 10
7584.4414561895
 20
4961.6684391232
 30
0.0
 11
7584.4414561895
 21
4961.8559391232
 31
0.0
  0
LINE
  5
1CE
330
1F
100
AcDbEntity
  8
0
  6
Continuous
 62
     7
370
    25
100
AcDbLine
 10
7584.4414561895
 20
4963.1684391232
 30
0.0
 11
7584.4414561895
 21
4963.3559391232
 31
0.0
  0
LINE
  5
1CF
330
1F
100
AcDbEntity
  8
0
  6
Continuous
 62
     7
370
    25
100
AcDbLine
 10
7584.4414561895
 20
4964.6684391232
 30
0.0
 11
7584.4414561895
 21
4964.8559391232
 31
0.0
  0
LINE
  5
1D0
330
1F
100
AcDbEntity
  8
0
  6
Continuous
 62
     7
370
    25
100
AcDbLine
 10
7584.4414561895
 20
4966.1684391232
 30
0.0
 11
7584.4414561895
 21
4966.3559391232
 31
0.0
  0
LINE
  5
1D1
330
1F
100
AcDbEntity
  8
0
  6
Continuous
 62
     7
370
    25
100
AcDbLine
 10
7584.4414561895
 20
4967.6684391232
 30
0.0
 11
7584.4414561895
 21
4967.8559391232
 31
0.0
  0
LINE
  5
1D2
330
1F
100
AcDbEntity
  8
0
  6
Continuous
 62
     7
370
    25
100
AcDbLine
 10
7584.4414561895
 20
4969.1684391232
 30
0.0
 11
7584.4414561895
 21
4969.3559391232
 31
0.0
  0
LINE
  5
1D3
330
1F
100
AcDbEntity
  8
0
  6
Continuous
 62
     7
370
    25
100
AcDbLine
 10
7584.4414561895
 20
4970.6684391232
 30
0.0
 11
7584.4414561895
 21
4970.8559391232
 31
0.0
  0
LINE
  5
1D4
330
1F
100
AcDbEntity
  8
0
  6
Continuous
 62
     7
370
    25
100
AcDbLine
 10
7584.4414561895
 20
4972.1684391232
 30
0.0
 11
7584.4414561895
 21
4972.3559391232
 31
0.0
  0
LINE
  5
1D5
330
1F
100
AcDbEntity
  8
0
  6
Continuous
 62
     7
370
    25
100
AcDbLine
 10
7584.4414561895
 20
4973.6684391232
 30
0.0
 11
7584.4414561895
 21
4973.8559391232
 31
0.0
  0
LINE
  5
1D6
330
1F
100
AcDbEntity
  8
0
  6
Continuous
 62
     7
370
    25
100
AcDbLine
 10
7584.4414561895
 20
4975.1684391232
 30
0.0
 11
7584.4414561895
 21
4975.3559391232
 31
0.0
  0
LINE
  5
1D7
330
1F
100
AcDbEntity
  8
0
  6
Continuous
 62
     7
370
    25
100
AcDbLine
 10
7584.4414561895
 20
4976.6684391232
 30
0.0
 11
7584.4414561895
 21
4976.8559391232
 31
0.0
  0
LINE
  5
1D8
330
1F
100
AcDbEntity
  8
0
  6
Continuous
 62
     7
370
    25
100
AcDbLine
 10
7584.4414561895
 20
4978.1684391232
 30
0.0
 11
7584.4414561895
 21
4978.3559391232
 31
0.0
  0
LINE
  5
1D9
330
1F
100
AcDbEntity
  8
0
  6
Continuous
 62
     7
370
    25
100
AcDbLine
 10
7584.4414561895
 20
4979.6684391232
 30
0.0
 11
7584.4414561895
 21
4979.8559391232
 31
0.0
  0
LINE
  5
1DA
330
1F
100
AcDbEntity
  8
0
  6
Continuous
 62
     7
370
    25
100
AcDbLine
 10
7584.4414561895
 20
4957.1684391232
 30
0.0
 11
7584.4414561895
 21
4957.3559391232
 31
0.0
  0
LINE
  5
1DB
330
1F
100
AcDbEntity
  8
0
  6
Continuous
 62
     7
370
    25
100
AcDbLine
 10
7563.6176585691
 20
4956.6059391232
 30
0.0
 11
7563.6176585691
 21
4956.4496844157
 31
0.0
  0
LINE
  5
1DC
330
1F
100
AcDbEntity
  8
0
  6
Continuous
 62
     7
370
    25
100
AcDbLine
 10
7583.6295573793
 20
4980.5496844157
 30
0.0
 11
7582.7295573793
 21
4981.4496844157
 31
0.0
  0
LINE
  5
1DD
330
1F
100
AcDbEntity
  8
0
  6
Continuous
 62
     7
370
    25
100
AcDbLine
 10
7565.3295573793
 20
4981.4496844157
 30
0.0
 11
7564.4295573793
 21
4980.5496844157
 31
0.0
  0
LINE
  5
1DE
330
1F
100
AcDbEntity
  8
0
  6
Continuous
 62
     7
370
    25
100
AcDbLine
 10
7564.4295573793
 20
4957.4496844157
 30
0.0
 11
7564.4295573793
 21
4957.079378434
 31
0.0
  0
LINE
  5
1DF
330
1F
100
AcDbEntity
  8
0
  6
Continuous
 62
     7
370
    25
100
AcDbLine
 10
7564.4295573793
 20
4958.9496844157
 30
0.0
 11
7564.4295573793
 21
4958.579378434
 31
0.0
  0
LINE
  5
1E0
330
1F
100
AcDbEntity
  8
0
  6
Continuous
 62
     7
370
    25
100
AcDbLine
 10
7564.4295573793
 20
4960.4496844157
 30
0.0
 11
7564.4295573793
 21
4960.079378434
 31
0.0
  0
LINE
  5
1E1
330
1F
100
AcDbEntity
  8
0
  6
Continuous
 62
     7
370
    25
100
AcDbLine
 10
7564.4295573793
 20
4961.9496844157
 30
0.0
 11
7564.4295573793
 21
4961.579378434
 31
0.0
  0
LINE
  5
1E2
330
1F
100
AcDbEntity
  8
0
  6
Continuous
 62
     7
370
    25
100
AcDbLine
 10
7564.4295573793
 20
4963.4496844157
 30
0.0
 11
7564.4295573793
 21
4963.079378434
 31
0.0
  0
LINE
  5
1E3
330
1F
100
AcDbEntity
  8
0
  6
Continuous
 62
     7
370
    25
100
AcDbLine
 10
7564.4295573793
 20
4964.9496844157
 30
0.0
 11
7564.4295573793
 21
4964.579378434
 31
0.0
  0
LINE
  5
1E4
330
1F
100
AcDbEntity
  8
0
  6
Continuous
 62
     7
370
    25
100
AcDbLine
 10
7564.4295573793
 20
4966.4496844157
 30
0.0
 11
7564.4295573793
 21
4966.079378434
 31
0.0
  0
LINE
  5
1E5
330
1F
100
AcDbEntity
  8
0
  6
Continuous
 62
     7
370
    25
100
AcDbLine
 10
7564.4295573793
 20
4967.9496844157
 30
0.0
 11
7564.4295573793
 21
4967.579378434
 31
0.0
  0
LINE
  5
1E6
330
1F
100
AcDbEntity
  8
0
  6
Continuous
 62
     7
370
    25
100
AcDbLine
 10
7564.4295573793
 20
4969.4496844157
 30
0.0
 11
7564.4295573793
 21
4969.079378434
 31
0.0
  0
LINE
  5
1E7
330
1F
100
AcDbEntity
  8
0
  6
Continuous
 62
     7
370
    25
100
AcDbLine
 10
7564.4295573793
 20
4970.9496844157
 30
0.0
 11
7564.4295573793
 21
4970.579378434
 31
0.0
  0
LINE
  5
1E8
330
1F
100
AcDbEntity
  8
0
  6
Continuous
 62
     7
370
    25
100
AcDbLine
 10
7564.4295573793
 20
4972.4496844157
 30
0.0
 11
7564.4295573793
 21
4972.079378434
 31
0.0
  0
LINE
  5
1E9
330
1F
100
AcDbEntity
  8
0
  6
Continuous
 62
     7
370
    25
100
AcDbLine
 10
7564.4295573793
 20
4973.9496844157
 30
0.0
 11
7564.4295573793
 21
4973.579378434
 31
0.0
  0
LINE
  5
1EA
330
1F
100
AcDbEntity
  8
0
  6
Continuous
 62
     7
370
    25
100
AcDbLine
 10
7564.4295573793
 20
4975.4496844157
 30
0.0
 11
7564.4295573793
 21
4975.079378434
 31
0.0
  0
LINE
  5
1EB
330
1F
100
AcDbEntity
  8
0
  6
Continuous
 62
     7
370
    25
100
AcDbLine
 10
7564.4295573793
 20
4976.9496844157
 30
0.0
 11
7564.4295573793
 21
4976.579378434
 31
0.0
  0
LINE
  5
1EC
330
1F
100
AcDbEntity
  8
0
  6
Continuous
 62
     7
370
    25
100
AcDbLine
 10
7564.4295573793
 20
4978.4496844157
 30
0.0
 11
7564.4295573793
 21
4978.079378434
 31
0.0
  0
LINE
  5
1ED
330
1F
100
AcDbEntity
  8
0
  6
Continuous
 62
     7
370
    25
100
AcDbLine
 10
7564.4295573793
 20
4979.9496844157
 30
0.0
 11
7564.4295573793
 21
4979.579378434
 31
0.0
  0
LINE
  5
1EE
330
1F
100
AcDbEntity
  8
0
  6
Continuous
 62
     7
370
    25
100
AcDbLine
 10
7564.4295573793
 20
4980.5496844157
 30
0.0
 11
7564.4295573793
 21
4980.4496844157
 31
0.0
  0
LINE
  5
1EF
330
1F
100
AcDbEntity
  8
0
  6
Continuous
 62
     7
370
    25
100
AcDbLine
 10
7583.6295573793
 20
4980.3246844116
 30
0.0
 11
7583.6295573793
 21
4980.5496844157
 31
0.0
  0
LINE
  5
1F0
330
1F
100
AcDbEntity
  8
0
  6
Continuous
 62
     7
370
    25
100
AcDbLine
 10
7583.6295573793
 20
4978.8246844116
 30
0.0
 11
7583.6295573793
 21
4979.1949903195
 31
0.0
  0
LINE
  5
1F1
330
1F
100
AcDbEntity
  8
0
  6
Continuous
 62
     7
370
    25
100
AcDbLine
 10
7583.6295573793
 20
4977.3246844116
 30
0.0
 11
7583.6295573793
 21
4977.6949903195
 31
0.0
  0
LINE
  5
1F2
330
1F
100
AcDbEntity
  8
0
  6
Continuous
 62
     7
370
    25
100
AcDbLine
 10
7583.6295573793
 20
4975.8246844116
 30
0.0
 11
7583.6295573793
 21
4976.1949903195
 31
0.0
  0
LINE
  5
1F3
330
1F
100
AcDbEntity
  8
0
  6
Continuous
 62
     7
370
    25
100
AcDbLine
 10
7583.6295573793
 20
4974.3246844116
 30
0.0
 11
7583.6295573793
 21
4974.6949903195
 31
0.0
  0
LINE
  5
1F4
330
1F
100
AcDbEntity
  8
0
  6
Continuous
 62
     7
370
    25
100
AcDbLine
 10
7583.6295573793
 20
4972.8246844116
 30
0.0
 11
7583.6295573793
 21
4973.1949903195
 31
0.0
  0
LINE
  5
1F5
330
1F
100
AcDbEntity
  8
0
  6
Continuous
 62
     7
370
    25
100
AcDbLine
 10
7583.6295573793
 20
4971.3246844116
 30
0.0
 11
7583.6295573793
 21
4971.6949903195
 31
0.0
  0
LINE
  5
1F6
330
1F
100
AcDbEntity
  8
0
  6
Continuous
 62
     7
370
    25
100
AcDbLine
 10
7583.6295573793
 20
4969.8246844116
 30
0.0
 11
7583.6295573793
 21
4970.1949903195
 31
0.0
  0
LINE
  5
1F7
330
1F
100
AcDbEntity
  8
0
  6
Continuous
 62
     7
370
    25
100
AcDbLine
 10
7583.6295573793
 20
4968.3246844116
 30
0.0
 11
7583.6295573793
 21
4968.6949903195
 31
0.0
  0
LINE
  5
1F8
330
1F
100
AcDbEntity
  8
0
  6
Continuous
 62
     7
370
    25
100
AcDbLine
 10
7583.6295573793
 20
4966.8246844116
 30
0.0
 11
7583.6295573793
 21
4967.1949903195
 31
0.0
  0
LINE
  5
1F9
330
1F
100
AcDbEntity
  8
0
  6
Continuous
 62
     7
370
    25
100
AcDbLine
 10
7583.6295573793
 20
4965.3246844116
 30
0.0
 11
7583.6295573793
 21
4965.6949903195
 31
0.0
  0
LINE
  5
1FA
330
1F
100
AcDbEntity
  8
0
  6
Continuous
 62
     7
370
    25
100
AcDbLine
 10
7583.6295573793
 20
4963.8246844116
 30
0.0
 11
7583.6295573793
 21
4964.1949903195
 31
0.0
  0
LINE
  5
1FB
330
1F
100
AcDbEntity
  8
0
  6
Continuous
 62
     7
370
    25
100
AcDbLine
 10
7583.6295573793
 20
4962.3246844116
 30
0.0
 11
7583.6295573793
 21
4962.6949903195
 31
0.0
  0
LINE
  5
1FC
330
1F
100
AcDbEntity
  8
0
  6
Continuous
 62
     7
370
    25
100
AcDbLine
 10
7583.6295573793
 20
4960.8246844116
 30
0.0
 11
7583.6295573793
 21
4961.1949903195
 31
0.0
  0
LINE
  5
1FD
330
1F
100
AcDbEntity
  8
0
  6
Continuous
 62
     7
370
    25
100
AcDbLine
 10
7583.6295573793
 20
4959.3246844116
 30
0.0
 11
7583.6295573793
 21
4959.6949903195
 31
0.0
  0
LINE
  5
1FE
330
1F
100
AcDbEntity
  8
0
  6
Continuous
 62
     7
370
    25
100
AcDbLine
 10
7583.6295573793
 20
4957.8246844116
 30
0.0
 11
7583.6295573793
 21
4958.1949903195
 31
0.0
  0
LINE
  5
1FF
330
1F
100
AcDbEntity
  8
0
  6
Continuous
 62
     7
370
    25
100
AcDbLine
 10
7583.6295573793
 20
4956.4496844157
 30
0.0
 11
7583.6295573793
 21
4956.6949903195
 31
0.0
  0
LINE
  5
200
330
1F
100
AcDbEntity
  8
0
  6
Continuous
 62
     7
370
    25
100
AcDbLine
 10
7596.0295573793
 20
4914.4496844157
 30
0.0
 11
7552.0295573793
 21
4914.4496844157
 31
0.0
  0
LINE
  5
201
330
1F
100
AcDbEntity
  8
0
  6
Continuous
 62
     7
370
    25
100
AcDbLine
 10
7595.2603266101
 20
4911.9496844157
 30
0.0
 11
7552.7987881485
 21
4911.9496844157
 31
0.0
  0
LINE
  5
202
330
1F
100
AcDbEntity
  8
0
  6
Continuous
 62
     7
370
    25
100
AcDbLine
 10
7593.2603266101
 20
4905.4496844157
 30
0.0
 11
7554.7987881485
 21
4905.4496844157
 31
0.0
  0
LINE
  5
203
330
1F
100
AcDbEntity
  8
0
  6
Continuous
 62
     7
370
    25
100
AcDbLine
 10
7594.0295573793
 20
4907.9496844157
 30
0.0
 11
7554.0295573793
 21
4907.9496844157
 31
0.0
  0
LINE
  5
204
330
1F
100
AcDbEntity
  8
0
  6
Continuous
 62
     7
370
    25
100
AcDbLine
 10
7591.0295573793
 20
4927.4496844157
 30
0.0
 11
7557.0295573793
 21
4927.4496844157
 31
0.0
  0
LINE
  5
205
330
1F
100
AcDbEntity
  8
0
  6
Continuous
 62
     7
370
    25
100
AcDbLine
 10
7591.0295573793
 20
4921.4496844157
 30
0.0
 11
7557.0295573793
 21
4921.4496844157
 31
0.0
  0
LINE
  5
206
330
1F
100
AcDbEntity
  8
0
  6
Continuous
 62
     7
370
    25
100
AcDbLine
 10
7586.0295573793
 20
4903.4496844157
 30
0.0
 11
7562.0295573793
 21
4903.4496844157
 31
0.0
  0
LINE
  5
207
330
1F
100
AcDbEntity
  8
0
  6
Continuous
 62
     7
370
    25
100
AcDbLine
 10
7580.3804103404
 20
4951.4496844157
 30
0.0
 11
7580.3804103404
 21
4956.4496844157
 31
0.0
  0
LINE
  5
208
330
1F
100
AcDbEntity
  8
0
  6
Continuous
 62
     7
370
    25
100
AcDbLine
 10
7567.6787044182
 20
4951.4496844157
 30
0.0
 11
7580.3804103404
 21
4951.4496844157
 31
0.0
  0
LINE
  5
209
330
1F
100
AcDbEntity
  8
0
  6
Continuous
 62
     7
370
    25
100
AcDbLine
 10
7567.6787044182
 20
4951.4496844157
 30
0.0
 11
7567.6787044182
 21
4956.4496844157
 31
0.0
  0
LINE
  5
20A
330
1F
100
AcDbEntity
  8
0
  6
Continuous
 62
     7
370
    25
100
AcDbLine
 10
7567.6787044182
 20
4956.4496844157
 30
0.0
 11
7580.3804103404
 21
4956.4496844157
 31
0.0
  0
LINE
  5
20B
330
1F
100
AcDbEntity
  8
0
  6
Continuous
 62
     7
370
    25
100
AcDbLine
 10
7586.7312633015
 20
4951.4496844157
 30
0.0
 11
7586.7312633015
 21
4956.4496844157
 31
0.0
  0
LINE
  5
20C
330
1F
100
AcDbEntity
  8
0
  6
Continuous
 62
     7
370
    25
100
AcDbLine
 10
7580.3804103404
 20
4951.4496844157
 30
0.0
 11
7586.7312633015
 21
4951.4496844157
 31
0.0
  0
LINE
  5
20D
330
1F
100
AcDbEntity
  8
0
  6
Continuous
 62
     7
370
    25
100
AcDbLine
 10
7580.3804103404
 20
4956.4496844157
 30
0.0
 11
7586.7312633015
 21
4956.4496844157
 31
0.0
  0
LINE
  5
20E
330
1F
100
AcDbEntity
  8
0
  6
Continuous
 62
     7
370
    25
100
AcDbLine
 10
7561.3278514571
 20
4951.4496844157
 30
0.0
 11
7567.6787044182
 21
4951.4496844157
 31
0.0
  0
LINE
  5
20F
330
1F
100
AcDbEntity
  8
0
  6
Continuous
 62
     7
370
    25
100
AcDbLine
 10
7561.3278514571
 20
4951.4496844157
 30
0.0
 11
7561.3278514571
 21
4956.4496844157
 31
0.0
  0
LINE
  5
210
330
1F
100
AcDbEntity
  8
0
  6
Continuous
 62
     7
370
    25
100
AcDbLine
 10
7561.3278514571
 20
4956.4496844157
 30
0.0
 11
7567.6787044182
 21
4956.4496844157
 31
0.0
  0
ARC
  5
211
330
1F
100
AcDbEntity
  8
0
  6
Continuous
 62
     7
370
    25
100
AcDbCircle
 10
7579.2135708034
 20
4996.2356195976
 30
0.0
 40
39.78803629626027
100
AcDbArc
 50
269.4111724318
 51
276.3271686151
  0
LWPOLYLINE
  5
212
330
1F
100
AcDbEntity
  8
0
  6
Continuous
 62
     7
370
    25
100
AcDbPolyline
 90
       22
 70
   128
 43
0.0
 10
7564.4295573793
 20
4957.4496844157
 10
7564.5448364052
 20
4957.4857800387
 10
7564.8965025231
 20
4957.5239733507
 10
7565.4801839528
 20
4957.5628954806
 10
7566.2740217936
 20
4957.6010887927
 10
7567.2413322799
 20
4957.6371844157
 10
7568.3716719281
 20
4957.6732800387
 10
7569.6628407622
 20
4957.7114733507
 10
7571.0719723859
 20
4957.7503954806
 10
7572.5462947446
 20
4957.7885887927
 10
7574.0295573793
 20
4957.8246844157
 10
7575.2541443629
 20
4957.8543215221
 10
7576.4792751552
 20
4957.8855434093
 10
7577.6732044479
 20
4957.9176032134
 10
7578.8046771561
 20
4957.9496844157
 10
7579.8710429494
 20
4957.9817585246
 10
7580.8177824787
 20
4958.0121844157
 10
7581.785092965
 20
4958.0482800387
 10
7582.5789308058
 20
4958.0864733507
 10
7583.1626122355
 20
4958.1253954806
 10
7583.5142783534
 20
4958.1635887927
 10
7583.5984358894
 20
4958.189939802
  0
LWPOLYLINE
  5
213
330
1F
100
AcDbEntity
  8
0
  6
Continuous
 62
     7
370
    25
100
AcDbPolyline
 90
       22
 70
   128
 43
0.0
 10
7564.4295573793
 20
4958.9496844157
 10
7564.5448364052
 20
4958.9857800387
 10
7564.8965025231
 20
4959.0239733507
 10
7565.4801839528
 20
4959.0628954806
 10
7566.2740217936
 20
4959.1010887927
 10
7567.2413322799
 20
4959.1371844157
 10
7568.3716719281
 20
4959.1732800387
 10
7569.6628407622
 20
4959.2114733507
 10
7571.0719723859
 20
4959.2503954806
 10
7572.5462947446
 20
4959.2885887927
 10
7574.0295573793
 20
4959.3246844157
 10
7575.2541443629
 20
4959.3543215221
 10
7576.4792751552
 20
4959.3855434093
 10
7577.6732044479
 20
4959.4176032134
 10
7578.8046771561
 20
4959.4496844157
 10
7579.8710429494
 20
4959.4817585246
 10
7580.8177824787
 20
4959.5121844157
 10
7581.785092965
 20
4959.5482800387
 10
7582.5789308058
 20
4959.5864733507
 10
7583.1626122355
 20
4959.6253954806
 10
7583.5142783534
 20
4959.6635887927
 10
7583.5984358894
 20
4959.689939802
  0
LWPOLYLINE
  5
214
330
1F
100
AcDbEntity
  8
0
  6
Continuous
 62
     7
370
    25
100
AcDbPolyline
 90
       22
 70
   128
 43
0.0
 10
7564.4295573793
 20
4960.4496844157
 10
7564.5448364052
 20
4960.4857800387
 10
7564.8965025231
 20
4960.5239733507
 10
7565.4801839528
 20
4960.5628954806
 10
7566.2740217936
 20
4960.6010887927
 10
7567.2413322799
 20
4960.6371844157
 10
7568.3716719281
 20
4960.6732800387
 10
7569.6628407622
 20
4960.7114733507
 10
7571.0719723859
 20
4960.7503954806
 10
7572.5462947446
 20
4960.7885887927
 10
7574.0295573793
 20
4960.8246844157
 10
7575.2541443629
 20
4960.8543215221
 10
7576.4792751552
 20
4960.8855434093
 10
7577.6732044479
 20
4960.9176032134
 10
7578.8046771561
 20
4960.9496844157
 10
7579.8710429494
 20
4960.9817585246
 10
7580.8177824787
 20
4961.0121844157
 10
7581.785092965
 20
4961.0482800387
 10
7582.5789308058
 20
4961.0864733507
 10
7583.1626122355
 20
4961.1253954806
 10
7583.5142783534
 20
4961.1635887927
 10
7583.5984358894
 20
4961.189939802
  0
LWPOLYLINE
  5
215
330
1F
100
AcDbEntity
  8
0
  6
Continuous
 62
     7
370
    25
100
AcDbPolyline
 90
       22
 70
   128
 43
0.0
 10
7564.4295573793
 20
4961.9496844157
 10
7564.5448364052
 20
4961.9857800387
 10
7564.8965025231
 20
4962.0239733507
 10
7565.4801839528
 20
4962.0628954806
 10
7566.2740217936
 20
4962.1010887927
 10
7567.2413322799
 20
4962.1371844157
 10
7568.3716719281
 20
4962.1732800387
 10
7569.6628407622
 20
4962.2114733507
 10
7571.0719723859
 20
4962.2503954806
 10
7572.5462947446
 20
4962.2885887927
 10
7574.0295573793
 20
4962.3246844157
 10
7575.2541443629
 20
4962.3543215221
 10
7576.4792751552
 20
4962.3855434093
 10
7577.6732044479
 20
4962.4176032134
 10
7578.8046771561
 20
4962.4496844157
 10
7579.8710429494
 20
4962.4817585246
 10
7580.8177824787
 20
4962.5121844157
 10
7581.785092965
 20
4962.5482800387
 10
7582.5789308058
 20
4962.5864733507
 10
7583.1626122355
 20
4962.6253954806
 10
7583.5142783534
 20
4962.6635887927
 10
7583.5984358894
 20
4962.689939802
  0
LWPOLYLINE
  5
216
330
1F
100
AcDbEntity
  8
0
  6
Continuous
 62
     7
370
    25
100
AcDbPolyline
 90
       22
 70
   128
 43
0.0
 10
7564.4295573793
 20
4963.4496844157
 10
7564.5448364052
 20
4963.4857800387
 10
7564.8965025231
 20
4963.5239733507
 10
7565.4801839528
 20
4963.5628954806
 10
7566.2740217936
 20
4963.6010887927
 10
7567.2413322799
 20
4963.6371844157
 10
7568.3716719281
 20
4963.6732800387
 10
7569.6628407622
 20
4963.7114733507
 10
7571.0719723859
 20
4963.7503954806
 10
7572.5462947446
 20
4963.7885887927
 10
7574.0295573793
 20
4963.8246844157
 10
7575.2541443629
 20
4963.8543215221
 10
7576.4792751552
 20
4963.8855434093
 10
7577.6732044479
 20
4963.9176032134
 10
7578.8046771561
 20
4963.9496844157
 10
7579.8710429494
 20
4963.9817585246
 10
7580.8177824787
 20
4964.0121844157
 10
7581.785092965
 20
4964.0482800387
 10
7582.5789308058
 20
4964.0864733507
 10
7583.1626122355
 20
4964.1253954806
 10
7583.5142783534
 20
4964.1635887927
 10
7583.5984358894
 20
4964.189939802
  0
LWPOLYLINE
  5
217
330
1F
100
AcDbEntity
  8
0
  6
Continuous
 62
     7
370
    25
100
AcDbPolyline
 90
       22
 70
   128
 43
0.0
 10
7564.4295573793
 20
4964.9496844157
 10
7564.5448364052
 20
4964.9857800387
 10
7564.8965025231
 20
4965.0239733507
 10
7565.4801839528
 20
4965.0628954806
 10
7566.2740217936
 20
4965.1010887927
 10
7567.2413322799
 20
4965.1371844157
 10
7568.3716719281
 20
4965.1732800387
 10
7569.6628407622
 20
4965.2114733507
 10
7571.0719723859
 20
4965.2503954806
 10
7572.5462947446
 20
4965.2885887927
 10
7574.0295573793
 20
4965.3246844157
 10
7575.2541443629
 20
4965.3543215221
 10
7576.4792751552
 20
4965.3855434093
 10
7577.6732044479
 20
4965.4176032134
 10
7578.8046771561
 20
4965.4496844157
 10
7579.8710429494
 20
4965.4817585246
 10
7580.8177824787
 20
4965.5121844157
 10
7581.785092965
 20
4965.5482800387
 10
7582.5789308058
 20
4965.5864733507
 10
7583.1626122355
 20
4965.6253954806
 10
7583.5142783534
 20
4965.6635887927
 10
7583.5984358894
 20
4965.689939802
  0
LWPOLYLINE
  5
218
330
1F
100
AcDbEntity
  8
0
  6
Continuous
 62
     7
370
    25
100
AcDbPolyline
 90
       22
 70
   128
 43
0.0
 10
7564.4295573793
 20
4966.4496844157
 10
7564.5448364052
 20
4966.4857800387
 10
7564.8965025231
 20
4966.5239733507
 10
7565.4801839528
 20
4966.5628954806
 10
7566.2740217936
 20
4966.6010887927
 10
7567.2413322799
 20
4966.6371844157
 10
7568.3716719281
 20
4966.6732800387
 10
7569.6628407622
 20
4966.7114733507
 10
7571.0719723859
 20
4966.7503954806
 10
7572.5462947446
 20
4966.7885887927
 10
7574.0295573793
 20
4966.8246844157
 10
7575.2541443629
 20
4966.8543215221
 10
7576.4792751552
 20
4966.8855434093
 10
7577.6732044479
 20
4966.9176032134
 10
7578.8046771561
 20
4966.9496844157
 10
7579.8710429494
 20
4966.9817585246
 10
7580.8177824787
 20
4967.0121844157
 10
7581.785092965
 20
4967.0482800387
 10
7582.5789308058
 20
4967.0864733507
 10
7583.1626122355
 20
4967.1253954806
 10
7583.5142783534
 20
4967.1635887927
 10
7583.5984358894
 20
4967.189939802
  0
LWPOLYLINE
  5
219
330
1F
100
AcDbEntity
  8
0
  6
Continuous
 62
     7
370
    25
100
AcDbPolyline
 90
       22
 70
   128
 43
0.0
 10
7564.4295573793
 20
4967.9496844157
 10
7564.5448364052
 20
4967.9857800387
 10
7564.8965025231
 20
4968.0239733507
 10
7565.4801839528
 20
4968.0628954806
 10
7566.2740217936
 20
4968.1010887927
 10
7567.2413322799
 20
4968.1371844157
 10
7568.3716719281
 20
4968.1732800387
 10
7569.6628407622
 20
4968.2114733507
 10
7571.0719723859
 20
4968.2503954806
 10
7572.5462947446
 20
4968.2885887927
 10
7574.0295573793
 20
4968.3246844157
 10
7575.2541443629
 20
4968.3543215221
 10
7576.4792751552
 20
4968.3855434093
 10
7577.6732044479
 20
4968.4176032134
 10
7578.8046771561
 20
4968.4496844157
 10
7579.8710429494
 20
4968.4817585246
 10
7580.8177824787
 20
4968.5121844157
 10
7581.785092965
 20
4968.5482800387
 10
7582.5789308058
 20
4968.5864733507
 10
7583.1626122355
 20
4968.6253954806
 10
7583.5142783534
 20
4968.6635887927
 10
7583.5984358894
 20
4968.689939802
  0
LWPOLYLINE
  5
21A
330
1F
100
AcDbEntity
  8
0
  6
Continuous
 62
     7
370
    25
100
AcDbPolyline
 90
       22
 70
   128
 43
0.0
 10
7564.4295573793
 20
4969.4496844157
 10
7564.5448364052
 20
4969.4857800387
 10
7564.8965025231
 20
4969.5239733507
 10
7565.4801839528
 20
4969.5628954806
 10
7566.2740217936
 20
4969.6010887927
 10
7567.2413322799
 20
4969.6371844157
 10
7568.3716719281
 20
4969.6732800387
 10
7569.6628407622
 20
4969.7114733507
 10
7571.0719723859
 20
4969.7503954806
 10
7572.5462947446
 20
4969.7885887927
 10
7574.0295573793
 20
4969.8246844157
 10
7575.2541443629
 20
4969.8543215221
 10
7576.4792751552
 20
4969.8855434093
 10
7577.6732044479
 20
4969.9176032134
 10
7578.8046771561
 20
4969.9496844157
 10
7579.8710429494
 20
4969.9817585246
 10
7580.8177824787
 20
4970.0121844157
 10
7581.785092965
 20
4970.0482800387
 10
7582.5789308058
 20
4970.0864733507
 10
7583.1626122355
 20
4970.1253954806
 10
7583.5142783534
 20
4970.1635887927
 10
7583.5984358894
 20
4970.189939802
  0
LWPOLYLINE
  5
21B
330
1F
100
AcDbEntity
  8
0
  6
Continuous
 62
     7
370
    25
100
AcDbPolyline
 90
       22
 70
   128
 43
0.0
 10
7564.4295573793
 20
4970.9496844157
 10
7564.5448364052
 20
4970.9857800387
 10
7564.8965025231
 20
4971.0239733507
 10
7565.4801839528
 20
4971.0628954806
 10
7566.2740217936
 20
4971.1010887927
 10
7567.2413322799
 20
4971.1371844157
 10
7568.3716719281
 20
4971.1732800387
 10
7569.6628407622
 20
4971.2114733507
 10
7571.0719723859
 20
4971.2503954806
 10
7572.5462947446
 20
4971.2885887927
 10
7574.0295573793
 20
4971.3246844157
 10
7575.2541443629
 20
4971.3543215221
 10
7576.4792751552
 20
4971.3855434093
 10
7577.6732044479
 20
4971.4176032134
 10
7578.8046771561
 20
4971.4496844157
 10
7579.8710429494
 20
4971.4817585246
 10
7580.8177824787
 20
4971.5121844157
 10
7581.785092965
 20
4971.5482800387
 10
7582.5789308058
 20
4971.5864733507
 10
7583.1626122355
 20
4971.6253954806
 10
7583.5142783534
 20
4971.6635887927
 10
7583.5984358894
 20
4971.689939802
  0
LWPOLYLINE
  5
21C
330
1F
100
AcDbEntity
  8
0
  6
Continuous
 62
     7
370
    25
100
AcDbPolyline
 90
       22
 70
   128
 43
0.0
 10
7564.4295573793
 20
4972.4496844157
 10
7564.5448364052
 20
4972.4857800387
 10
7564.8965025231
 20
4972.5239733507
 10
7565.4801839528
 20
4972.5628954806
 10
7566.2740217936
 20
4972.6010887927
 10
7567.2413322799
 20
4972.6371844157
 10
7568.3716719281
 20
4972.6732800387
 10
7569.6628407622
 20
4972.7114733507
 10
7571.0719723859
 20
4972.7503954806
 10
7572.5462947446
 20
4972.7885887927
 10
7574.0295573793
 20
4972.8246844157
 10
7575.2541443629
 20
4972.8543215221
 10
7576.4792751552
 20
4972.8855434093
 10
7577.6732044479
 20
4972.9176032134
 10
7578.8046771561
 20
4972.9496844157
 10
7579.8710429494
 20
4972.9817585246
 10
7580.8177824787
 20
4973.0121844157
 10
7581.785092965
 20
4973.0482800387
 10
7582.5789308058
 20
4973.0864733507
 10
7583.1626122355
 20
4973.1253954806
 10
7583.5142783534
 20
4973.1635887927
 10
7583.5984358894
 20
4973.189939802
  0
LWPOLYLINE
  5
21D
330
1F
100
AcDbEntity
  8
0
  6
Continuous
 62
     7
370
    25
100
AcDbPolyline
 90
       22
 70
   128
 43
0.0
 10
7564.4295573793
 20
4973.9496844157
 10
7564.5448364052
 20
4973.9857800387
 10
7564.8965025231
 20
4974.0239733507
 10
7565.4801839528
 20
4974.0628954806
 10
7566.2740217936
 20
4974.1010887927
 10
7567.2413322799
 20
4974.1371844157
 10
7568.3716719281
 20
4974.1732800387
 10
7569.6628407622
 20
4974.2114733507
 10
7571.0719723859
 20
4974.2503954806
 10
7572.5462947446
 20
4974.2885887927
 10
7574.0295573793
 20
4974.3246844157
 10
7575.2541443629
 20
4974.3543215221
 10
7576.4792751552
 20
4974.3855434093
 10
7577.6732044479
 20
4974.4176032134
 10
7578.8046771561
 20
4974.4496844157
 10
7579.8710429494
 20
4974.4817585246
 10
7580.8177824787
 20
4974.5121844157
 10
7581.785092965
 20
4974.5482800387
 10
7582.5789308058
 20
4974.5864733507
 10
7583.1626122355
 20
4974.6253954806
 10
7583.5142783534
 20
4974.6635887927
 10
7583.5984358894
 20
4974.689939802
  0
LWPOLYLINE
  5
21E
330
1F
100
AcDbEntity
  8
0
  6
Continuous
 62
     7
370
    25
100
AcDbPolyline
 90
       22
 70
   128
 43
0.0
 10
7564.4295573793
 20
4975.4496844157
 10
7564.5448364052
 20
4975.4857800387
 10
7564.8965025231
 20
4975.5239733507
 10
7565.4801839528
 20
4975.5628954806
 10
7566.2740217936
 20
4975.6010887927
 10
7567.2413322799
 20
4975.6371844157
 10
7568.3716719281
 20
4975.6732800387
 10
7569.6628407622
 20
4975.7114733507
 10
7571.0719723859
 20
4975.7503954806
 10
7572.5462947446
 20
4975.7885887927
 10
7574.0295573793
 20
4975.8246844157
 10
7575.2541443629
 20
4975.8543215221
 10
7576.4792751552
 20
4975.8855434093
 10
7577.6732044479
 20
4975.9176032134
 10
7578.8046771561
 20
4975.9496844157
 10
7579.8710429494
 20
4975.9817585246
 10
7580.8177824787
 20
4976.0121844157
 10
7581.785092965
 20
4976.0482800387
 10
7582.5789308058
 20
4976.0864733507
 10
7583.1626122355
 20
4976.1253954806
 10
7583.5142783534
 20
4976.1635887927
 10
7583.5984358894
 20
4976.189939802
  0
LWPOLYLINE
  5
21F
330
1F
100
AcDbEntity
  8
0
  6
Continuous
 62
     7
370
    25
100
AcDbPolyline
 90
       22
 70
   128
 43
0.0
 10
7564.4295573793
 20
4976.9496844157
 10
7564.5448364052
 20
4976.9857800387
 10
7564.8965025231
 20
4977.0239733507
 10
7565.4801839528
 20
4977.0628954806
 10
7566.2740217936
 20
4977.1010887927
 10
7567.2413322799
 20
4977.1371844157
 10
7568.3716719281
 20
4977.1732800387
 10
7569.6628407622
 20
4977.2114733507
 10
7571.0719723859
 20
4977.2503954806
 10
7572.5462947446
 20
4977.2885887927
 10
7574.0295573793
 20
4977.3246844157
 10
7575.2541443629
 20
4977.3543215221
 10
7576.4792751552
 20
4977.3855434093
 10
7577.6732044479
 20
4977.4176032134
 10
7578.8046771561
 20
4977.4496844157
 10
7579.8710429494
 20
4977.4817585246
 10
7580.8177824787
 20
4977.5121844157
 10
7581.785092965
 20
4977.5482800387
 10
7582.5789308058
 20
4977.5864733507
 10
7583.1626122355
 20
4977.6253954806
 10
7583.5142783534
 20
4977.6635887927
 10
7583.5984358894
 20
4977.689939802
  0
LWPOLYLINE
  5
220
330
1F
100
AcDbEntity
  8
0
  6
Continuous
 62
     7
370
    25
100
AcDbPolyline
 90
       22
 70
   128
 43
0.0
 10
7564.4295573793
 20
4978.4496844157
 10
7564.5448364052
 20
4978.4857800387
 10
7564.8965025231
 20
4978.5239733507
 10
7565.4801839528
 20
4978.5628954806
 10
7566.2740217936
 20
4978.6010887927
 10
7567.2413322799
 20
4978.6371844157
 10
7568.3716719281
 20
4978.6732800387
 10
7569.6628407622
 20
4978.7114733507
 10
7571.0719723859
 20
4978.7503954806
 10
7572.5462947446
 20
4978.7885887927
 10
7574.0295573793
 20
4978.8246844157
 10
7575.2541443629
 20
4978.8543215221
 10
7576.4792751552
 20
4978.8855434093
 10
7577.6732044479
 20
4978.9176032134
 10
7578.8046771561
 20
4978.9496844157
 10
7579.8710429494
 20
4978.9817585246
 10
7580.8177824787
 20
4979.0121844157
 10
7581.785092965
 20
4979.0482800387
 10
7582.5789308058
 20
4979.0864733507
 10
7583.1626122355
 20
4979.1253954806
 10
7583.5142783534
 20
4979.1635887927
 10
7583.5984358894
 20
4979.189939802
  0
ARC
  5
221
330
1F
100
AcDbEntity
  8
0
  6
Continuous
 62
     7
370
    25
100
AcDbCircle
 10
7584.0879852477
 20
4621.6592425506
 30
0.0
 40
358.8293389873744
100
AcDbArc
 50
90.8436383569
 51
93.1405156186
  0
LWPOLYLINE
  5
222
330
1F
100
AcDbEntity
  8
0
  6
Continuous
 62
     7
370
    25
100
AcDbPolyline
 90
       24
 70
   128
 43
0.0
 10
7563.7120078894
 20
4956.4496844157
 10
7563.9808574469
 20
4956.4809628986
 10
7564.4241462242
 20
4956.5130372435
 10
7565.032568312
 20
4956.5450896432
 10
7565.7884155819
 20
4956.5763041439
 10
7566.667233124
 20
4956.6059344136
 10
7567.6756875586
 20
4956.6358343308
 10
7568.8099556209
 20
4956.667340165
 10
7570.0450962043
 20
4956.6996844136
 10
7571.3499966439
 20
4956.7320286622
 10
7572.6899277021
 20
4956.7635344964
 10
7574.0295573793
 20
4956.7934344136
 10
7575.3691870565
 20
4956.8233343308
 10
7576.7091181147
 20
4956.854840165
 10
7578.0140185543
 20
4956.8871844136
 10
7579.2491591377
 20
4956.9195286622
 10
7580.3834272
 20
4956.9510344964
 10
7581.3918816346
 20
4956.9809344136
 10
7582.277949658
 20
4957.0108343308
 10
7583.0386302709
 20
4957.042340165
 10
7583.6488975867
 20
4957.0746844136
 10
7584.0907497116
 20
4957.1070286622
 10
7584.3549159304
 20
4957.1385344964
 10
7584.4154457572
 20
4957.1594477312
  0
LWPOLYLINE
  5
223
330
1F
100
AcDbEntity
  8
0
  6
Continuous
 62
     7
370
    25
100
AcDbPolyline
 90
       25
 70
   128
 43
0.0
 10
7563.6176731169
 20
4957.9184392328
 10
7563.7120078894
 20
4957.9496844157
 10
7563.9808574469
 20
4957.9809628986
 10
7564.4241462242
 20
4958.0130372435
 10
7565.032568312
 20
4958.0450896432
 10
7565.7884155819
 20
4958.0763041439
 10
7566.667233124
 20
4958.1059344136
 10
7567.6756875586
 20
4958.1358343308
 10
7568.8099556209
 20
4958.167340165
 10
7570.0450962043
 20
4958.1996844136
 10
7571.3499966439
 20
4958.2320286622
 10
7572.6899277021
 20
4958.2635344964
 10
7574.0295573793
 20
4958.2934344136
 10
7575.3691870565
 20
4958.3233343308
 10
7576.7091181147
 20
4958.354840165
 10
7578.0140185543
 20
4958.3871844136
 10
7579.2491591377
 20
4958.4195286622
 10
7580.3834272
 20
4958.4510344964
 10
7581.3918816346
 20
4958.4809344136
 10
7582.277949658
 20
4958.5108343308
 10
7583.0386302709
 20
4958.542340165
 10
7583.6488975867
 20
4958.5746844136
 10
7584.0907497116
 20
4958.6070286622
 10
7584.3549159304
 20
4958.6385344964
 10
7584.4154457572
 20
4958.6594477312
  0
LWPOLYLINE
  5
224
330
1F
100
AcDbEntity
  8
0
  6
Continuous
 62
     7
370
    25
100
AcDbPolyline
 90
       26
 70
   128
 43
0.0
 10
7563.6436690014
 20
4959.4094477312
 10
7563.6176585668
 20
4959.4184344136
 10
7563.7120078894
 20
4959.4496844157
 10
7563.9808574469
 20
4959.4809628986
 10
7564.4241462242
 20
4959.5130372435
 10
7565.032568312
 20
4959.5450896432
 10
7565.7884155819
 20
4959.5763041439
 10
7566.667233124
 20
4959.6059344136
 10
7567.6756875586
 20
4959.6358343308
 10
7568.8099556209
 20
4959.667340165
 10
7570.0450962043
 20
4959.6996844136
 10
7571.3499966439
 20
4959.7320286622
 10
7572.6899277021
 20
4959.7635344964
 10
7574.0295573793
 20
4959.7934344136
 10
7575.3691870565
 20
4959.8233343308
 10
7576.7091181147
 20
4959.854840165
 10
7578.0140185543
 20
4959.8871844136
 10
7579.2491591377
 20
4959.9195286622
 10
7580.3834272
 20
4959.9510344964
 10
7581.3918816346
 20
4959.9809344136
 10
7582.277949658
 20
4960.0108343308
 10
7583.0386302709
 20
4960.042340165
 10
7583.6488975867
 20
4960.0746844136
 10
7584.0907497116
 20
4960.1070286622
 10
7584.3549159304
 20
4960.1385344964
 10
7584.4154457572
 20
4960.1594477312
  0
LWPOLYLINE
  5
225
330
1F
100
AcDbEntity
  8
0
  6
Continuous
 62
     7
370
    25
100
AcDbPolyline
 90
       26
 70
   128
 43
0.0
 10
7563.6436690014
 20
4960.9094477312
 10
7563.6176585668
 20
4960.9184344136
 10
7563.7120078894
 20
4960.9496844157
 10
7563.9808574469
 20
4960.9809628986
 10
7564.4241462242
 20
4961.0130372435
 10
7565.032568312
 20
4961.0450896432
 10
7565.7884155819
 20
4961.0763041439
 10
7566.667233124
 20
4961.1059344136
 10
7567.6756875586
 20
4961.1358343308
 10
7568.8099556209
 20
4961.167340165
 10
7570.0450962043
 20
4961.1996844136
 10
7571.3499966439
 20
4961.2320286622
 10
7572.6899277021
 20
4961.2635344964
 10
7574.0295573793
 20
4961.2934344136
 10
7575.3691870565
 20
4961.3233343308
 10
7576.7091181147
 20
4961.354840165
 10
7578.0140185543
 20
4961.3871844136
 10
7579.2491591377
 20
4961.4195286622
 10
7580.3834272
 20
4961.4510344964
 10
7581.3918816346
 20
4961.4809344136
 10
7582.277949658
 20
4961.5108343308
 10
7583.0386302709
 20
4961.542340165
 10
7583.6488975867
 20
4961.5746844136
 10
7584.0907497116
 20
4961.6070286622
 10
7584.3549159304
 20
4961.6385344964
 10
7584.4154457572
 20
4961.6594477312
  0
LWPOLYLINE
  5
226
330
1F
100
AcDbEntity
  8
0
  6
Continuous
 62
     7
370
    25
100
AcDbPolyline
 90
       25
 70
   128
 43
0.0
 10
7563.6176731169
 20
4962.4184392328
 10
7563.7120078894
 20
4962.4496844157
 10
7563.9808574469
 20
4962.4809628986
 10
7564.4241462242
 20
4962.5130372435
 10
7565.032568312
 20
4962.5450896432
 10
7565.7884155819
 20
4962.5763041439
 10
7566.667233124
 20
4962.6059344136
 10
7567.6756875586
 20
4962.6358343308
 10
7568.8099556209
 20
4962.667340165
 10
7570.0450962043
 20
4962.6996844136
 10
7571.3499966439
 20
4962.7320286622
 10
7572.6899277021
 20
4962.7635344964
 10
7574.0295573793
 20
4962.7934344136
 10
7575.3691870565
 20
4962.8233343308
 10
7576.7091181147
 20
4962.854840165
 10
7578.0140185543
 20
4962.8871844136
 10
7579.2491591377
 20
4962.9195286622
 10
7580.3834272
 20
4962.9510344964
 10
7581.3918816346
 20
4962.9809344136
 10
7582.277949658
 20
4963.0108343308
 10
7583.0386302709
 20
4963.042340165
 10
7583.6488975867
 20
4963.0746844136
 10
7584.0907497116
 20
4963.1070286622
 10
7584.3549159304
 20
4963.1385344964
 10
7584.4154457572
 20
4963.1594477312
  0
LWPOLYLINE
  5
227
330
1F
100
AcDbEntity
  8
0
  6
Continuous
 62
     7
370
    25
100
AcDbPolyline
 90
       25
 70
   128
 43
0.0
 10
7563.6176731169
 20
4963.9184392328
 10
7563.7120078894
 20
4963.9496844157
 10
7563.9808574469
 20
4963.9809628986
 10
7564.4241462242
 20
4964.0130372435
 10
7565.032568312
 20
4964.0450896432
 10
7565.7884155819
 20
4964.0763041439
 10
7566.667233124
 20
4964.1059344136
 10
7567.6756875586
 20
4964.1358343308
 10
7568.8099556209
 20
4964.167340165
 10
7570.0450962043
 20
4964.1996844136
 10
7571.3499966439
 20
4964.2320286622
 10
7572.6899277021
 20
4964.2635344964
 10
7574.0295573793
 20
4964.2934344136
 10
7575.3691870565
 20
4964.3233343308
 10
7576.7091181147
 20
4964.354840165
 10
7578.0140185543
 20
4964.3871844136
 10
7579.2491591377
 20
4964.4195286622
 10
7580.3834272
 20
4964.4510344964
 10
7581.3918816346
 20
4964.4809344136
 10
7582.277949658
 20
4964.5108343308
 10
7583.0386302709
 20
4964.542340165
 10
7583.6488975867
 20
4964.5746844136
 10
7584.0907497116
 20
4964.6070286622
 10
7584.3549159304
 20
4964.6385344964
 10
7584.4154457572
 20
4964.6594477312
  0
LWPOLYLINE
  5
228
330
1F
100
AcDbEntity
  8
0
  6
Continuous
 62
     7
370
    25
100
AcDbPolyline
 90
       26
 70
   128
 43
0.0
 10
7563.6436690014
 20
4965.4094477312
 10
7563.6176585668
 20
4965.4184344136
 10
7563.7120078894
 20
4965.4496844157
 10
7563.9808574469
 20
4965.4809628986
 10
7564.4241462242
 20
4965.5130372435
 10
7565.032568312
 20
4965.5450896432
 10
7565.7884155819
 20
4965.5763041439
 10
7566.667233124
 20
4965.6059344136
 10
7567.6756875586
 20
4965.6358343308
 10
7568.8099556209
 20
4965.667340165
 10
7570.0450962043
 20
4965.6996844136
 10
7571.3499966439
 20
4965.7320286622
 10
7572.6899277021
 20
4965.7635344964
 10
7574.0295573793
 20
4965.7934344136
 10
7575.3691870565
 20
4965.8233343308
 10
7576.7091181147
 20
4965.854840165
 10
7578.0140185543
 20
4965.8871844136
 10
7579.2491591377
 20
4965.9195286622
 10
7580.3834272
 20
4965.9510344964
 10
7581.3918816346
 20
4965.9809344136
 10
7582.277949658
 20
4966.0108343308
 10
7583.0386302709
 20
4966.042340165
 10
7583.6488975867
 20
4966.0746844136
 10
7584.0907497116
 20
4966.1070286622
 10
7584.3549159304
 20
4966.1385344964
 10
7584.4154457572
 20
4966.1594477312
  0
LWPOLYLINE
  5
229
330
1F
100
AcDbEntity
  8
0
  6
Continuous
 62
     7
370
    25
100
AcDbPolyline
 90
       26
 70
   128
 43
0.0
 10
7563.6436690014
 20
4966.9094477312
 10
7563.6176585668
 20
4966.9184344136
 10
7563.7120078894
 20
4966.9496844157
 10
7563.9808574469
 20
4966.9809628986
 10
7564.4241462242
 20
4967.0130372435
 10
7565.032568312
 20
4967.0450896432
 10
7565.7884155819
 20
4967.0763041439
 10
7566.667233124
 20
4967.1059344136
 10
7567.6756875586
 20
4967.1358343308
 10
7568.8099556209
 20
4967.167340165
 10
7570.0450962043
 20
4967.1996844136
 10
7571.3499966439
 20
4967.2320286622
 10
7572.6899277021
 20
4967.2635344964
 10
7574.0295573793
 20
4967.2934344136
 10
7575.3691870565
 20
4967.3233343308
 10
7576.7091181147
 20
4967.354840165
 10
7578.0140185543
 20
4967.3871844136
 10
7579.2491591377
 20
4967.4195286622
 10
7580.3834272
 20
4967.4510344964
 10
7581.3918816346
 20
4967.4809344136
 10
7582.277949658
 20
4967.5108343308
 10
7583.0386302709
 20
4967.542340165
 10
7583.6488975867
 20
4967.5746844136
 10
7584.0907497116
 20
4967.6070286622
 10
7584.3549159304
 20
4967.6385344964
 10
7584.4154457572
 20
4967.6594477312
  0
LWPOLYLINE
  5
22A
330
1F
100
AcDbEntity
  8
0
  6
Continuous
 62
     7
370
    25
100
AcDbPolyline
 90
       26
 70
   128
 43
0.0
 10
7563.6436690014
 20
4968.4094477312
 10
7563.6176585668
 20
4968.4184344136
 10
7563.7120078894
 20
4968.4496844157
 10
7563.9808574469
 20
4968.4809628986
 10
7564.4241462242
 20
4968.5130372435
 10
7565.032568312
 20
4968.5450896432
 10
7565.7884155819
 20
4968.5763041439
 10
7566.667233124
 20
4968.6059344136
 10
7567.6756875586
 20
4968.6358343308
 10
7568.8099556209
 20
4968.667340165
 10
7570.0450962043
 20
4968.6996844136
 10
7571.3499966439
 20
4968.7320286622
 10
7572.6899277021
 20
4968.7635344964
 10
7574.0295573793
 20
4968.7934344136
 10
7575.3691870565
 20
4968.8233343308
 10
7576.7091181147
 20
4968.854840165
 10
7578.0140185543
 20
4968.8871844136
 10
7579.2491591377
 20
4968.9195286622
 10
7580.3834272
 20
4968.9510344964
 10
7581.3918816346
 20
4968.9809344136
 10
7582.277949658
 20
4969.0108343308
 10
7583.0386302709
 20
4969.042340165
 10
7583.6488975867
 20
4969.0746844136
 10
7584.0907497116
 20
4969.1070286622
 10
7584.3549159304
 20
4969.1385344964
 10
7584.4154457572
 20
4969.1594477312
  0
LWPOLYLINE
  5
22B
330
1F
100
AcDbEntity
  8
0
  6
Continuous
 62
     7
370
    25
100
AcDbPolyline
 90
       25
 70
   128
 43
0.0
 10
7563.6176731169
 20
4969.9184392328
 10
7563.7120078894
 20
4969.9496844157
 10
7563.9808574469
 20
4969.9809628986
 10
7564.4241462242
 20
4970.0130372435
 10
7565.032568312
 20
4970.0450896432
 10
7565.7884155819
 20
4970.0763041439
 10
7566.667233124
 20
4970.1059344136
 10
7567.6756875586
 20
4970.1358343308
 10
7568.8099556209
 20
4970.167340165
 10
7570.0450962043
 20
4970.1996844136
 10
7571.3499966439
 20
4970.2320286622
 10
7572.6899277021
 20
4970.2635344964
 10
7574.0295573793
 20
4970.2934344136
 10
7575.3691870565
 20
4970.3233343308
 10
7576.7091181147
 20
4970.354840165
 10
7578.0140185543
 20
4970.3871844136
 10
7579.2491591377
 20
4970.4195286622
 10
7580.3834272
 20
4970.4510344964
 10
7581.3918816346
 20
4970.4809344136
 10
7582.277949658
 20
4970.5108343308
 10
7583.0386302709
 20
4970.542340165
 10
7583.6488975867
 20
4970.5746844136
 10
7584.0907497116
 20
4970.6070286622
 10
7584.3549159304
 20
4970.6385344964
 10
7584.4154457572
 20
4970.6594477312
  0
LWPOLYLINE
  5
22C
330
1F
100
AcDbEntity
  8
0
  6
Continuous
 62
     7
370
    25
100
AcDbPolyline
 90
       25
 70
   128
 43
0.0
 10
7563.6176731169
 20
4971.4184392328
 10
7563.7120078894
 20
4971.4496844157
 10
7563.9808574469
 20
4971.4809628986
 10
7564.4241462242
 20
4971.5130372435
 10
7565.032568312
 20
4971.5450896432
 10
7565.7884155819
 20
4971.5763041439
 10
7566.667233124
 20
4971.6059344136
 10
7567.6756875586
 20
4971.6358343308
 10
7568.8099556209
 20
4971.667340165
 10
7570.0450962043
 20
4971.6996844136
 10
7571.3499966439
 20
4971.7320286622
 10
7572.6899277021
 20
4971.7635344964
 10
7574.0295573793
 20
4971.7934344136
 10
7575.3691870565
 20
4971.8233343308
 10
7576.7091181147
 20
4971.854840165
 10
7578.0140185543
 20
4971.8871844136
 10
7579.2491591377
 20
4971.9195286622
 10
7580.3834272
 20
4971.9510344964
 10
7581.3918816346
 20
4971.9809344136
 10
7582.277949658
 20
4972.0108343308
 10
7583.0386302709
 20
4972.042340165
 10
7583.6488975867
 20
4972.0746844136
 10
7584.0907497116
 20
4972.1070286622
 10
7584.3549159304
 20
4972.1385344964
 10
7584.4154457572
 20
4972.1594477312
  0
LWPOLYLINE
  5
22D
330
1F
100
AcDbEntity
  8
0
  6
Continuous
 62
     7
370
    25
100
AcDbPolyline
 90
       25
 70
   128
 43
0.0
 10
7563.6176731169
 20
4972.9184392328
 10
7563.7120078894
 20
4972.9496844157
 10
7563.9808574469
 20
4972.9809628986
 10
7564.4241462242
 20
4973.0130372435
 10
7565.032568312
 20
4973.0450896432
 10
7565.7884155819
 20
4973.0763041439
 10
7566.667233124
 20
4973.1059344136
 10
7567.6756875586
 20
4973.1358343308
 10
7568.8099556209
 20
4973.167340165
 10
7570.0450962043
 20
4973.1996844136
 10
7571.3499966439
 20
4973.2320286622
 10
7572.6899277021
 20
4973.2635344964
 10
7574.0295573793
 20
4973.2934344136
 10
7575.3691870565
 20
4973.3233343308
 10
7576.7091181147
 20
4973.354840165
 10
7578.0140185543
 20
4973.3871844136
 10
7579.2491591377
 20
4973.4195286622
 10
7580.3834272
 20
4973.4510344964
 10
7581.3918816346
 20
4973.4809344136
 10
7582.277949658
 20
4973.5108343308
 10
7583.0386302709
 20
4973.542340165
 10
7583.6488975867
 20
4973.5746844136
 10
7584.0907497116
 20
4973.6070286622
 10
7584.3549159304
 20
4973.6385344964
 10
7584.4154457572
 20
4973.6594477312
  0
LWPOLYLINE
  5
22E
330
1F
100
AcDbEntity
  8
0
  6
Continuous
 62
     7
370
    25
100
AcDbPolyline
 90
       25
 70
   128
 43
0.0
 10
7563.6176731169
 20
4974.4184392328
 10
7563.7120078894
 20
4974.4496844157
 10
7563.9808574469
 20
4974.4809628986
 10
7564.4241462242
 20
4974.5130372435
 10
7565.032568312
 20
4974.5450896432
 10
7565.7884155819
 20
4974.5763041439
 10
7566.667233124
 20
4974.6059344136
 10
7567.6756875586
 20
4974.6358343308
 10
7568.8099556209
 20
4974.667340165
 10
7570.0450962043
 20
4974.6996844136
 10
7571.3499966439
 20
4974.7320286622
 10
7572.6899277021
 20
4974.7635344964
 10
7574.0295573793
 20
4974.7934344136
 10
7575.3691870565
 20
4974.8233343308
 10
7576.7091181147
 20
4974.854840165
 10
7578.0140185543
 20
4974.8871844136
 10
7579.2491591377
 20
4974.9195286622
 10
7580.3834272
 20
4974.9510344964
 10
7581.3918816346
 20
4974.9809344136
 10
7582.277949658
 20
4975.0108343308
 10
7583.0386302709
 20
4975.042340165
 10
7583.6488975867
 20
4975.0746844136
 10
7584.0907497116
 20
4975.1070286622
 10
7584.3549159304
 20
4975.1385344964
 10
7584.4154457572
 20
4975.1594477312
  0
LWPOLYLINE
  5
22F
330
1F
100
AcDbEntity
  8
0
  6
Continuous
 62
     7
370
    25
100
AcDbPolyline
 90
       26
 70
   128
 43
0.0
 10
7563.6436690014
 20
4975.9094477312
 10
7563.6176585668
 20
4975.9184344136
 10
7563.7120078894
 20
4975.9496844157
 10
7563.9808574469
 20
4975.9809628986
 10
7564.4241462242
 20
4976.0130372435
 10
7565.032568312
 20
4976.0450896432
 10
7565.7884155819
 20
4976.0763041439
 10
7566.667233124
 20
4976.1059344136
 10
7567.6756875586
 20
4976.1358343308
 10
7568.8099556209
 20
4976.167340165
 10
7570.0450962043
 20
4976.1996844136
 10
7571.3499966439
 20
4976.2320286622
 10
7572.6899277021
 20
4976.2635344964
 10
7574.0295573793
 20
4976.2934344136
 10
7575.3691870565
 20
4976.3233343308
 10
7576.7091181147
 20
4976.354840165
 10
7578.0140185543
 20
4976.3871844136
 10
7579.2491591377
 20
4976.4195286622
 10
7580.3834272
 20
4976.4510344964
 10
7581.3918816346
 20
4976.4809344136
 10
7582.277949658
 20
4976.5108343308
 10
7583.0386302709
 20
4976.542340165
 10
7583.6488975867
 20
4976.5746844136
 10
7584.0907497116
 20
4976.6070286622
 10
7584.3549159304
 20
4976.6385344964
 10
7584.4154457572
 20
4976.6594477312
  0
LWPOLYLINE
  5
230
330
1F
100
AcDbEntity
  8
0
  6
Continuous
 62
     7
370
    25
100
AcDbPolyline
 90
       25
 70
   128
 43
0.0
 10
7563.6176731169
 20
4977.4184392328
 10
7563.7120078894
 20
4977.4496844157
 10
7563.9808574469
 20
4977.4809628986
 10
7564.4241462242
 20
4977.5130372435
 10
7565.032568312
 20
4977.5450896432
 10
7565.7884155819
 20
4977.5763041439
 10
7566.667233124
 20
4977.6059344136
 10
7567.6756875586
 20
4977.6358343308
 10
7568.8099556209
 20
4977.667340165
 10
7570.0450962043
 20
4977.6996844136
 10
7571.3499966439
 20
4977.7320286622
 10
7572.6899277021
 20
4977.7635344964
 10
7574.0295573793
 20
4977.7934344136
 10
7575.3691870565
 20
4977.8233343308
 10
7576.7091181147
 20
4977.854840165
 10
7578.0140185543
 20
4977.8871844136
 10
7579.2491591377
 20
4977.9195286622
 10
7580.3834272
 20
4977.9510344964
 10
7581.3918816346
 20
4977.9809344136
 10
7582.277949658
 20
4978.0108343308
 10
7583.0386302709
 20
4978.042340165
 10
7583.6488975867
 20
4978.0746844136
 10
7584.0907497116
 20
4978.1070286622
 10
7584.3549159304
 20
4978.1385344964
 10
7584.4154457572
 20
4978.1594477312
  0
LWPOLYLINE
  5
231
330
1F
100
AcDbEntity
  8
0
  6
Continuous
 62
     7
370
    25
100
AcDbPolyline
 90
       25
 70
   128
 43
0.0
 10
7563.6176731169
 20
4978.9184392328
 10
7563.7120078894
 20
4978.9496844157
 10
7563.9808574469
 20
4978.9809628986
 10
7564.4241462242
 20
4979.0130372435
 10
7565.032568312
 20
4979.0450896432
 10
7565.7884155819
 20
4979.0763041439
 10
7566.667233124
 20
4979.1059344136
 10
7567.6756875586
 20
4979.1358343308
 10
7568.8099556209
 20
4979.167340165
 10
7570.0450962043
 20
4979.1996844136
 10
7571.3499966439
 20
4979.2320286622
 10
7572.6899277021
 20
4979.2635344964
 10
7574.0295573793
 20
4979.2934344136
 10
7575.3691870565
 20
4979.3233343308
 10
7576.7091181147
 20
4979.354840165
 10
7578.0140185543
 20
4979.3871844136
 10
7579.2491591377
 20
4979.4195286622
 10
7580.3834272
 20
4979.4510344964
 10
7581.3918816346
 20
4979.4809344136
 10
7582.277949658
 20
4979.5108343308
 10
7583.0386302709
 20
4979.542340165
 10
7583.6488975867
 20
4979.5746844136
 10
7584.0907497116
 20
4979.6070286622
 10
7584.3549159304
 20
4979.6385344964
 10
7584.4154457572
 20
4979.6594477312
  0
LWPOLYLINE
  5
232
330
1F
100
AcDbEntity
  8
0
  6
Continuous
 62
     7
370
    25
100
AcDbPolyline
 90
        3
 70
   128
 43
0.0
 10
7563.6436690014
 20
4980.4094477312
 10
7563.6176585668
 20
4980.4184344136
 10
7563.7120078894
 20
4980.4496844157
  0
LINE
  5
233
330
1F
100
AcDbEntity
  8
0
  6
Continuous
 62
     7
370
    25
100
AcDbLine
 10
7563.7120078894
 20
4980.4496844157
 30
0.0
 11
7578.8046771561
 21
4980.4496844157
 31
0.0
  0
LWPOLYLINE
  5
234
330
1F
100
AcDbEntity
  8
0
  6
Continuous
 62
     7
370
    25
100
AcDbPolyline
 90
       26
 70
   128
 43
0.0
 10
7563.6436778775
 20
4956.6149241627
 10
7563.7041988281
 20
4956.6358343308
 10
7563.968365047
 20
4956.667340165
 10
7564.4102171719
 20
4956.6996844136
 10
7565.0204844877
 20
4956.7320286622
 10
7565.7811651006
 20
4956.7635344964
 10
7566.667233124
 20
4956.7934344136
 10
7567.6756875586
 20
4956.8233343308
 10
7568.8099556209
 20
4956.854840165
 10
7570.0450962043
 20
4956.8871844136
 10
7571.3499966439
 20
4956.9195286622
 10
7572.6899277021
 20
4956.9510344964
 10
7574.0295573793
 20
4956.9809344136
 10
7575.3691870565
 20
4957.0108343308
 10
7576.7091181147
 20
4957.042340165
 10
7578.0140185543
 20
4957.0746844136
 10
7579.2491591377
 20
4957.1070286622
 10
7580.3834272
 20
4957.1385344964
 10
7581.3918816346
 20
4957.1684344136
 10
7582.277949658
 20
4957.1983343308
 10
7583.0386302709
 20
4957.229840165
 10
7583.6488975867
 20
4957.2621844136
 10
7584.0907497116
 20
4957.2945286622
 10
7584.3549159304
 20
4957.3260344964
 10
7584.4414561918
 20
4957.3559344136
 10
7584.3991473265
 20
4957.3705522522
  0
LWPOLYLINE
  5
235
330
1F
100
AcDbEntity
  8
0
  6
Continuous
 62
     7
370
    25
100
AcDbPolyline
 90
       26
 70
   128
 43
0.0
 10
7563.6436778775
 20
4958.1149241627
 10
7563.7041988281
 20
4958.1358343308
 10
7563.968365047
 20
4958.167340165
 10
7564.4102171719
 20
4958.1996844136
 10
7565.0204844877
 20
4958.2320286622
 10
7565.7811651006
 20
4958.2635344964
 10
7566.667233124
 20
4958.2934344136
 10
7567.6756875586
 20
4958.3233343308
 10
7568.8099556209
 20
4958.354840165
 10
7570.0450962043
 20
4958.3871844136
 10
7571.3499966439
 20
4958.4195286622
 10
7572.6899277021
 20
4958.4510344964
 10
7574.0295573793
 20
4958.4809344136
 10
7575.3691870565
 20
4958.5108343308
 10
7576.7091181147
 20
4958.542340165
 10
7578.0140185543
 20
4958.5746844136
 10
7579.2491591377
 20
4958.6070286622
 10
7580.3834272
 20
4958.6385344964
 10
7581.3918816346
 20
4958.6684344136
 10
7582.277949658
 20
4958.6983343308
 10
7583.0386302709
 20
4958.729840165
 10
7583.6488975867
 20
4958.7621844136
 10
7584.0907497116
 20
4958.7945286622
 10
7584.3549159304
 20
4958.8260344964
 10
7584.4414561918
 20
4958.8559344136
 10
7584.3991473265
 20
4958.8705522522
  0
LWPOLYLINE
  5
236
330
1F
100
AcDbEntity
  8
0
  6
Continuous
 62
     7
370
    25
100
AcDbPolyline
 90
       26
 70
   128
 43
0.0
 10
7563.6436778775
 20
4959.6149241627
 10
7563.7041988281
 20
4959.6358343308
 10
7563.968365047
 20
4959.667340165
 10
7564.4102171719
 20
4959.6996844136
 10
7565.0204844877
 20
4959.7320286622
 10
7565.7811651006
 20
4959.7635344964
 10
7566.667233124
 20
4959.7934344136
 10
7567.6756875586
 20
4959.8233343308
 10
7568.8099556209
 20
4959.854840165
 10
7570.0450962043
 20
4959.8871844136
 10
7571.3499966439
 20
4959.9195286622
 10
7572.6899277021
 20
4959.9510344964
 10
7574.0295573793
 20
4959.9809344136
 10
7575.3691870565
 20
4960.0108343308
 10
7576.7091181147
 20
4960.042340165
 10
7578.0140185543
 20
4960.0746844136
 10
7579.2491591377
 20
4960.1070286622
 10
7580.3834272
 20
4960.1385344964
 10
7581.3918816346
 20
4960.1684344136
 10
7582.277949658
 20
4960.1983343308
 10
7583.0386302709
 20
4960.229840165
 10
7583.6488975867
 20
4960.2621844136
 10
7584.0907497116
 20
4960.2945286622
 10
7584.3549159304
 20
4960.3260344964
 10
7584.4414561918
 20
4960.3559344136
 10
7584.3991473265
 20
4960.3705522522
  0
LWPOLYLINE
  5
237
330
1F
100
AcDbEntity
  8
0
  6
Continuous
 62
     7
370
    25
100
AcDbPolyline
 90
       26
 70
   128
 43
0.0
 10
7563.6436778775
 20
4961.1149241627
 10
7563.7041988281
 20
4961.1358343308
 10
7563.968365047
 20
4961.167340165
 10
7564.4102171719
 20
4961.1996844136
 10
7565.0204844877
 20
4961.2320286622
 10
7565.7811651006
 20
4961.2635344964
 10
7566.667233124
 20
4961.2934344136
 10
7567.6756875586
 20
4961.3233343308
 10
7568.8099556209
 20
4961.354840165
 10
7570.0450962043
 20
4961.3871844136
 10
7571.3499966439
 20
4961.4195286622
 10
7572.6899277021
 20
4961.4510344964
 10
7574.0295573793
 20
4961.4809344136
 10
7575.3691870565
 20
4961.5108343308
 10
7576.7091181147
 20
4961.542340165
 10
7578.0140185543
 20
4961.5746844136
 10
7579.2491591377
 20
4961.6070286622
 10
7580.3834272
 20
4961.6385344964
 10
7581.3918816346
 20
4961.6684344136
 10
7582.277949658
 20
4961.6983343308
 10
7583.0386302709
 20
4961.729840165
 10
7583.6488975867
 20
4961.7621844136
 10
7584.0907497116
 20
4961.7945286622
 10
7584.3549159304
 20
4961.8260344964
 10
7584.4414561918
 20
4961.8559344136
 10
7584.3991473265
 20
4961.8705522522
  0
LWPOLYLINE
  5
238
330
1F
100
AcDbEntity
  8
0
  6
Continuous
 62
     7
370
    25
100
AcDbPolyline
 90
       26
 70
   128
 43
0.0
 10
7563.6436778775
 20
4962.6149241627
 10
7563.7041988281
 20
4962.6358343308
 10
7563.968365047
 20
4962.667340165
 10
7564.4102171719
 20
4962.6996844136
 10
7565.0204844877
 20
4962.7320286622
 10
7565.7811651006
 20
4962.7635344964
 10
7566.667233124
 20
4962.7934344136
 10
7567.6756875586
 20
4962.8233343308
 10
7568.8099556209
 20
4962.854840165
 10
7570.0450962043
 20
4962.8871844136
 10
7571.3499966439
 20
4962.9195286622
 10
7572.6899277021
 20
4962.9510344964
 10
7574.0295573793
 20
4962.9809344136
 10
7575.3691870565
 20
4963.0108343308
 10
7576.7091181147
 20
4963.042340165
 10
7578.0140185543
 20
4963.0746844136
 10
7579.2491591377
 20
4963.1070286622
 10
7580.3834272
 20
4963.1385344964
 10
7581.3918816346
 20
4963.1684344136
 10
7582.277949658
 20
4963.1983343308
 10
7583.0386302709
 20
4963.229840165
 10
7583.6488975867
 20
4963.2621844136
 10
7584.0907497116
 20
4963.2945286622
 10
7584.3549159304
 20
4963.3260344964
 10
7584.4414561918
 20
4963.3559344136
 10
7584.3991473265
 20
4963.3705522522
  0
LWPOLYLINE
  5
239
330
1F
100
AcDbEntity
  8
0
  6
Continuous
 62
     7
370
    25
100
AcDbPolyline
 90
       26
 70
   128
 43
0.0
 10
7563.6436778775
 20
4964.1149241627
 10
7563.7041988281
 20
4964.1358343308
 10
7563.968365047
 20
4964.167340165
 10
7564.4102171719
 20
4964.1996844136
 10
7565.0204844877
 20
4964.2320286622
 10
7565.7811651006
 20
4964.2635344964
 10
7566.667233124
 20
4964.2934344136
 10
7567.6756875586
 20
4964.3233343308
 10
7568.8099556209
 20
4964.354840165
 10
7570.0450962043
 20
4964.3871844136
 10
7571.3499966439
 20
4964.4195286622
 10
7572.6899277021
 20
4964.4510344964
 10
7574.0295573793
 20
4964.4809344136
 10
7575.3691870565
 20
4964.5108343308
 10
7576.7091181147
 20
4964.542340165
 10
7578.0140185543
 20
4964.5746844136
 10
7579.2491591377
 20
4964.6070286622
 10
7580.3834272
 20
4964.6385344964
 10
7581.3918816346
 20
4964.6684344136
 10
7582.277949658
 20
4964.6983343308
 10
7583.0386302709
 20
4964.729840165
 10
7583.6488975867
 20
4964.7621844136
 10
7584.0907497116
 20
4964.7945286622
 10
7584.3549159304
 20
4964.8260344964
 10
7584.4414561918
 20
4964.8559344136
 10
7584.3991473265
 20
4964.8705522522
  0
LWPOLYLINE
  5
23A
330
1F
100
AcDbEntity
  8
0
  6
Continuous
 62
     7
370
    25
100
AcDbPolyline
 90
       26
 70
   128
 43
0.0
 10
7563.6436778775
 20
4965.6149241627
 10
7563.7041988281
 20
4965.6358343308
 10
7563.968365047
 20
4965.667340165
 10
7564.4102171719
 20
4965.6996844136
 10
7565.0204844877
 20
4965.7320286622
 10
7565.7811651006
 20
4965.7635344964
 10
7566.667233124
 20
4965.7934344136
 10
7567.6756875586
 20
4965.8233343308
 10
7568.8099556209
 20
4965.854840165
 10
7570.0450962043
 20
4965.8871844136
 10
7571.3499966439
 20
4965.9195286622
 10
7572.6899277021
 20
4965.9510344964
 10
7574.0295573793
 20
4965.9809344136
 10
7575.3691870565
 20
4966.0108343308
 10
7576.7091181147
 20
4966.042340165
 10
7578.0140185543
 20
4966.0746844136
 10
7579.2491591377
 20
4966.1070286622
 10
7580.3834272
 20
4966.1385344964
 10
7581.3918816346
 20
4966.1684344136
 10
7582.277949658
 20
4966.1983343308
 10
7583.0386302709
 20
4966.229840165
 10
7583.6488975867
 20
4966.2621844136
 10
7584.0907497116
 20
4966.2945286622
 10
7584.3549159304
 20
4966.3260344964
 10
7584.4414561918
 20
4966.3559344136
 10
7584.3991473265
 20
4966.3705522522
  0
LWPOLYLINE
  5
23B
330
1F
100
AcDbEntity
  8
0
  6
Continuous
 62
     7
370
    25
100
AcDbPolyline
 90
       26
 70
   128
 43
0.0
 10
7563.6436778775
 20
4967.1149241627
 10
7563.7041988281
 20
4967.1358343308
 10
7563.968365047
 20
4967.167340165
 10
7564.4102171719
 20
4967.1996844136
 10
7565.0204844877
 20
4967.2320286622
 10
7565.7811651006
 20
4967.2635344964
 10
7566.667233124
 20
4967.2934344136
 10
7567.6756875586
 20
4967.3233343308
 10
7568.8099556209
 20
4967.354840165
 10
7570.0450962043
 20
4967.3871844136
 10
7571.3499966439
 20
4967.4195286622
 10
7572.6899277021
 20
4967.4510344964
 10
7574.0295573793
 20
4967.4809344136
 10
7575.3691870565
 20
4967.5108343308
 10
7576.7091181147
 20
4967.542340165
 10
7578.0140185543
 20
4967.5746844136
 10
7579.2491591377
 20
4967.6070286622
 10
7580.3834272
 20
4967.6385344964
 10
7581.3918816346
 20
4967.6684344136
 10
7582.277949658
 20
4967.6983343308
 10
7583.0386302709
 20
4967.729840165
 10
7583.6488975867
 20
4967.7621844136
 10
7584.0907497116
 20
4967.7945286622
 10
7584.3549159304
 20
4967.8260344964
 10
7584.4414561918
 20
4967.8559344136
 10
7584.3991473265
 20
4967.8705522522
  0
LWPOLYLINE
  5
23C
330
1F
100
AcDbEntity
  8
0
  6
Continuous
 62
     7
370
    25
100
AcDbPolyline
 90
       26
 70
   128
 43
0.0
 10
7563.6436778775
 20
4968.6149241627
 10
7563.7041988281
 20
4968.6358343308
 10
7563.968365047
 20
4968.667340165
 10
7564.4102171719
 20
4968.6996844136
 10
7565.0204844877
 20
4968.7320286622
 10
7565.7811651006
 20
4968.7635344964
 10
7566.667233124
 20
4968.7934344136
 10
7567.6756875586
 20
4968.8233343308
 10
7568.8099556209
 20
4968.854840165
 10
7570.0450962043
 20
4968.8871844136
 10
7571.3499966439
 20
4968.9195286622
 10
7572.6899277021
 20
4968.9510344964
 10
7574.0295573793
 20
4968.9809344136
 10
7575.3691870565
 20
4969.0108343308
 10
7576.7091181147
 20
4969.042340165
 10
7578.0140185543
 20
4969.0746844136
 10
7579.2491591377
 20
4969.1070286622
 10
7580.3834272
 20
4969.1385344964
 10
7581.3918816346
 20
4969.1684344136
 10
7582.277949658
 20
4969.1983343308
 10
7583.0386302709
 20
4969.229840165
 10
7583.6488975867
 20
4969.2621844136
 10
7584.0907497116
 20
4969.2945286622
 10
7584.3549159304
 20
4969.3260344964
 10
7584.4414561918
 20
4969.3559344136
 10
7584.3991473265
 20
4969.3705522522
  0
LWPOLYLINE
  5
23D
330
1F
100
AcDbEntity
  8
0
  6
Continuous
 62
     7
370
    25
100
AcDbPolyline
 90
       26
 70
   128
 43
0.0
 10
7563.6436778775
 20
4970.1149241627
 10
7563.7041988281
 20
4970.1358343308
 10
7563.968365047
 20
4970.167340165
 10
7564.4102171719
 20
4970.1996844136
 10
7565.0204844877
 20
4970.2320286622
 10
7565.7811651006
 20
4970.2635344964
 10
7566.667233124
 20
4970.2934344136
 10
7567.6756875586
 20
4970.3233343308
 10
7568.8099556209
 20
4970.354840165
 10
7570.0450962043
 20
4970.3871844136
 10
7571.3499966439
 20
4970.4195286622
 10
7572.6899277021
 20
4970.4510344964
 10
7574.0295573793
 20
4970.4809344136
 10
7575.3691870565
 20
4970.5108343308
 10
7576.7091181147
 20
4970.542340165
 10
7578.0140185543
 20
4970.5746844136
 10
7579.2491591377
 20
4970.6070286622
 10
7580.3834272
 20
4970.6385344964
 10
7581.3918816346
 20
4970.6684344136
 10
7582.277949658
 20
4970.6983343308
 10
7583.0386302709
 20
4970.729840165
 10
7583.6488975867
 20
4970.7621844136
 10
7584.0907497116
 20
4970.7945286622
 10
7584.3549159304
 20
4970.8260344964
 10
7584.4414561918
 20
4970.8559344136
 10
7584.3991473265
 20
4970.8705522522
  0
LWPOLYLINE
  5
23E
330
1F
100
AcDbEntity
  8
0
  6
Continuous
 62
     7
370
    25
100
AcDbPolyline
 90
       26
 70
   128
 43
0.0
 10
7563.6436778775
 20
4971.6149241627
 10
7563.7041988281
 20
4971.6358343308
 10
7563.968365047
 20
4971.667340165
 10
7564.4102171719
 20
4971.6996844136
 10
7565.0204844877
 20
4971.7320286622
 10
7565.7811651006
 20
4971.7635344964
 10
7566.667233124
 20
4971.7934344136
 10
7567.6756875586
 20
4971.8233343308
 10
7568.8099556209
 20
4971.854840165
 10
7570.0450962043
 20
4971.8871844136
 10
7571.3499966439
 20
4971.9195286622
 10
7572.6899277021
 20
4971.9510344964
 10
7574.0295573793
 20
4971.9809344136
 10
7575.3691870565
 20
4972.0108343308
 10
7576.7091181147
 20
4972.042340165
 10
7578.0140185543
 20
4972.0746844136
 10
7579.2491591377
 20
4972.1070286622
 10
7580.3834272
 20
4972.1385344964
 10
7581.3918816346
 20
4972.1684344136
 10
7582.277949658
 20
4972.1983343308
 10
7583.0386302709
 20
4972.229840165
 10
7583.6488975867
 20
4972.2621844136
 10
7584.0907497116
 20
4972.2945286622
 10
7584.3549159304
 20
4972.3260344964
 10
7584.4414561918
 20
4972.3559344136
 10
7584.3991473265
 20
4972.3705522522
  0
LWPOLYLINE
  5
23F
330
1F
100
AcDbEntity
  8
0
  6
Continuous
 62
     7
370
    25
100
AcDbPolyline
 90
       26
 70
   128
 43
0.0
 10
7563.6436778775
 20
4973.1149241627
 10
7563.7041988281
 20
4973.1358343308
 10
7563.968365047
 20
4973.167340165
 10
7564.4102171719
 20
4973.1996844136
 10
7565.0204844877
 20
4973.2320286622
 10
7565.7811651006
 20
4973.2635344964
 10
7566.667233124
 20
4973.2934344136
 10
7567.6756875586
 20
4973.3233343308
 10
7568.8099556209
 20
4973.354840165
 10
7570.0450962043
 20
4973.3871844136
 10
7571.3499966439
 20
4973.4195286622
 10
7572.6899277021
 20
4973.4510344964
 10
7574.0295573793
 20
4973.4809344136
 10
7575.3691870565
 20
4973.5108343308
 10
7576.7091181147
 20
4973.542340165
 10
7578.0140185543
 20
4973.5746844136
 10
7579.2491591377
 20
4973.6070286622
 10
7580.3834272
 20
4973.6385344964
 10
7581.3918816346
 20
4973.6684344136
 10
7582.277949658
 20
4973.6983343308
 10
7583.0386302709
 20
4973.729840165
 10
7583.6488975867
 20
4973.7621844136
 10
7584.0907497116
 20
4973.7945286622
 10
7584.3549159304
 20
4973.8260344964
 10
7584.4414561918
 20
4973.8559344136
 10
7584.3991473265
 20
4973.8705522522
  0
LWPOLYLINE
  5
240
330
1F
100
AcDbEntity
  8
0
  6
Continuous
 62
     7
370
    25
100
AcDbPolyline
 90
       26
 70
   128
 43
0.0
 10
7563.6436778775
 20
4974.6149241627
 10
7563.7041988281
 20
4974.6358343308
 10
7563.968365047
 20
4974.667340165
 10
7564.4102171719
 20
4974.6996844136
 10
7565.0204844877
 20
4974.7320286622
 10
7565.7811651006
 20
4974.7635344964
 10
7566.667233124
 20
4974.7934344136
 10
7567.6756875586
 20
4974.8233343308
 10
7568.8099556209
 20
4974.854840165
 10
7570.0450962043
 20
4974.8871844136
 10
7571.3499966439
 20
4974.9195286622
 10
7572.6899277021
 20
4974.9510344964
 10
7574.0295573793
 20
4974.9809344136
 10
7575.3691870565
 20
4975.0108343308
 10
7576.7091181147
 20
4975.042340165
 10
7578.0140185543
 20
4975.0746844136
 10
7579.2491591377
 20
4975.1070286622
 10
7580.3834272
 20
4975.1385344964
 10
7581.3918816346
 20
4975.1684344136
 10
7582.277949658
 20
4975.1983343308
 10
7583.0386302709
 20
4975.229840165
 10
7583.6488975867
 20
4975.2621844136
 10
7584.0907497116
 20
4975.2945286622
 10
7584.3549159304
 20
4975.3260344964
 10
7584.4414561918
 20
4975.3559344136
 10
7584.3991473265
 20
4975.3705522522
  0
LWPOLYLINE
  5
241
330
1F
100
AcDbEntity
  8
0
  6
Continuous
 62
     7
370
    25
100
AcDbPolyline
 90
       26
 70
   128
 43
0.0
 10
7563.6436778775
 20
4976.1149241627
 10
7563.7041988281
 20
4976.1358343308
 10
7563.968365047
 20
4976.167340165
 10
7564.4102171719
 20
4976.1996844136
 10
7565.0204844877
 20
4976.2320286622
 10
7565.7811651006
 20
4976.2635344964
 10
7566.667233124
 20
4976.2934344136
 10
7567.6756875586
 20
4976.3233343308
 10
7568.8099556209
 20
4976.354840165
 10
7570.0450962043
 20
4976.3871844136
 10
7571.3499966439
 20
4976.4195286622
 10
7572.6899277021
 20
4976.4510344964
 10
7574.0295573793
 20
4976.4809344136
 10
7575.3691870565
 20
4976.5108343308
 10
7576.7091181147
 20
4976.542340165
 10
7578.0140185543
 20
4976.5746844136
 10
7579.2491591377
 20
4976.6070286622
 10
7580.3834272
 20
4976.6385344964
 10
7581.3918816346
 20
4976.6684344136
 10
7582.277949658
 20
4976.6983343308
 10
7583.0386302709
 20
4976.729840165
 10
7583.6488975867
 20
4976.7621844136
 10
7584.0907497116
 20
4976.7945286622
 10
7584.3549159304
 20
4976.8260344964
 10
7584.4414561918
 20
4976.8559344136
 10
7584.3991473265
 20
4976.8705522522
  0
LWPOLYLINE
  5
242
330
1F
100
AcDbEntity
  8
0
  6
Continuous
 62
     7
370
    25
100
AcDbPolyline
 90
       26
 70
   128
 43
0.0
 10
7563.6436778775
 20
4977.6149241627
 10
7563.7041988281
 20
4977.6358343308
 10
7563.968365047
 20
4977.667340165
 10
7564.4102171719
 20
4977.6996844136
 10
7565.0204844877
 20
4977.7320286622
 10
7565.7811651006
 20
4977.7635344964
 10
7566.667233124
 20
4977.7934344136
 10
7567.6756875586
 20
4977.8233343308
 10
7568.8099556209
 20
4977.854840165
 10
7570.0450962043
 20
4977.8871844136
 10
7571.3499966439
 20
4977.9195286622
 10
7572.6899277021
 20
4977.9510344964
 10
7574.0295573793
 20
4977.9809344136
 10
7575.3691870565
 20
4978.0108343308
 10
7576.7091181147
 20
4978.042340165
 10
7578.0140185543
 20
4978.0746844136
 10
7579.2491591377
 20
4978.1070286622
 10
7580.3834272
 20
4978.1385344964
 10
7581.3918816346
 20
4978.1684344136
 10
7582.277949658
 20
4978.1983343308
 10
7583.0386302709
 20
4978.229840165
 10
7583.6488975867
 20
4978.2621844136
 10
7584.0907497116
 20
4978.2945286622
 10
7584.3549159304
 20
4978.3260344964
 10
7584.4414561918
 20
4978.3559344136
 10
7584.3991473265
 20
4978.3705522522
  0
LWPOLYLINE
  5
243
330
1F
100
AcDbEntity
  8
0
  6
Continuous
 62
     7
370
    25
100
AcDbPolyline
 90
       26
 70
   128
 43
0.0
 10
7563.6436778775
 20
4979.1149241627
 10
7563.7041988281
 20
4979.1358343308
 10
7563.968365047
 20
4979.167340165
 10
7564.4102171719
 20
4979.1996844136
 10
7565.0204844877
 20
4979.2320286622
 10
7565.7811651006
 20
4979.2635344964
 10
7566.667233124
 20
4979.2934344136
 10
7567.6756875586
 20
4979.3233343308
 10
7568.8099556209
 20
4979.354840165
 10
7570.0450962043
 20
4979.3871844136
 10
7571.3499966439
 20
4979.4195286622
 10
7572.6899277021
 20
4979.4510344964
 10
7574.0295573793
 20
4979.4809344136
 10
7575.3691870565
 20
4979.5108343308
 10
7576.7091181147
 20
4979.542340165
 10
7578.0140185543
 20
4979.5746844136
 10
7579.2491591377
 20
4979.6070286622
 10
7580.3834272
 20
4979.6385344964
 10
7581.3918816346
 20
4979.6684344136
 10
7582.277949658
 20
4979.6983343308
 10
7583.0386302709
 20
4979.729840165
 10
7583.6488975867
 20
4979.7621844136
 10
7584.0907497116
 20
4979.7945286622
 10
7584.3549159304
 20
4979.8260344964
 10
7584.4414561918
 20
4979.8559344136
 10
7584.3991473265
 20
4979.8705522522
  0
LWPOLYLINE
  5
244
330
1F
100
AcDbEntity
  8
0
  6
Continuous
 62
     7
370
    25
100
AcDbPolyline
 90
       21
 70
   128
 43
0.0
 10
7564.4606991905
 20
4957.0844353881
 10
7564.5448364052
 20
4957.1107800346
 10
7564.8965025231
 20
4957.1489733466
 10
7565.4801839528
 20
4957.1878954765
 10
7566.2740217936
 20
4957.2260887886
 10
7567.2413322799
 20
4957.2621844116
 10
7568.3716719281
 20
4957.2982800346
 10
7569.6628407622
 20
4957.3364733466
 10
7571.0719723859
 20
4957.3753954765
 10
7572.5462947446
 20
4957.4135887886
 10
7574.0295573793
 20
4957.4496844116
 10
7575.5128200139
 20
4957.4857800346
 10
7576.9871423727
 20
4957.5239733466
 10
7578.3962739964
 20
4957.5628954765
 10
7579.6874428305
 20
4957.6010887886
 10
7580.8177824787
 20
4957.6371844116
 10
7581.785092965
 20
4957.6732800346
 10
7582.5789308058
 20
4957.7114733466
 10
7583.1626122355
 20
4957.7503954765
 10
7583.5142783534
 20
4957.7885887886
 10
7583.6295573793
 20
4957.8246844116
  0
LWPOLYLINE
  5
245
330
1F
100
AcDbEntity
  8
0
  6
Continuous
 62
     7
370
    25
100
AcDbPolyline
 90
       21
 70
   128
 43
0.0
 10
7564.4606991905
 20
4958.5844353881
 10
7564.5448364052
 20
4958.6107800346
 10
7564.8965025231
 20
4958.6489733466
 10
7565.4801839528
 20
4958.6878954765
 10
7566.2740217936
 20
4958.7260887886
 10
7567.2413322799
 20
4958.7621844116
 10
7568.3716719281
 20
4958.7982800346
 10
7569.6628407622
 20
4958.8364733466
 10
7571.0719723859
 20
4958.8753954765
 10
7572.5462947446
 20
4958.9135887886
 10
7574.0295573793
 20
4958.9496844116
 10
7575.5128200139
 20
4958.9857800346
 10
7576.9871423727
 20
4959.0239733466
 10
7578.3962739964
 20
4959.0628954765
 10
7579.6874428305
 20
4959.1010887886
 10
7580.8177824787
 20
4959.1371844116
 10
7581.785092965
 20
4959.1732800346
 10
7582.5789308058
 20
4959.2114733466
 10
7583.1626122355
 20
4959.2503954765
 10
7583.5142783534
 20
4959.2885887886
 10
7583.6295573793
 20
4959.3246844116
  0
LWPOLYLINE
  5
246
330
1F
100
AcDbEntity
  8
0
  6
Continuous
 62
     7
370
    25
100
AcDbPolyline
 90
       21
 70
   128
 43
0.0
 10
7564.4606991905
 20
4960.0844353881
 10
7564.5448364052
 20
4960.1107800346
 10
7564.8965025231
 20
4960.1489733466
 10
7565.4801839528
 20
4960.1878954765
 10
7566.2740217936
 20
4960.2260887886
 10
7567.2413322799
 20
4960.2621844116
 10
7568.3716719281
 20
4960.2982800346
 10
7569.6628407622
 20
4960.3364733466
 10
7571.0719723859
 20
4960.3753954765
 10
7572.5462947446
 20
4960.4135887886
 10
7574.0295573793
 20
4960.4496844116
 10
7575.5128200139
 20
4960.4857800346
 10
7576.9871423727
 20
4960.5239733466
 10
7578.3962739964
 20
4960.5628954765
 10
7579.6874428305
 20
4960.6010887886
 10
7580.8177824787
 20
4960.6371844116
 10
7581.785092965
 20
4960.6732800346
 10
7582.5789308058
 20
4960.7114733466
 10
7583.1626122355
 20
4960.7503954765
 10
7583.5142783534
 20
4960.7885887886
 10
7583.6295573793
 20
4960.8246844116
  0
LWPOLYLINE
  5
247
330
1F
100
AcDbEntity
  8
0
  6
Continuous
 62
     7
370
    25
100
AcDbPolyline
 90
       21
 70
   128
 43
0.0
 10
7564.4606991905
 20
4961.5844353881
 10
7564.5448364052
 20
4961.6107800346
 10
7564.8965025231
 20
4961.6489733466
 10
7565.4801839528
 20
4961.6878954765
 10
7566.2740217936
 20
4961.7260887886
 10
7567.2413322799
 20
4961.7621844116
 10
7568.3716719281
 20
4961.7982800346
 10
7569.6628407622
 20
4961.8364733466
 10
7571.0719723859
 20
4961.8753954765
 10
7572.5462947446
 20
4961.9135887886
 10
7574.0295573793
 20
4961.9496844116
 10
7575.5128200139
 20
4961.9857800346
 10
7576.9871423727
 20
4962.0239733466
 10
7578.3962739964
 20
4962.0628954765
 10
7579.6874428305
 20
4962.1010887886
 10
7580.8177824787
 20
4962.1371844116
 10
7581.785092965
 20
4962.1732800346
 10
7582.5789308058
 20
4962.2114733466
 10
7583.1626122355
 20
4962.2503954765
 10
7583.5142783534
 20
4962.2885887886
 10
7583.6295573793
 20
4962.3246844116
  0
LWPOLYLINE
  5
248
330
1F
100
AcDbEntity
  8
0
  6
Continuous
 62
     7
370
    25
100
AcDbPolyline
 90
       21
 70
   128
 43
0.0
 10
7564.4606991905
 20
4963.0844353881
 10
7564.5448364052
 20
4963.1107800346
 10
7564.8965025231
 20
4963.1489733466
 10
7565.4801839528
 20
4963.1878954765
 10
7566.2740217936
 20
4963.2260887886
 10
7567.2413322799
 20
4963.2621844116
 10
7568.3716719281
 20
4963.2982800346
 10
7569.6628407622
 20
4963.3364733466
 10
7571.0719723859
 20
4963.3753954765
 10
7572.5462947446
 20
4963.4135887886
 10
7574.0295573793
 20
4963.4496844116
 10
7575.5128200139
 20
4963.4857800346
 10
7576.9871423727
 20
4963.5239733466
 10
7578.3962739964
 20
4963.5628954765
 10
7579.6874428305
 20
4963.6010887886
 10
7580.8177824787
 20
4963.6371844116
 10
7581.785092965
 20
4963.6732800346
 10
7582.5789308058
 20
4963.7114733466
 10
7583.1626122355
 20
4963.7503954765
 10
7583.5142783534
 20
4963.7885887886
 10
7583.6295573793
 20
4963.8246844116
  0
LWPOLYLINE
  5
249
330
1F
100
AcDbEntity
  8
0
  6
Continuous
 62
     7
370
    25
100
AcDbPolyline
 90
       21
 70
   128
 43
0.0
 10
7564.4606991905
 20
4964.5844353881
 10
7564.5448364052
 20
4964.6107800346
 10
7564.8965025231
 20
4964.6489733466
 10
7565.4801839528
 20
4964.6878954765
 10
7566.2740217936
 20
4964.7260887886
 10
7567.2413322799
 20
4964.7621844116
 10
7568.3716719281
 20
4964.7982800346
 10
7569.6628407622
 20
4964.8364733466
 10
7571.0719723859
 20
4964.8753954765
 10
7572.5462947446
 20
4964.9135887886
 10
7574.0295573793
 20
4964.9496844116
 10
7575.5128200139
 20
4964.9857800346
 10
7576.9871423727
 20
4965.0239733466
 10
7578.3962739964
 20
4965.0628954765
 10
7579.6874428305
 20
4965.1010887886
 10
7580.8177824787
 20
4965.1371844116
 10
7581.785092965
 20
4965.1732800346
 10
7582.5789308058
 20
4965.2114733466
 10
7583.1626122355
 20
4965.2503954765
 10
7583.5142783534
 20
4965.2885887886
 10
7583.6295573793
 20
4965.3246844116
  0
LWPOLYLINE
  5
24A
330
1F
100
AcDbEntity
  8
0
  6
Continuous
 62
     7
370
    25
100
AcDbPolyline
 90
       21
 70
   128
 43
0.0
 10
7564.4606991905
 20
4966.0844353881
 10
7564.5448364052
 20
4966.1107800346
 10
7564.8965025231
 20
4966.1489733466
 10
7565.4801839528
 20
4966.1878954765
 10
7566.2740217936
 20
4966.2260887886
 10
7567.2413322799
 20
4966.2621844116
 10
7568.3716719281
 20
4966.2982800346
 10
7569.6628407622
 20
4966.3364733466
 10
7571.0719723859
 20
4966.3753954765
 10
7572.5462947446
 20
4966.4135887886
 10
7574.0295573793
 20
4966.4496844116
 10
7575.5128200139
 20
4966.4857800346
 10
7576.9871423727
 20
4966.5239733466
 10
7578.3962739964
 20
4966.5628954765
 10
7579.6874428305
 20
4966.6010887886
 10
7580.8177824787
 20
4966.6371844116
 10
7581.785092965
 20
4966.6732800346
 10
7582.5789308058
 20
4966.7114733466
 10
7583.1626122355
 20
4966.7503954765
 10
7583.5142783534
 20
4966.7885887886
 10
7583.6295573793
 20
4966.8246844116
  0
LWPOLYLINE
  5
24B
330
1F
100
AcDbEntity
  8
0
  6
Continuous
 62
     7
370
    25
100
AcDbPolyline
 90
       21
 70
   128
 43
0.0
 10
7564.4606991905
 20
4967.5844353881
 10
7564.5448364052
 20
4967.6107800346
 10
7564.8965025231
 20
4967.6489733466
 10
7565.4801839528
 20
4967.6878954765
 10
7566.2740217936
 20
4967.7260887886
 10
7567.2413322799
 20
4967.7621844116
 10
7568.3716719281
 20
4967.7982800346
 10
7569.6628407622
 20
4967.8364733466
 10
7571.0719723859
 20
4967.8753954765
 10
7572.5462947446
 20
4967.9135887886
 10
7574.0295573793
 20
4967.9496844116
 10
7575.5128200139
 20
4967.9857800346
 10
7576.9871423727
 20
4968.0239733466
 10
7578.3962739964
 20
4968.0628954765
 10
7579.6874428305
 20
4968.1010887886
 10
7580.8177824787
 20
4968.1371844116
 10
7581.785092965
 20
4968.1732800346
 10
7582.5789308058
 20
4968.2114733466
 10
7583.1626122355
 20
4968.2503954765
 10
7583.5142783534
 20
4968.2885887886
 10
7583.6295573793
 20
4968.3246844116
  0
LWPOLYLINE
  5
24C
330
1F
100
AcDbEntity
  8
0
  6
Continuous
 62
     7
370
    25
100
AcDbPolyline
 90
       21
 70
   128
 43
0.0
 10
7564.4606991905
 20
4969.0844353881
 10
7564.5448364052
 20
4969.1107800346
 10
7564.8965025231
 20
4969.1489733466
 10
7565.4801839528
 20
4969.1878954765
 10
7566.2740217936
 20
4969.2260887886
 10
7567.2413322799
 20
4969.2621844116
 10
7568.3716719281
 20
4969.2982800346
 10
7569.6628407622
 20
4969.3364733466
 10
7571.0719723859
 20
4969.3753954765
 10
7572.5462947446
 20
4969.4135887886
 10
7574.0295573793
 20
4969.4496844116
 10
7575.5128200139
 20
4969.4857800346
 10
7576.9871423727
 20
4969.5239733466
 10
7578.3962739964
 20
4969.5628954765
 10
7579.6874428305
 20
4969.6010887886
 10
7580.8177824787
 20
4969.6371844116
 10
7581.785092965
 20
4969.6732800346
 10
7582.5789308058
 20
4969.7114733466
 10
7583.1626122355
 20
4969.7503954765
 10
7583.5142783534
 20
4969.7885887886
 10
7583.6295573793
 20
4969.8246844116
  0
LWPOLYLINE
  5
24D
330
1F
100
AcDbEntity
  8
0
  6
Continuous
 62
     7
370
    25
100
AcDbPolyline
 90
       21
 70
   128
 43
0.0
 10
7564.4606991905
 20
4970.5844353881
 10
7564.5448364052
 20
4970.6107800346
 10
7564.8965025231
 20
4970.6489733466
 10
7565.4801839528
 20
4970.6878954765
 10
7566.2740217936
 20
4970.7260887886
 10
7567.2413322799
 20
4970.7621844116
 10
7568.3716719281
 20
4970.7982800346
 10
7569.6628407622
 20
4970.8364733466
 10
7571.0719723859
 20
4970.8753954765
 10
7572.5462947446
 20
4970.9135887886
 10
7574.0295573793
 20
4970.9496844116
 10
7575.5128200139
 20
4970.9857800346
 10
7576.9871423727
 20
4971.0239733466
 10
7578.3962739964
 20
4971.0628954765
 10
7579.6874428305
 20
4971.1010887886
 10
7580.8177824787
 20
4971.1371844116
 10
7581.785092965
 20
4971.1732800346
 10
7582.5789308058
 20
4971.2114733466
 10
7583.1626122355
 20
4971.2503954765
 10
7583.5142783534
 20
4971.2885887886
 10
7583.6295573793
 20
4971.3246844116
  0
LWPOLYLINE
  5
24E
330
1F
100
AcDbEntity
  8
0
  6
Continuous
 62
     7
370
    25
100
AcDbPolyline
 90
       21
 70
   128
 43
0.0
 10
7564.4606991905
 20
4972.0844353881
 10
7564.5448364052
 20
4972.1107800346
 10
7564.8965025231
 20
4972.1489733466
 10
7565.4801839528
 20
4972.1878954765
 10
7566.2740217936
 20
4972.2260887886
 10
7567.2413322799
 20
4972.2621844116
 10
7568.3716719281
 20
4972.2982800346
 10
7569.6628407622
 20
4972.3364733466
 10
7571.0719723859
 20
4972.3753954765
 10
7572.5462947446
 20
4972.4135887886
 10
7574.0295573793
 20
4972.4496844116
 10
7575.5128200139
 20
4972.4857800346
 10
7576.9871423727
 20
4972.5239733466
 10
7578.3962739964
 20
4972.5628954765
 10
7579.6874428305
 20
4972.6010887886
 10
7580.8177824787
 20
4972.6371844116
 10
7581.785092965
 20
4972.6732800346
 10
7582.5789308058
 20
4972.7114733466
 10
7583.1626122355
 20
4972.7503954765
 10
7583.5142783534
 20
4972.7885887886
 10
7583.6295573793
 20
4972.8246844116
  0
LWPOLYLINE
  5
24F
330
1F
100
AcDbEntity
  8
0
  6
Continuous
 62
     7
370
    25
100
AcDbPolyline
 90
       21
 70
   128
 43
0.0
 10
7564.4606991905
 20
4973.5844353881
 10
7564.5448364052
 20
4973.6107800346
 10
7564.8965025231
 20
4973.6489733466
 10
7565.4801839528
 20
4973.6878954765
 10
7566.2740217936
 20
4973.7260887886
 10
7567.2413322799
 20
4973.7621844116
 10
7568.3716719281
 20
4973.7982800346
 10
7569.6628407622
 20
4973.8364733466
 10
7571.0719723859
 20
4973.8753954765
 10
7572.5462947446
 20
4973.9135887886
 10
7574.0295573793
 20
4973.9496844116
 10
7575.5128200139
 20
4973.9857800346
 10
7576.9871423727
 20
4974.0239733466
 10
7578.3962739964
 20
4974.0628954765
 10
7579.6874428305
 20
4974.1010887886
 10
7580.8177824787
 20
4974.1371844116
 10
7581.785092965
 20
4974.1732800346
 10
7582.5789308058
 20
4974.2114733466
 10
7583.1626122355
 20
4974.2503954765
 10
7583.5142783534
 20
4974.2885887886
 10
7583.6295573793
 20
4974.3246844116
  0
LWPOLYLINE
  5
250
330
1F
100
AcDbEntity
  8
0
  6
Continuous
 62
     7
370
    25
100
AcDbPolyline
 90
       21
 70
   128
 43
0.0
 10
7564.4606991905
 20
4975.0844353881
 10
7564.5448364052
 20
4975.1107800346
 10
7564.8965025231
 20
4975.1489733466
 10
7565.4801839528
 20
4975.1878954765
 10
7566.2740217936
 20
4975.2260887886
 10
7567.2413322799
 20
4975.2621844116
 10
7568.3716719281
 20
4975.2982800346
 10
7569.6628407622
 20
4975.3364733466
 10
7571.0719723859
 20
4975.3753954765
 10
7572.5462947446
 20
4975.4135887886
 10
7574.0295573793
 20
4975.4496844116
 10
7575.5128200139
 20
4975.4857800346
 10
7576.9871423727
 20
4975.5239733466
 10
7578.3962739964
 20
4975.5628954765
 10
7579.6874428305
 20
4975.6010887886
 10
7580.8177824787
 20
4975.6371844116
 10
7581.785092965
 20
4975.6732800346
 10
7582.5789308058
 20
4975.7114733466
 10
7583.1626122355
 20
4975.7503954765
 10
7583.5142783534
 20
4975.7885887886
 10
7583.6295573793
 20
4975.8246844116
  0
LWPOLYLINE
  5
251
330
1F
100
AcDbEntity
  8
0
  6
Continuous
 62
     7
370
    25
100
AcDbPolyline
 90
       21
 70
   128
 43
0.0
 10
7564.4606991905
 20
4976.5844353881
 10
7564.5448364052
 20
4976.6107800346
 10
7564.8965025231
 20
4976.6489733466
 10
7565.4801839528
 20
4976.6878954765
 10
7566.2740217936
 20
4976.7260887886
 10
7567.2413322799
 20
4976.7621844116
 10
7568.3716719281
 20
4976.7982800346
 10
7569.6628407622
 20
4976.8364733466
 10
7571.0719723859
 20
4976.8753954765
 10
7572.5462947446
 20
4976.9135887886
 10
7574.0295573793
 20
4976.9496844116
 10
7575.5128200139
 20
4976.9857800346
 10
7576.9871423727
 20
4977.0239733466
 10
7578.3962739964
 20
4977.0628954765
 10
7579.6874428305
 20
4977.1010887886
 10
7580.8177824787
 20
4977.1371844116
 10
7581.785092965
 20
4977.1732800346
 10
7582.5789308058
 20
4977.2114733466
 10
7583.1626122355
 20
4977.2503954765
 10
7583.5142783534
 20
4977.2885887886
 10
7583.6295573793
 20
4977.3246844116
  0
LWPOLYLINE
  5
252
330
1F
100
AcDbEntity
  8
0
  6
Continuous
 62
     7
370
    25
100
AcDbPolyline
 90
       21
 70
   128
 43
0.0
 10
7564.4606991905
 20
4978.0844353881
 10
7564.5448364052
 20
4978.1107800346
 10
7564.8965025231
 20
4978.1489733466
 10
7565.4801839528
 20
4978.1878954765
 10
7566.2740217936
 20
4978.2260887886
 10
7567.2413322799
 20
4978.2621844116
 10
7568.3716719281
 20
4978.2982800346
 10
7569.6628407622
 20
4978.3364733466
 10
7571.0719723859
 20
4978.3753954765
 10
7572.5462947446
 20
4978.4135887886
 10
7574.0295573793
 20
4978.4496844116
 10
7575.5128200139
 20
4978.4857800346
 10
7576.9871423727
 20
4978.5239733466
 10
7578.3962739964
 20
4978.5628954765
 10
7579.6874428305
 20
4978.6010887886
 10
7580.8177824787
 20
4978.6371844116
 10
7581.785092965
 20
4978.6732800346
 10
7582.5789308058
 20
4978.7114733466
 10
7583.1626122355
 20
4978.7503954765
 10
7583.5142783534
 20
4978.7885887886
 10
7583.6295573793
 20
4978.8246844116
  0
LWPOLYLINE
  5
253
330
1F
100
AcDbEntity
  8
0
  6
Continuous
 62
     7
370
    25
100
AcDbPolyline
 90
       21
 70
   128
 43
0.0
 10
7564.4606991905
 20
4979.5844353881
 10
7564.5448364052
 20
4979.6107800346
 10
7564.8965025231
 20
4979.6489733466
 10
7565.4801839528
 20
4979.6878954765
 10
7566.2740217936
 20
4979.7260887886
 10
7567.2413322799
 20
4979.7621844116
 10
7568.3716719281
 20
4979.7982800346
 10
7569.6628407622
 20
4979.8364733466
 10
7571.0719723859
 20
4979.8753954765
 10
7572.5462947446
 20
4979.9135887886
 10
7574.0295573793
 20
4979.9496844116
 10
7575.5128200139
 20
4979.9857800346
 10
7576.9871423727
 20
4980.0239733466
 10
7578.3962739964
 20
4980.0628954765
 10
7579.6874428305
 20
4980.1010887886
 10
7580.8177824787
 20
4980.1371844116
 10
7581.785092965
 20
4980.1732800346
 10
7582.5789308058
 20
4980.2114733466
 10
7583.1626122355
 20
4980.2503954765
 10
7583.5142783534
 20
4980.2885887886
 10
7583.6295573793
 20
4980.3246844116
  0
LINE
  5
254
330
1F
100
AcDbEntity
  8
0
  6
Continuous
 62
     7
370
    25
100
AcDbLine
 10
7565.3295573793
 20
4981.4496844157
 30
0.0
 11
7582.7295573793
 21
4981.4496844157
 31
0.0
  0
LINE
  5
255
330
1F
100
AcDbEntity
  8
0
  6
Continuous
 62
     7
370
    25
100
AcDbLine
 10
7583.6295573793
 20
4980.5496844157
 30
0.0
 11
7564.4295573793
 21
4980.5496844157
 31
0.0
  0
ENDSEC
  0
SECTION
  2
OBJECTS
  0
DICTIONARY
  5
C
330
0
100
AcDbDictionary
281
     1
  3
ACAD_GROUP
350
D
  3
ACAD_LAYOUT
350
1A
  3
ACAD_MLINESTYLE
350
17
  3
ACAD_PLOTSETTINGS
350
19
  3
ACAD_PLOTSTYLENAME
350
E
  3
ACAD_SCALELIST
350
47
  3
DWGPROPS
350
256
  0
DICTIONARY
  5
D
102
{ACAD_REACTORS
330
C
102
}
330
C
100
AcDbDictionary
281
     1
  0
DICTIONARY
  5
1A
102
{ACAD_REACTORS
330
C
102
}
330
C
100
AcDbDictionary
281
     1
  3
Layout1
350
1E
  3
Layout2
350
26
  3
Model
350
22
  0
DICTIONARY
  5
17
102
{ACAD_REACTORS
330
C
102
}
330
C
100
AcDbDictionary
281
     1
  3
Standard
350
18
  0
DICTIONARY
  5
19
102
{ACAD_REACTORS
330
C
102
}
330
C
100
AcDbDictionary
281
     1
  0
ACDBDICTIONARYWDFLT
  5
E
102
{ACAD_REACTORS
330
C
102
}
330
C
100
AcDbDictionary
281
     1
  3
Normal
350
F
100
AcDbDictionaryWithDefault
340
F
  0
DICTIONARY
  5
47
102
{ACAD_REACTORS
330
C
102
}
330
C
100
AcDbDictionary
281
     1
  3
A0
350
48
  3
A1
350
49
  3
A2
350
4A
  3
A3
350
4B
  3
A4
350
4C
  3
A5
350
4D
  3
A6
350
4E
  3
A7
350
4F
  3
A8
350
50
  3
A9
350
51
  3
B0
350
52
  3
B1
350
53
  3
B2
350
54
  3
B3
350
55
  3
B4
350
56
  3
B5
350
57
  3
B6
350
58
  3
B7
350
59
  3
B8
350
5A
  3
B9
350
5B
  3
C0
350
5C
  3
C1
350
5D
  3
C2
350
5E
  3
C3
350
5F
  3
C4
350
60
  3
C5
350
61
  3
C6
350
62
  3
C7
350
63
  3
C8
350
64
  3
C9
350
65
  3
D0
350
66
  3
D1
350
67
  3
D2
350
68
  0
XRECORD
  5
256
102
{ACAD_REACTORS
330
C
102
}
330
C
100
AcDbXrecord
280
     1
  1
DWGPROPS COOKIE
  2

  3

  4

  6

  7

  8
radek.stransky
  9

300
=
301
=
302
=
303
=
304
=
305
=
306
=
307
=
308
=
309
=
 40
0.0
 41
2459130.19756331
 42
2459130.197563669
  1

 90
        0
  0
LAYOUT
  5
1E
102
{ACAD_REACTORS
330
1A
102
}
330
1A
100
AcDbPlotSettings
  1

  2
none_device
  4

  6

 40
0.0
 41
0.0
 42
0.0
 43
0.0
 44
0.0
 45
0.0
 46
0.0
 47
0.0
 48
0.0
 49
0.0
140
0.0
141
0.0
142
1.0
143
1.0
 70
   688
 72
     1
 73
     0
 74
     5
  7

 75
    16
147
1.0
148
0.0
149
0.0
100
AcDbLayout
  1
Layout1
 70
     1
 71
     1
 10
0.0
 20
0.0
 11
420.0
 21
297.0
 12
0.0
 22
0.0
 32
0.0
 14
1.0000000000E+20
 24
1.0000000000E+20
 34
1.0000000000E+20
 15
-1.0000000000E+20
 25
-1.0000000000E+20
 35
-1.0000000000E+20
146
0.0
 13
0.0
 23
0.0
 33
0.0
 16
1.0
 26
0.0
 36
0.0
 17
0.0
 27
1.0
 37
0.0
 76
     0
330
1B
  0
LAYOUT
  5
26
102
{ACAD_REACTORS
330
1A
102
}
330
1A
100
AcDbPlotSettings
  1

  2
none_device
  4

  6

 40
0.0
 41
0.0
 42
0.0
 43
0.0
 44
0.0
 45
0.0
 46
0.0
 47
0.0
 48
0.0
 49
0.0
140
0.0
141
0.0
142
1.0
143
1.0
 70
   688
 72
     1
 73
     0
 74
     5
  7

 75
    16
147
1.0
148
0.0
149
0.0
100
AcDbLayout
  1
Layout2
 70
     1
 71
     2
 10
0.0
 20
0.0
 11
0.0
 21
0.0
 12
0.0
 22
0.0
 32
0.0
 14
0.0
 24
0.0
 34
0.0
 15
0.0
 25
0.0
 35
0.0
146
0.0
 13
0.0
 23
0.0
 33
0.0
 16
1.0
 26
0.0
 36
0.0
 17
0.0
 27
1.0
 37
0.0
 76
     0
330
23
  0
LAYOUT
  5
22
102
{ACAD_REACTORS
330
1A
102
}
330
1A
100
AcDbPlotSettings
  1

  2
none_device
  4
Letter_(8.50_x_11.00_Inches)
  6

 40
6.35
 41
6.35
 42
6.35000508
 43
6.35000508
 44
215.9
 45
279.4
 46
0.0
 47
0.0
 48
0.0
 49
0.0
140
0.0
141
0.0
142
1.0
143
1.0
 70
  1712
 72
     1
 73
     0
 74
     0
  7

 75
     0
147
1.0
148
0.0
149
0.0
100
AcDbLayout
  1
Model
 70
     1
 71
     0
 10
0.0
 20
0.0
 11
20000.0
 21
10000.0
 12
0.0
 22
0.0
 32
0.0
 14
0.0
 24
0.0
 34
0.0
 15
20000.0
 25
10000.0
 35
0.0
146
0.0
 13
0.0
 23
0.0
 33
0.0
 16
1.0
 26
0.0
 36
0.0
 17
0.0
 27
1.0
 37
0.0
 76
     0
330
1F
331
29
  0
MLINESTYLE
  5
18
102
{ACAD_REACTORS
330
17
102
}
330
17
100
AcDbMlineStyle
  2
Standard
 70
     0
  3

 62
   256
 51
90.0
 52
90.0
 71
     2
 49
0.5
 62
   256
  6
BYLAYER
 49
-0.5
 62
   256
  6
BYLAYER
  0
ACDBPLACEHOLDER
  5
F
102
{ACAD_REACTORS
330
E
102
}
330
E
  0
SCALE
  5
48
102
{ACAD_REACTORS
330
47
102
}
330
47
100
AcDbScale
 70
     0
300
1:1
140
1.0
141
1.0
290
     1
  0
SCALE
  5
49
102
{ACAD_REACTORS
330
47
102
}
330
47
100
AcDbScale
 70
     0
300
1:2
140
1.0
141
2.0
290
     0
  0
SCALE
  5
4A
102
{ACAD_REACTORS
330
47
102
}
330
47
100
AcDbScale
 70
     0
300
1:4
140
1.0
141
4.0
290
     0
  0
SCALE
  5
4B
102
{ACAD_REACTORS
330
47
102
}
330
47
100
AcDbScale
 70
     0
300
1:5
140
1.0
141
5.0
290
     0
  0
SCALE
  5
4C
102
{ACAD_REACTORS
330
47
102
}
330
47
100
AcDbScale
 70
     0
300
1:8
140
1.0
141
8.0
290
     0
  0
SCALE
  5
4D
102
{ACAD_REACTORS
330
47
102
}
330
47
100
AcDbScale
 70
     0
300
1:10
140
1.0
141
10.0
290
     0
  0
SCALE
  5
4E
102
{ACAD_REACTORS
330
47
102
}
330
47
100
AcDbScale
 70
     0
300
1:16
140
1.0
141
16.0
290
     0
  0
SCALE
  5
4F
102
{ACAD_REACTORS
330
47
102
}
330
47
100
AcDbScale
 70
     0
300
1:20
140
1.0
141
20.0
290
     0
  0
SCALE
  5
50
102
{ACAD_REACTORS
330
47
102
}
330
47
100
AcDbScale
 70
     0
300
1:30
140
1.0
141
30.0
290
     0
  0
SCALE
  5
51
102
{ACAD_REACTORS
330
47
102
}
330
47
100
AcDbScale
 70
     0
300
1:40
140
1.0
141
40.0
290
     0
  0
SCALE
  5
52
102
{ACAD_REACTORS
330
47
102
}
330
47
100
AcDbScale
 70
     0
300
1:50
140
1.0
141
50.0
290
     0
  0
SCALE
  5
53
102
{ACAD_REACTORS
330
47
102
}
330
47
100
AcDbScale
 70
     0
300
1:100
140
1.0
141
100.0
290
     0
  0
SCALE
  5
54
102
{ACAD_REACTORS
330
47
102
}
330
47
100
AcDbScale
 70
     0
300
2:1
140
2.0
141
1.0
290
     0
  0
SCALE
  5
55
102
{ACAD_REACTORS
330
47
102
}
330
47
100
AcDbScale
 70
     0
300
4:1
140
4.0
141
1.0
290
     0
  0
SCALE
  5
56
102
{ACAD_REACTORS
330
47
102
}
330
47
100
AcDbScale
 70
     0
300
8:1
140
8.0
141
1.0
290
     0
  0
SCALE
  5
57
102
{ACAD_REACTORS
330
47
102
}
330
47
100
AcDbScale
 70
     0
300
10:1
140
10.0
141
1.0
290
     0
  0
SCALE
  5
58
102
{ACAD_REACTORS
330
47
102
}
330
47
100
AcDbScale
 70
     0
300
100:1
140
100.0
141
1.0
290
     0
  0
SCALE
  5
59
102
{ACAD_REACTORS
330
47
102
}
330
47
100
AcDbScale
 70
     0
300
1/128" = 1'-0"
140
0.0078125
141
12.0
290
     0
  0
SCALE
  5
5A
102
{ACAD_REACTORS
330
47
102
}
330
47
100
AcDbScale
 70
     0
300
1/64" = 1'-0"
140
0.015625
141
12.0
290
     0
  0
SCALE
  5
5B
102
{ACAD_REACTORS
330
47
102
}
330
47
100
AcDbScale
 70
     0
300
1/32" = 1'-0"
140
0.03125
141
12.0
290
     0
  0
SCALE
  5
5C
102
{ACAD_REACTORS
330
47
102
}
330
47
100
AcDbScale
 70
     0
300
1/16" = 1'-0"
140
0.0625
141
12.0
290
     0
  0
SCALE
  5
5D
102
{ACAD_REACTORS
330
47
102
}
330
47
100
AcDbScale
 70
     0
300
3/32" = 1'-0"
140
0.09375
141
12.0
290
     0
  0
SCALE
  5
5E
102
{ACAD_REACTORS
330
47
102
}
330
47
100
AcDbScale
 70
     0
300
1/8" = 1'-0"
140
0.125
141
12.0
290
     0
  0
SCALE
  5
5F
102
{ACAD_REACTORS
330
47
102
}
330
47
100
AcDbScale
 70
     0
300
3/16" = 1'-0"
140
0.1875
141
12.0
290
     0
  0
SCALE
  5
60
102
{ACAD_REACTORS
330
47
102
}
330
47
100
AcDbScale
 70
     0
300
1/4" = 1'-0"
140
0.25
141
12.0
290
     0
  0
SCALE
  5
61
102
{ACAD_REACTORS
330
47
102
}
330
47
100
AcDbScale
 70
     0
300
3/8" = 1'-0"
140
0.375
141
12.0
290
     0
  0
SCALE
  5
62
102
{ACAD_REACTORS
330
47
102
}
330
47
100
AcDbScale
 70
     0
300
1/2" = 1'-0"
140
0.5
141
12.0
290
     0
  0
SCALE
  5
63
102
{ACAD_REACTORS
330
47
102
}
330
47
100
AcDbScale
 70
     0
300
3/4" = 1'-0"
140
0.75
141
12.0
290
     0
  0
SCALE
  5
64
102
{ACAD_REACTORS
330
47
102
}
330
47
100
AcDbScale
 70
     0
300
1" = 1'-0"
140
1.0
141
12.0
290
     0
  0
SCALE
  5
65
102
{ACAD_REACTORS
330
47
102
}
330
47
100
AcDbScale
 70
     0
300
1-1/2" = 1'-0"
140
1.5
141
12.0
290
     0
  0
SCALE
  5
66
102
{ACAD_REACTORS
330
47
102
}
330
47
100
AcDbScale
 70
     0
300
3" = 1'-0"
140
3.0
141
12.0
290
     0
  0
SCALE
  5
67
102
{ACAD_REACTORS
330
47
102
}
330
47
100
AcDbScale
 70
     0
300
6" = 1'-0"
140
6.0
141
12.0
290
     0
  0
SCALE
  5
68
102
{ACAD_REACTORS
330
47
102
}
330
47
100
AcDbScale
 70
     0
300
1'-0" = 1'-0"
140
12.0
141
12.0
290
     0
  0
ENDSEC
  0
EOF
