  0
SECTION
  2
HEADER
  9
$ACADVER
  1
AC1015
  9
$ACADMAINTVER
 70
     6
  9
$DWGCODEPAGE
  3
ANSI_1250
  9
$INSBASE
 10
0.0
 20
0.0
 30
0.0
  9
$EXTMIN
 10
0.0
 20
0.0
 30
0.0
  9
$EXTMAX
 10
20000.0
 20
10000.0
 30
0.0
  9
$LIMMIN
 10
0.0
 20
0.0
  9
$LIMMAX
 10
20000.0
 20
10000.0
  9
$ORTHOMODE
 70
     0
  9
$REGENMODE
 70
     1
  9
$FILLMODE
 70
     1
  9
$QTEXTMODE
 70
     0
  9
$MIRRTEXT
 70
     1
  9
$LTSCALE
 40
1.0
  9
$ATTMODE
 70
     1
  9
$TEXTSIZE
 40
2.0
  9
$TRACEWID
 40
1.0
  9
$TEXTSTYLE
  7
Standard
  9
$CLAYER
  8
0
  9
$CELTYPE
  6
ByLayer
  9
$CECOLOR
 62
   256
  9
$CELTSCALE
 40
1.0
  9
$DISPSILH
 70
     0
  9
$DIMSCALE
 40
1.0
  9
$DIMASZ
 40
2.0
  9
$DIMEXO
 40
1.0
  9
$DIMDLI
 40
3.75
  9
$DIMRND
 40
0.0
  9
$DIMDLE
 40
0.0
  9
$DIMEXE
 40
1.0
  9
$DIMTP
 40
0.0
  9
$DIMTM
 40
0.0
  9
$DIMTXT
 40
2.0
  9
$DIMCEN
 40
2.5
  9
$DIMTSZ
 40
0.0
  9
$DIMTOL
 70
     0
  9
$DIMLIM
 70
     0
  9
$DIMTIH
 70
     1
  9
$DIMTOH
 70
     1
  9
$DIMSE1
 70
     0
  9
$DIMSE2
 70
     0
  9
$DIMTAD
 70
     1
  9
$DIMZIN
 70
     0
  9
$DIMBLK
  1

  9
$DIMASO
 70
     1
  9
$DIMSHO
 70
     1
  9
$DIMPOST
  1

  9
$DIMAPOST
  1

  9
$DIMALT
 70
     0
  9
$DIMALTD
 70
     3
  9
$DIMALTF
 40
0.0393700787
  9
$DIMLFAC
 40
1.0
  9
$DIMTOFL
 70
     1
  9
$DIMTVP
 40
0.0
  9
$DIMTIX
 70
     0
  9
$DIMSOXD
 70
     0
  9
$DIMSAH
 70
     0
  9
$DIMBLK1
  1

  9
$DIMBLK2
  1

  9
$DIMSTYLE
  2
ISO-25
  9
$DIMCLRD
 70
     0
  9
$DIMCLRE
 70
     0
  9
$DIMCLRT
 70
     0
  9
$DIMTFAC
 40
1.0
  9
$DIMGAP
 40
1.524
  9
$DIMJUST
 70
     0
  9
$DIMSD1
 70
     0
  9
$DIMSD2
 70
     0
  9
$DIMTOLJ
 70
     0
  9
$DIMTZIN
 70
     0
  9
$DIMALTZ
 70
     0
  9
$DIMALTTZ
 70
     0
  9
$DIMUPT
 70
     0
  9
$DIMDEC
 70
     2
  9
$DIMTDEC
 70
     0
  9
$DIMALTU
 70
     2
  9
$DIMALTTD
 70
     3
  9
$DIMTXSTY
  7
Standard
  9
$DIMAUNIT
 70
     0
  9
$DIMADEC
 70
     2
  9
$DIMALTRND
 40
0.0
  9
$DIMAZIN
 70
     0
  9
$DIMDSEP
 70
    44
  9
$DIMATFIT
 70
     3
  9
$DIMFRAC
 70
     0
  9
$DIMLDRBLK
  1

  9
$DIMLUNIT
 70
     2
  9
$DIMLWD
 70
    -2
  9
$DIMLWE
 70
    -2
  9
$DIMTMOVE
 70
     0
  9
$LUNITS
 70
     2
  9
$LUPREC
 70
     3
  9
$SKETCHINC
 40
1.0
  9
$FILLETRAD
 40
10.0
  9
$AUNITS
 70
     0
  9
$AUPREC
 70
     2
  9
$MENU
  1
.
  9
$ELEVATION
 40
0.0
  9
$PELEVATION
 40
0.0
  9
$THICKNESS
 40
0.0
  9
$LIMCHECK
 70
     0
  9
$CHAMFERA
 40
0.0
  9
$CHAMFERB
 40
0.0
  9
$CHAMFERC
 40
0.0
  9
$CHAMFERD
 40
0.0
  9
$SKPOLY
 70
     0
  9
$TDCREATE
 40
2459842.287773426
  9
$TDUCREATE
 40
2459842.204440093
  9
$TDUPDATE
 40
2459842.287773993
  9
$TDUUPDATE
 40
2459842.20444066
  9
$TDINDWG
 40
0.0000000116
  9
$TDUSRTIMER
 40
0.0000000116
  9
$USRTIMER
 70
     1
  9
$ANGBASE
 50
0.0
  9
$ANGDIR
 70
     0
  9
$PDMODE
 70
     0
  9
$PDSIZE
 40
-1.0
  9
$PLINEWID
 40
0.0
  9
$SPLFRAME
 70
     0
  9
$SPLINETYPE
 70
     6
  9
$SPLINESEGS
 70
     8
  9
$HANDSEED
  5
526
  9
$SURFTAB1
 70
     6
  9
$SURFTAB2
 70
     6
  9
$SURFTYPE
 70
     6
  9
$SURFU
 70
     6
  9
$SURFV
 70
     6
  9
$UCSBASE
  2

  9
$UCSNAME
  2

  9
$UCSORG
 10
0.0
 20
0.0
 30
0.0
  9
$UCSXDIR
 10
1.0
 20
0.0
 30
0.0
  9
$UCSYDIR
 10
0.0
 20
1.0
 30
0.0
  9
$UCSORTHOREF
  2

  9
$UCSORTHOVIEW
 70
     0
  9
$UCSORGTOP
 10
0.0
 20
0.0
 30
0.0
  9
$UCSORGBOTTOM
 10
0.0
 20
0.0
 30
0.0
  9
$UCSORGLEFT
 10
0.0
 20
0.0
 30
0.0
  9
$UCSORGRIGHT
 10
0.0
 20
0.0
 30
0.0
  9
$UCSORGFRONT
 10
0.0
 20
0.0
 30
0.0
  9
$UCSORGBACK
 10
0.0
 20
0.0
 30
0.0
  9
$PUCSBASE
  2

  9
$PUCSNAME
  2

  9
$PUCSORG
 10
0.0
 20
0.0
 30
0.0
  9
$PUCSXDIR
 10
1.0
 20
0.0
 30
0.0
  9
$PUCSYDIR
 10
0.0
 20
1.0
 30
0.0
  9
$PUCSORTHOREF
  2

  9
$PUCSORTHOVIEW
 70
     0
  9
$PUCSORGTOP
 10
0.0
 20
0.0
 30
0.0
  9
$PUCSORGBOTTOM
 10
0.0
 20
0.0
 30
0.0
  9
$PUCSORGLEFT
 10
0.0
 20
0.0
 30
0.0
  9
$PUCSORGRIGHT
 10
0.0
 20
0.0
 30
0.0
  9
$PUCSORGFRONT
 10
0.0
 20
0.0
 30
0.0
  9
$PUCSORGBACK
 10
0.0
 20
0.0
 30
0.0
  9
$USERI1
 70
     0
  9
$USERI2
 70
     0
  9
$USERI3
 70
     0
  9
$USERI4
 70
     0
  9
$USERI5
 70
     0
  9
$USERR1
 40
0.0
  9
$USERR2
 40
0.0
  9
$USERR3
 40
0.0
  9
$USERR4
 40
0.0
  9
$USERR5
 40
0.0
  9
$WORLDVIEW
 70
     1
  9
$SHADEDGE
 70
     3
  9
$SHADEDIF
 70
    70
  9
$TILEMODE
 70
     1
  9
$MAXACTVP
 70
    64
  9
$PINSBASE
 10
0.0
 20
0.0
 30
0.0
  9
$PLIMCHECK
 70
     0
  9
$PEXTMIN
 10
1.0000000000E+20
 20
1.0000000000E+20
 30
1.0000000000E+20
  9
$PEXTMAX
 10
-1.0000000000E+20
 20
-1.0000000000E+20
 30
-1.0000000000E+20
  9
$PLIMMIN
 10
0.0
 20
0.0
  9
$PLIMMAX
 10
420.0
 20
297.0
  9
$UNITMODE
 70
     0
  9
$VISRETAIN
 70
     1
  9
$PLINEGEN
 70
     0
  9
$PSLTSCALE
 70
     1
  9
$TREEDEPTH
 70
  3020
  9
$CMLSTYLE
  2
Standard
  9
$CMLJUST
 70
     0
  9
$CMLSCALE
 40
20.0
  9
$PROXYGRAPHICS
 70
     1
  9
$MEASUREMENT
 70
     1
  9
$CELWEIGHT
370
    -1
  9
$ENDCAPS
280
     0
  9
$JOINSTYLE
280
     0
  9
$LWDISPLAY
290
     1
  9
$INSUNITS
 70
     4
  9
$HYPERLINKBASE
  1

  9
$STYLESHEET
  1

  9
$XEDIT
290
     1
  9
$CEPSNTYPE
380
     0
  9
$PSTYLEMODE
290
     1
  9
$FINGERPRINTGUID
  2
{54ad9d01-faf6-49af-bd6e-ec3720e4edf1}
  9
$VERSIONGUID
  2
{FAEB1C32-E019-11D5-929B-00C0DF256EC4}
  9
$EXTNAMES
290
     1
  9
$PSVPSCALE
 40
0.0
  9
$OLESTARTUP
290
     0
  0
ENDSEC
  0
SECTION
  2
CLASSES
  0
CLASS
  1
ACDBDICTIONARYWDFLT
  2
AcDbDictionaryWithDefault
  3
ObjectDBX Classes
 90
        0
280
     0
281
     0
  0
CLASS
  1
VISUALSTYLE
  2
AcDbVisualStyle
  3
ObjectDBX Classes
 90
     4095
280
     0
281
     0
  0
CLASS
  1
MATERIAL
  2
AcDbMaterial
  3
ObjectDBX Classes
 90
     1153
280
     0
281
     0
  0
CLASS
  1
SCALE
  2
AcDbScale
  3
ObjectDBX Classes
 90
     1153
280
     0
281
     0
  0
CLASS
  1
TABLESTYLE
  2
AcDbTableStyle
  3
ObjectDBX Classes
 90
     4095
280
     0
281
     0
  0
CLASS
  1
MLEADERSTYLE
  2
AcDbMLeaderStyle
  3
ACDB_MLEADERSTYLE_CLASS
 90
     4095
280
     0
281
     0
  0
CLASS
  1
SUN
  2
AcDbSun
  3
SCENEOE
 90
     1153
280
     0
281
     0
  0
CLASS
  1
ACDBPLACEHOLDER
  2
AcDbPlaceHolder
  3
ObjectDBX Classes
 90
        0
280
     0
281
     0
  0
CLASS
  1
LAYOUT
  2
AcDbLayout
  3
ObjectDBX Classes
 90
        0
280
     0
281
     0
  0
ENDSEC
  0
SECTION
  2
TABLES
  0
TABLE
  2
VPORT
  5
8
330
0
100
AcDbSymbolTable
 70
     1
  0
VPORT
  5
29
330
8
100
AcDbSymbolTableRecord
100
AcDbViewportTableRecord
  2
*Active
 70
     0
 10
0.0
 20
0.0
 11
1.0
 21
1.0
 12
10000.0
 22
5000.0
 13
0.0
 23
0.0
 14
10.0
 24
10.0
 15
10.0
 25
10.0
 16
0.0
 26
0.0
 36
1.0
 17
0.0
 27
0.0
 37
0.0
 40
10000.0
 41
2.0
 42
50.0
 43
0.0
 44
0.0
 50
0.0
 51
0.0
 71
     0
 72
  2000
 73
     1
 74
     3
 75
     0
 76
     0
 77
     0
 78
     0
281
     0
 65
     1
110
0.0
120
0.0
130
0.0
111
1.0
121
0.0
131
0.0
112
0.0
122
1.0
132
0.0
 79
     0
146
0.0
  0
ENDTAB
  0
TABLE
  2
LTYPE
  5
5
330
0
100
AcDbSymbolTable
 70
     6
  0
LTYPE
  5
14
330
5
100
AcDbSymbolTableRecord
100
AcDbLinetypeTableRecord
  2
ByBlock
 70
     0
  3

 72
    65
 73
     0
 40
0.0
  0
LTYPE
  5
15
330
5
100
AcDbSymbolTableRecord
100
AcDbLinetypeTableRecord
  2
ByLayer
 70
     0
  3

 72
    65
 73
     0
 40
0.0
  0
LTYPE
  5
16
330
5
100
AcDbSymbolTableRecord
100
AcDbLinetypeTableRecord
  2
Continuous
 70
     0
  3
Solid line
 72
    65
 73
     0
 40
0.0
  0
LTYPE
  5
6E
330
5
100
AcDbSymbolTableRecord
100
AcDbLinetypeTableRecord
  2
HIDDEN
 70
     0
  3
Hidden __ __ __ __ __ __ __ __ __ __ __ __ __ __
 72
    65
 73
     2
 40
1.905
 49
1.27
 74
     0
 49
-0.635
 74
     0
  0
LTYPE
  5
6F
330
5
100
AcDbSymbolTableRecord
100
AcDbLinetypeTableRecord
  2
PHANTOM
 70
     0
  3
Phantom ______  __  __  ______  __  __  ______
 72
    65
 73
     6
 40
12.7
 49
6.35
 74
     0
 49
-1.27
 74
     0
 49
1.27
 74
     0
 49
-1.27
 74
     0
 49
1.27
 74
     0
 49
-1.27
 74
     0
  0
LTYPE
  5
70
330
5
100
AcDbSymbolTableRecord
100
AcDbLinetypeTableRecord
  2
CENTER
 70
     0
  3
Center ____ _ ____ _ ____ _ ____ _ ____ _ ____
 72
    65
 73
     4
 40
10.16
 49
6.35
 74
     0
 49
-1.27
 74
     0
 49
1.27
 74
     0
 49
-1.27
 74
     0
  0
LTYPE
  5
71
330
5
100
AcDbSymbolTableRecord
100
AcDbLinetypeTableRecord
  2
CENTERX2
 70
     0
  3
Center (2x) ________  __  ________  __  _____
 72
    65
 73
     4
 40
20.32
 49
12.7
 74
     0
 49
-2.54
 74
     0
 49
2.54
 74
     0
 49
-2.54
 74
     0
  0
LTYPE
  5
72
330
5
100
AcDbSymbolTableRecord
100
AcDbLinetypeTableRecord
  2
DOT2
 70
     0
  3
Dot (.5x) ........................................
 72
    65
 73
     2
 40
0.635
 49
0.0
 74
     0
 49
-0.635
 74
     0
  0
ENDTAB
  0
TABLE
  2
LAYER
  5
2
330
0
100
AcDbSymbolTable
 70
    13
  0
LAYER
  5
10
330
2
100
AcDbSymbolTableRecord
100
AcDbLayerTableRecord
  2
0
 70
     0
 62
     7
  6
Continuous
370
    -3
390
F
  0
LAYER
  5
73
330
2
100
AcDbSymbolTableRecord
100
AcDbLayerTableRecord
  2
FORMAT
 70
     0
 62
     7
  6
Continuous
370
    -3
390
F
  0
LAYER
  5
74
330
2
100
AcDbSymbolTableRecord
100
AcDbLayerTableRecord
  2
OSA
 70
     0
 62
     7
  6
CENTER
370
    -3
390
F
  0
LAYER
  5
75
330
2
100
AcDbSymbolTableRecord
100
AcDbLayerTableRecord
  2
0_35
 70
     0
 62
     7
  6
Continuous
370
    35
390
F
  0
LAYER
  5
76
330
2
100
AcDbSymbolTableRecord
100
AcDbLayerTableRecord
  2
0_5
 70
     0
 62
     7
  6
Continuous
370
    50
390
F
  0
LAYER
  5
77
330
2
100
AcDbSymbolTableRecord
100
AcDbLayerTableRecord
  2
0_25
 70
     0
 62
     7
  6
Continuous
370
    25
390
F
  0
LAYER
  5
78
330
2
100
AcDbSymbolTableRecord
100
AcDbLayerTableRecord
  2
0_18
 70
     0
 62
     7
  6
Continuous
370
    -3
390
F
  0
LAYER
  5
79
330
2
100
AcDbSymbolTableRecord
100
AcDbLayerTableRecord
  2
SLD-0
 70
     0
 62
   179
  6
Continuous
370
    -3
390
F
  0
LAYER
  5
7A
330
2
100
AcDbSymbolTableRecord
100
AcDbLayerTableRecord
  2
KOTY
 70
     0
 62
     7
  6
Continuous
370
    -3
390
F
  0
LAYER
  5
7B
330
2
100
AcDbSymbolTableRecord
100
AcDbLayerTableRecord
  2
SILNA
 70
     0
 62
   179
  6
Continuous
370
    -3
390
F
  0
LAYER
  5
7C
330
2
100
AcDbSymbolTableRecord
100
AcDbLayerTableRecord
  2
0_18_1
 70
     0
 62
   179
  6
Continuous
370
    -3
390
F
  0
LAYER
  5
7D
330
2
100
AcDbSymbolTableRecord
100
AcDbLayerTableRecord
  2
0_35_1
 70
     0
 62
   179
  6
Continuous
370
    35
390
F
  0
LAYER
  5
7E
330
2
100
AcDbSymbolTableRecord
100
AcDbLayerTableRecord
  2
0_5_1
 70
     0
 62
   179
  6
Continuous
370
    50
390
F
  0
ENDTAB
  0
TABLE
  2
STYLE
  5
3
330
0
100
AcDbSymbolTable
 70
     1
  0
STYLE
  5
11
330
3
100
AcDbSymbolTableRecord
100
AcDbTextStyleTableRecord
  2
Standard
 70
     0
 40
0.0
 41
1.0
 50
0.0
 71
     0
 42
2.0
  3
txt
  4

  0
ENDTAB
  0
TABLE
  2
VIEW
  5
6
330
0
100
AcDbSymbolTable
 70
     0
  0
ENDTAB
  0
TABLE
  2
UCS
  5
7
330
0
100
AcDbSymbolTable
 70
     0
  0
ENDTAB
  0
TABLE
  2
APPID
  5
9
330
0
100
AcDbSymbolTable
 70
     1
  0
APPID
  5
12
330
9
100
AcDbSymbolTableRecord
100
AcDbRegAppTableRecord
  2
ACAD
 70
     0
  0
ENDTAB
  0
TABLE
  2
DIMSTYLE
  5
A
330
0
100
AcDbSymbolTable
 70
     1
100
AcDbDimStyleTable
  0
DIMSTYLE
105
27
330
A
100
AcDbSymbolTableRecord
100
AcDbDimStyleTableRecord
  2
ISO-25
 70
     0
 41
2.5
 42
0.625
 43
3.75
 44
1.25
 73
     0
 74
     0
 77
     1
 78
     8
140
2.5
141
2.5
143
0.0393700787
147
0.625
171
     3
172
     1
178
     0
271
     2
272
     2
274
     3
278
    44
283
     0
284
     8
340
11
  0
ENDTAB
  0
TABLE
  2
BLOCK_RECORD
  5
1
330
0
100
AcDbSymbolTable
 70
     1
  0
BLOCK_RECORD
  5
1F
330
1
100
AcDbSymbolTableRecord
100
AcDbBlockTableRecord
  2
*Model_Space
340
22
  0
BLOCK_RECORD
  5
1B
330
1
100
AcDbSymbolTableRecord
100
AcDbBlockTableRecord
  2
*Paper_Space
340
1E
  0
BLOCK_RECORD
  5
23
330
1
100
AcDbSymbolTableRecord
100
AcDbBlockTableRecord
  2
*Paper_Space0
340
26
  0
ENDTAB
  0
ENDSEC
  0
SECTION
  2
BLOCKS
  0
BLOCK
  5
20
330
1F
100
AcDbEntity
  8
0
100
AcDbBlockBegin
  2
*Model_Space
 70
     0
 10
0.0
 20
0.0
 30
0.0
  3
*Model_Space
  1

  0
ENDBLK
  5
21
330
1F
100
AcDbEntity
  8
0
100
AcDbBlockEnd
  0
BLOCK
  5
1C
330
1B
100
AcDbEntity
 67
     1
  8
0
100
AcDbBlockBegin
  2
*Paper_Space
 70
     0
 10
0.0
 20
0.0
 30
0.0
  3
*Paper_Space
  1

  0
ENDBLK
  5
1D
330
1B
100
AcDbEntity
 67
     1
  8
0
100
AcDbBlockEnd
  0
BLOCK
  5
24
330
23
100
AcDbEntity
  8
0
100
AcDbBlockBegin
  2
*Paper_Space0
 70
     0
 10
0.0
 20
0.0
 30
0.0
  3
*Paper_Space0
  1

  0
ENDBLK
  5
25
330
23
100
AcDbEntity
  8
0
100
AcDbBlockEnd
  0
ENDSEC
  0
SECTION
  2
ENTITIES
  0
LINE
  5
7F
330
1F
100
AcDbEntity
  8
0
  6
Continuous
 62
     7
370
    25
100
AcDbLine
 10
8291.7847945872
 20
5063.3753028298
 30
0.0
 11
8289.7847945872
 21
5063.3753028298
 31
0.0
  0
LINE
  5
80
330
1F
100
AcDbEntity
  8
0
  6
Continuous
 62
     7
370
    25
100
AcDbLine
 10
5293.7847945872
 20
5063.3753028298
 30
0.0
 11
5291.7847945872
 21
5063.3753028298
 31
0.0
  0
LINE
  5
81
330
1F
100
AcDbEntity
  8
0
  6
Continuous
 62
     7
370
    25
100
AcDbLine
 10
8289.7847945872
 20
5063.3753028298
 30
0.0
 11
5293.7847945872
 21
5063.3753028298
 31
0.0
  0
LINE
  5
82
330
1F
100
AcDbEntity
  8
0
  6
Continuous
 62
     7
370
    25
100
AcDbLine
 10
5428.2847945872
 20
4393.8920765741
 30
0.0
 11
5428.2847945872
 21
4364.0416622996
 31
0.0
  0
LINE
  5
83
330
1F
100
AcDbEntity
  8
0
  6
Continuous
 62
     7
370
    25
100
AcDbLine
 10
5428.2847945872
 20
4350.0416622996
 30
0.0
 11
5428.2847945872
 21
4347.5416622996
 31
0.0
  0
LINE
  5
84
330
1F
100
AcDbEntity
  8
0
  6
Continuous
 62
     7
370
    25
100
AcDbLine
 10
5460.2847945872
 20
4347.5416622996
 30
0.0
 11
5460.2847945872
 21
4350.0416622996
 31
0.0
  0
LINE
  5
85
330
1F
100
AcDbEntity
  8
0
  6
Continuous
 62
     7
370
    25
100
AcDbLine
 10
5460.2847945872
 20
4364.0416622996
 30
0.0
 11
5460.2847945872
 21
4393.8920765741
 31
0.0
  0
LINE
  5
86
330
1F
100
AcDbEntity
  8
0
  6
Continuous
 62
     7
370
    25
100
AcDbLine
 10
5410.2847945872
 20
4287.5416622996
 30
0.0
 11
5417.1785803071
 21
4220.2359864382
 31
0.0
  0
LINE
  5
87
330
1F
100
AcDbEntity
  8
0
  6
Continuous
 62
     7
370
    25
100
AcDbLine
 10
5471.3910088674
 20
4220.2359864382
 30
0.0
 11
5478.2847945872
 21
4287.5416622996
 31
0.0
  0
LINE
  5
88
330
1F
100
AcDbEntity
  8
0
  6
Continuous
 62
     7
370
    25
100
AcDbLine
 10
5478.2847945872
 20
4287.5416622996
 30
0.0
 11
5471.5942363424
 21
4344.8893043983
 31
0.0
  0
LINE
  5
89
330
1F
100
AcDbEntity
  8
0
  6
Continuous
 62
     7
370
    25
100
AcDbLine
 10
5416.9753528321
 20
4344.8893043983
 30
0.0
 11
5410.2847945872
 21
4287.5416622996
 31
0.0
  0
ARC
  5
8A
330
1F
100
AcDbEntity
  8
0
  6
Continuous
 62
     7
370
    25
100
AcDbCircle
 10
5419.9551422493
 20
4344.5416622996
 30
0.0
 40
3.0
100
AcDbArc
 50
90.0
 51
173.345574954
  0
ARC
  5
8B
330
1F
100
AcDbEntity
  8
0
  6
Continuous
 62
     7
370
    25
100
AcDbCircle
 10
5468.6144469251
 20
4344.5416622996
 30
0.0
 40
3.000000000000701
100
AcDbArc
 50
6.654425046
 51
90.0
  0
ARC
  5
8C
330
1F
100
AcDbEntity
  8
0
  6
Continuous
 62
     7
370
    25
100
AcDbCircle
 10
5420.162966721
 20
4220.5416622996
 30
0.0
 40
3.000000000000424
100
AcDbArc
 50
185.8481280262
 51
270.0
  0
ARC
  5
8D
330
1F
100
AcDbEntity
  8
0
  6
Continuous
 62
     7
370
    25
100
AcDbCircle
 10
5468.4066224534
 20
4220.5416622996
 30
0.0
 40
3.0
100
AcDbArc
 50
270.0
 51
354.1518719738
  0
LINE
  5
8E
330
1F
100
AcDbEntity
  8
0
  6
Continuous
 62
     7
370
    25
100
AcDbLine
 10
5469.2847945872
 20
4350.0416622996
 30
0.0
 11
5467.2847945872
 21
4354.0416622996
 31
0.0
  0
LINE
  5
8F
330
1F
100
AcDbEntity
  8
0
  6
Continuous
 62
     7
370
    25
100
AcDbLine
 10
5421.2847945872
 20
4354.0416622996
 30
0.0
 11
5419.2847945872
 21
4350.0416622996
 31
0.0
  0
ARC
  5
90
330
1F
100
AcDbEntity
  8
0
  6
Continuous
 62
     7
370
    25
100
AcDbCircle
 10
5424.2847945872
 20
4361.0416622996
 30
0.0
 40
3.0
100
AcDbArc
 50
90.0
 51
180.0
  0
ARC
  5
91
330
1F
100
AcDbEntity
  8
0
  6
Continuous
 62
     7
370
    25
100
AcDbCircle
 10
5464.2847945872
 20
4361.0416622996
 30
0.0
 40
3.0
100
AcDbArc
 50
0.0
 51
90.0
  0
LINE
  5
92
330
1F
100
AcDbEntity
  8
0
  6
Continuous
 62
     7
370
    25
100
AcDbLine
 10
5421.2847945872
 20
4361.0416622996
 30
0.0
 11
5421.2847945872
 21
4354.0416622996
 31
0.0
  0
LINE
  5
93
330
1F
100
AcDbEntity
  8
0
  6
Continuous
 62
     7
370
    25
100
AcDbLine
 10
5467.2847945872
 20
4354.0416622996
 30
0.0
 11
5467.2847945872
 21
4361.0416622996
 31
0.0
  0
ARC
  5
94
330
1F
100
AcDbEntity
  8
0
  6
Continuous
 62
     7
370
    25
100
AcDbCircle
 10
5413.7847945872
 20
5024.3577759674
 30
0.0
 40
37.0000000000005
100
AcDbArc
 50
75.2574286589
 51
104.7425713411
  0
LINE
  5
95
330
1F
100
AcDbEntity
  8
0
  6
Continuous
 62
     7
370
    25
100
AcDbLine
 10
6790.1941370845
 20
4939.9827340768
 30
0.0
 11
6790.2847945872
 21
4939.8920765741
 31
0.0
  0
LINE
  5
96
330
1F
100
AcDbEntity
  8
0
  6
Continuous
 62
     7
370
    25
100
AcDbLine
 10
6793.2847945872
 20
4939.8920765741
 30
0.0
 11
6793.3754520899
 21
4939.9827340768
 31
0.0
  0
LINE
  5
97
330
1F
100
AcDbEntity
  8
0
  6
Continuous
 62
     7
370
    25
100
AcDbLine
 10
7390.1941370845
 20
4939.9827340768
 30
0.0
 11
7390.2847945872
 21
4939.8920765741
 31
0.0
  0
LINE
  5
98
330
1F
100
AcDbEntity
  8
0
  6
Continuous
 62
     7
370
    25
100
AcDbLine
 10
7393.2847945872
 20
4939.8920765741
 30
0.0
 11
7393.3754520899
 21
4939.9827340768
 31
0.0
  0
LINE
  5
99
330
1F
100
AcDbEntity
  8
0
  6
Continuous
 62
     7
370
    25
100
AcDbLine
 10
7990.1941370845
 20
4939.9827340768
 30
0.0
 11
7990.2847945872
 21
4939.8920765741
 31
0.0
  0
LINE
  5
9A
330
1F
100
AcDbEntity
  8
0
  6
Continuous
 62
     7
370
    25
100
AcDbLine
 10
7993.2847945872
 20
4939.8920765741
 30
0.0
 11
7993.3754520899
 21
4939.9827340768
 31
0.0
  0
LINE
  5
9B
330
1F
100
AcDbEntity
  8
0
  6
Continuous
 62
     7
370
    25
100
AcDbLine
 10
6190.1941370845
 20
4939.9827340768
 30
0.0
 11
6190.2847945872
 21
4939.8920765741
 31
0.0
  0
LINE
  5
9C
330
1F
100
AcDbEntity
  8
0
  6
Continuous
 62
     7
370
    25
100
AcDbLine
 10
6193.2847945872
 20
4939.8920765741
 30
0.0
 11
6193.3754520899
 21
4939.9827340768
 31
0.0
  0
LINE
  5
9D
330
1F
100
AcDbEntity
  8
0
  6
Continuous
 62
     7
370
    25
100
AcDbLine
 10
5590.1941370845
 20
4939.9827340768
 30
0.0
 11
5590.2847945872
 21
4939.8920765741
 31
0.0
  0
LINE
  5
9E
330
1F
100
AcDbEntity
  8
0
  6
Continuous
 62
     7
370
    25
100
AcDbLine
 10
5593.2847945872
 20
4939.8920765741
 30
0.0
 11
5593.3754520899
 21
4939.9827340768
 31
0.0
  0
LINE
  5
9F
330
1F
100
AcDbEntity
  8
0
  6
Continuous
 62
     7
370
    25
100
AcDbLine
 10
5582.5347945872
 20
4945.732897229
 30
0.0
 11
5582.5347945872
 21
4945.1291935876
 31
0.0
  0
LINE
  5
A0
330
1F
100
AcDbEntity
  8
0
  6
Continuous
 62
     7
370
    25
100
AcDbLine
 10
5601.0347945872
 20
4945.1291935876
 30
0.0
 11
5601.0347945872
 21
4945.732897229
 31
0.0
  0
LINE
  5
A1
330
1F
100
AcDbEntity
  8
0
  6
Continuous
 62
     7
370
    25
100
AcDbLine
 10
5599.2847945872
 20
4946.0951194139
 30
0.0
 11
5599.2847945872
 21
4946.2956752603
 31
0.0
  0
LINE
  5
A2
330
1F
100
AcDbEntity
  8
0
  6
Continuous
 62
     7
370
    25
100
AcDbLine
 10
5584.2847945872
 20
4946.7918038015
 30
0.0
 11
5584.2847945872
 21
4946.0951194139
 31
0.0
  0
LINE
  5
A3
330
1F
100
AcDbEntity
  8
0
  6
Continuous
 62
     7
370
    25
100
AcDbLine
 10
6182.5347945872
 20
4945.732897229
 30
0.0
 11
6182.5347945872
 21
4945.1291935876
 31
0.0
  0
LINE
  5
A4
330
1F
100
AcDbEntity
  8
0
  6
Continuous
 62
     7
370
    25
100
AcDbLine
 10
6201.0347945872
 20
4945.1291935876
 30
0.0
 11
6201.0347945872
 21
4945.732897229
 31
0.0
  0
LINE
  5
A5
330
1F
100
AcDbEntity
  8
0
  6
Continuous
 62
     7
370
    25
100
AcDbLine
 10
6199.2847945872
 20
4946.0951194139
 30
0.0
 11
6199.2847945872
 21
4946.2956752603
 31
0.0
  0
LINE
  5
A6
330
1F
100
AcDbEntity
  8
0
  6
Continuous
 62
     7
370
    25
100
AcDbLine
 10
6184.2847945872
 20
4946.7918038015
 30
0.0
 11
6184.2847945872
 21
4946.0951194139
 31
0.0
  0
LINE
  5
A7
330
1F
100
AcDbEntity
  8
0
  6
Continuous
 62
     7
370
    25
100
AcDbLine
 10
7982.5347945872
 20
4945.732897229
 30
0.0
 11
7982.5347945872
 21
4945.1291935876
 31
0.0
  0
LINE
  5
A8
330
1F
100
AcDbEntity
  8
0
  6
Continuous
 62
     7
370
    25
100
AcDbLine
 10
8001.0347945872
 20
4945.1291935876
 30
0.0
 11
8001.0347945872
 21
4945.732897229
 31
0.0
  0
LINE
  5
A9
330
1F
100
AcDbEntity
  8
0
  6
Continuous
 62
     7
370
    25
100
AcDbLine
 10
7999.2847945872
 20
4946.0951194139
 30
0.0
 11
7999.2847945872
 21
4946.2956752603
 31
0.0
  0
LINE
  5
AA
330
1F
100
AcDbEntity
  8
0
  6
Continuous
 62
     7
370
    25
100
AcDbLine
 10
7984.2847945872
 20
4946.7918038015
 30
0.0
 11
7984.2847945872
 21
4946.0951194139
 31
0.0
  0
LINE
  5
AB
330
1F
100
AcDbEntity
  8
0
  6
Continuous
 62
     7
370
    25
100
AcDbLine
 10
7382.5347945872
 20
4945.732897229
 30
0.0
 11
7382.5347945872
 21
4945.1291935876
 31
0.0
  0
LINE
  5
AC
330
1F
100
AcDbEntity
  8
0
  6
Continuous
 62
     7
370
    25
100
AcDbLine
 10
7401.0347945872
 20
4945.1291935876
 30
0.0
 11
7401.0347945872
 21
4945.732897229
 31
0.0
  0
LINE
  5
AD
330
1F
100
AcDbEntity
  8
0
  6
Continuous
 62
     7
370
    25
100
AcDbLine
 10
7399.2847945872
 20
4946.0951194139
 30
0.0
 11
7399.2847945872
 21
4946.2956752603
 31
0.0
  0
LINE
  5
AE
330
1F
100
AcDbEntity
  8
0
  6
Continuous
 62
     7
370
    25
100
AcDbLine
 10
7384.2847945872
 20
4946.7918038015
 30
0.0
 11
7384.2847945872
 21
4946.0951194139
 31
0.0
  0
LINE
  5
AF
330
1F
100
AcDbEntity
  8
0
  6
Continuous
 62
     7
370
    25
100
AcDbLine
 10
6782.5347945872
 20
4945.732897229
 30
0.0
 11
6782.5347945872
 21
4945.1291935876
 31
0.0
  0
LINE
  5
B0
330
1F
100
AcDbEntity
  8
0
  6
Continuous
 62
     7
370
    25
100
AcDbLine
 10
6801.0347945872
 20
4945.1291935876
 30
0.0
 11
6801.0347945872
 21
4945.732897229
 31
0.0
  0
LINE
  5
B1
330
1F
100
AcDbEntity
  8
0
  6
Continuous
 62
     7
370
    25
100
AcDbLine
 10
6799.2847945872
 20
4946.0951194139
 30
0.0
 11
6799.2847945872
 21
4946.2956752603
 31
0.0
  0
LINE
  5
B2
330
1F
100
AcDbEntity
  8
0
  6
Continuous
 62
     7
370
    25
100
AcDbLine
 10
6784.2847945872
 20
4946.7918038015
 30
0.0
 11
6784.2847945872
 21
4946.0951194139
 31
0.0
  0
LINE
  5
B3
330
1F
100
AcDbEntity
  8
0
  6
Continuous
 62
     7
370
    25
100
AcDbLine
 10
6193.4347945872
 20
4939.9872087873
 30
0.0
 11
6193.4347945872
 21
4939.9896487286
 31
0.0
  0
LINE
  5
B4
330
1F
100
AcDbEntity
  8
0
  6
Continuous
 62
     7
370
    25
100
AcDbLine
 10
7393.4347945872
 20
4939.9872087873
 30
0.0
 11
7393.4347945872
 21
4939.9896487286
 31
0.0
  0
LINE
  5
B5
330
1F
100
AcDbEntity
  8
0
  6
Continuous
 62
     7
370
    25
100
AcDbLine
 10
5593.4347945872
 20
4939.9872087873
 30
0.0
 11
5593.4347945872
 21
4939.9896487286
 31
0.0
  0
LINE
  5
B6
330
1F
100
AcDbEntity
  8
0
  6
Continuous
 62
     7
370
    25
100
AcDbLine
 10
6793.4347945872
 20
4939.9872087873
 30
0.0
 11
6793.4347945872
 21
4939.9896487286
 31
0.0
  0
LINE
  5
B7
330
1F
100
AcDbEntity
  8
0
  6
Continuous
 62
     7
370
    25
100
AcDbLine
 10
7993.4347945872
 20
4939.9872087873
 30
0.0
 11
7993.4347945872
 21
4939.9896487286
 31
0.0
  0
LINE
  5
B8
330
1F
100
AcDbEntity
  8
0
  6
Continuous
 62
     7
370
    25
100
AcDbLine
 10
8246.7847945872
 20
4395.5420765741
 30
0.0
 11
8246.7847945872
 21
4617.2320765741
 31
0.0
  0
LINE
  5
B9
330
1F
100
AcDbEntity
  8
0
  6
Continuous
 62
     7
370
    25
100
AcDbLine
 10
8246.7847945872
 20
4395.5420765741
 30
0.0
 11
8245.1347945872
 21
4395.5420765741
 31
0.0
  0
LINE
  5
BA
330
1F
100
AcDbEntity
  8
0
  6
Continuous
 62
     7
370
    25
100
AcDbLine
 10
8245.1347945872
 20
4395.5420765741
 30
0.0
 11
8245.1347945872
 21
4617.2320765741
 31
0.0
  0
LINE
  5
BB
330
1F
100
AcDbEntity
  8
0
  6
Continuous
 62
     7
370
    25
100
AcDbLine
 10
8245.1347945872
 20
4617.2320765741
 30
0.0
 11
8246.7847945872
 21
4617.2320765741
 31
0.0
  0
LINE
  5
BC
330
1F
100
AcDbEntity
  8
0
  6
Continuous
 62
     7
370
    25
100
AcDbLine
 10
8245.1347945872
 20
4617.2320765741
 30
0.0
 11
5338.4347945872
 21
4617.2320765741
 31
0.0
  0
LINE
  5
BD
330
1F
100
AcDbEntity
  8
0
  6
Continuous
 62
     7
370
    25
100
AcDbLine
 10
5338.4347945872
 20
4617.2320765741
 30
0.0
 11
5338.4347945872
 21
4618.8820765741
 31
0.0
  0
LINE
  5
BE
330
1F
100
AcDbEntity
  8
0
  6
Continuous
 62
     7
370
    25
100
AcDbLine
 10
8245.1347945872
 20
4618.8820765741
 30
0.0
 11
5338.4347945872
 21
4618.8820765741
 31
0.0
  0
LINE
  5
BF
330
1F
100
AcDbEntity
  8
0
  6
Continuous
 62
     7
370
    25
100
AcDbLine
 10
8245.1347945872
 20
4617.2320765741
 30
0.0
 11
8245.1347945872
 21
4618.8820765741
 31
0.0
  0
LINE
  5
C0
330
1F
100
AcDbEntity
  8
0
  6
Continuous
 62
     7
370
    25
100
AcDbLine
 10
8245.1347945872
 20
4395.5420765741
 30
0.0
 11
5338.4347945872
 21
4395.5420765741
 31
0.0
  0
LINE
  5
C1
330
1F
100
AcDbEntity
  8
0
  6
Continuous
 62
     7
370
    25
100
AcDbLine
 10
5338.4347945872
 20
4395.5420765741
 30
0.0
 11
5338.4347945872
 21
4617.2320765741
 31
0.0
  0
LINE
  5
C2
330
1F
100
AcDbEntity
  8
0
  6
Continuous
 62
     7
370
    25
100
AcDbLine
 10
5338.4347945872
 20
4395.5420765741
 30
0.0
 11
5336.7847945872
 21
4395.5420765741
 31
0.0
  0
LINE
  5
C3
330
1F
100
AcDbEntity
  8
0
  6
Continuous
 62
     7
370
    25
100
AcDbLine
 10
5336.7847945872
 20
4395.5420765741
 30
0.0
 11
5336.7847945872
 21
4617.2320765741
 31
0.0
  0
LINE
  5
C4
330
1F
100
AcDbEntity
  8
0
  6
Continuous
 62
     7
370
    25
100
AcDbLine
 10
5336.7847945872
 20
4617.2320765741
 30
0.0
 11
5338.4347945872
 21
4617.2320765741
 31
0.0
  0
LINE
  5
C5
330
1F
100
AcDbEntity
  8
0
  6
Continuous
 62
     7
370
    25
100
AcDbLine
 10
8245.1347945872
 20
4393.8920765741
 30
0.0
 11
5338.4347945872
 21
4393.8920765741
 31
0.0
  0
LINE
  5
C6
330
1F
100
AcDbEntity
  8
0
  6
Continuous
 62
     7
370
    25
100
AcDbLine
 10
5338.4347945872
 20
4393.8920765741
 30
0.0
 11
5338.4347945872
 21
4395.5420765741
 31
0.0
  0
LINE
  5
C7
330
1F
100
AcDbEntity
  8
0
  6
Continuous
 62
     7
370
    25
100
AcDbLine
 10
8245.1347945872
 20
4393.8920765741
 30
0.0
 11
8245.1347945872
 21
4395.5420765741
 31
0.0
  0
LINE
  5
C8
330
1F
100
AcDbEntity
  8
0
  6
Continuous
 62
     7
370
    25
100
AcDbLine
 10
8291.7847945872
 20
4393.8920765741
 30
0.0
 11
8291.7847945872
 21
4618.8820765741
 31
0.0
  0
LINE
  5
C9
330
1F
100
AcDbEntity
  8
0
  6
Continuous
 62
     7
370
    25
100
AcDbLine
 10
8288.6847945872
 20
4393.8920765741
 30
0.0
 11
8291.7847945872
 21
4393.8920765741
 31
0.0
  0
LINE
  5
CA
330
1F
100
AcDbEntity
  8
0
  6
Continuous
 62
     7
370
    25
100
AcDbLine
 10
8288.6847945872
 20
4393.8920765741
 30
0.0
 11
8288.6847945872
 21
4618.8820765741
 31
0.0
  0
LINE
  5
CB
330
1F
100
AcDbEntity
  8
0
  6
Continuous
 62
     7
370
    25
100
AcDbLine
 10
8291.7847945872
 20
4618.8820765741
 30
0.0
 11
8288.6847945872
 21
4618.8820765741
 31
0.0
  0
LINE
  5
CC
330
1F
100
AcDbEntity
  8
0
  6
Continuous
 62
     7
370
    25
100
AcDbLine
 10
8249.8847945872
 20
4393.8920765741
 30
0.0
 11
8288.6847945872
 21
4393.8920765741
 31
0.0
  0
LINE
  5
CD
330
1F
100
AcDbEntity
  8
0
  6
Continuous
 62
     7
370
    25
100
AcDbLine
 10
8249.8847945872
 20
4393.8920765741
 30
0.0
 11
8249.8847945872
 21
4618.8820765741
 31
0.0
  0
LINE
  5
CE
330
1F
100
AcDbEntity
  8
0
  6
Continuous
 62
     7
370
    25
100
AcDbLine
 10
8288.6847945872
 20
4618.8820765741
 30
0.0
 11
8249.8847945872
 21
4618.8820765741
 31
0.0
  0
LINE
  5
CF
330
1F
100
AcDbEntity
  8
0
  6
Continuous
 62
     7
370
    25
100
AcDbLine
 10
8249.8847945872
 20
4393.8920765741
 30
0.0
 11
8246.7847945872
 21
4393.8920765741
 31
0.0
  0
LINE
  5
D0
330
1F
100
AcDbEntity
  8
0
  6
Continuous
 62
     7
370
    25
100
AcDbLine
 10
8246.7847945872
 20
4393.8920765741
 30
0.0
 11
8246.7847945872
 21
4395.5420765741
 31
0.0
  0
LINE
  5
D1
330
1F
100
AcDbEntity
  8
0
  6
Continuous
 62
     7
370
    25
100
AcDbLine
 10
8246.7847945872
 20
4617.2320765741
 30
0.0
 11
8246.7847945872
 21
4618.8820765741
 31
0.0
  0
LINE
  5
D2
330
1F
100
AcDbEntity
  8
0
  6
Continuous
 62
     7
370
    25
100
AcDbLine
 10
8246.7847945872
 20
4618.8820765741
 30
0.0
 11
8249.8847945872
 21
4618.8820765741
 31
0.0
  0
LINE
  5
D3
330
1F
100
AcDbEntity
  8
0
  6
Continuous
 62
     7
370
    25
100
AcDbLine
 10
8291.7847945872
 20
4641.6920765741
 30
0.0
 11
8289.7847945872
 21
4641.6920765741
 31
0.0
  0
LINE
  5
D4
330
1F
100
AcDbEntity
  8
0
  6
Continuous
 62
     7
370
    25
100
AcDbLine
 10
8291.7847945872
 20
4641.6920765741
 30
0.0
 11
8291.7847945872
 21
4618.8920765741
 31
0.0
  0
LINE
  5
D5
330
1F
100
AcDbEntity
  8
0
  6
Continuous
 62
     7
370
    25
100
AcDbLine
 10
8289.7847945872
 20
4641.6920765741
 30
0.0
 11
8289.7847945872
 21
4618.8920765741
 31
0.0
  0
LINE
  5
D6
330
1F
100
AcDbEntity
  8
0
  6
Continuous
 62
     7
370
    25
100
AcDbLine
 10
8291.7847945872
 20
4618.8920765741
 30
0.0
 11
8289.7847945872
 21
4618.8920765741
 31
0.0
  0
LINE
  5
D7
330
1F
100
AcDbEntity
  8
0
  6
Continuous
 62
     7
370
    25
100
AcDbLine
 10
8291.7847945872
 20
4643.8920765741
 30
0.0
 11
8289.7847945872
 21
4643.8920765741
 31
0.0
  0
LINE
  5
D8
330
1F
100
AcDbEntity
  8
0
  6
Continuous
 62
     7
370
    25
100
AcDbLine
 10
8291.7847945872
 20
4643.8920765741
 30
0.0
 11
8291.7847945872
 21
4641.6920765741
 31
0.0
  0
LINE
  5
D9
330
1F
100
AcDbEntity
  8
0
  6
Continuous
 62
     7
370
    25
100
AcDbLine
 10
8289.7847945872
 20
4643.8920765741
 30
0.0
 11
8289.7847945872
 21
4641.6920765741
 31
0.0
  0
LINE
  5
DA
330
1F
100
AcDbEntity
  8
0
  6
Continuous
 62
     7
370
    25
100
AcDbLine
 10
8291.7847945872
 20
4618.8920765741
 30
0.0
 11
8291.7847945872
 21
4618.8820765741
 31
0.0
  0
LINE
  5
DB
330
1F
100
AcDbEntity
  8
0
  6
Continuous
 62
     7
370
    25
100
AcDbLine
 10
8289.7847945872
 20
4618.8920765741
 30
0.0
 11
8289.7847945872
 21
4618.8820765741
 31
0.0
  0
LINE
  5
DC
330
1F
100
AcDbEntity
  8
0
  6
Continuous
 62
     7
370
    25
100
AcDbLine
 10
8291.7847945872
 20
5053.6346483392
 30
0.0
 11
8289.7847945872
 21
5053.6346483392
 31
0.0
  0
LINE
  5
DD
330
1F
100
AcDbEntity
  8
0
  6
Continuous
 62
     7
370
    25
100
AcDbLine
 10
8291.7847945872
 20
5051.4827236176
 30
0.0
 11
8289.7847945872
 21
5051.4827236176
 31
0.0
  0
LINE
  5
DE
330
1F
100
AcDbEntity
  8
0
  6
Continuous
 62
     7
370
    25
100
AcDbLine
 10
8291.7847945872
 20
5053.6346483392
 30
0.0
 11
8291.7847945872
 21
5051.4827236176
 31
0.0
  0
LINE
  5
DF
330
1F
100
AcDbEntity
  8
0
  6
Continuous
 62
     7
370
    25
100
AcDbLine
 10
8289.7847945872
 20
5053.6346483392
 30
0.0
 11
8289.7847945872
 21
5051.4827236176
 31
0.0
  0
LINE
  5
E0
330
1F
100
AcDbEntity
  8
0
  6
Continuous
 62
     7
370
    25
100
AcDbLine
 10
8291.7847945872
 20
5051.4827236176
 30
0.0
 11
8291.7847945872
 21
4643.8920765741
 31
0.0
  0
LINE
  5
E1
330
1F
100
AcDbEntity
  8
0
  6
Continuous
 62
     7
370
    25
100
AcDbLine
 10
8289.7847945872
 20
5051.4827236176
 30
0.0
 11
8289.7847945872
 21
4643.8920765741
 31
0.0
  0
LINE
  5
E2
330
1F
100
AcDbEntity
  8
0
  6
Continuous
 62
     7
370
    25
100
AcDbLine
 10
8291.7847945872
 20
5063.3272275514
 30
0.0
 11
8289.7847945872
 21
5063.3272275514
 31
0.0
  0
LINE
  5
E3
330
1F
100
AcDbEntity
  8
0
  6
Continuous
 62
     7
370
    25
100
AcDbLine
 10
8291.7847945872
 20
5063.3272275514
 30
0.0
 11
8291.7847945872
 21
5053.6346483392
 31
0.0
  0
LINE
  5
E4
330
1F
100
AcDbEntity
  8
0
  6
Continuous
 62
     7
370
    25
100
AcDbLine
 10
8289.7847945872
 20
5063.3272275514
 30
0.0
 11
8289.7847945872
 21
5053.6346483392
 31
0.0
  0
LINE
  5
E5
330
1F
100
AcDbEntity
  8
0
  6
Continuous
 62
     7
370
    25
100
AcDbLine
 10
8291.7847945872
 20
5063.3753028298
 30
0.0
 11
8291.7847945872
 21
5063.3272275514
 31
0.0
  0
LINE
  5
E6
330
1F
100
AcDbEntity
  8
0
  6
Continuous
 62
     7
370
    25
100
AcDbLine
 10
8289.7847945872
 20
5063.3753028298
 30
0.0
 11
8289.7847945872
 21
5063.3272275514
 31
0.0
  0
LINE
  5
E7
330
1F
100
AcDbEntity
  8
0
  6
Continuous
 62
     7
370
    25
100
AcDbLine
 10
5294.8847945872
 20
4393.8920765741
 30
0.0
 11
5294.8847945872
 21
4618.8820765741
 31
0.0
  0
LINE
  5
E8
330
1F
100
AcDbEntity
  8
0
  6
Continuous
 62
     7
370
    25
100
AcDbLine
 10
5294.8847945872
 20
4393.8920765741
 30
0.0
 11
5291.7847945872
 21
4393.8920765741
 31
0.0
  0
LINE
  5
E9
330
1F
100
AcDbEntity
  8
0
  6
Continuous
 62
     7
370
    25
100
AcDbLine
 10
5291.7847945872
 20
4393.8920765741
 30
0.0
 11
5291.7847945872
 21
4618.8820765741
 31
0.0
  0
LINE
  5
EA
330
1F
100
AcDbEntity
  8
0
  6
Continuous
 62
     7
370
    25
100
AcDbLine
 10
5291.7847945872
 20
4618.8820765741
 30
0.0
 11
5294.8847945872
 21
4618.8820765741
 31
0.0
  0
LINE
  5
EB
330
1F
100
AcDbEntity
  8
0
  6
Continuous
 62
     7
370
    25
100
AcDbLine
 10
5333.6847945872
 20
4393.8920765741
 30
0.0
 11
5333.6847945872
 21
4618.8820765741
 31
0.0
  0
LINE
  5
EC
330
1F
100
AcDbEntity
  8
0
  6
Continuous
 62
     7
370
    25
100
AcDbLine
 10
5333.6847945872
 20
4393.8920765741
 30
0.0
 11
5294.8847945872
 21
4393.8920765741
 31
0.0
  0
LINE
  5
ED
330
1F
100
AcDbEntity
  8
0
  6
Continuous
 62
     7
370
    25
100
AcDbLine
 10
5294.8847945872
 20
4618.8820765741
 30
0.0
 11
5333.6847945872
 21
4618.8820765741
 31
0.0
  0
LINE
  5
EE
330
1F
100
AcDbEntity
  8
0
  6
Continuous
 62
     7
370
    25
100
AcDbLine
 10
5333.6847945872
 20
4393.8920765741
 30
0.0
 11
5336.7847945872
 21
4393.8920765741
 31
0.0
  0
LINE
  5
EF
330
1F
100
AcDbEntity
  8
0
  6
Continuous
 62
     7
370
    25
100
AcDbLine
 10
5336.7847945872
 20
4618.8820765741
 30
0.0
 11
5333.6847945872
 21
4618.8820765741
 31
0.0
  0
LINE
  5
F0
330
1F
100
AcDbEntity
  8
0
  6
Continuous
 62
     7
370
    25
100
AcDbLine
 10
5336.7847945872
 20
4393.8920765741
 30
0.0
 11
5336.7847945872
 21
4395.5420765741
 31
0.0
  0
LINE
  5
F1
330
1F
100
AcDbEntity
  8
0
  6
Continuous
 62
     7
370
    25
100
AcDbLine
 10
5336.7847945872
 20
4617.2320765741
 30
0.0
 11
5336.7847945872
 21
4618.8820765741
 31
0.0
  0
LINE
  5
F2
330
1F
100
AcDbEntity
  8
0
  6
Continuous
 62
     7
370
    25
100
AcDbLine
 10
5291.7847945872
 20
4618.8920765741
 30
0.0
 11
5293.7847945872
 21
4618.8920765741
 31
0.0
  0
LINE
  5
F3
330
1F
100
AcDbEntity
  8
0
  6
Continuous
 62
     7
370
    25
100
AcDbLine
 10
5291.7847945872
 20
4641.6920765741
 30
0.0
 11
5293.7847945872
 21
4641.6920765741
 31
0.0
  0
LINE
  5
F4
330
1F
100
AcDbEntity
  8
0
  6
Continuous
 62
     7
370
    25
100
AcDbLine
 10
5293.7847945872
 20
4641.6920765741
 30
0.0
 11
5293.7847945872
 21
4618.8920765741
 31
0.0
  0
LINE
  5
F5
330
1F
100
AcDbEntity
  8
0
  6
Continuous
 62
     7
370
    25
100
AcDbLine
 10
5291.7847945872
 20
4641.6920765741
 30
0.0
 11
5291.7847945872
 21
4618.8920765741
 31
0.0
  0
LINE
  5
F6
330
1F
100
AcDbEntity
  8
0
  6
Continuous
 62
     7
370
    25
100
AcDbLine
 10
5291.7847945872
 20
4643.8920765741
 30
0.0
 11
5293.7847945872
 21
4643.8920765741
 31
0.0
  0
LINE
  5
F7
330
1F
100
AcDbEntity
  8
0
  6
Continuous
 62
     7
370
    25
100
AcDbLine
 10
5293.7847945872
 20
4643.8920765741
 30
0.0
 11
5293.7847945872
 21
4641.6920765741
 31
0.0
  0
LINE
  5
F8
330
1F
100
AcDbEntity
  8
0
  6
Continuous
 62
     7
370
    25
100
AcDbLine
 10
5291.7847945872
 20
4643.8920765741
 30
0.0
 11
5291.7847945872
 21
4641.6920765741
 31
0.0
  0
LINE
  5
F9
330
1F
100
AcDbEntity
  8
0
  6
Continuous
 62
     7
370
    25
100
AcDbLine
 10
5293.7847945872
 20
4618.8920765741
 30
0.0
 11
5293.7847945872
 21
4618.8820765741
 31
0.0
  0
LINE
  5
FA
330
1F
100
AcDbEntity
  8
0
  6
Continuous
 62
     7
370
    25
100
AcDbLine
 10
5291.7847945872
 20
4618.8920765741
 30
0.0
 11
5291.7847945872
 21
4618.8820765741
 31
0.0
  0
LINE
  5
FB
330
1F
100
AcDbEntity
  8
0
  6
Continuous
 62
     7
370
    25
100
AcDbLine
 10
5291.7847945872
 20
5051.4827236176
 30
0.0
 11
5293.7847945872
 21
5051.4827236176
 31
0.0
  0
LINE
  5
FC
330
1F
100
AcDbEntity
  8
0
  6
Continuous
 62
     7
370
    25
100
AcDbLine
 10
5291.7847945872
 20
5053.6346483392
 30
0.0
 11
5293.7847945872
 21
5053.6346483392
 31
0.0
  0
LINE
  5
FD
330
1F
100
AcDbEntity
  8
0
  6
Continuous
 62
     7
370
    25
100
AcDbLine
 10
5293.7847945872
 20
5053.6346483392
 30
0.0
 11
5293.7847945872
 21
5051.4827236176
 31
0.0
  0
LINE
  5
FE
330
1F
100
AcDbEntity
  8
0
  6
Continuous
 62
     7
370
    25
100
AcDbLine
 10
5291.7847945872
 20
5053.6346483392
 30
0.0
 11
5291.7847945872
 21
5051.4827236176
 31
0.0
  0
LINE
  5
FF
330
1F
100
AcDbEntity
  8
0
  6
Continuous
 62
     7
370
    25
100
AcDbLine
 10
5293.7847945872
 20
5051.4827236176
 30
0.0
 11
5293.7847945872
 21
4643.8920765741
 31
0.0
  0
LINE
  5
100
330
1F
100
AcDbEntity
  8
0
  6
Continuous
 62
     7
370
    25
100
AcDbLine
 10
5291.7847945872
 20
5051.4827236176
 30
0.0
 11
5291.7847945872
 21
4643.8920765741
 31
0.0
  0
LINE
  5
101
330
1F
100
AcDbEntity
  8
0
  6
Continuous
 62
     7
370
    25
100
AcDbLine
 10
5291.7847945872
 20
5063.3272275514
 30
0.0
 11
5293.7847945872
 21
5063.3272275514
 31
0.0
  0
LINE
  5
102
330
1F
100
AcDbEntity
  8
0
  6
Continuous
 62
     7
370
    25
100
AcDbLine
 10
5293.7847945872
 20
5063.3272275514
 30
0.0
 11
5293.7847945872
 21
5053.6346483392
 31
0.0
  0
LINE
  5
103
330
1F
100
AcDbEntity
  8
0
  6
Continuous
 62
     7
370
    25
100
AcDbLine
 10
5291.7847945872
 20
5063.3272275514
 30
0.0
 11
5291.7847945872
 21
5053.6346483392
 31
0.0
  0
LINE
  5
104
330
1F
100
AcDbEntity
  8
0
  6
Continuous
 62
     7
370
    25
100
AcDbLine
 10
5293.7847945872
 20
5063.3753028298
 30
0.0
 11
5293.7847945872
 21
5063.3272275514
 31
0.0
  0
LINE
  5
105
330
1F
100
AcDbEntity
  8
0
  6
Continuous
 62
     7
370
    25
100
AcDbLine
 10
5291.7847945872
 20
5063.3753028298
 30
0.0
 11
5291.7847945872
 21
5063.3272275514
 31
0.0
  0
LINE
  5
106
330
1F
100
AcDbEntity
  8
0
  6
Continuous
 62
     7
370
    25
100
AcDbLine
 10
8289.7847945872
 20
4643.8920765741
 30
0.0
 11
5293.7847945872
 21
4643.8920765741
 31
0.0
  0
LINE
  5
107
330
1F
100
AcDbEntity
  8
0
  6
Continuous
 62
     7
370
    25
100
AcDbLine
 10
5293.7847945872
 20
4641.6920765741
 30
0.0
 11
8289.7847945872
 21
4641.6920765741
 31
0.0
  0
LINE
  5
108
330
1F
100
AcDbEntity
  8
0
  6
Continuous
 62
     7
370
    25
100
AcDbLine
 10
5293.7847945872
 20
4618.8920765741
 30
0.0
 11
8289.7847945872
 21
4618.8920765741
 31
0.0
  0
LINE
  5
109
330
1F
100
AcDbEntity
  8
0
  6
Continuous
 62
     7
370
    25
100
AcDbLine
 10
5293.7847945872
 20
5051.4827236176
 30
0.0
 11
8289.7847945872
 21
5051.4827236176
 31
0.0
  0
LINE
  5
10A
330
1F
100
AcDbEntity
  8
0
  6
Continuous
 62
     7
370
    25
100
AcDbLine
 10
8289.7847945872
 20
5053.6346483392
 30
0.0
 11
5293.7847945872
 21
5053.6346483392
 31
0.0
  0
LINE
  5
10B
330
1F
100
AcDbEntity
  8
0
  6
Continuous
 62
     7
370
    25
100
AcDbLine
 10
5293.7847945872
 20
5063.3272275514
 30
0.0
 11
8289.7847945872
 21
5063.3272275514
 31
0.0
  0
ARC
  5
10C
330
1F
100
AcDbEntity
  8
0
  6
Continuous
 62
     7
370
    25
100
AcDbCircle
 10
5444.2847945872
 20
4325.5416622996
 30
0.0
 40
39.99999999999998
100
AcDbArc
 50
187.9055480254
 51
216.1070114058
  0
ARC
  5
10D
330
1F
100
AcDbEntity
  8
0
  6
Continuous
 62
     7
370
    25
100
AcDbCircle
 10
5444.2847945872
 20
4325.5416622996
 30
0.0
 40
40.00000000000078
100
AcDbArc
 50
323.8929885942
 51
54.9003678046
  0
ARC
  5
10E
330
1F
100
AcDbEntity
  8
0
  6
Continuous
 62
     7
370
    25
100
AcDbCircle
 10
5444.2847945872
 20
4325.5416622996
 30
0.0
 40
40.00000000000048
100
AcDbArc
 50
125.0996321954
 51
187.9055480254
  0
LINE
  5
10F
330
1F
100
AcDbEntity
  8
0
  6
Continuous
 62
     7
370
    25
100
AcDbLine
 10
5410.2847945872
 20
4287.5416622996
 30
0.0
 11
5478.2847945872
 21
4287.5416622996
 31
0.0
  0
LINE
  5
110
330
1F
100
AcDbEntity
  8
0
  6
Continuous
 62
     7
370
    25
100
AcDbLine
 10
5419.9551422493
 20
4347.5416622996
 30
0.0
 11
5468.6144469251
 21
4347.5416622996
 31
0.0
  0
LINE
  5
111
330
1F
100
AcDbEntity
  8
0
  6
Continuous
 62
     7
370
    25
100
AcDbLine
 10
5420.162966721
 20
4217.5416622996
 30
0.0
 11
5468.4066224534
 21
4217.5416622996
 31
0.0
  0
LINE
  5
112
330
1F
100
AcDbEntity
  8
0
  6
Continuous
 62
     7
370
    25
100
AcDbLine
 10
5421.2847945872
 20
4354.0416622996
 30
0.0
 11
5467.2847945872
 21
4354.0416622996
 31
0.0
  0
LINE
  5
113
330
1F
100
AcDbEntity
  8
0
  6
Continuous
 62
     7
370
    25
100
AcDbLine
 10
5419.2847945872
 20
4350.0416622996
 30
0.0
 11
5469.2847945872
 21
4350.0416622996
 31
0.0
  0
LINE
  5
114
330
1F
100
AcDbEntity
  8
0
  6
Continuous
 62
     7
370
    25
100
AcDbLine
 10
5424.2847945872
 20
4364.0416622996
 30
0.0
 11
5464.2847945872
 21
4364.0416622996
 31
0.0
  0
LINE
  5
115
330
1F
100
AcDbEntity
  8
0
  6
Continuous
 62
     7
370
    25
100
AcDbLine
 10
5460.7847945872
 20
4347.5416622996
 30
0.0
 11
5460.2847945872
 21
4347.9079315459
 31
0.0
  0
LINE
  5
116
330
1F
100
AcDbEntity
  8
0
  6
Continuous
 62
     7
370
    25
100
AcDbLine
 10
5428.2847945872
 20
4347.9079315459
 30
0.0
 11
5427.7847945872
 21
4347.5416622996
 31
0.0
  0
LWPOLYLINE
  5
117
330
1F
100
AcDbEntity
  8
0
  6
Continuous
 62
     7
370
    25
100
AcDbPolyline
 90
       14
 70
   128
 43
0.0
 10
5413.7847945872
 20
5056.0980017033
 10
5415.8685727192
 20
5056.1359054524
 10
5417.8890363071
 20
5056.2484650135
 10
5419.7847945872
 20
5056.4322603212
 10
5421.4982459035
 20
5056.6817068482
 10
5422.9773279047
 20
5056.9892252879
 10
5424.1770994326
 20
5057.3454718482
 10
5425.0611060367
 20
5057.7396221576
 10
5425.6024876234
 20
5058.1597001584
 10
5425.7847945872
 20
5058.5929419931
 10
5425.6024876234
 20
5059.0261838278
 10
5425.0611060367
 20
5059.4462618286
 10
5424.1770994326
 20
5059.840412138
 10
5423.2004274609
 20
5060.1396967877
  0
LWPOLYLINE
  5
118
330
1F
100
AcDbEntity
  8
0
  6
Continuous
 62
     7
370
    25
100
AcDbPolyline
 90
       14
 70
   128
 43
0.0
 10
5404.3691617136
 20
5060.1396967877
 10
5403.3924897418
 20
5059.840412138
 10
5402.5084831378
 20
5059.4462618286
 10
5401.9671015511
 20
5059.0261838278
 10
5401.7847945872
 20
5058.5929419931
 10
5401.9671015511
 20
5058.1597001584
 10
5402.5084831378
 20
5057.7396221576
 10
5403.3924897418
 20
5057.3454718482
 10
5404.5922612698
 20
5056.9892252879
 10
5406.071343271
 20
5056.6817068482
 10
5407.7847945872
 20
5056.4322603212
 10
5409.6805528673
 20
5056.2484650135
 10
5411.7010164552
 20
5056.1359054524
 10
5413.7847945872
 20
5056.0980017033
  0
ARC
  5
119
330
1F
100
AcDbEntity
  8
0
  6
Continuous
 62
     7
370
    25
100
AcDbCircle
 10
7511.0328870405
 20
4954.9633497575
 30
0.0
 40
0.6676186886570576
100
AcDbArc
 50
180.0
 51
0.0
  0
LINE
  5
11A
330
1F
100
AcDbEntity
  8
0
  6
Continuous
 62
     7
370
    25
100
AcDbLine
 10
7511.7005057292
 20
4957.9043812921
 30
0.0
 11
7511.7005057292
 21
4954.9633497575
 31
0.0
  0
ARC
  5
11B
330
1F
100
AcDbEntity
  8
0
  6
Continuous
 62
     7
370
    25
100
AcDbCircle
 10
7511.9406158454
 20
4957.9043812921
 30
0.0
 40
0.2401101162877239
100
AcDbArc
 50
90.0
 51
180.0
  0
LINE
  5
11C
330
1F
100
AcDbEntity
  8
0
  6
Continuous
 62
     7
370
    25
100
AcDbLine
 10
7512.5650290243
 20
4958.1444914084
 30
0.0
 11
7511.9406158454
 21
4958.1444914084
 31
0.0
  0
ARC
  5
11D
330
1F
100
AcDbEntity
  8
0
  6
Continuous
 62
     7
370
    25
100
AcDbCircle
 10
7512.5650290243
 20
4957.9043812921
 30
0.0
 40
0.2401101162877239
100
AcDbArc
 50
0.0
 51
90.0
  0
LINE
  5
11E
330
1F
100
AcDbEntity
  8
0
  6
Continuous
 62
     7
370
    25
100
AcDbLine
 10
7512.8051391406
 20
4954.9633497575
 30
0.0
 11
7512.8051391406
 21
4957.9043812921
 31
0.0
  0
ARC
  5
11F
330
1F
100
AcDbEntity
  8
0
  6
Continuous
 62
     7
370
    25
100
AcDbCircle
 10
7513.4727578293
 20
4954.9633497575
 30
0.0
 40
0.6676186886570576
100
AcDbArc
 50
180.0
 51
0.0
  0
LINE
  5
120
330
1F
100
AcDbEntity
  8
0
  6
Continuous
 62
     7
370
    25
100
AcDbLine
 10
7514.1403765179
 20
4957.3952270569
 30
0.0
 11
7514.1403765179
 21
4954.9633497575
 31
0.0
  0
ARC
  5
121
330
1F
100
AcDbEntity
  8
0
  6
Continuous
 62
     7
370
    25
100
AcDbCircle
 10
7514.3804866342
 20
4957.3952270569
 30
0.0
 40
0.2401101162877239
100
AcDbArc
 50
90.0
 51
180.0
  0
LINE
  5
122
330
1F
100
AcDbEntity
  8
0
  6
Continuous
 62
     7
370
    25
100
AcDbLine
 10
7515.1276061761
 20
4957.6353371732
 30
0.0
 11
7514.3804866342
 21
4957.6353371732
 31
0.0
  0
ARC
  5
123
330
1F
100
AcDbEntity
  8
0
  6
Continuous
 62
     7
370
    25
100
AcDbCircle
 10
7515.1276061761
 20
4957.3952270569
 30
0.0
 40
0.2401101162877239
100
AcDbArc
 50
0.0
 51
90.0
  0
LINE
  5
124
330
1F
100
AcDbEntity
  8
0
  6
Continuous
 62
     7
370
    25
100
AcDbLine
 10
7515.3677162924
 20
4954.9633497575
 30
0.0
 11
7515.3677162924
 21
4957.3952270569
 31
0.0
  0
ARC
  5
125
330
1F
100
AcDbEntity
  8
0
  6
Continuous
 62
     7
370
    25
100
AcDbCircle
 10
7516.0353349811
 20
4954.9633497575
 30
0.0
 40
0.6676186886570576
100
AcDbArc
 50
180.0
 51
0.0
  0
LINE
  5
126
330
1F
100
AcDbEntity
  8
0
  6
Continuous
 62
     7
370
    25
100
AcDbLine
 10
7516.7029536697
 20
4956.4788767483
 30
0.0
 11
7516.7029536697
 21
4954.9633497575
 31
0.0
  0
ARC
  5
127
330
1F
100
AcDbEntity
  8
0
  6
Continuous
 62
     7
370
    25
100
AcDbCircle
 10
7516.943063786
 20
4956.4788767483
 30
0.0
 40
0.2401101162877239
100
AcDbArc
 50
90.0
 51
180.0
  0
LINE
  5
128
330
1F
100
AcDbEntity
  8
0
  6
Continuous
 62
     7
370
    25
100
AcDbLine
 10
7517.6050915106
 20
4956.7189868646
 30
0.0
 11
7516.943063786
 21
4956.7189868646
 31
0.0
  0
ARC
  5
129
330
1F
100
AcDbEntity
  8
0
  6
Continuous
 62
     7
370
    25
100
AcDbCircle
 10
7517.6050915106
 20
4956.4788767483
 30
0.0
 40
0.2401101162877239
100
AcDbArc
 50
0.0
 51
90.0
  0
LINE
  5
12A
330
1F
100
AcDbEntity
  8
0
  6
Continuous
 62
     7
370
    25
100
AcDbLine
 10
7517.8452016268
 20
4948.5957144674
 30
0.0
 11
7517.8452016268
 21
4956.4788767483
 31
0.0
  0
ARC
  5
12B
330
1F
100
AcDbEntity
  8
0
  6
Continuous
 62
     7
370
    25
100
AcDbCircle
 10
7514.3192010762
 20
4948.5957144674
 30
0.0
 40
3.526000550637946
100
AcDbArc
 50
270.0
 51
0.0
  0
LINE
  5
12C
330
1F
100
AcDbEntity
  8
0
  6
Continuous
 62
     7
370
    25
100
AcDbLine
 10
7511.9519766692
 20
4945.0697139168
 30
0.0
 11
7514.3192010762
 21
4945.0697139168
 31
0.0
  0
ARC
  5
12D
330
1F
100
AcDbEntity
  8
0
  6
Continuous
 62
     7
370
    25
100
AcDbCircle
 10
7511.9519766692
 20
4950.3626442445
 30
0.0
 40
5.292930327734211
100
AcDbArc
 50
180.0
 51
270.0
  0
LINE
  5
12E
330
1F
100
AcDbEntity
  8
0
  6
Continuous
 62
     7
370
    25
100
AcDbLine
 10
7506.6590463415
 20
4954.8087520066
 30
0.0
 11
7506.6590463415
 21
4950.3626442445
 31
0.0
  0
ARC
  5
12F
330
1F
100
AcDbEntity
  8
0
  6
Continuous
 62
     7
370
    25
100
AcDbCircle
 10
7506.3157322982
 20
4953.3081096439
 30
0.0
 40
1.539412885871721
100
AcDbArc
 50
0.0
 51
77.1137478469
  0
LINE
  5
130
330
1F
100
AcDbEntity
  8
0
  6
Continuous
 62
     7
370
    25
100
AcDbLine
 10
7507.855145184
 20
4951.3536887619
 30
0.0
 11
7507.855145184
 21
4953.3081096439
 31
0.0
  0
ARC
  5
131
330
1F
100
AcDbEntity
  8
0
  6
Continuous
 62
     7
370
    25
100
AcDbCircle
 10
7508.5227638727
 20
4951.3536887619
 30
0.0
 40
0.6676186886570576
100
AcDbArc
 50
180.0
 51
0.0
  0
LINE
  5
132
330
1F
100
AcDbEntity
  8
0
  6
Continuous
 62
     7
370
    25
100
AcDbLine
 10
7509.1903825614
 20
4962.6341900316
 30
0.0
 11
7509.1903825614
 21
4951.3536887619
 31
0.0
  0
ARC
  5
133
330
1F
100
AcDbEntity
  8
0
  6
Continuous
 62
     7
370
    25
100
AcDbCircle
 10
7509.7778254566
 20
4962.6341900316
 30
0.0
 40
0.5874428952447488
100
AcDbArc
 50
0.0
 51
180.0
  0
LINE
  5
134
330
1F
100
AcDbEntity
  8
0
  6
Continuous
 62
     7
370
    25
100
AcDbLine
 10
7510.3652683518
 20
4954.9633497575
 30
0.0
 11
7510.3652683518
 21
4962.6341900316
 31
0.0
  0
CIRCLE
  5
135
330
1F
100
AcDbEntity
  8
0
  6
Continuous
 62
     7
370
    25
100
AcDbCircle
 10
7511.7847945872
 20
4953.8920765741
 30
0.0
 40
12.50000000000091
  0
LINE
  5
136
330
1F
100
AcDbEntity
  8
0
  6
Continuous
 62
     7
370
    25
100
AcDbLine
 10
7511.3948683518
 20
4959.0884703871
 30
0.0
 11
7511.3948683518
 21
4962.6341900316
 31
0.0
  0
ARC
  5
137
330
1F
100
AcDbEntity
  8
0
  6
Continuous
 62
     7
370
    25
100
AcDbCircle
 10
7509.7778254566
 20
4962.6341900316
 30
0.0
 40
1.617042895244595
100
AcDbArc
 50
0.0
 51
180.0
  0
LINE
  5
138
330
1F
100
AcDbEntity
  8
0
  6
Continuous
 62
     7
370
    25
100
AcDbLine
 10
7508.1607825614
 20
4962.6341900316
 30
0.0
 11
7508.1607825614
 21
4955.095738446
 31
0.0
  0
ARC
  5
139
330
1F
100
AcDbEntity
  8
0
  6
Continuous
 62
     7
370
    25
100
AcDbCircle
 10
7506.3157322982
 20
4953.3081096439
 30
0.0
 40
2.569012885871402
100
AcDbArc
 50
44.0944057146
 51
105.4941474424
  0
LINE
  5
13A
330
1F
100
AcDbEntity
  8
0
  6
Continuous
 62
     7
370
    25
100
AcDbLine
 10
7505.6294463415
 20
4955.7837588099
 30
0.0
 11
7505.6294463415
 21
4950.3626442445
 31
0.0
  0
ARC
  5
13B
330
1F
100
AcDbEntity
  8
0
  6
Continuous
 62
     7
370
    25
100
AcDbCircle
 10
7511.9519766692
 20
4950.3626442445
 30
0.0
 40
6.322530327734057
100
AcDbArc
 50
180.0
 51
270.0
  0
LINE
  5
13C
330
1F
100
AcDbEntity
  8
0
  6
Continuous
 62
     7
370
    25
100
AcDbLine
 10
7511.9519766692
 20
4944.0401139168
 30
0.0
 11
7514.3192010762
 21
4944.0401139168
 31
0.0
  0
ARC
  5
13D
330
1F
100
AcDbEntity
  8
0
  6
Continuous
 62
     7
370
    25
100
AcDbCircle
 10
7514.3192010762
 20
4948.5957144674
 30
0.0
 40
4.555600550637791
100
AcDbArc
 50
270.0
 51
0.0
  0
LINE
  5
13E
330
1F
100
AcDbEntity
  8
0
  6
Continuous
 62
     7
370
    25
100
AcDbLine
 10
7518.8748016268
 20
4948.5957144674
 30
0.0
 11
7518.8748016268
 21
4956.4324849957
 31
0.0
  0
ARC
  5
13F
330
1F
100
AcDbEntity
  8
0
  6
Continuous
 62
     7
370
    25
100
AcDbCircle
 10
7517.5211903806
 20
4956.4324849957
 30
0.0
 40
1.353611246209766
100
AcDbArc
 50
0.0
 51
90.0
  0
LINE
  5
140
330
1F
100
AcDbEntity
  8
0
  6
Continuous
 62
     7
370
    25
100
AcDbLine
 10
7517.5211903806
 20
4957.7860962419
 30
0.0
 11
7517.0269649159
 21
4957.7860962419
 31
0.0
  0
ARC
  5
141
330
1F
100
AcDbEntity
  8
0
  6
Continuous
 62
     7
370
    25
100
AcDbCircle
 10
7517.0269649159
 20
4956.4324849957
 30
0.0
 40
1.35361124620847
100
AcDbArc
 50
90.0
 51
118.7365577358
  0
ARC
  5
142
330
1F
100
AcDbEntity
  8
0
  6
Continuous
 62
     7
370
    25
100
AcDbCircle
 10
7515.0437050462
 20
4957.3810649192
 30
0.0
 40
1.353611246208857
100
AcDbArc
 50
10.1404867648
 51
90.0000000001
  0
LINE
  5
143
330
1F
100
AcDbEntity
  8
0
  6
Continuous
 62
     7
370
    25
100
AcDbLine
 10
7515.0437050462
 20
4958.7346761654
 30
0.0
 11
7514.4643877642
 21
4958.7346761654
 31
0.0
  0
ARC
  5
144
330
1F
100
AcDbEntity
  8
0
  6
Continuous
 62
     7
370
    25
100
AcDbCircle
 10
7514.4643877642
 20
4957.3810649192
 30
0.0
 40
1.353611246209766
100
AcDbArc
 50
90.0
 51
124.744002227
  0
ARC
  5
145
330
1F
100
AcDbEntity
  8
0
  6
Continuous
 62
     7
370
    25
100
AcDbCircle
 10
7512.4811278944
 20
4957.8902191544
 30
0.0
 40
1.353611246207947
100
AcDbArc
 50
26.4592691593
 51
90.0
  0
LINE
  5
146
330
1F
100
AcDbEntity
  8
0
  6
Continuous
 62
     7
370
    25
100
AcDbLine
 10
7512.4811278944
 20
4959.2438304006
 30
0.0
 11
7512.0245169754
 21
4959.2438304006
 31
0.0
  0
ARC
  5
147
330
1F
100
AcDbEntity
  8
0
  6
Continuous
 62
     7
370
    25
100
AcDbCircle
 10
7512.0245169754
 20
4957.8902191544
 30
0.0
 40
1.35361124620922
100
AcDbArc
 50
90.0
 51
117.7207121261
  0
CIRCLE
  5
148
330
1F
100
AcDbEntity
  8
0
  6
Continuous
 62
     7
370
    25
100
AcDbCircle
 10
7511.7847945872
 20
4953.8920765741
 30
0.0
 40
14.00000000000091
  0
CIRCLE
  5
149
330
1F
100
AcDbEntity
  8
0
  6
Continuous
 62
     7
370
    25
100
AcDbCircle
 10
5711.7847945872
 20
4953.8920765741
 30
0.0
 40
12.5
  0
LINE
  5
14A
330
1F
100
AcDbEntity
  8
0
  6
Continuous
 62
     7
370
    25
100
AcDbLine
 10
5711.3948683518
 20
4959.0884703871
 30
0.0
 11
5711.3948683518
 21
4962.6341900316
 31
0.0
  0
LINE
  5
14B
330
1F
100
AcDbEntity
  8
0
  6
Continuous
 62
     7
370
    25
100
AcDbLine
 10
5708.1607825614
 20
4962.6341900316
 30
0.0
 11
5708.1607825614
 21
4955.095738446
 31
0.0
  0
ARC
  5
14C
330
1F
100
AcDbEntity
  8
0
  6
Continuous
 62
     7
370
    25
100
AcDbCircle
 10
5706.3157322982
 20
4953.3081096439
 30
0.0
 40
2.569012885871402
100
AcDbArc
 50
44.0944057146
 51
105.4941474424
  0
LINE
  5
14D
330
1F
100
AcDbEntity
  8
0
  6
Continuous
 62
     7
370
    25
100
AcDbLine
 10
5705.6294463415
 20
4955.7837588099
 30
0.0
 11
5705.6294463415
 21
4950.3626442445
 31
0.0
  0
ARC
  5
14E
330
1F
100
AcDbEntity
  8
0
  6
Continuous
 62
     7
370
    25
100
AcDbCircle
 10
5711.9519766692
 20
4950.3626442445
 30
0.0
 40
6.322530327734057
100
AcDbArc
 50
180.0
 51
270.0
  0
LINE
  5
14F
330
1F
100
AcDbEntity
  8
0
  6
Continuous
 62
     7
370
    25
100
AcDbLine
 10
5711.9519766692
 20
4944.0401139168
 30
0.0
 11
5714.3192010762
 21
4944.0401139168
 31
0.0
  0
ARC
  5
150
330
1F
100
AcDbEntity
  8
0
  6
Continuous
 62
     7
370
    25
100
AcDbCircle
 10
5714.3192010762
 20
4948.5957144674
 30
0.0
 40
4.555600550637791
100
AcDbArc
 50
270.0
 51
0.0
  0
LINE
  5
151
330
1F
100
AcDbEntity
  8
0
  6
Continuous
 62
     7
370
    25
100
AcDbLine
 10
5718.8748016268
 20
4948.5957144674
 30
0.0
 11
5718.8748016268
 21
4956.4324849957
 31
0.0
  0
ARC
  5
152
330
1F
100
AcDbEntity
  8
0
  6
Continuous
 62
     7
370
    25
100
AcDbCircle
 10
5717.5211903806
 20
4956.4324849957
 30
0.0
 40
1.353611246208857
100
AcDbArc
 50
0.0
 51
90.0
  0
LINE
  5
153
330
1F
100
AcDbEntity
  8
0
  6
Continuous
 62
     7
370
    25
100
AcDbLine
 10
5717.5211903806
 20
4957.7860962419
 30
0.0
 11
5717.0269649159
 21
4957.7860962419
 31
0.0
  0
ARC
  5
154
330
1F
100
AcDbEntity
  8
0
  6
Continuous
 62
     7
370
    25
100
AcDbCircle
 10
5717.0269649159
 20
4956.4324849957
 30
0.0
 40
1.35361124620847
100
AcDbArc
 50
90.0
 51
118.7365577358
  0
ARC
  5
155
330
1F
100
AcDbEntity
  8
0
  6
Continuous
 62
     7
370
    25
100
AcDbCircle
 10
5715.0437050462
 20
4957.3810649192
 30
0.0
 40
1.353611246208857
100
AcDbArc
 50
10.1404867648
 51
90.0
  0
LINE
  5
156
330
1F
100
AcDbEntity
  8
0
  6
Continuous
 62
     7
370
    25
100
AcDbLine
 10
5715.0437050462
 20
4958.7346761654
 30
0.0
 11
5714.4643877642
 21
4958.7346761654
 31
0.0
  0
ARC
  5
157
330
1F
100
AcDbEntity
  8
0
  6
Continuous
 62
     7
370
    25
100
AcDbCircle
 10
5714.4643877642
 20
4957.3810649192
 30
0.0
 40
1.353611246209766
100
AcDbArc
 50
90.0
 51
124.7440022271
  0
ARC
  5
158
330
1F
100
AcDbEntity
  8
0
  6
Continuous
 62
     7
370
    25
100
AcDbCircle
 10
5712.4811278944
 20
4957.8902191544
 30
0.0
 40
1.353611246207947
100
AcDbArc
 50
26.4592691593
 51
90.0
  0
LINE
  5
159
330
1F
100
AcDbEntity
  8
0
  6
Continuous
 62
     7
370
    25
100
AcDbLine
 10
5712.4811278944
 20
4959.2438304006
 30
0.0
 11
5712.0245169754
 21
4959.2438304006
 31
0.0
  0
ARC
  5
15A
330
1F
100
AcDbEntity
  8
0
  6
Continuous
 62
     7
370
    25
100
AcDbCircle
 10
5712.0245169754
 20
4957.8902191544
 30
0.0
 40
1.35361124620922
100
AcDbArc
 50
90.0
 51
117.7207121261
  0
ARC
  5
15B
330
1F
100
AcDbEntity
  8
0
  6
Continuous
 62
     7
370
    25
100
AcDbCircle
 10
5709.7778254566
 20
4962.6341900316
 30
0.0
 40
1.617042895244595
100
AcDbArc
 50
0.0
 51
180.0
  0
ARC
  5
15C
330
1F
100
AcDbEntity
  8
0
  6
Continuous
 62
     7
370
    25
100
AcDbCircle
 10
5711.0328870405
 20
4954.9633497575
 30
0.0
 40
0.6676186886570576
100
AcDbArc
 50
180.0
 51
0.0
  0
LINE
  5
15D
330
1F
100
AcDbEntity
  8
0
  6
Continuous
 62
     7
370
    25
100
AcDbLine
 10
5711.7005057292
 20
4957.9043812921
 30
0.0
 11
5711.7005057292
 21
4954.9633497575
 31
0.0
  0
ARC
  5
15E
330
1F
100
AcDbEntity
  8
0
  6
Continuous
 62
     7
370
    25
100
AcDbCircle
 10
5711.9406158454
 20
4957.9043812921
 30
0.0
 40
0.2401101162877239
100
AcDbArc
 50
90.0
 51
180.0
  0
LINE
  5
15F
330
1F
100
AcDbEntity
  8
0
  6
Continuous
 62
     7
370
    25
100
AcDbLine
 10
5712.5650290243
 20
4958.1444914084
 30
0.0
 11
5711.9406158454
 21
4958.1444914084
 31
0.0
  0
ARC
  5
160
330
1F
100
AcDbEntity
  8
0
  6
Continuous
 62
     7
370
    25
100
AcDbCircle
 10
5712.5650290243
 20
4957.9043812921
 30
0.0
 40
0.2401101162877239
100
AcDbArc
 50
0.0
 51
90.0
  0
LINE
  5
161
330
1F
100
AcDbEntity
  8
0
  6
Continuous
 62
     7
370
    25
100
AcDbLine
 10
5712.8051391406
 20
4954.9633497575
 30
0.0
 11
5712.8051391406
 21
4957.9043812921
 31
0.0
  0
ARC
  5
162
330
1F
100
AcDbEntity
  8
0
  6
Continuous
 62
     7
370
    25
100
AcDbCircle
 10
5713.4727578293
 20
4954.9633497575
 30
0.0
 40
0.6676186886570576
100
AcDbArc
 50
180.0
 51
0.0
  0
LINE
  5
163
330
1F
100
AcDbEntity
  8
0
  6
Continuous
 62
     7
370
    25
100
AcDbLine
 10
5714.1403765179
 20
4957.3952270569
 30
0.0
 11
5714.1403765179
 21
4954.9633497575
 31
0.0
  0
ARC
  5
164
330
1F
100
AcDbEntity
  8
0
  6
Continuous
 62
     7
370
    25
100
AcDbCircle
 10
5714.3804866342
 20
4957.3952270569
 30
0.0
 40
0.2401101162868144
100
AcDbArc
 50
90.0
 51
180.0
  0
LINE
  5
165
330
1F
100
AcDbEntity
  8
0
  6
Continuous
 62
     7
370
    25
100
AcDbLine
 10
5715.1276061761
 20
4957.6353371732
 30
0.0
 11
5714.3804866342
 21
4957.6353371732
 31
0.0
  0
ARC
  5
166
330
1F
100
AcDbEntity
  8
0
  6
Continuous
 62
     7
370
    25
100
AcDbCircle
 10
5715.1276061761
 20
4957.3952270569
 30
0.0
 40
0.2401101162877239
100
AcDbArc
 50
0.0
 51
90.0
  0
LINE
  5
167
330
1F
100
AcDbEntity
  8
0
  6
Continuous
 62
     7
370
    25
100
AcDbLine
 10
5715.3677162924
 20
4954.9633497575
 30
0.0
 11
5715.3677162924
 21
4957.3952270569
 31
0.0
  0
ARC
  5
168
330
1F
100
AcDbEntity
  8
0
  6
Continuous
 62
     7
370
    25
100
AcDbCircle
 10
5716.0353349811
 20
4954.9633497575
 30
0.0
 40
0.6676186886570576
100
AcDbArc
 50
180.0
 51
0.0
  0
LINE
  5
169
330
1F
100
AcDbEntity
  8
0
  6
Continuous
 62
     7
370
    25
100
AcDbLine
 10
5716.7029536697
 20
4956.4788767483
 30
0.0
 11
5716.7029536697
 21
4954.9633497575
 31
0.0
  0
ARC
  5
16A
330
1F
100
AcDbEntity
  8
0
  6
Continuous
 62
     7
370
    25
100
AcDbCircle
 10
5716.943063786
 20
4956.4788767483
 30
0.0
 40
0.2401101162877239
100
AcDbArc
 50
90.0
 51
180.0
  0
LINE
  5
16B
330
1F
100
AcDbEntity
  8
0
  6
Continuous
 62
     7
370
    25
100
AcDbLine
 10
5717.6050915106
 20
4956.7189868646
 30
0.0
 11
5716.943063786
 21
4956.7189868646
 31
0.0
  0
ARC
  5
16C
330
1F
100
AcDbEntity
  8
0
  6
Continuous
 62
     7
370
    25
100
AcDbCircle
 10
5717.6050915106
 20
4956.4788767483
 30
0.0
 40
0.2401101162877239
100
AcDbArc
 50
0.0
 51
90.0
  0
LINE
  5
16D
330
1F
100
AcDbEntity
  8
0
  6
Continuous
 62
     7
370
    25
100
AcDbLine
 10
5717.8452016268
 20
4948.5957144674
 30
0.0
 11
5717.8452016268
 21
4956.4788767483
 31
0.0
  0
ARC
  5
16E
330
1F
100
AcDbEntity
  8
0
  6
Continuous
 62
     7
370
    25
100
AcDbCircle
 10
5714.3192010762
 20
4948.5957144674
 30
0.0
 40
3.526000550637946
100
AcDbArc
 50
270.0
 51
0.0
  0
LINE
  5
16F
330
1F
100
AcDbEntity
  8
0
  6
Continuous
 62
     7
370
    25
100
AcDbLine
 10
5711.9519766692
 20
4945.0697139168
 30
0.0
 11
5714.3192010762
 21
4945.0697139168
 31
0.0
  0
ARC
  5
170
330
1F
100
AcDbEntity
  8
0
  6
Continuous
 62
     7
370
    25
100
AcDbCircle
 10
5711.9519766692
 20
4950.3626442445
 30
0.0
 40
5.292930327734211
100
AcDbArc
 50
180.0
 51
270.0
  0
LINE
  5
171
330
1F
100
AcDbEntity
  8
0
  6
Continuous
 62
     7
370
    25
100
AcDbLine
 10
5706.6590463415
 20
4954.8087520066
 30
0.0
 11
5706.6590463415
 21
4950.3626442445
 31
0.0
  0
ARC
  5
172
330
1F
100
AcDbEntity
  8
0
  6
Continuous
 62
     7
370
    25
100
AcDbCircle
 10
5706.3157322982
 20
4953.3081096439
 30
0.0
 40
1.539412885871721
100
AcDbArc
 50
0.0
 51
77.1137478469
  0
LINE
  5
173
330
1F
100
AcDbEntity
  8
0
  6
Continuous
 62
     7
370
    25
100
AcDbLine
 10
5707.855145184
 20
4951.3536887619
 30
0.0
 11
5707.855145184
 21
4953.3081096439
 31
0.0
  0
ARC
  5
174
330
1F
100
AcDbEntity
  8
0
  6
Continuous
 62
     7
370
    25
100
AcDbCircle
 10
5708.5227638727
 20
4951.3536887619
 30
0.0
 40
0.6676186886570576
100
AcDbArc
 50
180.0
 51
0.0
  0
LINE
  5
175
330
1F
100
AcDbEntity
  8
0
  6
Continuous
 62
     7
370
    25
100
AcDbLine
 10
5709.1903825614
 20
4962.6341900316
 30
0.0
 11
5709.1903825614
 21
4951.3536887619
 31
0.0
  0
ARC
  5
176
330
1F
100
AcDbEntity
  8
0
  6
Continuous
 62
     7
370
    25
100
AcDbCircle
 10
5709.7778254566
 20
4962.6341900316
 30
0.0
 40
0.5874428952447488
100
AcDbArc
 50
0.0
 51
180.0
  0
LINE
  5
177
330
1F
100
AcDbEntity
  8
0
  6
Continuous
 62
     7
370
    25
100
AcDbLine
 10
5710.3652683518
 20
4954.9633497575
 30
0.0
 11
5710.3652683518
 21
4962.6341900316
 31
0.0
  0
CIRCLE
  5
178
330
1F
100
AcDbEntity
  8
0
  6
Continuous
 62
     7
370
    25
100
AcDbCircle
 10
5711.7847945872
 20
4953.8920765741
 30
0.0
 40
14.0
  0
CIRCLE
  5
179
330
1F
100
AcDbEntity
  8
0
  6
Continuous
 62
     7
370
    25
100
AcDbCircle
 10
8111.7847945872
 20
4953.8920765741
 30
0.0
 40
12.50000000000091
  0
LINE
  5
17A
330
1F
100
AcDbEntity
  8
0
  6
Continuous
 62
     7
370
    25
100
AcDbLine
 10
8111.3948683518
 20
4959.0884703871
 30
0.0
 11
8111.3948683518
 21
4962.6341900316
 31
0.0
  0
ARC
  5
17B
330
1F
100
AcDbEntity
  8
0
  6
Continuous
 62
     7
370
    25
100
AcDbCircle
 10
8109.7778254566
 20
4962.6341900316
 30
0.0
 40
1.617042895244595
100
AcDbArc
 50
0.0
 51
180.0
  0
LINE
  5
17C
330
1F
100
AcDbEntity
  8
0
  6
Continuous
 62
     7
370
    25
100
AcDbLine
 10
8108.1607825614
 20
4962.6341900316
 30
0.0
 11
8108.1607825614
 21
4955.095738446
 31
0.0
  0
ARC
  5
17D
330
1F
100
AcDbEntity
  8
0
  6
Continuous
 62
     7
370
    25
100
AcDbCircle
 10
8106.3157322982
 20
4953.3081096439
 30
0.0
 40
2.56901288587183
100
AcDbArc
 50
44.0944057145
 51
105.4941474424
  0
LINE
  5
17E
330
1F
100
AcDbEntity
  8
0
  6
Continuous
 62
     7
370
    25
100
AcDbLine
 10
8105.6294463415
 20
4955.7837588099
 30
0.0
 11
8105.6294463415
 21
4950.3626442445
 31
0.0
  0
ARC
  5
17F
330
1F
100
AcDbEntity
  8
0
  6
Continuous
 62
     7
370
    25
100
AcDbCircle
 10
8111.9519766692
 20
4950.3626442445
 30
0.0
 40
6.322530327734057
100
AcDbArc
 50
180.0
 51
270.0
  0
LINE
  5
180
330
1F
100
AcDbEntity
  8
0
  6
Continuous
 62
     7
370
    25
100
AcDbLine
 10
8111.9519766692
 20
4944.0401139168
 30
0.0
 11
8114.3192010762
 21
4944.0401139168
 31
0.0
  0
ARC
  5
181
330
1F
100
AcDbEntity
  8
0
  6
Continuous
 62
     7
370
    25
100
AcDbCircle
 10
8114.3192010762
 20
4948.5957144674
 30
0.0
 40
4.555600550637791
100
AcDbArc
 50
270.0
 51
0.0
  0
LINE
  5
182
330
1F
100
AcDbEntity
  8
0
  6
Continuous
 62
     7
370
    25
100
AcDbLine
 10
8118.8748016268
 20
4948.5957144674
 30
0.0
 11
8118.8748016268
 21
4956.4324849957
 31
0.0
  0
ARC
  5
183
330
1F
100
AcDbEntity
  8
0
  6
Continuous
 62
     7
370
    25
100
AcDbCircle
 10
8117.5211903806
 20
4956.4324849957
 30
0.0
 40
1.353611246207947
100
AcDbArc
 50
0.0
 51
90.0000000001
  0
LINE
  5
184
330
1F
100
AcDbEntity
  8
0
  6
Continuous
 62
     7
370
    25
100
AcDbLine
 10
8117.5211903806
 20
4957.7860962419
 30
0.0
 11
8117.0269649159
 21
4957.7860962419
 31
0.0
  0
ARC
  5
185
330
1F
100
AcDbEntity
  8
0
  6
Continuous
 62
     7
370
    25
100
AcDbCircle
 10
8117.0269649159
 20
4956.4324849957
 30
0.0
 40
1.353611246208032
100
AcDbArc
 50
90.0
 51
118.7365577358
  0
ARC
  5
186
330
1F
100
AcDbEntity
  8
0
  6
Continuous
 62
     7
370
    25
100
AcDbCircle
 10
8115.0437050462
 20
4957.3810649192
 30
0.0
 40
1.353611246209073
100
AcDbArc
 50
10.1404867648
 51
90.0000000001
  0
LINE
  5
187
330
1F
100
AcDbEntity
  8
0
  6
Continuous
 62
     7
370
    25
100
AcDbLine
 10
8115.0437050462
 20
4958.7346761654
 30
0.0
 11
8114.4643877642
 21
4958.7346761654
 31
0.0
  0
ARC
  5
188
330
1F
100
AcDbEntity
  8
0
  6
Continuous
 62
     7
370
    25
100
AcDbCircle
 10
8114.4643877642
 20
4957.3810649192
 30
0.0
 40
1.353611246209766
100
AcDbArc
 50
90.0
 51
124.744002227
  0
ARC
  5
189
330
1F
100
AcDbEntity
  8
0
  6
Continuous
 62
     7
370
    25
100
AcDbCircle
 10
8112.4811278944
 20
4957.8902191544
 30
0.0
 40
1.353611246208593
100
AcDbArc
 50
26.4592691592
 51
90.0
  0
LINE
  5
18A
330
1F
100
AcDbEntity
  8
0
  6
Continuous
 62
     7
370
    25
100
AcDbLine
 10
8112.4811278944
 20
4959.2438304006
 30
0.0
 11
8112.0245169754
 21
4959.2438304006
 31
0.0
  0
ARC
  5
18B
330
1F
100
AcDbEntity
  8
0
  6
Continuous
 62
     7
370
    25
100
AcDbCircle
 10
8112.0245169754
 20
4957.8902191544
 30
0.0
 40
1.353611246208857
100
AcDbArc
 50
90.0
 51
117.7207121261
  0
ARC
  5
18C
330
1F
100
AcDbEntity
  8
0
  6
Continuous
 62
     7
370
    25
100
AcDbCircle
 10
8111.0328870405
 20
4954.9633497575
 30
0.0
 40
0.6676186886570576
100
AcDbArc
 50
180.0
 51
0.0
  0
LINE
  5
18D
330
1F
100
AcDbEntity
  8
0
  6
Continuous
 62
     7
370
    25
100
AcDbLine
 10
8111.7005057292
 20
4957.9043812921
 30
0.0
 11
8111.7005057292
 21
4954.9633497575
 31
0.0
  0
ARC
  5
18E
330
1F
100
AcDbEntity
  8
0
  6
Continuous
 62
     7
370
    25
100
AcDbCircle
 10
8111.9406158454
 20
4957.9043812921
 30
0.0
 40
0.2401101162877239
100
AcDbArc
 50
90.0
 51
180.0
  0
LINE
  5
18F
330
1F
100
AcDbEntity
  8
0
  6
Continuous
 62
     7
370
    25
100
AcDbLine
 10
8112.5650290243
 20
4958.1444914084
 30
0.0
 11
8111.9406158454
 21
4958.1444914084
 31
0.0
  0
ARC
  5
190
330
1F
100
AcDbEntity
  8
0
  6
Continuous
 62
     7
370
    25
100
AcDbCircle
 10
8112.5650290243
 20
4957.9043812921
 30
0.0
 40
0.2401101162877239
100
AcDbArc
 50
0.0
 51
90.0
  0
LINE
  5
191
330
1F
100
AcDbEntity
  8
0
  6
Continuous
 62
     7
370
    25
100
AcDbLine
 10
8112.8051391406
 20
4954.9633497575
 30
0.0
 11
8112.8051391406
 21
4957.9043812921
 31
0.0
  0
ARC
  5
192
330
1F
100
AcDbEntity
  8
0
  6
Continuous
 62
     7
370
    25
100
AcDbCircle
 10
8113.4727578293
 20
4954.9633497575
 30
0.0
 40
0.6676186886570576
100
AcDbArc
 50
180.0
 51
0.0
  0
LINE
  5
193
330
1F
100
AcDbEntity
  8
0
  6
Continuous
 62
     7
370
    25
100
AcDbLine
 10
8114.1403765179
 20
4957.3952270569
 30
0.0
 11
8114.1403765179
 21
4954.9633497575
 31
0.0
  0
ARC
  5
194
330
1F
100
AcDbEntity
  8
0
  6
Continuous
 62
     7
370
    25
100
AcDbCircle
 10
8114.3804866342
 20
4957.3952270569
 30
0.0
 40
0.2401101162877239
100
AcDbArc
 50
90.0
 51
180.0
  0
LINE
  5
195
330
1F
100
AcDbEntity
  8
0
  6
Continuous
 62
     7
370
    25
100
AcDbLine
 10
8115.1276061761
 20
4957.6353371732
 30
0.0
 11
8114.3804866342
 21
4957.6353371732
 31
0.0
  0
ARC
  5
196
330
1F
100
AcDbEntity
  8
0
  6
Continuous
 62
     7
370
    25
100
AcDbCircle
 10
8115.1276061761
 20
4957.3952270569
 30
0.0
 40
0.2401101162877239
100
AcDbArc
 50
0.0
 51
90.0
  0
LINE
  5
197
330
1F
100
AcDbEntity
  8
0
  6
Continuous
 62
     7
370
    25
100
AcDbLine
 10
8115.3677162924
 20
4954.9633497575
 30
0.0
 11
8115.3677162924
 21
4957.3952270569
 31
0.0
  0
ARC
  5
198
330
1F
100
AcDbEntity
  8
0
  6
Continuous
 62
     7
370
    25
100
AcDbCircle
 10
8116.0353349811
 20
4954.9633497575
 30
0.0
 40
0.6676186886570576
100
AcDbArc
 50
180.0
 51
0.0
  0
LINE
  5
199
330
1F
100
AcDbEntity
  8
0
  6
Continuous
 62
     7
370
    25
100
AcDbLine
 10
8116.7029536697
 20
4956.4788767483
 30
0.0
 11
8116.7029536697
 21
4954.9633497575
 31
0.0
  0
ARC
  5
19A
330
1F
100
AcDbEntity
  8
0
  6
Continuous
 62
     7
370
    25
100
AcDbCircle
 10
8116.943063786
 20
4956.4788767483
 30
0.0
 40
0.2401101162877239
100
AcDbArc
 50
90.0
 51
180.0
  0
LINE
  5
19B
330
1F
100
AcDbEntity
  8
0
  6
Continuous
 62
     7
370
    25
100
AcDbLine
 10
8117.6050915106
 20
4956.7189868646
 30
0.0
 11
8116.943063786
 21
4956.7189868646
 31
0.0
  0
ARC
  5
19C
330
1F
100
AcDbEntity
  8
0
  6
Continuous
 62
     7
370
    25
100
AcDbCircle
 10
8117.6050915106
 20
4956.4788767483
 30
0.0
 40
0.2401101162877239
100
AcDbArc
 50
0.0
 51
90.0
  0
LINE
  5
19D
330
1F
100
AcDbEntity
  8
0
  6
Continuous
 62
     7
370
    25
100
AcDbLine
 10
8117.8452016268
 20
4948.5957144674
 30
0.0
 11
8117.8452016268
 21
4956.4788767483
 31
0.0
  0
ARC
  5
19E
330
1F
100
AcDbEntity
  8
0
  6
Continuous
 62
     7
370
    25
100
AcDbCircle
 10
8114.3192010762
 20
4948.5957144674
 30
0.0
 40
3.526000550637946
100
AcDbArc
 50
270.0
 51
0.0
  0
LINE
  5
19F
330
1F
100
AcDbEntity
  8
0
  6
Continuous
 62
     7
370
    25
100
AcDbLine
 10
8111.9519766692
 20
4945.0697139168
 30
0.0
 11
8114.3192010762
 21
4945.0697139168
 31
0.0
  0
ARC
  5
1A0
330
1F
100
AcDbEntity
  8
0
  6
Continuous
 62
     7
370
    25
100
AcDbCircle
 10
8111.9519766692
 20
4950.3626442445
 30
0.0
 40
5.292930327734211
100
AcDbArc
 50
180.0
 51
270.0
  0
LINE
  5
1A1
330
1F
100
AcDbEntity
  8
0
  6
Continuous
 62
     7
370
    25
100
AcDbLine
 10
8106.6590463415
 20
4954.8087520066
 30
0.0
 11
8106.6590463415
 21
4950.3626442445
 31
0.0
  0
ARC
  5
1A2
330
1F
100
AcDbEntity
  8
0
  6
Continuous
 62
     7
370
    25
100
AcDbCircle
 10
8106.3157322982
 20
4953.3081096439
 30
0.0
 40
1.539412885871924
100
AcDbArc
 50
0.0
 51
77.1137478469
  0
LINE
  5
1A3
330
1F
100
AcDbEntity
  8
0
  6
Continuous
 62
     7
370
    25
100
AcDbLine
 10
8107.855145184
 20
4951.3536887619
 30
0.0
 11
8107.855145184
 21
4953.3081096439
 31
0.0
  0
ARC
  5
1A4
330
1F
100
AcDbEntity
  8
0
  6
Continuous
 62
     7
370
    25
100
AcDbCircle
 10
8108.5227638727
 20
4951.3536887619
 30
0.0
 40
0.6676186886579671
100
AcDbArc
 50
180.0
 51
0.0
  0
LINE
  5
1A5
330
1F
100
AcDbEntity
  8
0
  6
Continuous
 62
     7
370
    25
100
AcDbLine
 10
8109.1903825614
 20
4962.6341900316
 30
0.0
 11
8109.1903825614
 21
4951.3536887619
 31
0.0
  0
LINE
  5
1A6
330
1F
100
AcDbEntity
  8
0
  6
Continuous
 62
     7
370
    25
100
AcDbLine
 10
8110.3652683518
 20
4954.9633497575
 30
0.0
 11
8110.3652683518
 21
4962.6341900316
 31
0.0
  0
ARC
  5
1A7
330
1F
100
AcDbEntity
  8
0
  6
Continuous
 62
     7
370
    25
100
AcDbCircle
 10
8109.7778254566
 20
4962.6341900316
 30
0.0
 40
0.5874428952447488
100
AcDbArc
 50
0.0
 51
180.0
  0
CIRCLE
  5
1A8
330
1F
100
AcDbEntity
  8
0
  6
Continuous
 62
     7
370
    25
100
AcDbCircle
 10
8111.7847945872
 20
4953.8920765741
 30
0.0
 40
14.00000000000091
  0
CIRCLE
  5
1A9
330
1F
100
AcDbEntity
  8
0
  6
Continuous
 62
     7
370
    25
100
AcDbCircle
 10
6311.7847945872
 20
4953.8920765741
 30
0.0
 40
12.5
  0
LINE
  5
1AA
330
1F
100
AcDbEntity
  8
0
  6
Continuous
 62
     7
370
    25
100
AcDbLine
 10
6311.3948683518
 20
4959.0884703871
 30
0.0
 11
6311.3948683518
 21
4962.6341900316
 31
0.0
  0
ARC
  5
1AB
330
1F
100
AcDbEntity
  8
0
  6
Continuous
 62
     7
370
    25
100
AcDbCircle
 10
6309.7778254566
 20
4962.6341900316
 30
0.0
 40
1.617042895244595
100
AcDbArc
 50
0.0
 51
180.0
  0
LINE
  5
1AC
330
1F
100
AcDbEntity
  8
0
  6
Continuous
 62
     7
370
    25
100
AcDbLine
 10
6308.1607825614
 20
4962.6341900316
 30
0.0
 11
6308.1607825614
 21
4955.095738446
 31
0.0
  0
ARC
  5
1AD
330
1F
100
AcDbEntity
  8
0
  6
Continuous
 62
     7
370
    25
100
AcDbCircle
 10
6306.3157322982
 20
4953.3081096439
 30
0.0
 40
2.569012885871177
100
AcDbArc
 50
44.0944057146
 51
105.4941474424
  0
LINE
  5
1AE
330
1F
100
AcDbEntity
  8
0
  6
Continuous
 62
     7
370
    25
100
AcDbLine
 10
6305.6294463415
 20
4955.7837588099
 30
0.0
 11
6305.6294463415
 21
4950.3626442445
 31
0.0
  0
ARC
  5
1AF
330
1F
100
AcDbEntity
  8
0
  6
Continuous
 62
     7
370
    25
100
AcDbCircle
 10
6311.9519766692
 20
4950.3626442445
 30
0.0
 40
6.322530327734057
100
AcDbArc
 50
180.0
 51
270.0
  0
LINE
  5
1B0
330
1F
100
AcDbEntity
  8
0
  6
Continuous
 62
     7
370
    25
100
AcDbLine
 10
6311.9519766692
 20
4944.0401139168
 30
0.0
 11
6314.3192010762
 21
4944.0401139168
 31
0.0
  0
ARC
  5
1B1
330
1F
100
AcDbEntity
  8
0
  6
Continuous
 62
     7
370
    25
100
AcDbCircle
 10
6314.3192010762
 20
4948.5957144674
 30
0.0
 40
4.555600550637791
100
AcDbArc
 50
270.0
 51
0.0
  0
LINE
  5
1B2
330
1F
100
AcDbEntity
  8
0
  6
Continuous
 62
     7
370
    25
100
AcDbLine
 10
6318.8748016268
 20
4948.5957144674
 30
0.0
 11
6318.8748016268
 21
4956.4324849957
 31
0.0
  0
ARC
  5
1B3
330
1F
100
AcDbEntity
  8
0
  6
Continuous
 62
     7
370
    25
100
AcDbCircle
 10
6317.5211903806
 20
4956.4324849957
 30
0.0
 40
1.353611246208857
100
AcDbArc
 50
0.0
 51
90.0
  0
LINE
  5
1B4
330
1F
100
AcDbEntity
  8
0
  6
Continuous
 62
     7
370
    25
100
AcDbLine
 10
6317.5211903806
 20
4957.7860962419
 30
0.0
 11
6317.0269649159
 21
4957.7860962419
 31
0.0
  0
ARC
  5
1B5
330
1F
100
AcDbEntity
  8
0
  6
Continuous
 62
     7
370
    25
100
AcDbCircle
 10
6317.0269649159
 20
4956.4324849957
 30
0.0
 40
1.353611246208032
100
AcDbArc
 50
90.0
 51
118.7365577358
  0
ARC
  5
1B6
330
1F
100
AcDbEntity
  8
0
  6
Continuous
 62
     7
370
    25
100
AcDbCircle
 10
6315.0437050462
 20
4957.3810649192
 30
0.0
 40
1.353611246208857
100
AcDbArc
 50
10.1404867648
 51
90.0
  0
LINE
  5
1B7
330
1F
100
AcDbEntity
  8
0
  6
Continuous
 62
     7
370
    25
100
AcDbLine
 10
6315.0437050462
 20
4958.7346761654
 30
0.0
 11
6314.4643877642
 21
4958.7346761654
 31
0.0
  0
ARC
  5
1B8
330
1F
100
AcDbEntity
  8
0
  6
Continuous
 62
     7
370
    25
100
AcDbCircle
 10
6314.4643877642
 20
4957.3810649192
 30
0.0
 40
1.353611246209766
100
AcDbArc
 50
90.0
 51
124.744002227
  0
ARC
  5
1B9
330
1F
100
AcDbEntity
  8
0
  6
Continuous
 62
     7
370
    25
100
AcDbCircle
 10
6312.4811278944
 20
4957.8902191544
 30
0.0
 40
1.353611246207947
100
AcDbArc
 50
26.4592691593
 51
90.0
  0
LINE
  5
1BA
330
1F
100
AcDbEntity
  8
0
  6
Continuous
 62
     7
370
    25
100
AcDbLine
 10
6312.4811278944
 20
4959.2438304006
 30
0.0
 11
6312.0245169754
 21
4959.2438304006
 31
0.0
  0
ARC
  5
1BB
330
1F
100
AcDbEntity
  8
0
  6
Continuous
 62
     7
370
    25
100
AcDbCircle
 10
6312.0245169754
 20
4957.8902191544
 30
0.0
 40
1.35361124620922
100
AcDbArc
 50
90.0
 51
117.7207121261
  0
ARC
  5
1BC
330
1F
100
AcDbEntity
  8
0
  6
Continuous
 62
     7
370
    25
100
AcDbCircle
 10
6311.0328870405
 20
4954.9633497575
 30
0.0
 40
0.6676186886570576
100
AcDbArc
 50
180.0
 51
0.0
  0
LINE
  5
1BD
330
1F
100
AcDbEntity
  8
0
  6
Continuous
 62
     7
370
    25
100
AcDbLine
 10
6311.7005057292
 20
4957.9043812921
 30
0.0
 11
6311.7005057292
 21
4954.9633497575
 31
0.0
  0
ARC
  5
1BE
330
1F
100
AcDbEntity
  8
0
  6
Continuous
 62
     7
370
    25
100
AcDbCircle
 10
6311.9406158454
 20
4957.9043812921
 30
0.0
 40
0.2401101162877239
100
AcDbArc
 50
90.0
 51
180.0
  0
LINE
  5
1BF
330
1F
100
AcDbEntity
  8
0
  6
Continuous
 62
     7
370
    25
100
AcDbLine
 10
6312.5650290243
 20
4958.1444914084
 30
0.0
 11
6311.9406158454
 21
4958.1444914084
 31
0.0
  0
ARC
  5
1C0
330
1F
100
AcDbEntity
  8
0
  6
Continuous
 62
     7
370
    25
100
AcDbCircle
 10
6312.5650290243
 20
4957.9043812921
 30
0.0
 40
0.2401101162886334
100
AcDbArc
 50
0.0
 51
90.0
  0
LINE
  5
1C1
330
1F
100
AcDbEntity
  8
0
  6
Continuous
 62
     7
370
    25
100
AcDbLine
 10
6312.8051391406
 20
4954.9633497575
 30
0.0
 11
6312.8051391406
 21
4957.9043812921
 31
0.0
  0
ARC
  5
1C2
330
1F
100
AcDbEntity
  8
0
  6
Continuous
 62
     7
370
    25
100
AcDbCircle
 10
6313.4727578293
 20
4954.9633497575
 30
0.0
 40
0.6676186886561482
100
AcDbArc
 50
180.0
 51
0.0
  0
LINE
  5
1C3
330
1F
100
AcDbEntity
  8
0
  6
Continuous
 62
     7
370
    25
100
AcDbLine
 10
6314.1403765179
 20
4957.3952270569
 30
0.0
 11
6314.1403765179
 21
4954.9633497575
 31
0.0
  0
ARC
  5
1C4
330
1F
100
AcDbEntity
  8
0
  6
Continuous
 62
     7
370
    25
100
AcDbCircle
 10
6314.3804866342
 20
4957.3952270569
 30
0.0
 40
0.2401101162877239
100
AcDbArc
 50
90.0
 51
180.0
  0
LINE
  5
1C5
330
1F
100
AcDbEntity
  8
0
  6
Continuous
 62
     7
370
    25
100
AcDbLine
 10
6315.1276061761
 20
4957.6353371732
 30
0.0
 11
6314.3804866342
 21
4957.6353371732
 31
0.0
  0
ARC
  5
1C6
330
1F
100
AcDbEntity
  8
0
  6
Continuous
 62
     7
370
    25
100
AcDbCircle
 10
6315.1276061761
 20
4957.3952270569
 30
0.0
 40
0.2401101162886334
100
AcDbArc
 50
0.0
 51
90.0
  0
LINE
  5
1C7
330
1F
100
AcDbEntity
  8
0
  6
Continuous
 62
     7
370
    25
100
AcDbLine
 10
6315.3677162924
 20
4954.9633497575
 30
0.0
 11
6315.3677162924
 21
4957.3952270569
 31
0.0
  0
ARC
  5
1C8
330
1F
100
AcDbEntity
  8
0
  6
Continuous
 62
     7
370
    25
100
AcDbCircle
 10
6316.0353349811
 20
4954.9633497575
 30
0.0
 40
0.6676186886570576
100
AcDbArc
 50
180.0
 51
0.0
  0
LINE
  5
1C9
330
1F
100
AcDbEntity
  8
0
  6
Continuous
 62
     7
370
    25
100
AcDbLine
 10
6316.7029536697
 20
4956.4788767483
 30
0.0
 11
6316.7029536697
 21
4954.9633497575
 31
0.0
  0
ARC
  5
1CA
330
1F
100
AcDbEntity
  8
0
  6
Continuous
 62
     7
370
    25
100
AcDbCircle
 10
6316.943063786
 20
4956.4788767483
 30
0.0
 40
0.2401101162877239
100
AcDbArc
 50
90.0
 51
180.0
  0
LINE
  5
1CB
330
1F
100
AcDbEntity
  8
0
  6
Continuous
 62
     7
370
    25
100
AcDbLine
 10
6317.6050915106
 20
4956.7189868646
 30
0.0
 11
6316.943063786
 21
4956.7189868646
 31
0.0
  0
ARC
  5
1CC
330
1F
100
AcDbEntity
  8
0
  6
Continuous
 62
     7
370
    25
100
AcDbCircle
 10
6317.6050915106
 20
4956.4788767483
 30
0.0
 40
0.2401101162877239
100
AcDbArc
 50
0.0
 51
90.0
  0
LINE
  5
1CD
330
1F
100
AcDbEntity
  8
0
  6
Continuous
 62
     7
370
    25
100
AcDbLine
 10
6317.8452016268
 20
4948.5957144674
 30
0.0
 11
6317.8452016268
 21
4956.4788767483
 31
0.0
  0
ARC
  5
1CE
330
1F
100
AcDbEntity
  8
0
  6
Continuous
 62
     7
370
    25
100
AcDbCircle
 10
6314.3192010762
 20
4948.5957144674
 30
0.0
 40
3.526000550637946
100
AcDbArc
 50
270.0
 51
0.0
  0
LINE
  5
1CF
330
1F
100
AcDbEntity
  8
0
  6
Continuous
 62
     7
370
    25
100
AcDbLine
 10
6311.9519766692
 20
4945.0697139168
 30
0.0
 11
6314.3192010762
 21
4945.0697139168
 31
0.0
  0
ARC
  5
1D0
330
1F
100
AcDbEntity
  8
0
  6
Continuous
 62
     7
370
    25
100
AcDbCircle
 10
6311.9519766692
 20
4950.3626442445
 30
0.0
 40
5.292930327734211
100
AcDbArc
 50
180.0
 51
270.0
  0
LINE
  5
1D1
330
1F
100
AcDbEntity
  8
0
  6
Continuous
 62
     7
370
    25
100
AcDbLine
 10
6306.6590463415
 20
4954.8087520066
 30
0.0
 11
6306.6590463415
 21
4950.3626442445
 31
0.0
  0
ARC
  5
1D2
330
1F
100
AcDbEntity
  8
0
  6
Continuous
 62
     7
370
    25
100
AcDbCircle
 10
6306.3157322982
 20
4953.3081096439
 30
0.0
 40
1.539412885871721
100
AcDbArc
 50
0.0
 51
77.1137478469
  0
LINE
  5
1D3
330
1F
100
AcDbEntity
  8
0
  6
Continuous
 62
     7
370
    25
100
AcDbLine
 10
6307.855145184
 20
4951.3536887619
 30
0.0
 11
6307.855145184
 21
4953.3081096439
 31
0.0
  0
ARC
  5
1D4
330
1F
100
AcDbEntity
  8
0
  6
Continuous
 62
     7
370
    25
100
AcDbCircle
 10
6308.5227638727
 20
4951.3536887619
 30
0.0
 40
0.6676186886570576
100
AcDbArc
 50
180.0
 51
0.0
  0
LINE
  5
1D5
330
1F
100
AcDbEntity
  8
0
  6
Continuous
 62
     7
370
    25
100
AcDbLine
 10
6309.1903825614
 20
4962.6341900316
 30
0.0
 11
6309.1903825614
 21
4951.3536887619
 31
0.0
  0
LINE
  5
1D6
330
1F
100
AcDbEntity
  8
0
  6
Continuous
 62
     7
370
    25
100
AcDbLine
 10
6310.3652683518
 20
4954.9633497575
 30
0.0
 11
6310.3652683518
 21
4962.6341900316
 31
0.0
  0
ARC
  5
1D7
330
1F
100
AcDbEntity
  8
0
  6
Continuous
 62
     7
370
    25
100
AcDbCircle
 10
6309.7778254566
 20
4962.6341900316
 30
0.0
 40
0.5874428952447488
100
AcDbArc
 50
0.0
 51
180.0
  0
CIRCLE
  5
1D8
330
1F
100
AcDbEntity
  8
0
  6
Continuous
 62
     7
370
    25
100
AcDbCircle
 10
6311.7847945872
 20
4953.8920765741
 30
0.0
 40
14.0
  0
CIRCLE
  5
1D9
330
1F
100
AcDbEntity
  8
0
  6
Continuous
 62
     7
370
    25
100
AcDbCircle
 10
6911.7847945872
 20
4953.8920765741
 30
0.0
 40
12.5
  0
LINE
  5
1DA
330
1F
100
AcDbEntity
  8
0
  6
Continuous
 62
     7
370
    25
100
AcDbLine
 10
6911.3948683518
 20
4959.0884703871
 30
0.0
 11
6911.3948683518
 21
4962.6341900316
 31
0.0
  0
LINE
  5
1DB
330
1F
100
AcDbEntity
  8
0
  6
Continuous
 62
     7
370
    25
100
AcDbLine
 10
6908.1607825614
 20
4962.6341900316
 30
0.0
 11
6908.1607825614
 21
4955.095738446
 31
0.0
  0
ARC
  5
1DC
330
1F
100
AcDbEntity
  8
0
  6
Continuous
 62
     7
370
    25
100
AcDbCircle
 10
6906.3157322982
 20
4953.3081096439
 30
0.0
 40
2.56901288587183
100
AcDbArc
 50
44.0944057145
 51
105.4941474424
  0
LINE
  5
1DD
330
1F
100
AcDbEntity
  8
0
  6
Continuous
 62
     7
370
    25
100
AcDbLine
 10
6905.6294463415
 20
4955.7837588099
 30
0.0
 11
6905.6294463415
 21
4950.3626442445
 31
0.0
  0
ARC
  5
1DE
330
1F
100
AcDbEntity
  8
0
  6
Continuous
 62
     7
370
    25
100
AcDbCircle
 10
6911.9519766692
 20
4950.3626442445
 30
0.0
 40
6.322530327734057
100
AcDbArc
 50
180.0
 51
270.0
  0
LINE
  5
1DF
330
1F
100
AcDbEntity
  8
0
  6
Continuous
 62
     7
370
    25
100
AcDbLine
 10
6911.9519766692
 20
4944.0401139168
 30
0.0
 11
6914.3192010762
 21
4944.0401139168
 31
0.0
  0
ARC
  5
1E0
330
1F
100
AcDbEntity
  8
0
  6
Continuous
 62
     7
370
    25
100
AcDbCircle
 10
6914.3192010762
 20
4948.5957144674
 30
0.0
 40
4.555600550638701
100
AcDbArc
 50
270.0
 51
0.0
  0
LINE
  5
1E1
330
1F
100
AcDbEntity
  8
0
  6
Continuous
 62
     7
370
    25
100
AcDbLine
 10
6918.8748016268
 20
4948.5957144674
 30
0.0
 11
6918.8748016268
 21
4956.4324849957
 31
0.0
  0
ARC
  5
1E2
330
1F
100
AcDbEntity
  8
0
  6
Continuous
 62
     7
370
    25
100
AcDbCircle
 10
6917.5211903806
 20
4956.4324849957
 30
0.0
 40
1.353611246208857
100
AcDbArc
 50
0.0
 51
90.0
  0
LINE
  5
1E3
330
1F
100
AcDbEntity
  8
0
  6
Continuous
 62
     7
370
    25
100
AcDbLine
 10
6917.5211903806
 20
4957.7860962419
 30
0.0
 11
6917.0269649159
 21
4957.7860962419
 31
0.0
  0
ARC
  5
1E4
330
1F
100
AcDbEntity
  8
0
  6
Continuous
 62
     7
370
    25
100
AcDbCircle
 10
6917.0269649159
 20
4956.4324849957
 30
0.0
 40
1.35361124620847
100
AcDbArc
 50
90.0
 51
118.7365577358
  0
ARC
  5
1E5
330
1F
100
AcDbEntity
  8
0
  6
Continuous
 62
     7
370
    25
100
AcDbCircle
 10
6915.0437050462
 20
4957.3810649192
 30
0.0
 40
1.353611246208857
100
AcDbArc
 50
10.1404867648
 51
90.0
  0
LINE
  5
1E6
330
1F
100
AcDbEntity
  8
0
  6
Continuous
 62
     7
370
    25
100
AcDbLine
 10
6915.0437050462
 20
4958.7346761654
 30
0.0
 11
6914.4643877642
 21
4958.7346761654
 31
0.0
  0
ARC
  5
1E7
330
1F
100
AcDbEntity
  8
0
  6
Continuous
 62
     7
370
    25
100
AcDbCircle
 10
6914.4643877642
 20
4957.3810649192
 30
0.0
 40
1.353611246209766
100
AcDbArc
 50
90.0
 51
124.744002227
  0
ARC
  5
1E8
330
1F
100
AcDbEntity
  8
0
  6
Continuous
 62
     7
370
    25
100
AcDbCircle
 10
6912.4811278944
 20
4957.8902191544
 30
0.0
 40
1.353611246208593
100
AcDbArc
 50
26.4592691592
 51
90.0
  0
LINE
  5
1E9
330
1F
100
AcDbEntity
  8
0
  6
Continuous
 62
     7
370
    25
100
AcDbLine
 10
6912.4811278944
 20
4959.2438304006
 30
0.0
 11
6912.0245169754
 21
4959.2438304006
 31
0.0
  0
ARC
  5
1EA
330
1F
100
AcDbEntity
  8
0
  6
Continuous
 62
     7
370
    25
100
AcDbCircle
 10
6912.0245169754
 20
4957.8902191544
 30
0.0
 40
1.35361124620922
100
AcDbArc
 50
90.0
 51
117.7207121261
  0
ARC
  5
1EB
330
1F
100
AcDbEntity
  8
0
  6
Continuous
 62
     7
370
    25
100
AcDbCircle
 10
6909.7778254566
 20
4962.6341900316
 30
0.0
 40
1.617042895244595
100
AcDbArc
 50
0.0
 51
180.0
  0
ARC
  5
1EC
330
1F
100
AcDbEntity
  8
0
  6
Continuous
 62
     7
370
    25
100
AcDbCircle
 10
6911.0328870405
 20
4954.9633497575
 30
0.0
 40
0.6676186886570576
100
AcDbArc
 50
180.0
 51
0.0
  0
LINE
  5
1ED
330
1F
100
AcDbEntity
  8
0
  6
Continuous
 62
     7
370
    25
100
AcDbLine
 10
6911.7005057292
 20
4957.9043812921
 30
0.0
 11
6911.7005057292
 21
4954.9633497575
 31
0.0
  0
ARC
  5
1EE
330
1F
100
AcDbEntity
  8
0
  6
Continuous
 62
     7
370
    25
100
AcDbCircle
 10
6911.9406158454
 20
4957.9043812921
 30
0.0
 40
0.2401101162877239
100
AcDbArc
 50
90.0
 51
180.0
  0
LINE
  5
1EF
330
1F
100
AcDbEntity
  8
0
  6
Continuous
 62
     7
370
    25
100
AcDbLine
 10
6912.5650290243
 20
4958.1444914084
 30
0.0
 11
6911.9406158454
 21
4958.1444914084
 31
0.0
  0
ARC
  5
1F0
330
1F
100
AcDbEntity
  8
0
  6
Continuous
 62
     7
370
    25
100
AcDbCircle
 10
6912.5650290243
 20
4957.9043812921
 30
0.0
 40
0.2401101162877239
100
AcDbArc
 50
0.0
 51
90.0
  0
LINE
  5
1F1
330
1F
100
AcDbEntity
  8
0
  6
Continuous
 62
     7
370
    25
100
AcDbLine
 10
6912.8051391406
 20
4954.9633497575
 30
0.0
 11
6912.8051391406
 21
4957.9043812921
 31
0.0
  0
ARC
  5
1F2
330
1F
100
AcDbEntity
  8
0
  6
Continuous
 62
     7
370
    25
100
AcDbCircle
 10
6913.4727578293
 20
4954.9633497575
 30
0.0
 40
0.6676186886570576
100
AcDbArc
 50
180.0
 51
0.0
  0
LINE
  5
1F3
330
1F
100
AcDbEntity
  8
0
  6
Continuous
 62
     7
370
    25
100
AcDbLine
 10
6914.1403765179
 20
4957.3952270569
 30
0.0
 11
6914.1403765179
 21
4954.9633497575
 31
0.0
  0
ARC
  5
1F4
330
1F
100
AcDbEntity
  8
0
  6
Continuous
 62
     7
370
    25
100
AcDbCircle
 10
6914.3804866342
 20
4957.3952270569
 30
0.0
 40
0.2401101162868144
100
AcDbArc
 50
90.0
 51
180.0
  0
LINE
  5
1F5
330
1F
100
AcDbEntity
  8
0
  6
Continuous
 62
     7
370
    25
100
AcDbLine
 10
6915.1276061761
 20
4957.6353371732
 30
0.0
 11
6914.3804866342
 21
4957.6353371732
 31
0.0
  0
ARC
  5
1F6
330
1F
100
AcDbEntity
  8
0
  6
Continuous
 62
     7
370
    25
100
AcDbCircle
 10
6915.1276061761
 20
4957.3952270569
 30
0.0
 40
0.2401101162868144
100
AcDbArc
 50
0.0
 51
90.0
  0
LINE
  5
1F7
330
1F
100
AcDbEntity
  8
0
  6
Continuous
 62
     7
370
    25
100
AcDbLine
 10
6915.3677162924
 20
4954.9633497575
 30
0.0
 11
6915.3677162924
 21
4957.3952270569
 31
0.0
  0
ARC
  5
1F8
330
1F
100
AcDbEntity
  8
0
  6
Continuous
 62
     7
370
    25
100
AcDbCircle
 10
6916.0353349811
 20
4954.9633497575
 30
0.0
 40
0.6676186886570576
100
AcDbArc
 50
180.0
 51
0.0
  0
LINE
  5
1F9
330
1F
100
AcDbEntity
  8
0
  6
Continuous
 62
     7
370
    25
100
AcDbLine
 10
6916.7029536697
 20
4956.4788767483
 30
0.0
 11
6916.7029536697
 21
4954.9633497575
 31
0.0
  0
ARC
  5
1FA
330
1F
100
AcDbEntity
  8
0
  6
Continuous
 62
     7
370
    25
100
AcDbCircle
 10
6916.943063786
 20
4956.4788767483
 30
0.0
 40
0.2401101162868144
100
AcDbArc
 50
90.0
 51
180.0
  0
LINE
  5
1FB
330
1F
100
AcDbEntity
  8
0
  6
Continuous
 62
     7
370
    25
100
AcDbLine
 10
6917.6050915106
 20
4956.7189868646
 30
0.0
 11
6916.943063786
 21
4956.7189868646
 31
0.0
  0
ARC
  5
1FC
330
1F
100
AcDbEntity
  8
0
  6
Continuous
 62
     7
370
    25
100
AcDbCircle
 10
6917.6050915106
 20
4956.4788767483
 30
0.0
 40
0.2401101162877239
100
AcDbArc
 50
0.0
 51
90.0
  0
LINE
  5
1FD
330
1F
100
AcDbEntity
  8
0
  6
Continuous
 62
     7
370
    25
100
AcDbLine
 10
6917.8452016268
 20
4948.5957144674
 30
0.0
 11
6917.8452016268
 21
4956.4788767483
 31
0.0
  0
ARC
  5
1FE
330
1F
100
AcDbEntity
  8
0
  6
Continuous
 62
     7
370
    25
100
AcDbCircle
 10
6914.3192010762
 20
4948.5957144674
 30
0.0
 40
3.526000550638855
100
AcDbArc
 50
270.0
 51
0.0
  0
LINE
  5
1FF
330
1F
100
AcDbEntity
  8
0
  6
Continuous
 62
     7
370
    25
100
AcDbLine
 10
6911.9519766692
 20
4945.0697139168
 30
0.0
 11
6914.3192010762
 21
4945.0697139168
 31
0.0
  0
ARC
  5
200
330
1F
100
AcDbEntity
  8
0
  6
Continuous
 62
     7
370
    25
100
AcDbCircle
 10
6911.9519766692
 20
4950.3626442445
 30
0.0
 40
5.292930327734211
100
AcDbArc
 50
180.0
 51
270.0
  0
LINE
  5
201
330
1F
100
AcDbEntity
  8
0
  6
Continuous
 62
     7
370
    25
100
AcDbLine
 10
6906.6590463415
 20
4954.8087520066
 30
0.0
 11
6906.6590463415
 21
4950.3626442445
 31
0.0
  0
ARC
  5
202
330
1F
100
AcDbEntity
  8
0
  6
Continuous
 62
     7
370
    25
100
AcDbCircle
 10
6906.3157322982
 20
4953.3081096439
 30
0.0
 40
1.539412885871721
100
AcDbArc
 50
0.0
 51
77.1137478469
  0
LINE
  5
203
330
1F
100
AcDbEntity
  8
0
  6
Continuous
 62
     7
370
    25
100
AcDbLine
 10
6907.855145184
 20
4951.3536887619
 30
0.0
 11
6907.855145184
 21
4953.3081096439
 31
0.0
  0
ARC
  5
204
330
1F
100
AcDbEntity
  8
0
  6
Continuous
 62
     7
370
    25
100
AcDbCircle
 10
6908.5227638727
 20
4951.3536887619
 30
0.0
 40
0.6676186886570576
100
AcDbArc
 50
180.0
 51
0.0
  0
LINE
  5
205
330
1F
100
AcDbEntity
  8
0
  6
Continuous
 62
     7
370
    25
100
AcDbLine
 10
6909.1903825614
 20
4962.6341900316
 30
0.0
 11
6909.1903825614
 21
4951.3536887619
 31
0.0
  0
LINE
  5
206
330
1F
100
AcDbEntity
  8
0
  6
Continuous
 62
     7
370
    25
100
AcDbLine
 10
6910.3652683518
 20
4954.9633497575
 30
0.0
 11
6910.3652683518
 21
4962.6341900316
 31
0.0
  0
ARC
  5
207
330
1F
100
AcDbEntity
  8
0
  6
Continuous
 62
     7
370
    25
100
AcDbCircle
 10
6909.7778254566
 20
4962.6341900316
 30
0.0
 40
0.5874428952456583
100
AcDbArc
 50
0.0
 51
180.0
  0
CIRCLE
  5
208
330
1F
100
AcDbEntity
  8
0
  6
Continuous
 62
     7
370
    25
100
AcDbCircle
 10
6911.7847945872
 20
4953.8920765741
 30
0.0
 40
13.99999999999909
  0
LINE
  5
209
330
1F
100
AcDbEntity
  8
0
  6
Continuous
 62
     7
370
    25
100
AcDbLine
 10
6793.2847945872
 20
4939.8920765741
 30
0.0
 11
6790.2847945872
 21
4939.8920765741
 31
0.0
  0
LINE
  5
20A
330
1F
100
AcDbEntity
  8
0
  6
Continuous
 62
     7
370
    25
100
AcDbLine
 10
7393.2847945872
 20
4939.8920765741
 30
0.0
 11
7390.2847945872
 21
4939.8920765741
 31
0.0
  0
LINE
  5
20B
330
1F
100
AcDbEntity
  8
0
  6
Continuous
 62
     7
370
    25
100
AcDbLine
 10
7993.2847945872
 20
4939.8920765741
 30
0.0
 11
7990.2847945872
 21
4939.8920765741
 31
0.0
  0
LINE
  5
20C
330
1F
100
AcDbEntity
  8
0
  6
Continuous
 62
     7
370
    25
100
AcDbLine
 10
6193.2847945872
 20
4939.8920765741
 30
0.0
 11
6190.2847945872
 21
4939.8920765741
 31
0.0
  0
LINE
  5
20D
330
1F
100
AcDbEntity
  8
0
  6
Continuous
 62
     7
370
    25
100
AcDbLine
 10
5593.2847945872
 20
4939.8920765741
 30
0.0
 11
5590.2847945872
 21
4939.8920765741
 31
0.0
  0
ARC
  5
20E
330
1F
100
AcDbEntity
  8
0
  6
Continuous
 62
     7
370
    25
100
AcDbCircle
 10
5591.8944074599
 20
4976.0340651923
 30
0.0
 40
32.33234845717223
100
AcDbArc
 50
270.3195445578
 51
277.00524986
  0
ARC
  5
20F
330
1F
100
AcDbEntity
  8
0
  6
Continuous
 62
     7
370
    25
100
AcDbCircle
 10
5593.6937710579
 20
4961.6213959804
 30
0.0
 40
18.76440461082859
100
AcDbArc
 50
277.5095473836
 51
284.9272291805
  0
LINE
  5
210
330
1F
100
AcDbEntity
  8
0
  6
Continuous
 62
     7
370
    25
100
AcDbLine
 10
5598.5273320125
 20
4944.4561450965
 30
0.0
 11
5598.5273320125
 21
4943.4902192702
 31
0.0
  0
ARC
  5
211
330
1F
100
AcDbEntity
  8
0
  6
Continuous
 62
     7
370
    25
100
AcDbCircle
 10
5596.6522352253
 20
4951.8329208104
 30
0.0
 40
7.611360449619923
100
AcDbArc
 50
284.2619248088
 51
297.2228497748
  0
ARC
  5
212
330
1F
100
AcDbEntity
  8
0
  6
Continuous
 62
     7
370
    25
100
AcDbCircle
 10
5600.1276943546
 20
4945.1801430957
 30
0.0
 40
0.9028767270877244
100
AcDbArc
 50
304.3231205499
 51
1.5289520687
  0
LINE
  5
213
330
1F
100
AcDbEntity
  8
0
  6
Continuous
 62
     7
370
    25
100
AcDbLine
 10
5601.0302496304
 20
4945.8079373668
 30
0.0
 11
5601.0302496304
 21
4945.2042337254
 31
0.0
  0
LINE
  5
214
330
1F
100
AcDbEntity
  8
0
  6
Continuous
 62
     7
370
    25
100
AcDbLine
 10
5599.9420835929
 20
4946.5696386787
 30
0.0
 11
5599.9420835929
 21
4946.2579869756
 31
0.0
  0
ARC
  5
215
330
1F
100
AcDbEntity
  8
0
  6
Continuous
 62
     7
370
    25
100
AcDbCircle
 10
5596.0532906622
 20
4937.7534748885
 30
0.0
 40
9.351440332810727
100
AcDbArc
 50
65.427167351
 51
77.2488974281
  0
LINE
  5
216
330
1F
100
AcDbEntity
  8
0
  6
Continuous
 62
     7
370
    25
100
AcDbLine
 10
5598.1173050743
 20
4947.0903339265
 30
0.0
 11
5598.1173050743
 21
4946.8742906856
 31
0.0
  0
LINE
  5
217
330
1F
100
AcDbEntity
  8
0
  6
Continuous
 62
     7
370
    25
100
AcDbLine
 10
5594.468948072
 20
4947.588804573
 30
0.0
 11
5594.468948072
 21
4947.4202585478
 31
0.0
  0
ARC
  5
218
330
1F
100
AcDbEntity
  8
0
  6
Continuous
 62
     7
370
    25
100
AcDbCircle
 10
5591.7979812903
 20
4912.8947041822
 30
0.0
 40
34.62871594214176
100
AcDbArc
 50
85.5762935841
 51
90.5015401573
  0
LINE
  5
219
330
1F
100
AcDbEntity
  8
0
  6
Continuous
 62
     7
370
    25
100
AcDbLine
 10
5591.4948617587
 20
4947.6839298205
 30
0.0
 11
5591.4948617587
 21
4947.5220934334
 31
0.0
  0
LINE
  5
21A
330
1F
100
AcDbEntity
  8
0
  6
Continuous
 62
     7
370
    25
100
AcDbLine
 10
5587.4234718432
 20
4947.4222556734
 30
0.0
 11
5587.4234718432
 21
4947.2404553387
 31
0.0
  0
ARC
  5
21B
330
1F
100
AcDbEntity
  8
0
  6
Continuous
 62
     7
370
    25
100
AcDbCircle
 10
5589.8758181165
 20
4928.6369911949
 30
0.0
 40
18.76440461065893
100
AcDbArc
 50
97.5095473836
 51
104.9272291806
  0
LINE
  5
21C
330
1F
100
AcDbEntity
  8
0
  6
Continuous
 62
     7
370
    25
100
AcDbLine
 10
5585.042257162
 20
4946.9965297546
 30
0.0
 11
5585.042257162
 21
4946.7681679049
 31
0.0
  0
LINE
  5
21D
330
1F
100
AcDbEntity
  8
0
  6
Continuous
 62
     7
370
    25
100
AcDbLine
 10
5582.9327993279
 20
4946.2620349666
 30
0.0
 11
5582.9327993279
 21
4945.8239036294
 31
0.0
  0
ARC
  5
21E
330
1F
100
AcDbEntity
  8
0
  6
Continuous
 62
     7
370
    25
100
AcDbCircle
 10
5583.4418948199
 20
4945.0782440795
 30
0.0
 40
0.902876727090765
100
AcDbArc
 50
124.3231205499
 51
181.5289520686
  0
ARC
  5
21F
330
1F
100
AcDbEntity
  8
0
  6
Continuous
 62
     7
370
    25
100
AcDbCircle
 10
5585.1524366137
 20
4948.2102627655
 30
0.0
 40
3.584486047360453
100
AcDbArc
 50
234.2802916146
 51
244.8224138688
  0
LINE
  5
220
330
1F
100
AcDbEntity
  8
0
  6
Continuous
 62
     7
370
    25
100
AcDbLine
 10
5583.6275055815
 20
4944.9663260259
 30
0.0
 11
5583.6275055815
 21
4944.0004001996
 31
0.0
  0
ARC
  5
221
330
1F
100
AcDbEntity
  8
0
  6
Continuous
 62
     7
370
    25
100
AcDbCircle
 10
5587.5162985123
 20
4952.5049122867
 30
0.0
 40
9.351440332830222
100
AcDbArc
 50
245.427167351
 51
257.2488974281
  0
ARC
  5
222
330
1F
100
AcDbEntity
  8
0
  6
Continuous
 62
     7
370
    25
100
AcDbCircle
 10
5590.8449940254
 20
4968.1222396975
 30
0.0
 40
24.38066653465049
100
AcDbArc
 50
258.189300535
 51
265.8971784142
  0
LINE
  5
223
330
1F
100
AcDbEntity
  8
0
  6
Continuous
 62
     7
370
    25
100
AcDbLine
 10
5589.1006411025
 20
4943.8040544536
 30
0.0
 11
5589.1006411025
 21
4942.8381286273
 31
0.0
  0
ARC
  5
224
330
1F
100
AcDbEntity
  8
0
  6
Continuous
 62
     7
370
    25
100
AcDbCircle
 10
5591.7716078842
 20
4977.3636829929
 30
0.0
 40
34.62871594214995
100
AcDbArc
 50
265.5762935841
 51
270.5015401573
  0
LWPOLYLINE
  5
225
330
1F
100
AcDbEntity
  8
0
  6
Continuous
 62
     7
370
    25
100
AcDbPolyline
 90
        6
 70
   128
 43
0.0
 10
5585.2364542139
 20
4944.7963289712
 10
5584.3362209975
 20
4945.1770867111
 10
5583.7615261893
 20
4945.5979668853
 10
5583.5374867099
 20
4946.0405750107
 10
5583.6738941598
 20
4946.4855669881
 10
5583.8012898301
 20
4946.633447585
  0
LWPOLYLINE
  5
226
330
1F
100
AcDbEntity
  8
0
  6
Continuous
 62
     7
370
    25
100
AcDbPolyline
 90
        6
 70
   128
 43
0.0
 10
5599.9594356486
 20
4946.3830657526
 10
5600.0321024645
 20
4946.1496638171
 10
5599.8956950147
 20
4945.7046718396
 10
5599.4048022957
 20
4945.2767442947
 10
5598.5808786751
 20
4944.8845836695
 10
5598.2275664225
 20
4944.7614303472
  0
LINE
  5
227
330
1F
100
AcDbEntity
  8
0
  6
Continuous
 62
     7
370
    25
100
AcDbLine
 10
5585.5587211473
 20
4944.6941811599
 30
0.0
 11
5585.2364542139
 21
4944.7963289712
 31
0.0
  0
LINE
  5
228
330
1F
100
AcDbEntity
  8
0
  6
Continuous
 62
     7
370
    25
100
AcDbLine
 10
5600.5275315856
 20
4946.1873729844
 30
0.0
 11
5600.7893427381
 21
4946.1784083795
 31
0.0
  0
ARC
  5
229
330
1F
100
AcDbEntity
  8
0
  6
Continuous
 62
     7
370
    25
100
AcDbCircle
 10
5599.5441856377
 20
4946.2390874934
 30
0.0
 40
1.011320879478982
100
AcDbArc
 50
305.6817763791
 51
346.492222801
  0
LINE
  5
22A
330
1F
100
AcDbEntity
  8
0
  6
Continuous
 62
     7
370
    25
100
AcDbLine
 10
5598.5273320125
 20
4944.4561450965
 30
0.0
 11
5598.2188846467
 21
4944.5603206191
 31
0.0
  0
ARC
  5
22B
330
1F
100
AcDbEntity
  8
0
  6
Continuous
 62
     7
370
    25
100
AcDbCircle
 10
5593.5868603385
 20
4961.675374547
 30
0.0
 40
17.73078453270041
100
AcDbArc
 50
277.2930101398
 51
285.1437664244
  0
ARC
  5
22C
330
1F
100
AcDbEntity
  8
0
  6
Continuous
 62
     7
370
    25
100
AcDbCircle
 10
5591.7730243586
 20
4976.5587365667
 30
0.0
 40
32.72847533088277
100
AcDbArc
 50
265.4332158269
 51
270.6446179146
  0
LINE
  5
22D
330
1F
100
AcDbEntity
  8
0
  6
Continuous
 62
     7
370
    25
100
AcDbLine
 10
5589.1671486992
 20
4943.9341674579
 30
0.0
 11
5589.1006411025
 21
4943.8040544536
 31
0.0
  0
ARC
  5
22E
330
1F
100
AcDbEntity
  8
0
  6
Continuous
 62
     7
370
    25
100
AcDbCircle
 10
5587.7523278312
 20
4953.057766813
 30
0.0
 40
8.834111884812293
100
AcDbArc
 50
245.0796807339
 51
257.5963840453
  0
LINE
  5
22F
330
1F
100
AcDbEntity
  8
0
  6
Continuous
 62
     7
370
    25
100
AcDbLine
 10
5583.6275055815
 20
4944.9663260259
 30
0.0
 11
5584.0300088927
 21
4945.0461580786
 31
0.0
  0
LWPOLYLINE
  5
230
330
1F
100
AcDbEntity
  8
0
  6
Continuous
 62
     7
370
    25
100
AcDbPolyline
 90
        3
 70
   128
 43
0.0
 10
5584.2847945872
 20
4946.1715018411
 10
5583.7615261893
 20
4946.5638927116
 10
5583.7245101677
 20
4946.6057653192
  0
LINE
  5
231
330
1F
100
AcDbEntity
  8
0
  6
Continuous
 62
     7
370
    25
100
AcDbLine
 10
5599.4045118274
 20
4946.2424889712
 30
0.0
 11
5599.2847945872
 21
4946.1715018411
 31
0.0
  0
LINE
  5
232
330
1F
100
AcDbEntity
  8
0
  6
Continuous
 62
     7
370
    25
100
AcDbLine
 10
5594.4024404752
 20
4947.2901455435
 30
0.0
 11
5594.468948072
 21
4947.4202585478
 31
0.0
  0
ARC
  5
233
330
1F
100
AcDbEntity
  8
0
  6
Continuous
 62
     7
370
    25
100
AcDbCircle
 10
5591.7965648159
 20
4914.6655764345
 30
0.0
 40
32.72847533112537
100
AcDbArc
 50
85.4332158269
 51
90.6446179145
  0
LINE
  5
234
330
1F
100
AcDbEntity
  8
0
  6
Continuous
 62
     7
370
    25
100
AcDbLine
 10
5591.428354162
 20
4947.3919804291
 30
0.0
 11
5591.4948617587
 21
4947.5220934334
 31
0.0
  0
LWPOLYLINE
  5
235
330
1F
100
AcDbEntity
  8
0
  6
Continuous
 62
     7
370
    25
100
AcDbPolyline
 90
        7
 70
   128
 43
0.0
 10
5585.8317578842
 20
4944.9144008296
 10
5584.9902529706
 20
4945.2732230736
 10
5584.4664532713
 20
4945.6704762769
 10
5584.2848510783
 20
4946.0875853214
 10
5584.4539379081
 20
4946.5050466517
 10
5584.9658074486
 20
4946.9033402399
 10
5585.042257162
 20
4946.9452203709
  0
LWPOLYLINE
  5
236
330
1F
100
AcDbEntity
  8
0
  6
Continuous
 62
     7
370
    25
100
AcDbPolyline
 90
       14
 70
   128
 43
0.0
 10
5599.2358620795
 20
4946.3164956852
 10
5599.2376258156
 20
4946.3124822187
 10
5599.2439203963
 20
4945.8927364637
 10
5598.9014345444
 20
4945.4824539105
 10
5598.2261825177
 20
4945.1008189154
 10
5597.2497383504
 20
4944.7656763064
 10
5596.0177594866
 20
4944.4926969796
 10
5594.5878518888
 20
4944.2946451449
 10
5593.0268764468
 20
4944.1807814859
 10
5591.4078226376
 20
4944.1564301408
 10
5589.8063956178
 20
4944.2227297514
 10
5588.297476335
 20
4944.3765802216
 10
5586.9516201777
 20
4944.6107876744
 10
5585.8317578842
 20
4944.9144008296
  0
LINE
  5
237
330
1F
100
AcDbEntity
  8
0
  6
Continuous
 62
     7
370
    25
100
AcDbLine
 10
5591.428354162
 20
4947.6833661583
 30
0.0
 11
5591.428354162
 21
4947.3919804291
 31
0.0
  0
LINE
  5
238
330
1F
100
AcDbEntity
  8
0
  6
Continuous
 62
     7
370
    25
100
AcDbLine
 10
5587.4234718432
 20
4947.2404553387
 30
0.0
 11
5587.731919209
 21
4947.136279816
 31
0.0
  0
ARC
  5
239
330
1F
100
AcDbEntity
  8
0
  6
Continuous
 62
     7
370
    25
100
AcDbCircle
 10
5589.9827288361
 20
4929.548938454
 30
0.0
 40
17.73078453318963
100
AcDbArc
 50
97.2930101399
 51
105.1437664243
  0
LINE
  5
23A
330
1F
100
AcDbEntity
  8
0
  6
Continuous
 62
     7
370
    25
100
AcDbLine
 10
5585.042257162
 20
4946.7681679049
 30
0.0
 11
5585.3507045278
 21
4946.6639923823
 31
0.0
  0
LINE
  5
23B
330
1F
100
AcDbEntity
  8
0
  6
Continuous
 62
     7
370
    25
100
AcDbLine
 10
5587.731919209
 20
4947.4598562313
 30
0.0
 11
5587.731919209
 21
4947.136279816
 31
0.0
  0
LINE
  5
23C
330
1F
100
AcDbEntity
  8
0
  6
Continuous
 62
     7
370
    25
100
AcDbLine
 10
5598.1173050743
 20
4946.8742906856
 30
0.0
 11
5597.7148017632
 21
4946.7944586329
 31
0.0
  0
LINE
  5
23D
330
1F
100
AcDbEntity
  8
0
  6
Continuous
 62
     7
370
    25
100
AcDbLine
 10
5599.9420835929
 20
4946.2579869756
 30
0.0
 11
5599.5395802818
 21
4946.1781549229
 31
0.0
  0
ARC
  5
23E
330
1F
100
AcDbEntity
  8
0
  6
Continuous
 62
     7
370
    25
100
AcDbCircle
 10
5595.8172613434
 20
4938.1665461887
 30
0.0
 40
8.834111884563761
100
AcDbArc
 50
65.0796807337
 51
77.5963840455
  0
LINE
  5
23F
330
1F
100
AcDbEntity
  8
0
  6
Continuous
 62
     7
370
    25
100
AcDbLine
 10
5597.7148017632
 20
4947.1728914375
 30
0.0
 11
5597.7148017632
 21
4946.7944586329
 31
0.0
  0
LINE
  5
240
330
1F
100
AcDbEntity
  8
0
  6
Continuous
 62
     7
370
    25
100
AcDbLine
 10
5583.4355173727
 20
4946.4939627571
 30
0.0
 11
5583.4355173727
 21
4945.8066901967
 31
0.0
  0
LINE
  5
241
330
1F
100
AcDbEntity
  8
0
  6
Continuous
 62
     7
370
    25
100
AcDbLine
 10
5583.4355173727
 20
4945.8066901967
 30
0.0
 11
5582.9327993279
 21
4945.8239036294
 31
0.0
  0
ARC
  5
242
330
1F
100
AcDbEntity
  8
0
  6
Continuous
 62
     7
370
    25
100
AcDbCircle
 10
5583.9002302854
 20
4945.0837169163
 30
0.0
 40
0.8594465983300227
100
AcDbArc
 50
122.732106952
 51
183.1199656667
  0
LINE
  5
243
330
1F
100
AcDbEntity
  8
0
  6
Continuous
 62
     7
370
    25
100
AcDbLine
 10
5583.0420575888
 20
4945.0369400171
 30
0.0
 11
5582.5393395441
 21
4945.0541534498
 31
0.0
  0
LINE
  5
244
330
1F
100
AcDbEntity
  8
0
  6
Continuous
 62
     7
370
    25
100
AcDbLine
 10
5583.0420575888
 20
4945.2214471581
 30
0.0
 11
5583.0420575888
 21
4945.0369400171
 31
0.0
  0
LINE
  5
245
330
1F
100
AcDbEntity
  8
0
  6
Continuous
 62
     7
370
    25
100
AcDbLine
 10
5600.5275315856
 20
4946.1873729844
 30
0.0
 11
5600.5275315856
 21
4945.2214471581
 31
0.0
  0
LINE
  5
246
330
1F
100
AcDbEntity
  8
0
  6
Continuous
 62
     7
370
    25
100
AcDbLine
 10
5600.5275315856
 20
4945.2214471581
 30
0.0
 11
5601.0302496304
 21
4945.2042337254
 31
0.0
  0
ARC
  5
247
330
1F
100
AcDbEntity
  8
0
  6
Continuous
 62
     7
370
    25
100
AcDbCircle
 10
5599.6693588891
 20
4945.1746702589
 30
0.0
 40
0.8594465983409197
100
AcDbArc
 50
302.7321069524
 51
3.1199656663
  0
LINE
  5
248
330
1F
100
AcDbEntity
  8
0
  6
Continuous
 62
     7
370
    25
100
AcDbLine
 10
5600.1340718018
 20
4944.4516969784
 30
0.0
 11
5600.6367898465
 21
4944.4344835458
 31
0.0
  0
LINE
  5
249
330
1F
100
AcDbEntity
  8
0
  6
Continuous
 62
     7
370
    25
100
AcDbLine
 10
5600.1340718018
 20
4945.4176228047
 30
0.0
 11
5600.1340718018
 21
4944.4516969784
 31
0.0
  0
LINE
  5
24A
330
1F
100
AcDbEntity
  8
0
  6
Continuous
 62
     7
370
    25
100
AcDbLine
 10
5584.0300088927
 20
4945.0461580786
 30
0.0
 11
5584.0300088927
 21
4944.0802322523
 31
0.0
  0
LINE
  5
24B
330
1F
100
AcDbEntity
  8
0
  6
Continuous
 62
     7
370
    25
100
AcDbLine
 10
5583.6275055815
 20
4944.0004001996
 30
0.0
 11
5584.0300088927
 21
4944.0802322523
 31
0.0
  0
ARC
  5
24C
330
1F
100
AcDbEntity
  8
0
  6
Continuous
 62
     7
370
    25
100
AcDbCircle
 10
5587.7523278311
 20
4952.0918409866
 30
0.0
 40
8.834111884741528
100
AcDbArc
 50
245.0796807338
 51
257.5963840453
  0
LINE
  5
24D
330
1F
100
AcDbEntity
  8
0
  6
Continuous
 62
     7
370
    25
100
AcDbLine
 10
5585.8547874113
 20
4944.4298543686
 30
0.0
 11
5585.8547874113
 21
4943.4639285423
 31
0.0
  0
LINE
  5
24E
330
1F
100
AcDbEntity
  8
0
  6
Continuous
 62
     7
370
    25
100
AcDbLine
 10
5585.4522841002
 20
4943.3840964896
 30
0.0
 11
5585.8547874113
 21
4943.4639285423
 31
0.0
  0
LINE
  5
24F
330
1F
100
AcDbEntity
  8
0
  6
Continuous
 62
     7
370
    25
100
AcDbLine
 10
5598.2188846467
 20
4944.5603206191
 30
0.0
 11
5598.2188846467
 21
4943.5943947929
 31
0.0
  0
LINE
  5
250
330
1F
100
AcDbEntity
  8
0
  6
Continuous
 62
     7
370
    25
100
AcDbLine
 10
5598.5273320125
 20
4943.4902192702
 30
0.0
 11
5598.2188846467
 21
4943.5943947929
 31
0.0
  0
ARC
  5
251
330
1F
100
AcDbEntity
  8
0
  6
Continuous
 62
     7
370
    25
100
AcDbCircle
 10
5593.5868603384
 20
4960.7094487211
 30
0.0
 40
17.73078453313249
100
AcDbArc
 50
277.2930101399
 51
285.1437664243
  0
LINE
  5
252
330
1F
100
AcDbEntity
  8
0
  6
Continuous
 62
     7
370
    25
100
AcDbLine
 10
5595.8376699655
 20
4944.0880331854
 30
0.0
 11
5595.8376699655
 21
4943.1221073591
 31
0.0
  0
LINE
  5
253
330
1F
100
AcDbEntity
  8
0
  6
Continuous
 62
     7
370
    25
100
AcDbLine
 10
5596.1461173313
 20
4943.0179318365
 30
0.0
 11
5595.8376699655
 21
4943.1221073591
 31
0.0
  0
LINE
  5
254
330
1F
100
AcDbEntity
  8
0
  6
Continuous
 62
     7
370
    25
100
AcDbLine
 10
5589.1671486992
 20
4943.9341674579
 30
0.0
 11
5589.1671486992
 21
4942.9682416316
 31
0.0
  0
LINE
  5
255
330
1F
100
AcDbEntity
  8
0
  6
Continuous
 62
     7
370
    25
100
AcDbLine
 10
5592.1412350125
 20
4943.8323325724
 30
0.0
 11
5592.1412350125
 21
4942.8664067461
 31
0.0
  0
ARC
  5
256
330
1F
100
AcDbEntity
  8
0
  6
Continuous
 62
     7
370
    25
100
AcDbCircle
 10
5591.7730243586
 20
4975.5928107401
 30
0.0
 40
32.72847533059004
100
AcDbArc
 50
265.4332158269
 51
270.6446179146
  0
LINE
  5
257
330
1F
100
AcDbEntity
  8
0
  6
Continuous
 62
     7
370
    25
100
AcDbLine
 10
5589.1671486992
 20
4942.9682416316
 30
0.0
 11
5589.1006411025
 21
4942.8381286273
 31
0.0
  0
LINE
  5
258
330
1F
100
AcDbEntity
  8
0
  6
Continuous
 62
     7
370
    25
100
AcDbLine
 10
5592.1412350125
 20
4942.8664067461
 30
0.0
 11
5592.0747274157
 21
4942.7362937418
 31
0.0
  0
ARC
  5
259
330
1F
100
AcDbEntity
  8
0
  6
Continuous
 62
     7
370
    25
100
AcDbCircle
 10
6191.8944074599
 20
4976.0340651923
 30
0.0
 40
32.33234845717223
100
AcDbArc
 50
270.3195445578
 51
277.00524986
  0
ARC
  5
25A
330
1F
100
AcDbEntity
  8
0
  6
Continuous
 62
     7
370
    25
100
AcDbCircle
 10
6193.6937710579
 20
4961.6213959804
 30
0.0
 40
18.76440461079684
100
AcDbArc
 50
277.5095473836
 51
284.9272291805
  0
LINE
  5
25B
330
1F
100
AcDbEntity
  8
0
  6
Continuous
 62
     7
370
    25
100
AcDbLine
 10
6198.5273320125
 20
4944.4561450965
 30
0.0
 11
6198.5273320125
 21
4943.4902192702
 31
0.0
  0
ARC
  5
25C
330
1F
100
AcDbEntity
  8
0
  6
Continuous
 62
     7
370
    25
100
AcDbCircle
 10
6196.6522352253
 20
4951.8329208103
 30
0.0
 40
7.611360449538328
100
AcDbArc
 50
284.2619248088
 51
297.2228497749
  0
ARC
  5
25D
330
1F
100
AcDbEntity
  8
0
  6
Continuous
 62
     7
370
    25
100
AcDbCircle
 10
6200.1276943546
 20
4945.1801430957
 30
0.0
 40
0.9028767270874873
100
AcDbArc
 50
304.3231205499
 51
1.5289520688
  0
LINE
  5
25E
330
1F
100
AcDbEntity
  8
0
  6
Continuous
 62
     7
370
    25
100
AcDbLine
 10
6201.0302496304
 20
4945.8079373668
 30
0.0
 11
6201.0302496304
 21
4945.2042337254
 31
0.0
  0
LINE
  5
25F
330
1F
100
AcDbEntity
  8
0
  6
Continuous
 62
     7
370
    25
100
AcDbLine
 10
6199.9420835929
 20
4946.5696386787
 30
0.0
 11
6199.9420835929
 21
4946.2579869756
 31
0.0
  0
ARC
  5
260
330
1F
100
AcDbEntity
  8
0
  6
Continuous
 62
     7
370
    25
100
AcDbCircle
 10
6196.0532906622
 20
4937.7534748885
 30
0.0
 40
9.351440332786574
100
AcDbArc
 50
65.427167351
 51
77.2488974281
  0
LINE
  5
261
330
1F
100
AcDbEntity
  8
0
  6
Continuous
 62
     7
370
    25
100
AcDbLine
 10
6198.1173050743
 20
4947.0903339265
 30
0.0
 11
6198.1173050743
 21
4946.8742906856
 31
0.0
  0
LINE
  5
262
330
1F
100
AcDbEntity
  8
0
  6
Continuous
 62
     7
370
    25
100
AcDbLine
 10
6194.468948072
 20
4947.588804573
 30
0.0
 11
6194.468948072
 21
4947.4202585478
 31
0.0
  0
ARC
  5
263
330
1F
100
AcDbEntity
  8
0
  6
Continuous
 62
     7
370
    25
100
AcDbCircle
 10
6191.7979812903
 20
4912.8947041823
 30
0.0
 40
34.62871594211813
100
AcDbArc
 50
85.5762935841
 51
90.5015401573
  0
LINE
  5
264
330
1F
100
AcDbEntity
  8
0
  6
Continuous
 62
     7
370
    25
100
AcDbLine
 10
6191.4948617587
 20
4947.6839298205
 30
0.0
 11
6191.4948617587
 21
4947.5220934334
 31
0.0
  0
LINE
  5
265
330
1F
100
AcDbEntity
  8
0
  6
Continuous
 62
     7
370
    25
100
AcDbLine
 10
6187.4234718432
 20
4947.4222556734
 30
0.0
 11
6187.4234718432
 21
4947.2404553387
 31
0.0
  0
ARC
  5
266
330
1F
100
AcDbEntity
  8
0
  6
Continuous
 62
     7
370
    25
100
AcDbCircle
 10
6189.8758181165
 20
4928.6369911949
 30
0.0
 40
18.76440461068494
100
AcDbArc
 50
97.5095473836
 51
104.9272291806
  0
LINE
  5
267
330
1F
100
AcDbEntity
  8
0
  6
Continuous
 62
     7
370
    25
100
AcDbLine
 10
6185.042257162
 20
4946.9965297546
 30
0.0
 11
6185.042257162
 21
4946.7681679049
 31
0.0
  0
LINE
  5
268
330
1F
100
AcDbEntity
  8
0
  6
Continuous
 62
     7
370
    25
100
AcDbLine
 10
6182.9327993279
 20
4946.2620349666
 30
0.0
 11
6182.9327993279
 21
4945.8239036294
 31
0.0
  0
ARC
  5
269
330
1F
100
AcDbEntity
  8
0
  6
Continuous
 62
     7
370
    25
100
AcDbCircle
 10
6183.4418948199
 20
4945.0782440795
 30
0.0
 40
0.9028767270885116
100
AcDbArc
 50
124.32312055
 51
181.5289520688
  0
ARC
  5
26A
330
1F
100
AcDbEntity
  8
0
  6
Continuous
 62
     7
370
    25
100
AcDbCircle
 10
6185.1524372854
 20
4948.2102640132
 30
0.0
 40
3.58448746223839
100
AcDbArc
 50
234.2803094136
 51
244.8224126357
  0
LINE
  5
26B
330
1F
100
AcDbEntity
  8
0
  6
Continuous
 62
     7
370
    25
100
AcDbLine
 10
6183.6275055815
 20
4944.9663260259
 30
0.0
 11
6183.6275055815
 21
4944.0004001996
 31
0.0
  0
ARC
  5
26C
330
1F
100
AcDbEntity
  8
0
  6
Continuous
 62
     7
370
    25
100
AcDbCircle
 10
6187.5162985123
 20
4952.5049122868
 30
0.0
 40
9.35144033287389
100
AcDbArc
 50
245.4271673511
 51
257.248897428
  0
ARC
  5
26D
330
1F
100
AcDbEntity
  8
0
  6
Continuous
 62
     7
370
    25
100
AcDbCircle
 10
6190.8449940254
 20
4968.1222396975
 30
0.0
 40
24.3806665346995
100
AcDbArc
 50
258.1893005351
 51
265.8971784142
  0
LINE
  5
26E
330
1F
100
AcDbEntity
  8
0
  6
Continuous
 62
     7
370
    25
100
AcDbLine
 10
6189.1006411025
 20
4943.8040544536
 30
0.0
 11
6189.1006411025
 21
4942.8381286273
 31
0.0
  0
ARC
  5
26F
330
1F
100
AcDbEntity
  8
0
  6
Continuous
 62
     7
370
    25
100
AcDbCircle
 10
6191.7716078842
 20
4977.3636829929
 30
0.0
 40
34.6287159420954
100
AcDbArc
 50
265.5762935841
 51
270.5015401573
  0
LWPOLYLINE
  5
270
330
1F
100
AcDbEntity
  8
0
  6
Continuous
 62
     7
370
    25
100
AcDbPolyline
 90
        6
 70
   128
 43
0.0
 10
6185.2364542139
 20
4944.7963289712
 10
6184.3362209975
 20
4945.1770867111
 10
6183.7615261893
 20
4945.5979668853
 10
6183.5374867099
 20
4946.0405750107
 10
6183.6738941598
 20
4946.4855669881
 10
6183.8300608791
 20
4946.6612597715
  0
LWPOLYLINE
  5
271
330
1F
100
AcDbEntity
  8
0
  6
Continuous
 62
     7
370
    25
100
AcDbPolyline
 90
       14
 70
   128
 43
0.0
 10
6199.9594356486
 20
4946.3830657526
 10
6200.0321024645
 20
4946.1496638171
 10
6199.8956950147
 20
4945.7046718396
 10
6199.4048022957
 20
4945.2767442947
 10
6198.5808786751
 20
4944.8845836695
 10
6197.4599335685
 20
4944.5453292651
 10
6196.0909576562
 20
4944.2738081269
 10
6194.5337817544
 20
4944.0818870316
 10
6192.8564619224
 20
4943.977953852
 10
6191.1323050854
 20
4943.9665509667
 10
6189.4366651706
 20
4944.0481767365
 10
6187.8436497789
 20
4944.2192637237
 10
6186.422881327
 20
4944.4723346059
 10
6185.2364542139
 20
4944.7963289712
  0
LINE
  5
272
330
1F
100
AcDbEntity
  8
0
  6
Continuous
 62
     7
370
    25
100
AcDbLine
 10
6200.5275315856
 20
4946.1873729844
 30
0.0
 11
6200.7893427381
 21
4946.1784083795
 31
0.0
  0
ARC
  5
273
330
1F
100
AcDbEntity
  8
0
  6
Continuous
 62
     7
370
    25
100
AcDbCircle
 10
6199.5441856377
 20
4946.2390874934
 30
0.0
 40
1.011320879476712
100
AcDbArc
 50
305.6817763791
 51
346.4922228011
  0
LINE
  5
274
330
1F
100
AcDbEntity
  8
0
  6
Continuous
 62
     7
370
    25
100
AcDbLine
 10
6198.5273320125
 20
4944.4561450965
 30
0.0
 11
6198.2188846467
 21
4944.5603206191
 31
0.0
  0
ARC
  5
275
330
1F
100
AcDbEntity
  8
0
  6
Continuous
 62
     7
370
    25
100
AcDbCircle
 10
6193.5868603385
 20
4961.675374547
 30
0.0
 40
17.73078453269182
100
AcDbArc
 50
277.2930101398
 51
285.1437664244
  0
ARC
  5
276
330
1F
100
AcDbEntity
  8
0
  6
Continuous
 62
     7
370
    25
100
AcDbCircle
 10
6191.7730243586
 20
4976.5587365667
 30
0.0
 40
32.72847533091185
100
AcDbArc
 50
265.4332158269
 51
270.6446179146
  0
LINE
  5
277
330
1F
100
AcDbEntity
  8
0
  6
Continuous
 62
     7
370
    25
100
AcDbLine
 10
6189.1671486992
 20
4943.9341674579
 30
0.0
 11
6189.1006411025
 21
4943.8040544536
 31
0.0
  0
ARC
  5
278
330
1F
100
AcDbEntity
  8
0
  6
Continuous
 62
     7
370
    25
100
AcDbCircle
 10
6187.7523278311
 20
4953.0577668129
 30
0.0
 40
8.834111884744429
100
AcDbArc
 50
245.0796807338
 51
257.5963840453
  0
LINE
  5
279
330
1F
100
AcDbEntity
  8
0
  6
Continuous
 62
     7
370
    25
100
AcDbLine
 10
6183.6275055815
 20
4944.9663260259
 30
0.0
 11
6184.0300088927
 21
4945.0461580786
 31
0.0
  0
LWPOLYLINE
  5
27A
330
1F
100
AcDbEntity
  8
0
  6
Continuous
 62
     7
370
    25
100
AcDbPolyline
 90
        3
 70
   128
 43
0.0
 10
6184.2847945872
 20
4946.1715018411
 10
6183.7615261893
 20
4946.5638927116
 10
6183.748598398
 20
4946.578082327
  0
LINE
  5
27B
330
1F
100
AcDbEntity
  8
0
  6
Continuous
 62
     7
370
    25
100
AcDbLine
 10
6199.4045117761
 20
4946.2424889392
 30
0.0
 11
6199.2847945872
 21
4946.1715018411
 31
0.0
  0
LINE
  5
27C
330
1F
100
AcDbEntity
  8
0
  6
Continuous
 62
     7
370
    25
100
AcDbLine
 10
6194.4024404752
 20
4947.2901455435
 30
0.0
 11
6194.468948072
 21
4947.4202585478
 31
0.0
  0
ARC
  5
27D
330
1F
100
AcDbEntity
  8
0
  6
Continuous
 62
     7
370
    25
100
AcDbCircle
 10
6191.7965648159
 20
4914.6655764345
 30
0.0
 40
32.72847533112537
100
AcDbArc
 50
85.4332158269
 51
90.6446179145
  0
LINE
  5
27E
330
1F
100
AcDbEntity
  8
0
  6
Continuous
 62
     7
370
    25
100
AcDbLine
 10
6191.428354162
 20
4947.3919804291
 30
0.0
 11
6191.4948617587
 21
4947.5220934334
 31
0.0
  0
LWPOLYLINE
  5
27F
330
1F
100
AcDbEntity
  8
0
  6
Continuous
 62
     7
370
    25
100
AcDbPolyline
 90
        7
 70
   128
 43
0.0
 10
6185.8317578842
 20
4944.9144008296
 10
6184.9902529706
 20
4945.2732230736
 10
6184.4664532713
 20
4945.6704762769
 10
6184.2848510783
 20
4946.0875853214
 10
6184.4539379081
 20
4946.5050466517
 10
6184.9658074486
 20
4946.9033402399
 10
6185.042257162
 20
4946.9452203709
  0
LWPOLYLINE
  5
280
330
1F
100
AcDbEntity
  8
0
  6
Continuous
 62
     7
370
    25
100
AcDbPolyline
 90
       14
 70
   128
 43
0.0
 10
6199.2358619591
 20
4946.3164959566
 10
6199.2376258156
 20
4946.3124822187
 10
6199.2439203963
 20
4945.8927364637
 10
6198.9014345444
 20
4945.4824539105
 10
6198.2261825177
 20
4945.1008189154
 10
6197.2497383504
 20
4944.7656763064
 10
6196.0177594866
 20
4944.4926969796
 10
6194.5878518888
 20
4944.2946451449
 10
6193.0268764468
 20
4944.1807814859
 10
6191.4078226376
 20
4944.1564301408
 10
6189.8063956178
 20
4944.2227297514
 10
6188.297476335
 20
4944.3765802216
 10
6186.9516201777
 20
4944.6107876744
 10
6185.8317578842
 20
4944.9144008296
  0
LINE
  5
281
330
1F
100
AcDbEntity
  8
0
  6
Continuous
 62
     7
370
    25
100
AcDbLine
 10
6191.428354162
 20
4947.6833661583
 30
0.0
 11
6191.428354162
 21
4947.3919804291
 31
0.0
  0
LINE
  5
282
330
1F
100
AcDbEntity
  8
0
  6
Continuous
 62
     7
370
    25
100
AcDbLine
 10
6187.4234718432
 20
4947.2404553387
 30
0.0
 11
6187.731919209
 21
4947.136279816
 31
0.0
  0
ARC
  5
283
330
1F
100
AcDbEntity
  8
0
  6
Continuous
 62
     7
370
    25
100
AcDbCircle
 10
6189.982728836
 20
4929.5489384541
 30
0.0
 40
17.73078453304386
100
AcDbArc
 50
97.2930101399
 51
105.1437664243
  0
LINE
  5
284
330
1F
100
AcDbEntity
  8
0
  6
Continuous
 62
     7
370
    25
100
AcDbLine
 10
6185.042257162
 20
4946.7681679049
 30
0.0
 11
6185.3507045278
 21
4946.6639923823
 31
0.0
  0
LINE
  5
285
330
1F
100
AcDbEntity
  8
0
  6
Continuous
 62
     7
370
    25
100
AcDbLine
 10
6187.731919209
 20
4947.4598562313
 30
0.0
 11
6187.731919209
 21
4947.136279816
 31
0.0
  0
LINE
  5
286
330
1F
100
AcDbEntity
  8
0
  6
Continuous
 62
     7
370
    25
100
AcDbLine
 10
6198.1173050743
 20
4946.8742906856
 30
0.0
 11
6197.7148017632
 21
4946.7944586329
 31
0.0
  0
LINE
  5
287
330
1F
100
AcDbEntity
  8
0
  6
Continuous
 62
     7
370
    25
100
AcDbLine
 10
6199.9420835929
 20
4946.2579869756
 30
0.0
 11
6199.5395802818
 21
4946.1781549229
 31
0.0
  0
ARC
  5
288
330
1F
100
AcDbEntity
  8
0
  6
Continuous
 62
     7
370
    25
100
AcDbCircle
 10
6195.8172613434
 20
4938.1665461887
 30
0.0
 40
8.834111884548076
100
AcDbArc
 50
65.0796807337
 51
77.5963840455
  0
LINE
  5
289
330
1F
100
AcDbEntity
  8
0
  6
Continuous
 62
     7
370
    25
100
AcDbLine
 10
6197.7148017632
 20
4947.1728914375
 30
0.0
 11
6197.7148017632
 21
4946.7944586329
 31
0.0
  0
LINE
  5
28A
330
1F
100
AcDbEntity
  8
0
  6
Continuous
 62
     7
370
    25
100
AcDbLine
 10
6183.4355173727
 20
4946.4939627571
 30
0.0
 11
6183.4355173727
 21
4945.8066901967
 31
0.0
  0
LINE
  5
28B
330
1F
100
AcDbEntity
  8
0
  6
Continuous
 62
     7
370
    25
100
AcDbLine
 10
6183.4355173727
 20
4945.8066901967
 30
0.0
 11
6182.9327993279
 21
4945.8239036294
 31
0.0
  0
ARC
  5
28C
330
1F
100
AcDbEntity
  8
0
  6
Continuous
 62
     7
370
    25
100
AcDbCircle
 10
6183.9002302854
 20
4945.0837169163
 30
0.0
 40
0.8594465983347768
100
AcDbArc
 50
122.7321069521
 51
183.1199656665
  0
LINE
  5
28D
330
1F
100
AcDbEntity
  8
0
  6
Continuous
 62
     7
370
    25
100
AcDbLine
 10
6183.0420575888
 20
4945.0369400171
 30
0.0
 11
6182.5393395441
 21
4945.0541534498
 31
0.0
  0
LINE
  5
28E
330
1F
100
AcDbEntity
  8
0
  6
Continuous
 62
     7
370
    25
100
AcDbLine
 10
6183.0420575888
 20
4945.2214471581
 30
0.0
 11
6183.0420575888
 21
4945.0369400171
 31
0.0
  0
LINE
  5
28F
330
1F
100
AcDbEntity
  8
0
  6
Continuous
 62
     7
370
    25
100
AcDbLine
 10
6200.5275315856
 20
4946.1873729844
 30
0.0
 11
6200.5275315856
 21
4945.2214471581
 31
0.0
  0
LINE
  5
290
330
1F
100
AcDbEntity
  8
0
  6
Continuous
 62
     7
370
    25
100
AcDbLine
 10
6200.5275315856
 20
4945.2214471581
 30
0.0
 11
6201.0302496304
 21
4945.2042337254
 31
0.0
  0
ARC
  5
291
330
1F
100
AcDbEntity
  8
0
  6
Continuous
 62
     7
370
    25
100
AcDbCircle
 10
6199.6693588891
 20
4945.1746702588
 30
0.0
 40
0.8594465983349953
100
AcDbArc
 50
302.7321069523
 51
3.1199656665
  0
LINE
  5
292
330
1F
100
AcDbEntity
  8
0
  6
Continuous
 62
     7
370
    25
100
AcDbLine
 10
6200.1340718018
 20
4944.4516969784
 30
0.0
 11
6200.6367898465
 21
4944.4344835458
 31
0.0
  0
LINE
  5
293
330
1F
100
AcDbEntity
  8
0
  6
Continuous
 62
     7
370
    25
100
AcDbLine
 10
6200.1340718018
 20
4945.4176228047
 30
0.0
 11
6200.1340718018
 21
4944.4516969784
 31
0.0
  0
LINE
  5
294
330
1F
100
AcDbEntity
  8
0
  6
Continuous
 62
     7
370
    25
100
AcDbLine
 10
6184.0300088927
 20
4945.0461580786
 30
0.0
 11
6184.0300088927
 21
4944.0802322523
 31
0.0
  0
LINE
  5
295
330
1F
100
AcDbEntity
  8
0
  6
Continuous
 62
     7
370
    25
100
AcDbLine
 10
6183.6275055815
 20
4944.0004001996
 30
0.0
 11
6184.0300088927
 21
4944.0802322523
 31
0.0
  0
ARC
  5
296
330
1F
100
AcDbEntity
  8
0
  6
Continuous
 62
     7
370
    25
100
AcDbCircle
 10
6187.7523278311
 20
4952.0918409866
 30
0.0
 40
8.834111884717842
100
AcDbArc
 50
245.0796807338
 51
257.5963840454
  0
LINE
  5
297
330
1F
100
AcDbEntity
  8
0
  6
Continuous
 62
     7
370
    25
100
AcDbLine
 10
6185.8547874113
 20
4944.4298543686
 30
0.0
 11
6185.8547874113
 21
4943.4639285423
 31
0.0
  0
LINE
  5
298
330
1F
100
AcDbEntity
  8
0
  6
Continuous
 62
     7
370
    25
100
AcDbLine
 10
6185.4522841002
 20
4943.3840964896
 30
0.0
 11
6185.8547874113
 21
4943.4639285423
 31
0.0
  0
LINE
  5
299
330
1F
100
AcDbEntity
  8
0
  6
Continuous
 62
     7
370
    25
100
AcDbLine
 10
6198.2188846467
 20
4944.5603206191
 30
0.0
 11
6198.2188846467
 21
4943.5943947929
 31
0.0
  0
LINE
  5
29A
330
1F
100
AcDbEntity
  8
0
  6
Continuous
 62
     7
370
    25
100
AcDbLine
 10
6198.5273320125
 20
4943.4902192702
 30
0.0
 11
6198.2188846467
 21
4943.5943947929
 31
0.0
  0
ARC
  5
29B
330
1F
100
AcDbEntity
  8
0
  6
Continuous
 62
     7
370
    25
100
AcDbCircle
 10
6193.5868603384
 20
4960.7094487212
 30
0.0
 40
17.73078453319304
100
AcDbArc
 50
277.2930101399
 51
285.1437664243
  0
LINE
  5
29C
330
1F
100
AcDbEntity
  8
0
  6
Continuous
 62
     7
370
    25
100
AcDbLine
 10
6195.8376699655
 20
4944.0880331854
 30
0.0
 11
6195.8376699655
 21
4943.1221073591
 31
0.0
  0
LINE
  5
29D
330
1F
100
AcDbEntity
  8
0
  6
Continuous
 62
     7
370
    25
100
AcDbLine
 10
6196.1461173313
 20
4943.0179318365
 30
0.0
 11
6195.8376699655
 21
4943.1221073591
 31
0.0
  0
LINE
  5
29E
330
1F
100
AcDbEntity
  8
0
  6
Continuous
 62
     7
370
    25
100
AcDbLine
 10
6189.1671486992
 20
4943.9341674579
 30
0.0
 11
6189.1671486992
 21
4942.9682416316
 31
0.0
  0
LINE
  5
29F
330
1F
100
AcDbEntity
  8
0
  6
Continuous
 62
     7
370
    25
100
AcDbLine
 10
6192.1412350125
 20
4943.8323325724
 30
0.0
 11
6192.1412350125
 21
4942.8664067461
 31
0.0
  0
ARC
  5
2A0
330
1F
100
AcDbEntity
  8
0
  6
Continuous
 62
     7
370
    25
100
AcDbCircle
 10
6191.7730243586
 20
4975.5928107401
 30
0.0
 40
32.72847533062554
100
AcDbArc
 50
265.4332158269
 51
270.6446179146
  0
LINE
  5
2A1
330
1F
100
AcDbEntity
  8
0
  6
Continuous
 62
     7
370
    25
100
AcDbLine
 10
6189.1671486992
 20
4942.9682416316
 30
0.0
 11
6189.1006411025
 21
4942.8381286273
 31
0.0
  0
LINE
  5
2A2
330
1F
100
AcDbEntity
  8
0
  6
Continuous
 62
     7
370
    25
100
AcDbLine
 10
6192.1412350125
 20
4942.8664067461
 30
0.0
 11
6192.0747274157
 21
4942.7362937418
 31
0.0
  0
ARC
  5
2A3
330
1F
100
AcDbEntity
  8
0
  6
Continuous
 62
     7
370
    25
100
AcDbCircle
 10
7991.8944074599
 20
4976.0340651923
 30
0.0
 40
32.33234845712309
100
AcDbArc
 50
270.3195445578
 51
277.00524986
  0
ARC
  5
2A4
330
1F
100
AcDbEntity
  8
0
  6
Continuous
 62
     7
370
    25
100
AcDbCircle
 10
7993.6937710579
 20
4961.6213959804
 30
0.0
 40
18.76440461082859
100
AcDbArc
 50
277.5095473836
 51
284.9272291805
  0
LINE
  5
2A5
330
1F
100
AcDbEntity
  8
0
  6
Continuous
 62
     7
370
    25
100
AcDbLine
 10
7998.5273320125
 20
4944.4561450965
 30
0.0
 11
7998.5273320125
 21
4943.4902192702
 31
0.0
  0
ARC
  5
2A6
330
1F
100
AcDbEntity
  8
0
  6
Continuous
 62
     7
370
    25
100
AcDbCircle
 10
7996.6522352253
 20
4951.8329208105
 30
0.0
 40
7.611360449712957
100
AcDbArc
 50
284.2619248089
 51
297.2228497747
  0
ARC
  5
2A7
330
1F
100
AcDbEntity
  8
0
  6
Continuous
 62
     7
370
    25
100
AcDbCircle
 10
8000.1276943546
 20
4945.1801430957
 30
0.0
 40
0.9028767270854348
100
AcDbArc
 50
304.3231205497
 51
1.5289520688
  0
LINE
  5
2A8
330
1F
100
AcDbEntity
  8
0
  6
Continuous
 62
     7
370
    25
100
AcDbLine
 10
8001.0302496304
 20
4945.8079373668
 30
0.0
 11
8001.0302496304
 21
4945.2042337254
 31
0.0
  0
LINE
  5
2A9
330
1F
100
AcDbEntity
  8
0
  6
Continuous
 62
     7
370
    25
100
AcDbLine
 10
7999.9420835929
 20
4946.5696386787
 30
0.0
 11
7999.9420835929
 21
4946.2579869756
 31
0.0
  0
ARC
  5
2AA
330
1F
100
AcDbEntity
  8
0
  6
Continuous
 62
     7
370
    25
100
AcDbCircle
 10
7996.0532906622
 20
4937.7534748884
 30
0.0
 40
9.351440332874015
100
AcDbArc
 50
65.4271673511
 51
77.248897428
  0
LINE
  5
2AB
330
1F
100
AcDbEntity
  8
0
  6
Continuous
 62
     7
370
    25
100
AcDbLine
 10
7998.1173050743
 20
4947.0903339265
 30
0.0
 11
7998.1173050743
 21
4946.8742906856
 31
0.0
  0
LINE
  5
2AC
330
1F
100
AcDbEntity
  8
0
  6
Continuous
 62
     7
370
    25
100
AcDbLine
 10
7994.468948072
 20
4947.588804573
 30
0.0
 11
7994.468948072
 21
4947.4202585478
 31
0.0
  0
ARC
  5
2AD
330
1F
100
AcDbEntity
  8
0
  6
Continuous
 62
     7
370
    25
100
AcDbCircle
 10
7991.7979812903
 20
4912.8947041823
 30
0.0
 40
34.62871594209905
100
AcDbArc
 50
85.5762935841
 51
90.5015401573
  0
LINE
  5
2AE
330
1F
100
AcDbEntity
  8
0
  6
Continuous
 62
     7
370
    25
100
AcDbLine
 10
7991.4948617587
 20
4947.6839298205
 30
0.0
 11
7991.4948617587
 21
4947.5220934334
 31
0.0
  0
LINE
  5
2AF
330
1F
100
AcDbEntity
  8
0
  6
Continuous
 62
     7
370
    25
100
AcDbLine
 10
7987.4234718432
 20
4947.4222556734
 30
0.0
 11
7987.4234718432
 21
4947.2404553387
 31
0.0
  0
ARC
  5
2B0
330
1F
100
AcDbEntity
  8
0
  6
Continuous
 62
     7
370
    25
100
AcDbCircle
 10
7989.8758181165
 20
4928.6369911949
 30
0.0
 40
18.76440461065184
100
AcDbArc
 50
97.5095473836
 51
104.9272291806
  0
LINE
  5
2B1
330
1F
100
AcDbEntity
  8
0
  6
Continuous
 62
     7
370
    25
100
AcDbLine
 10
7985.042257162
 20
4946.9965297546
 30
0.0
 11
7985.042257162
 21
4946.7681679049
 31
0.0
  0
LINE
  5
2B2
330
1F
100
AcDbEntity
  8
0
  6
Continuous
 62
     7
370
    25
100
AcDbLine
 10
7982.9327993279
 20
4946.2620349666
 30
0.0
 11
7982.9327993279
 21
4945.8239036294
 31
0.0
  0
ARC
  5
2B3
330
1F
100
AcDbEntity
  8
0
  6
Continuous
 62
     7
370
    25
100
AcDbCircle
 10
7983.4418948199
 20
4945.0782440795
 30
0.0
 40
0.9028767270831813
100
AcDbArc
 50
124.3231205498
 51
181.5289520689
  0
ARC
  5
2B4
330
1F
100
AcDbEntity
  8
0
  6
Continuous
 62
     7
370
    25
100
AcDbCircle
 10
7985.1524384185
 20
4948.2102661177
 30
0.0
 40
3.584489848835408
100
AcDbArc
 50
234.2803394334
 51
244.8224105559
  0
LINE
  5
2B5
330
1F
100
AcDbEntity
  8
0
  6
Continuous
 62
     7
370
    25
100
AcDbLine
 10
7983.6275055815
 20
4944.9663260259
 30
0.0
 11
7983.6275055815
 21
4944.0004001996
 31
0.0
  0
ARC
  5
2B6
330
1F
100
AcDbEntity
  8
0
  6
Continuous
 62
     7
370
    25
100
AcDbCircle
 10
7987.5162985123
 20
4952.5049122868
 30
0.0
 40
9.351440332855631
100
AcDbArc
 50
245.427167351
 51
257.248897428
  0
ARC
  5
2B7
330
1F
100
AcDbEntity
  8
0
  6
Continuous
 62
     7
370
    25
100
AcDbCircle
 10
7990.8449940254
 20
4968.1222396975
 30
0.0
 40
24.38066653469237
100
AcDbArc
 50
258.1893005351
 51
265.8971784142
  0
LINE
  5
2B8
330
1F
100
AcDbEntity
  8
0
  6
Continuous
 62
     7
370
    25
100
AcDbLine
 10
7989.1006411025
 20
4943.8040544536
 30
0.0
 11
7989.1006411025
 21
4942.8381286273
 31
0.0
  0
ARC
  5
2B9
330
1F
100
AcDbEntity
  8
0
  6
Continuous
 62
     7
370
    25
100
AcDbCircle
 10
7991.7716078842
 20
4977.3636829929
 30
0.0
 40
34.62871594212085
100
AcDbArc
 50
265.5762935841
 51
270.5015401573
  0
LWPOLYLINE
  5
2BA
330
1F
100
AcDbEntity
  8
0
  6
Continuous
 62
     7
370
    25
100
AcDbPolyline
 90
        6
 70
   128
 43
0.0
 10
7985.2364542139
 20
4944.7963289712
 10
7984.3362209975
 20
4945.1770867111
 10
7983.7615261893
 20
4945.5979668853
 10
7983.5374867099
 20
4946.0405750107
 10
7983.6738941598
 20
4946.4855669881
 10
7983.8300608791
 20
4946.6612597715
  0
LWPOLYLINE
  5
2BB
330
1F
100
AcDbEntity
  8
0
  6
Continuous
 62
     7
370
    25
100
AcDbPolyline
 90
       14
 70
   128
 43
0.0
 10
7999.9420835929
 20
4946.4143321892
 10
8000.0321024645
 20
4946.1496638171
 10
7999.8956950147
 20
4945.7046718396
 10
7999.4048022957
 20
4945.2767442947
 10
7998.5808786751
 20
4944.8845836695
 10
7997.4599335685
 20
4944.5453292651
 10
7996.0909576562
 20
4944.2738081269
 10
7994.5337817544
 20
4944.0818870316
 10
7992.8564619224
 20
4943.977953852
 10
7991.1323050854
 20
4943.9665509667
 10
7989.4366651706
 20
4944.0481767365
 10
7987.8436497789
 20
4944.2192637237
 10
7986.422881327
 20
4944.4723346059
 10
7985.2364542139
 20
4944.7963289712
  0
LINE
  5
2BC
330
1F
100
AcDbEntity
  8
0
  6
Continuous
 62
     7
370
    25
100
AcDbLine
 10
8000.5275315856
 20
4946.1873729844
 30
0.0
 11
8000.7893427381
 21
4946.1784083795
 31
0.0
  0
ARC
  5
2BD
330
1F
100
AcDbEntity
  8
0
  6
Continuous
 62
     7
370
    25
100
AcDbCircle
 10
7999.5441856377
 20
4946.2390874934
 30
0.0
 40
1.011320879487605
100
AcDbArc
 50
305.6817763792
 51
346.4922228007
  0
LINE
  5
2BE
330
1F
100
AcDbEntity
  8
0
  6
Continuous
 62
     7
370
    25
100
AcDbLine
 10
7998.5273320125
 20
4944.4561450965
 30
0.0
 11
7998.2188846467
 21
4944.5603206191
 31
0.0
  0
ARC
  5
2BF
330
1F
100
AcDbEntity
  8
0
  6
Continuous
 62
     7
370
    25
100
AcDbCircle
 10
7993.5868603385
 20
4961.6753745471
 30
0.0
 40
17.73078453282665
100
AcDbArc
 50
277.2930101398
 51
285.1437664243
  0
ARC
  5
2C0
330
1F
100
AcDbEntity
  8
0
  6
Continuous
 62
     7
370
    25
100
AcDbCircle
 10
7991.7730243586
 20
4976.5587365667
 30
0.0
 40
32.72847533089003
100
AcDbArc
 50
265.4332158269
 51
270.6446179146
  0
LINE
  5
2C1
330
1F
100
AcDbEntity
  8
0
  6
Continuous
 62
     7
370
    25
100
AcDbLine
 10
7989.1671486992
 20
4943.9341674579
 30
0.0
 11
7989.1006411025
 21
4943.8040544536
 31
0.0
  0
ARC
  5
2C2
330
1F
100
AcDbEntity
  8
0
  6
Continuous
 62
     7
370
    25
100
AcDbCircle
 10
7987.7523278312
 20
4953.057766813
 30
0.0
 40
8.834111884812144
100
AcDbArc
 50
245.0796807339
 51
257.5963840453
  0
LINE
  5
2C3
330
1F
100
AcDbEntity
  8
0
  6
Continuous
 62
     7
370
    25
100
AcDbLine
 10
7983.6275055815
 20
4944.9663260259
 30
0.0
 11
7984.0300088927
 21
4945.0461580786
 31
0.0
  0
LWPOLYLINE
  5
2C4
330
1F
100
AcDbEntity
  8
0
  6
Continuous
 62
     7
370
    25
100
AcDbPolyline
 90
        3
 70
   128
 43
0.0
 10
7984.2847945872
 20
4946.1715018411
 10
7983.7615261893
 20
4946.5638927116
 10
7983.7485983979
 20
4946.5780823271
  0
LINE
  5
2C5
330
1F
100
AcDbEntity
  8
0
  6
Continuous
 62
     7
370
    25
100
AcDbLine
 10
7999.4045117237
 20
4946.2424889065
 30
0.0
 11
7999.2847945872
 21
4946.1715018411
 31
0.0
  0
LINE
  5
2C6
330
1F
100
AcDbEntity
  8
0
  6
Continuous
 62
     7
370
    25
100
AcDbLine
 10
7994.4024404752
 20
4947.2901455435
 30
0.0
 11
7994.468948072
 21
4947.4202585478
 31
0.0
  0
ARC
  5
2C7
330
1F
100
AcDbEntity
  8
0
  6
Continuous
 62
     7
370
    25
100
AcDbCircle
 10
7991.7965648159
 20
4914.6655764346
 30
0.0
 40
32.728475331119
100
AcDbArc
 50
85.4332158269
 51
90.6446179145
  0
LINE
  5
2C8
330
1F
100
AcDbEntity
  8
0
  6
Continuous
 62
     7
370
    25
100
AcDbLine
 10
7991.428354162
 20
4947.3919804291
 30
0.0
 11
7991.4948617587
 21
4947.5220934334
 31
0.0
  0
LWPOLYLINE
  5
2C9
330
1F
100
AcDbEntity
  8
0
  6
Continuous
 62
     7
370
    25
100
AcDbPolyline
 90
        7
 70
   128
 43
0.0
 10
7985.8317578842
 20
4944.9144008296
 10
7984.9902529706
 20
4945.2732230736
 10
7984.4664532713
 20
4945.6704762769
 10
7984.2848510783
 20
4946.0875853214
 10
7984.4539379081
 20
4946.5050466517
 10
7984.9658074486
 20
4946.9033402399
 10
7985.042257162
 20
4946.9452203709
  0
LWPOLYLINE
  5
2CA
330
1F
100
AcDbEntity
  8
0
  6
Continuous
 62
     7
370
    25
100
AcDbPolyline
 90
       14
 70
   128
 43
0.0
 10
7999.2358615172
 20
4946.3164969531
 10
7999.2376258156
 20
4946.3124822187
 10
7999.2439203963
 20
4945.8927364637
 10
7998.9014345444
 20
4945.4824539105
 10
7998.2261825177
 20
4945.1008189154
 10
7997.2497383504
 20
4944.7656763064
 10
7996.0177594866
 20
4944.4926969796
 10
7994.5878518888
 20
4944.2946451449
 10
7993.0268764468
 20
4944.1807814859
 10
7991.4078226376
 20
4944.1564301408
 10
7989.8063956178
 20
4944.2227297514
 10
7988.297476335
 20
4944.3765802216
 10
7986.9516201777
 20
4944.6107876744
 10
7985.8317578842
 20
4944.9144008296
  0
LINE
  5
2CB
330
1F
100
AcDbEntity
  8
0
  6
Continuous
 62
     7
370
    25
100
AcDbLine
 10
7991.428354162
 20
4947.6833661583
 30
0.0
 11
7991.428354162
 21
4947.3919804291
 31
0.0
  0
LINE
  5
2CC
330
1F
100
AcDbEntity
  8
0
  6
Continuous
 62
     7
370
    25
100
AcDbLine
 10
7987.4234718432
 20
4947.2404553387
 30
0.0
 11
7987.731919209
 21
4947.136279816
 31
0.0
  0
ARC
  5
2CD
330
1F
100
AcDbEntity
  8
0
  6
Continuous
 62
     7
370
    25
100
AcDbCircle
 10
7989.9827288361
 20
4929.5489384539
 30
0.0
 40
17.73078453325519
100
AcDbArc
 50
97.2930101399
 51
105.1437664242
  0
LINE
  5
2CE
330
1F
100
AcDbEntity
  8
0
  6
Continuous
 62
     7
370
    25
100
AcDbLine
 10
7985.042257162
 20
4946.7681679049
 30
0.0
 11
7985.3507045278
 21
4946.6639923823
 31
0.0
  0
LINE
  5
2CF
330
1F
100
AcDbEntity
  8
0
  6
Continuous
 62
     7
370
    25
100
AcDbLine
 10
7987.731919209
 20
4947.4598562313
 30
0.0
 11
7987.731919209
 21
4947.136279816
 31
0.0
  0
LINE
  5
2D0
330
1F
100
AcDbEntity
  8
0
  6
Continuous
 62
     7
370
    25
100
AcDbLine
 10
7998.1173050743
 20
4946.8742906856
 30
0.0
 11
7997.7148017632
 21
4946.7944586329
 31
0.0
  0
LINE
  5
2D1
330
1F
100
AcDbEntity
  8
0
  6
Continuous
 62
     7
370
    25
100
AcDbLine
 10
7999.9420835929
 20
4946.2579869756
 30
0.0
 11
7999.5395802818
 21
4946.1781549229
 31
0.0
  0
ARC
  5
2D2
330
1F
100
AcDbEntity
  8
0
  6
Continuous
 62
     7
370
    25
100
AcDbCircle
 10
7995.8172613434
 20
4938.1665461887
 30
0.0
 40
8.834111884582006
100
AcDbArc
 50
65.0796807337
 51
77.5963840455
  0
LINE
  5
2D3
330
1F
100
AcDbEntity
  8
0
  6
Continuous
 62
     7
370
    25
100
AcDbLine
 10
7997.7148017632
 20
4947.1728914375
 30
0.0
 11
7997.7148017632
 21
4946.7944586329
 31
0.0
  0
LINE
  5
2D4
330
1F
100
AcDbEntity
  8
0
  6
Continuous
 62
     7
370
    25
100
AcDbLine
 10
7983.4355173727
 20
4946.4939627571
 30
0.0
 11
7983.4355173727
 21
4945.8066901967
 31
0.0
  0
LINE
  5
2D5
330
1F
100
AcDbEntity
  8
0
  6
Continuous
 62
     7
370
    25
100
AcDbLine
 10
7983.4355173727
 20
4945.8066901967
 30
0.0
 11
7982.9327993279
 21
4945.8239036294
 31
0.0
  0
ARC
  5
2D6
330
1F
100
AcDbEntity
  8
0
  6
Continuous
 62
     7
370
    25
100
AcDbCircle
 10
7983.9002302854
 20
4945.0837169163
 30
0.0
 40
0.8594465983337932
100
AcDbArc
 50
122.732106952
 51
183.1199656665
  0
LINE
  5
2D7
330
1F
100
AcDbEntity
  8
0
  6
Continuous
 62
     7
370
    25
100
AcDbLine
 10
7983.0420575888
 20
4945.0369400171
 30
0.0
 11
7982.5393395441
 21
4945.0541534498
 31
0.0
  0
LINE
  5
2D8
330
1F
100
AcDbEntity
  8
0
  6
Continuous
 62
     7
370
    25
100
AcDbLine
 10
7983.0420575888
 20
4945.2214471581
 30
0.0
 11
7983.0420575888
 21
4945.0369400171
 31
0.0
  0
LINE
  5
2D9
330
1F
100
AcDbEntity
  8
0
  6
Continuous
 62
     7
370
    25
100
AcDbLine
 10
8000.5275315856
 20
4946.1873729844
 30
0.0
 11
8000.5275315856
 21
4945.2214471581
 31
0.0
  0
LINE
  5
2DA
330
1F
100
AcDbEntity
  8
0
  6
Continuous
 62
     7
370
    25
100
AcDbLine
 10
8000.5275315856
 20
4945.2214471581
 30
0.0
 11
8001.0302496304
 21
4945.2042337254
 31
0.0
  0
ARC
  5
2DB
330
1F
100
AcDbEntity
  8
0
  6
Continuous
 62
     7
370
    25
100
AcDbCircle
 10
7999.6693588891
 20
4945.1746702588
 30
0.0
 40
0.8594465983352686
100
AcDbArc
 50
302.7321069522
 51
3.1199656664
  0
LINE
  5
2DC
330
1F
100
AcDbEntity
  8
0
  6
Continuous
 62
     7
370
    25
100
AcDbLine
 10
8000.1340718018
 20
4944.4516969784
 30
0.0
 11
8000.6367898465
 21
4944.4344835458
 31
0.0
  0
LINE
  5
2DD
330
1F
100
AcDbEntity
  8
0
  6
Continuous
 62
     7
370
    25
100
AcDbLine
 10
8000.1340718018
 20
4945.4176228047
 30
0.0
 11
8000.1340718018
 21
4944.4516969784
 31
0.0
  0
LINE
  5
2DE
330
1F
100
AcDbEntity
  8
0
  6
Continuous
 62
     7
370
    25
100
AcDbLine
 10
7984.0300088927
 20
4945.0461580786
 30
0.0
 11
7984.0300088927
 21
4944.0802322523
 31
0.0
  0
LINE
  5
2DF
330
1F
100
AcDbEntity
  8
0
  6
Continuous
 62
     7
370
    25
100
AcDbLine
 10
7983.6275055815
 20
4944.0004001996
 30
0.0
 11
7984.0300088927
 21
4944.0802322523
 31
0.0
  0
ARC
  5
2E0
330
1F
100
AcDbEntity
  8
0
  6
Continuous
 62
     7
370
    25
100
AcDbCircle
 10
7987.7523278311
 20
4952.0918409866
 30
0.0
 40
8.834111884681574
100
AcDbArc
 50
245.0796807338
 51
257.5963840454
  0
LINE
  5
2E1
330
1F
100
AcDbEntity
  8
0
  6
Continuous
 62
     7
370
    25
100
AcDbLine
 10
7985.8547874113
 20
4944.4298543686
 30
0.0
 11
7985.8547874113
 21
4943.4639285423
 31
0.0
  0
LINE
  5
2E2
330
1F
100
AcDbEntity
  8
0
  6
Continuous
 62
     7
370
    25
100
AcDbLine
 10
7985.4522841002
 20
4943.3840964896
 30
0.0
 11
7985.8547874113
 21
4943.4639285423
 31
0.0
  0
LINE
  5
2E3
330
1F
100
AcDbEntity
  8
0
  6
Continuous
 62
     7
370
    25
100
AcDbLine
 10
7998.2188846467
 20
4944.5603206191
 30
0.0
 11
7998.2188846467
 21
4943.5943947929
 31
0.0
  0
LINE
  5
2E4
330
1F
100
AcDbEntity
  8
0
  6
Continuous
 62
     7
370
    25
100
AcDbLine
 10
7998.5273320125
 20
4943.4902192702
 30
0.0
 11
7998.2188846467
 21
4943.5943947929
 31
0.0
  0
ARC
  5
2E5
330
1F
100
AcDbEntity
  8
0
  6
Continuous
 62
     7
370
    25
100
AcDbCircle
 10
7993.5868603384
 20
4960.7094487213
 30
0.0
 40
17.73078453325431
100
AcDbArc
 50
277.29301014
 51
285.1437664242
  0
LINE
  5
2E6
330
1F
100
AcDbEntity
  8
0
  6
Continuous
 62
     7
370
    25
100
AcDbLine
 10
7995.8376699655
 20
4944.0880331854
 30
0.0
 11
7995.8376699655
 21
4943.1221073591
 31
0.0
  0
LINE
  5
2E7
330
1F
100
AcDbEntity
  8
0
  6
Continuous
 62
     7
370
    25
100
AcDbLine
 10
7996.1461173313
 20
4943.0179318365
 30
0.0
 11
7995.8376699655
 21
4943.1221073591
 31
0.0
  0
LINE
  5
2E8
330
1F
100
AcDbEntity
  8
0
  6
Continuous
 62
     7
370
    25
100
AcDbLine
 10
7989.1671486992
 20
4943.9341674579
 30
0.0
 11
7989.1671486992
 21
4942.9682416316
 31
0.0
  0
LINE
  5
2E9
330
1F
100
AcDbEntity
  8
0
  6
Continuous
 62
     7
370
    25
100
AcDbLine
 10
7992.1412350125
 20
4943.8323325724
 30
0.0
 11
7992.1412350125
 21
4942.8664067461
 31
0.0
  0
ARC
  5
2EA
330
1F
100
AcDbEntity
  8
0
  6
Continuous
 62
     7
370
    25
100
AcDbCircle
 10
7991.7730243586
 20
4975.5928107401
 30
0.0
 40
32.72847533055099
100
AcDbArc
 50
265.4332158269
 51
270.6446179146
  0
LINE
  5
2EB
330
1F
100
AcDbEntity
  8
0
  6
Continuous
 62
     7
370
    25
100
AcDbLine
 10
7989.1671486992
 20
4942.9682416316
 30
0.0
 11
7989.1006411025
 21
4942.8381286273
 31
0.0
  0
LINE
  5
2EC
330
1F
100
AcDbEntity
  8
0
  6
Continuous
 62
     7
370
    25
100
AcDbLine
 10
7992.1412350125
 20
4942.8664067461
 30
0.0
 11
7992.0747274157
 21
4942.7362937418
 31
0.0
  0
ARC
  5
2ED
330
1F
100
AcDbEntity
  8
0
  6
Continuous
 62
     7
370
    25
100
AcDbCircle
 10
7391.8944074599
 20
4976.0340651923
 30
0.0
 40
32.33234845718507
100
AcDbArc
 50
270.3195445578
 51
277.00524986
  0
ARC
  5
2EE
330
1F
100
AcDbEntity
  8
0
  6
Continuous
 62
     7
370
    25
100
AcDbCircle
 10
7393.6937710579
 20
4961.6213959804
 30
0.0
 40
18.76440461082109
100
AcDbArc
 50
277.5095473836
 51
284.9272291805
  0
LINE
  5
2EF
330
1F
100
AcDbEntity
  8
0
  6
Continuous
 62
     7
370
    25
100
AcDbLine
 10
7398.5273320125
 20
4944.4561450965
 30
0.0
 11
7398.5273320125
 21
4943.4902192702
 31
0.0
  0
ARC
  5
2F0
330
1F
100
AcDbEntity
  8
0
  6
Continuous
 62
     7
370
    25
100
AcDbCircle
 10
7396.6522352254
 20
4951.8329208102
 30
0.0
 40
7.611360449418465
100
AcDbArc
 50
284.2619248086
 51
297.2228497749
  0
ARC
  5
2F1
330
1F
100
AcDbEntity
  8
0
  6
Continuous
 62
     7
370
    25
100
AcDbCircle
 10
7400.1276943546
 20
4945.1801430957
 30
0.0
 40
0.9028767270904905
100
AcDbArc
 50
304.3231205498
 51
1.5289520685
  0
LINE
  5
2F2
330
1F
100
AcDbEntity
  8
0
  6
Continuous
 62
     7
370
    25
100
AcDbLine
 10
7401.0302496304
 20
4945.8079373668
 30
0.0
 11
7401.0302496304
 21
4945.2042337254
 31
0.0
  0
LINE
  5
2F3
330
1F
100
AcDbEntity
  8
0
  6
Continuous
 62
     7
370
    25
100
AcDbLine
 10
7399.9420835929
 20
4946.5696386787
 30
0.0
 11
7399.9420835929
 21
4946.2579869756
 31
0.0
  0
ARC
  5
2F4
330
1F
100
AcDbEntity
  8
0
  6
Continuous
 62
     7
370
    25
100
AcDbCircle
 10
7396.0532906622
 20
4937.7534748885
 30
0.0
 40
9.351440332784167
100
AcDbArc
 50
65.427167351
 51
77.2488974281
  0
LINE
  5
2F5
330
1F
100
AcDbEntity
  8
0
  6
Continuous
 62
     7
370
    25
100
AcDbLine
 10
7398.1173050743
 20
4947.0903339265
 30
0.0
 11
7398.1173050743
 21
4946.8742906856
 31
0.0
  0
LINE
  5
2F6
330
1F
100
AcDbEntity
  8
0
  6
Continuous
 62
     7
370
    25
100
AcDbLine
 10
7394.468948072
 20
4947.588804573
 30
0.0
 11
7394.468948072
 21
4947.4202585478
 31
0.0
  0
ARC
  5
2F7
330
1F
100
AcDbEntity
  8
0
  6
Continuous
 62
     7
370
    25
100
AcDbCircle
 10
7391.7979812903
 20
4912.8947041822
 30
0.0
 40
34.62871594215359
100
AcDbArc
 50
85.5762935841
 51
90.5015401573
  0
LINE
  5
2F8
330
1F
100
AcDbEntity
  8
0
  6
Continuous
 62
     7
370
    25
100
AcDbLine
 10
7391.4948617587
 20
4947.6839298205
 30
0.0
 11
7391.4948617587
 21
4947.5220934334
 31
0.0
  0
LINE
  5
2F9
330
1F
100
AcDbEntity
  8
0
  6
Continuous
 62
     7
370
    25
100
AcDbLine
 10
7387.4234718432
 20
4947.4222556734
 30
0.0
 11
7387.4234718432
 21
4947.2404553387
 31
0.0
  0
ARC
  5
2FA
330
1F
100
AcDbEntity
  8
0
  6
Continuous
 62
     7
370
    25
100
AcDbCircle
 10
7389.8758181165
 20
4928.6369911949
 30
0.0
 40
18.76440461061152
100
AcDbArc
 50
97.5095473836
 51
104.9272291806
  0
LINE
  5
2FB
330
1F
100
AcDbEntity
  8
0
  6
Continuous
 62
     7
370
    25
100
AcDbLine
 10
7385.042257162
 20
4946.9965297546
 30
0.0
 11
7385.042257162
 21
4946.7681679049
 31
0.0
  0
LINE
  5
2FC
330
1F
100
AcDbEntity
  8
0
  6
Continuous
 62
     7
370
    25
100
AcDbLine
 10
7382.9327993279
 20
4946.2620349666
 30
0.0
 11
7382.9327993279
 21
4945.8239036294
 31
0.0
  0
ARC
  5
2FD
330
1F
100
AcDbEntity
  8
0
  6
Continuous
 62
     7
370
    25
100
AcDbCircle
 10
7383.4418948199
 20
4945.0782440795
 30
0.0
 40
0.9028767270910512
100
AcDbArc
 50
124.3231205499
 51
181.5289520686
  0
ARC
  5
2FE
330
1F
100
AcDbEntity
  8
0
  6
Continuous
 62
     7
370
    25
100
AcDbCircle
 10
7385.1524371357
 20
4948.2102637351
 30
0.0
 40
3.584487146878284
100
AcDbArc
 50
234.2803054451
 51
244.8224129105
  0
LINE
  5
2FF
330
1F
100
AcDbEntity
  8
0
  6
Continuous
 62
     7
370
    25
100
AcDbLine
 10
7383.6275055815
 20
4944.9663260259
 30
0.0
 11
7383.6275055815
 21
4944.0004001996
 31
0.0
  0
ARC
  5
300
330
1F
100
AcDbEntity
  8
0
  6
Continuous
 62
     7
370
    25
100
AcDbCircle
 10
7387.5162985123
 20
4952.5049122868
 30
0.0
 40
9.351440332850169
100
AcDbArc
 50
245.427167351
 51
257.248897428
  0
ARC
  5
301
330
1F
100
AcDbEntity
  8
0
  6
Continuous
 62
     7
370
    25
100
AcDbCircle
 10
7390.8449940254
 20
4968.1222396975
 30
0.0
 40
24.38066653468395
100
AcDbArc
 50
258.1893005351
 51
265.8971784142
  0
LINE
  5
302
330
1F
100
AcDbEntity
  8
0
  6
Continuous
 62
     7
370
    25
100
AcDbLine
 10
7389.1006411025
 20
4943.8040544536
 30
0.0
 11
7389.1006411025
 21
4942.8381286273
 31
0.0
  0
ARC
  5
303
330
1F
100
AcDbEntity
  8
0
  6
Continuous
 62
     7
370
    25
100
AcDbCircle
 10
7391.7716078842
 20
4977.3636829929
 30
0.0
 40
34.6287159421254
100
AcDbArc
 50
265.5762935841
 51
270.5015401573
  0
LWPOLYLINE
  5
304
330
1F
100
AcDbEntity
  8
0
  6
Continuous
 62
     7
370
    25
100
AcDbPolyline
 90
        6
 70
   128
 43
0.0
 10
7385.2364542139
 20
4944.7963289712
 10
7384.3362209975
 20
4945.1770867111
 10
7383.7615261893
 20
4945.5979668853
 10
7383.5374867099
 20
4946.0405750107
 10
7383.6738941598
 20
4946.4855669881
 10
7383.8300608791
 20
4946.6612597715
  0
LWPOLYLINE
  5
305
330
1F
100
AcDbEntity
  8
0
  6
Continuous
 62
     7
370
    25
100
AcDbPolyline
 90
        6
 70
   128
 43
0.0
 10
7399.9420835929
 20
4946.4143321892
 10
7400.0321024645
 20
4946.1496638171
 10
7399.8956950147
 20
4945.7046718396
 10
7399.4048022957
 20
4945.2767442947
 10
7398.5808786751
 20
4944.8845836695
 10
7398.2275664225
 20
4944.7614303472
  0
LINE
  5
306
330
1F
100
AcDbEntity
  8
0
  6
Continuous
 62
     7
370
    25
100
AcDbLine
 10
7385.5587211473
 20
4944.6941811599
 30
0.0
 11
7385.2364542139
 21
4944.7963289712
 31
0.0
  0
LINE
  5
307
330
1F
100
AcDbEntity
  8
0
  6
Continuous
 62
     7
370
    25
100
AcDbLine
 10
7400.5275315856
 20
4946.1873729844
 30
0.0
 11
7400.7893427381
 21
4946.1784083795
 31
0.0
  0
ARC
  5
308
330
1F
100
AcDbEntity
  8
0
  6
Continuous
 62
     7
370
    25
100
AcDbCircle
 10
7399.5441856377
 20
4946.2390874934
 30
0.0
 40
1.011320879468983
100
AcDbArc
 50
305.6817763789
 51
346.4922228012
  0
LINE
  5
309
330
1F
100
AcDbEntity
  8
0
  6
Continuous
 62
     7
370
    25
100
AcDbLine
 10
7398.5273320125
 20
4944.4561450965
 30
0.0
 11
7398.2188846467
 21
4944.5603206191
 31
0.0
  0
ARC
  5
30A
330
1F
100
AcDbEntity
  8
0
  6
Continuous
 62
     7
370
    25
100
AcDbCircle
 10
7393.5868603385
 20
4961.6753745471
 30
0.0
 40
17.73078453276031
100
AcDbArc
 50
277.2930101398
 51
285.1437664244
  0
ARC
  5
30B
330
1F
100
AcDbEntity
  8
0
  6
Continuous
 62
     7
370
    25
100
AcDbCircle
 10
7391.7730243586
 20
4976.5587365667
 30
0.0
 40
32.72847533088095
100
AcDbArc
 50
265.4332158269
 51
270.6446179146
  0
LINE
  5
30C
330
1F
100
AcDbEntity
  8
0
  6
Continuous
 62
     7
370
    25
100
AcDbLine
 10
7389.1671486992
 20
4943.9341674579
 30
0.0
 11
7389.1006411025
 21
4943.8040544536
 31
0.0
  0
ARC
  5
30D
330
1F
100
AcDbEntity
  8
0
  6
Continuous
 62
     7
370
    25
100
AcDbCircle
 10
7387.7523278312
 20
4953.057766813
 30
0.0
 40
8.834111884812293
100
AcDbArc
 50
245.0796807339
 51
257.5963840453
  0
LINE
  5
30E
330
1F
100
AcDbEntity
  8
0
  6
Continuous
 62
     7
370
    25
100
AcDbLine
 10
7383.6275055815
 20
4944.9663260259
 30
0.0
 11
7384.0300088927
 21
4945.0461580786
 31
0.0
  0
LWPOLYLINE
  5
30F
330
1F
100
AcDbEntity
  8
0
  6
Continuous
 62
     7
370
    25
100
AcDbPolyline
 90
        3
 70
   128
 43
0.0
 10
7384.2847945872
 20
4946.1715018411
 10
7383.7615261893
 20
4946.5638927116
 10
7383.748598398
 20
4946.578082327
  0
LINE
  5
310
330
1F
100
AcDbEntity
  8
0
  6
Continuous
 62
     7
370
    25
100
AcDbLine
 10
7399.4045117179
 20
4946.2424889029
 30
0.0
 11
7399.2847945872
 21
4946.1715018411
 31
0.0
  0
LINE
  5
311
330
1F
100
AcDbEntity
  8
0
  6
Continuous
 62
     7
370
    25
100
AcDbLine
 10
7394.4024404752
 20
4947.2901455435
 30
0.0
 11
7394.468948072
 21
4947.4202585478
 31
0.0
  0
ARC
  5
312
330
1F
100
AcDbEntity
  8
0
  6
Continuous
 62
     7
370
    25
100
AcDbCircle
 10
7391.7965648159
 20
4914.6655764345
 30
0.0
 40
32.7284753311281
100
AcDbArc
 50
85.4332158269
 51
90.6446179145
  0
LINE
  5
313
330
1F
100
AcDbEntity
  8
0
  6
Continuous
 62
     7
370
    25
100
AcDbLine
 10
7391.428354162
 20
4947.3919804291
 30
0.0
 11
7391.4948617587
 21
4947.5220934334
 31
0.0
  0
LWPOLYLINE
  5
314
330
1F
100
AcDbEntity
  8
0
  6
Continuous
 62
     7
370
    25
100
AcDbPolyline
 90
        7
 70
   128
 43
0.0
 10
7385.8317578842
 20
4944.9144008296
 10
7384.9902529706
 20
4945.2732230736
 10
7384.4664532713
 20
4945.6704762769
 10
7384.2848510783
 20
4946.0875853214
 10
7384.4539379081
 20
4946.5050466517
 10
7384.9658074486
 20
4946.9033402399
 10
7385.042257162
 20
4946.9452203709
  0
LWPOLYLINE
  5
315
330
1F
100
AcDbEntity
  8
0
  6
Continuous
 62
     7
370
    25
100
AcDbPolyline
 90
       14
 70
   128
 43
0.0
 10
7399.2358619106
 20
4946.316496066
 10
7399.2376258156
 20
4946.3124822187
 10
7399.2439203963
 20
4945.8927364637
 10
7398.9014345444
 20
4945.4824539105
 10
7398.2261825177
 20
4945.1008189154
 10
7397.2497383504
 20
4944.7656763064
 10
7396.0177594866
 20
4944.4926969796
 10
7394.5878518888
 20
4944.2946451449
 10
7393.0268764468
 20
4944.1807814859
 10
7391.4078226376
 20
4944.1564301408
 10
7389.8063956178
 20
4944.2227297514
 10
7388.297476335
 20
4944.3765802216
 10
7386.9516201777
 20
4944.6107876744
 10
7385.8317578842
 20
4944.9144008296
  0
LINE
  5
316
330
1F
100
AcDbEntity
  8
0
  6
Continuous
 62
     7
370
    25
100
AcDbLine
 10
7391.428354162
 20
4947.6833661583
 30
0.0
 11
7391.428354162
 21
4947.3919804291
 31
0.0
  0
LINE
  5
317
330
1F
100
AcDbEntity
  8
0
  6
Continuous
 62
     7
370
    25
100
AcDbLine
 10
7387.4234718432
 20
4947.2404553387
 30
0.0
 11
7387.731919209
 21
4947.136279816
 31
0.0
  0
ARC
  5
318
330
1F
100
AcDbEntity
  8
0
  6
Continuous
 62
     7
370
    25
100
AcDbCircle
 10
7389.982728836
 20
4929.5489384541
 30
0.0
 40
17.73078453304125
100
AcDbArc
 50
97.2930101399
 51
105.1437664243
  0
LINE
  5
319
330
1F
100
AcDbEntity
  8
0
  6
Continuous
 62
     7
370
    25
100
AcDbLine
 10
7385.042257162
 20
4946.7681679049
 30
0.0
 11
7385.3507045278
 21
4946.6639923823
 31
0.0
  0
LINE
  5
31A
330
1F
100
AcDbEntity
  8
0
  6
Continuous
 62
     7
370
    25
100
AcDbLine
 10
7387.731919209
 20
4947.4598562313
 30
0.0
 11
7387.731919209
 21
4947.136279816
 31
0.0
  0
LINE
  5
31B
330
1F
100
AcDbEntity
  8
0
  6
Continuous
 62
     7
370
    25
100
AcDbLine
 10
7398.1173050743
 20
4946.8742906856
 30
0.0
 11
7397.7148017632
 21
4946.7944586329
 31
0.0
  0
LINE
  5
31C
330
1F
100
AcDbEntity
  8
0
  6
Continuous
 62
     7
370
    25
100
AcDbLine
 10
7399.9420835929
 20
4946.2579869756
 30
0.0
 11
7399.5395802818
 21
4946.1781549229
 31
0.0
  0
ARC
  5
31D
330
1F
100
AcDbEntity
  8
0
  6
Continuous
 62
     7
370
    25
100
AcDbCircle
 10
7395.8172613434
 20
4938.1665461887
 30
0.0
 40
8.834111884586145
100
AcDbArc
 50
65.0796807337
 51
77.5963840454
  0
LINE
  5
31E
330
1F
100
AcDbEntity
  8
0
  6
Continuous
 62
     7
370
    25
100
AcDbLine
 10
7397.7148017632
 20
4947.1728914375
 30
0.0
 11
7397.7148017632
 21
4946.7944586329
 31
0.0
  0
LINE
  5
31F
330
1F
100
AcDbEntity
  8
0
  6
Continuous
 62
     7
370
    25
100
AcDbLine
 10
7383.4355173727
 20
4946.4939627571
 30
0.0
 11
7383.4355173727
 21
4945.8066901967
 31
0.0
  0
LINE
  5
320
330
1F
100
AcDbEntity
  8
0
  6
Continuous
 62
     7
370
    25
100
AcDbLine
 10
7383.4355173727
 20
4945.8066901967
 30
0.0
 11
7382.9327993279
 21
4945.8239036294
 31
0.0
  0
ARC
  5
321
330
1F
100
AcDbEntity
  8
0
  6
Continuous
 62
     7
370
    25
100
AcDbCircle
 10
7383.9002302854
 20
4945.0837169163
 30
0.0
 40
0.859446598339039
100
AcDbArc
 50
122.7321069522
 51
183.1199656663
  0
LINE
  5
322
330
1F
100
AcDbEntity
  8
0
  6
Continuous
 62
     7
370
    25
100
AcDbLine
 10
7383.0420575888
 20
4945.0369400171
 30
0.0
 11
7382.5393395441
 21
4945.0541534498
 31
0.0
  0
LINE
  5
323
330
1F
100
AcDbEntity
  8
0
  6
Continuous
 62
     7
370
    25
100
AcDbLine
 10
7383.0420575888
 20
4945.2214471581
 30
0.0
 11
7383.0420575888
 21
4945.0369400171
 31
0.0
  0
LINE
  5
324
330
1F
100
AcDbEntity
  8
0
  6
Continuous
 62
     7
370
    25
100
AcDbLine
 10
7400.5275315856
 20
4946.1873729844
 30
0.0
 11
7400.5275315856
 21
4945.2214471581
 31
0.0
  0
LINE
  5
325
330
1F
100
AcDbEntity
  8
0
  6
Continuous
 62
     7
370
    25
100
AcDbLine
 10
7400.5275315856
 20
4945.2214471581
 30
0.0
 11
7401.0302496304
 21
4945.2042337254
 31
0.0
  0
ARC
  5
326
330
1F
100
AcDbEntity
  8
0
  6
Continuous
 62
     7
370
    25
100
AcDbCircle
 10
7399.6693588891
 20
4945.1746702588
 30
0.0
 40
0.8594465983356194
100
AcDbArc
 50
302.7321069523
 51
3.1199656665
  0
LINE
  5
327
330
1F
100
AcDbEntity
  8
0
  6
Continuous
 62
     7
370
    25
100
AcDbLine
 10
7400.1340718018
 20
4944.4516969784
 30
0.0
 11
7400.6367898465
 21
4944.4344835458
 31
0.0
  0
LINE
  5
328
330
1F
100
AcDbEntity
  8
0
  6
Continuous
 62
     7
370
    25
100
AcDbLine
 10
7400.1340718018
 20
4945.4176228047
 30
0.0
 11
7400.1340718018
 21
4944.4516969784
 31
0.0
  0
LINE
  5
329
330
1F
100
AcDbEntity
  8
0
  6
Continuous
 62
     7
370
    25
100
AcDbLine
 10
7384.0300088927
 20
4945.0461580786
 30
0.0
 11
7384.0300088927
 21
4944.0802322523
 31
0.0
  0
LINE
  5
32A
330
1F
100
AcDbEntity
  8
0
  6
Continuous
 62
     7
370
    25
100
AcDbLine
 10
7383.6275055815
 20
4944.0004001996
 30
0.0
 11
7384.0300088927
 21
4944.0802322523
 31
0.0
  0
ARC
  5
32B
330
1F
100
AcDbEntity
  8
0
  6
Continuous
 62
     7
370
    25
100
AcDbCircle
 10
7387.7523278311
 20
4952.0918409866
 30
0.0
 40
8.834111884741528
100
AcDbArc
 50
245.0796807338
 51
257.5963840453
  0
LINE
  5
32C
330
1F
100
AcDbEntity
  8
0
  6
Continuous
 62
     7
370
    25
100
AcDbLine
 10
7385.8547874113
 20
4944.4298543686
 30
0.0
 11
7385.8547874113
 21
4943.4639285423
 31
0.0
  0
LINE
  5
32D
330
1F
100
AcDbEntity
  8
0
  6
Continuous
 62
     7
370
    25
100
AcDbLine
 10
7385.4522841002
 20
4943.3840964896
 30
0.0
 11
7385.8547874113
 21
4943.4639285423
 31
0.0
  0
LINE
  5
32E
330
1F
100
AcDbEntity
  8
0
  6
Continuous
 62
     7
370
    25
100
AcDbLine
 10
7398.2188846467
 20
4944.5603206191
 30
0.0
 11
7398.2188846467
 21
4943.5943947929
 31
0.0
  0
LINE
  5
32F
330
1F
100
AcDbEntity
  8
0
  6
Continuous
 62
     7
370
    25
100
AcDbLine
 10
7398.5273320125
 20
4943.4902192702
 30
0.0
 11
7398.2188846467
 21
4943.5943947929
 31
0.0
  0
ARC
  5
330
330
1F
100
AcDbEntity
  8
0
  6
Continuous
 62
     7
370
    25
100
AcDbCircle
 10
7393.5868603384
 20
4960.7094487213
 30
0.0
 40
17.73078453326185
100
AcDbArc
 50
277.29301014
 51
285.1437664242
  0
LINE
  5
331
330
1F
100
AcDbEntity
  8
0
  6
Continuous
 62
     7
370
    25
100
AcDbLine
 10
7395.8376699655
 20
4944.0880331854
 30
0.0
 11
7395.8376699655
 21
4943.1221073591
 31
0.0
  0
LINE
  5
332
330
1F
100
AcDbEntity
  8
0
  6
Continuous
 62
     7
370
    25
100
AcDbLine
 10
7396.1461173313
 20
4943.0179318365
 30
0.0
 11
7395.8376699655
 21
4943.1221073591
 31
0.0
  0
LINE
  5
333
330
1F
100
AcDbEntity
  8
0
  6
Continuous
 62
     7
370
    25
100
AcDbLine
 10
7389.1671486992
 20
4943.9341674579
 30
0.0
 11
7389.1671486992
 21
4942.9682416316
 31
0.0
  0
LINE
  5
334
330
1F
100
AcDbEntity
  8
0
  6
Continuous
 62
     7
370
    25
100
AcDbLine
 10
7392.1412350125
 20
4943.8323325724
 30
0.0
 11
7392.1412350125
 21
4942.8664067461
 31
0.0
  0
ARC
  5
335
330
1F
100
AcDbEntity
  8
0
  6
Continuous
 62
     7
370
    25
100
AcDbCircle
 10
7391.7730243586
 20
4975.5928107401
 30
0.0
 40
32.72847533056995
100
AcDbArc
 50
265.4332158269
 51
270.6446179146
  0
LINE
  5
336
330
1F
100
AcDbEntity
  8
0
  6
Continuous
 62
     7
370
    25
100
AcDbLine
 10
7389.1671486992
 20
4942.9682416316
 30
0.0
 11
7389.1006411025
 21
4942.8381286273
 31
0.0
  0
LINE
  5
337
330
1F
100
AcDbEntity
  8
0
  6
Continuous
 62
     7
370
    25
100
AcDbLine
 10
7392.1412350125
 20
4942.8664067461
 30
0.0
 11
7392.0747274157
 21
4942.7362937418
 31
0.0
  0
ARC
  5
338
330
1F
100
AcDbEntity
  8
0
  6
Continuous
 62
     7
370
    25
100
AcDbCircle
 10
6791.8944074599
 20
4976.0340651923
 30
0.0
 40
32.33234845715314
100
AcDbArc
 50
270.3195445578
 51
277.00524986
  0
ARC
  5
339
330
1F
100
AcDbEntity
  8
0
  6
Continuous
 62
     7
370
    25
100
AcDbCircle
 10
6793.6937710579
 20
4961.6213959805
 30
0.0
 40
18.76440461085771
100
AcDbArc
 50
277.5095473836
 51
284.9272291805
  0
LINE
  5
33A
330
1F
100
AcDbEntity
  8
0
  6
Continuous
 62
     7
370
    25
100
AcDbLine
 10
6798.5273320125
 20
4944.4561450965
 30
0.0
 11
6798.5273320125
 21
4943.4902192702
 31
0.0
  0
ARC
  5
33B
330
1F
100
AcDbEntity
  8
0
  6
Continuous
 62
     7
370
    25
100
AcDbCircle
 10
6796.6522352253
 20
4951.8329208104
 30
0.0
 40
7.611360449618595
100
AcDbArc
 50
284.2619248088
 51
297.2228497748
  0
ARC
  5
33C
330
1F
100
AcDbEntity
  8
0
  6
Continuous
 62
     7
370
    25
100
AcDbCircle
 10
6800.1276943546
 20
4945.1801430957
 30
0.0
 40
0.9028767270874873
100
AcDbArc
 50
304.3231205499
 51
1.5289520688
  0
LINE
  5
33D
330
1F
100
AcDbEntity
  8
0
  6
Continuous
 62
     7
370
    25
100
AcDbLine
 10
6801.0302496304
 20
4945.8079373668
 30
0.0
 11
6801.0302496304
 21
4945.2042337254
 31
0.0
  0
LINE
  5
33E
330
1F
100
AcDbEntity
  8
0
  6
Continuous
 62
     7
370
    25
100
AcDbLine
 10
6799.9420835929
 20
4946.5696386787
 30
0.0
 11
6799.9420835929
 21
4946.2579869756
 31
0.0
  0
ARC
  5
33F
330
1F
100
AcDbEntity
  8
0
  6
Continuous
 62
     7
370
    25
100
AcDbCircle
 10
6796.0532906622
 20
4937.7534748884
 30
0.0
 40
9.351440332874176
100
AcDbArc
 50
65.4271673511
 51
77.248897428
  0
LINE
  5
340
330
1F
100
AcDbEntity
  8
0
  6
Continuous
 62
     7
370
    25
100
AcDbLine
 10
6798.1173050743
 20
4947.0903339265
 30
0.0
 11
6798.1173050743
 21
4946.8742906856
 31
0.0
  0
LINE
  5
341
330
1F
100
AcDbEntity
  8
0
  6
Continuous
 62
     7
370
    25
100
AcDbLine
 10
6794.468948072
 20
4947.588804573
 30
0.0
 11
6794.468948072
 21
4947.4202585478
 31
0.0
  0
ARC
  5
342
330
1F
100
AcDbEntity
  8
0
  6
Continuous
 62
     7
370
    25
100
AcDbCircle
 10
6791.7979812903
 20
4912.8947041823
 30
0.0
 40
34.62871594211998
100
AcDbArc
 50
85.5762935841
 51
90.5015401573
  0
LINE
  5
343
330
1F
100
AcDbEntity
  8
0
  6
Continuous
 62
     7
370
    25
100
AcDbLine
 10
6791.4948617587
 20
4947.6839298205
 30
0.0
 11
6791.4948617587
 21
4947.5220934334
 31
0.0
  0
LINE
  5
344
330
1F
100
AcDbEntity
  8
0
  6
Continuous
 62
     7
370
    25
100
AcDbLine
 10
6787.4234718432
 20
4947.4222556734
 30
0.0
 11
6787.4234718432
 21
4947.2404553387
 31
0.0
  0
ARC
  5
345
330
1F
100
AcDbEntity
  8
0
  6
Continuous
 62
     7
370
    25
100
AcDbCircle
 10
6789.8758181165
 20
4928.6369911949
 30
0.0
 40
18.76440461061768
100
AcDbArc
 50
97.5095473836
 51
104.9272291806
  0
LINE
  5
346
330
1F
100
AcDbEntity
  8
0
  6
Continuous
 62
     7
370
    25
100
AcDbLine
 10
6785.042257162
 20
4946.9965297546
 30
0.0
 11
6785.042257162
 21
4946.7681679049
 31
0.0
  0
LINE
  5
347
330
1F
100
AcDbEntity
  8
0
  6
Continuous
 62
     7
370
    25
100
AcDbLine
 10
6782.9327993279
 20
4946.2620349666
 30
0.0
 11
6782.9327993279
 21
4945.8239036294
 31
0.0
  0
ARC
  5
348
330
1F
100
AcDbEntity
  8
0
  6
Continuous
 62
     7
370
    25
100
AcDbCircle
 10
6783.4418948199
 20
4945.0782440795
 30
0.0
 40
0.902876727090014
100
AcDbArc
 50
124.32312055
 51
181.5289520686
  0
ARC
  5
349
330
1F
100
AcDbEntity
  8
0
  6
Continuous
 62
     7
370
    25
100
AcDbCircle
 10
6785.1365080749
 20
4948.1806780567
 30
0.0
 40
3.550936144636173
100
AcDbArc
 50
233.8550182223
 51
244.8519277995
  0
LINE
  5
34A
330
1F
100
AcDbEntity
  8
0
  6
Continuous
 62
     7
370
    25
100
AcDbLine
 10
6783.6275055815
 20
4944.9663260259
 30
0.0
 11
6783.6275055815
 21
4944.0004001996
 31
0.0
  0
ARC
  5
34B
330
1F
100
AcDbEntity
  8
0
  6
Continuous
 62
     7
370
    25
100
AcDbCircle
 10
6787.5162985123
 20
4952.5049122867
 30
0.0
 40
9.351440332830359
100
AcDbArc
 50
245.427167351
 51
257.2488974281
  0
ARC
  5
34C
330
1F
100
AcDbEntity
  8
0
  6
Continuous
 62
     7
370
    25
100
AcDbCircle
 10
6790.8449940254
 20
4968.1222396975
 30
0.0
 40
24.38066653467133
100
AcDbArc
 50
258.189300535
 51
265.8971784142
  0
LINE
  5
34D
330
1F
100
AcDbEntity
  8
0
  6
Continuous
 62
     7
370
    25
100
AcDbLine
 10
6789.1006411025
 20
4943.8040544536
 30
0.0
 11
6789.1006411025
 21
4942.8381286273
 31
0.0
  0
ARC
  5
34E
330
1F
100
AcDbEntity
  8
0
  6
Continuous
 62
     7
370
    25
100
AcDbCircle
 10
6791.7716078842
 20
4977.3636829929
 30
0.0
 40
34.6287159421545
100
AcDbArc
 50
265.5762935841
 51
270.5015401573
  0
LWPOLYLINE
  5
34F
330
1F
100
AcDbEntity
  8
0
  6
Continuous
 62
     7
370
    25
100
AcDbPolyline
 90
        6
 70
   128
 43
0.0
 10
6785.2364542139
 20
4944.7963289712
 10
6784.3362209975
 20
4945.1770867111
 10
6783.7615261893
 20
4945.5979668853
 10
6783.5374867099
 20
4946.0405750107
 10
6783.6738941598
 20
4946.4855669881
 10
6783.8300608791
 20
4946.6612597715
  0
LWPOLYLINE
  5
350
330
1F
100
AcDbEntity
  8
0
  6
Continuous
 62
     7
370
    25
100
AcDbPolyline
 90
       14
 70
   128
 43
0.0
 10
6799.9420835929
 20
4946.4143321892
 10
6800.0321024645
 20
4946.1496638171
 10
6799.8956950147
 20
4945.7046718396
 10
6799.4048022957
 20
4945.2767442947
 10
6798.5808786751
 20
4944.8845836695
 10
6797.4599335685
 20
4944.5453292651
 10
6796.0909576562
 20
4944.2738081269
 10
6794.5337817544
 20
4944.0818870316
 10
6792.8564619224
 20
4943.977953852
 10
6791.1323050854
 20
4943.9665509667
 10
6789.4366651706
 20
4944.0481767365
 10
6787.8436497789
 20
4944.2192637237
 10
6786.422881327
 20
4944.4723346059
 10
6785.2364542139
 20
4944.7963289712
  0
LINE
  5
351
330
1F
100
AcDbEntity
  8
0
  6
Continuous
 62
     7
370
    25
100
AcDbLine
 10
6800.5275315856
 20
4946.1873729844
 30
0.0
 11
6800.7893427381
 21
4946.1784083795
 31
0.0
  0
ARC
  5
352
330
1F
100
AcDbEntity
  8
0
  6
Continuous
 62
     7
370
    25
100
AcDbCircle
 10
6799.5441856377
 20
4946.2390874934
 30
0.0
 40
1.01132087947819
100
AcDbArc
 50
305.6817763791
 51
346.492222801
  0
LINE
  5
353
330
1F
100
AcDbEntity
  8
0
  6
Continuous
 62
     7
370
    25
100
AcDbLine
 10
6798.5273320125
 20
4944.4561450965
 30
0.0
 11
6798.2188846467
 21
4944.5603206191
 31
0.0
  0
ARC
  5
354
330
1F
100
AcDbEntity
  8
0
  6
Continuous
 62
     7
370
    25
100
AcDbCircle
 10
6793.5868603385
 20
4961.6753745471
 30
0.0
 40
17.73078453275833
100
AcDbArc
 50
277.2930101398
 51
285.1437664244
  0
ARC
  5
355
330
1F
100
AcDbEntity
  8
0
  6
Continuous
 62
     7
370
    25
100
AcDbCircle
 10
6791.7730243586
 20
4976.5587365667
 30
0.0
 40
32.72847533089003
100
AcDbArc
 50
265.4332158269
 51
270.6446179146
  0
LINE
  5
356
330
1F
100
AcDbEntity
  8
0
  6
Continuous
 62
     7
370
    25
100
AcDbLine
 10
6789.1671486992
 20
4943.9341674579
 30
0.0
 11
6789.1006411025
 21
4943.8040544536
 31
0.0
  0
ARC
  5
357
330
1F
100
AcDbEntity
  8
0
  6
Continuous
 62
     7
370
    25
100
AcDbCircle
 10
6787.7523278312
 20
4953.057766813
 30
0.0
 40
8.83411188479316
100
AcDbArc
 50
245.0796807339
 51
257.5963840453
  0
LINE
  5
358
330
1F
100
AcDbEntity
  8
0
  6
Continuous
 62
     7
370
    25
100
AcDbLine
 10
6783.6275055815
 20
4944.9663260259
 30
0.0
 11
6784.0300088927
 21
4945.0461580786
 31
0.0
  0
LWPOLYLINE
  5
359
330
1F
100
AcDbEntity
  8
0
  6
Continuous
 62
     7
370
    25
100
AcDbPolyline
 90
        3
 70
   128
 43
0.0
 10
6784.2847945872
 20
4946.1715018411
 10
6783.7615261893
 20
4946.5638927116
 10
6783.7485983979
 20
4946.578082327
  0
LINE
  5
35A
330
1F
100
AcDbEntity
  8
0
  6
Continuous
 62
     7
370
    25
100
AcDbLine
 10
6799.4045117396
 20
4946.2424889164
 30
0.0
 11
6799.2847945872
 21
4946.1715018411
 31
0.0
  0
LINE
  5
35B
330
1F
100
AcDbEntity
  8
0
  6
Continuous
 62
     7
370
    25
100
AcDbLine
 10
6794.4024404752
 20
4947.2901455435
 30
0.0
 11
6794.468948072
 21
4947.4202585478
 31
0.0
  0
ARC
  5
35C
330
1F
100
AcDbEntity
  8
0
  6
Continuous
 62
     7
370
    25
100
AcDbCircle
 10
6791.7965648159
 20
4914.6655764345
 30
0.0
 40
32.72847533116094
100
AcDbArc
 50
85.4332158269
 51
90.6446179145
  0
LINE
  5
35D
330
1F
100
AcDbEntity
  8
0
  6
Continuous
 62
     7
370
    25
100
AcDbLine
 10
6791.428354162
 20
4947.3919804291
 30
0.0
 11
6791.4948617587
 21
4947.5220934334
 31
0.0
  0
LWPOLYLINE
  5
35E
330
1F
100
AcDbEntity
  8
0
  6
Continuous
 62
     7
370
    25
100
AcDbPolyline
 90
        7
 70
   128
 43
0.0
 10
6785.8317578842
 20
4944.9144008296
 10
6784.9902529706
 20
4945.2732230736
 10
6784.4664532713
 20
4945.6704762769
 10
6784.2848510783
 20
4946.0875853214
 10
6784.4539379081
 20
4946.5050466517
 10
6784.9658074486
 20
4946.9033402399
 10
6785.042257162
 20
4946.9452203709
  0
LWPOLYLINE
  5
35F
330
1F
100
AcDbEntity
  8
0
  6
Continuous
 62
     7
370
    25
100
AcDbPolyline
 90
       14
 70
   128
 43
0.0
 10
6799.2358619244
 20
4946.3164960348
 10
6799.2376258156
 20
4946.3124822187
 10
6799.2439203963
 20
4945.8927364637
 10
6798.9014345444
 20
4945.4824539105
 10
6798.2261825177
 20
4945.1008189154
 10
6797.2497383504
 20
4944.7656763064
 10
6796.0177594866
 20
4944.4926969796
 10
6794.5878518888
 20
4944.2946451449
 10
6793.0268764468
 20
4944.1807814859
 10
6791.4078226376
 20
4944.1564301408
 10
6789.8063956178
 20
4944.2227297514
 10
6788.297476335
 20
4944.3765802216
 10
6786.9516201777
 20
4944.6107876744
 10
6785.8317578842
 20
4944.9144008296
  0
LINE
  5
360
330
1F
100
AcDbEntity
  8
0
  6
Continuous
 62
     7
370
    25
100
AcDbLine
 10
6791.428354162
 20
4947.6833661583
 30
0.0
 11
6791.428354162
 21
4947.3919804291
 31
0.0
  0
LINE
  5
361
330
1F
100
AcDbEntity
  8
0
  6
Continuous
 62
     7
370
    25
100
AcDbLine
 10
6787.4234718432
 20
4947.2404553387
 30
0.0
 11
6787.731919209
 21
4947.136279816
 31
0.0
  0
ARC
  5
362
330
1F
100
AcDbEntity
  8
0
  6
Continuous
 62
     7
370
    25
100
AcDbCircle
 10
6789.982728836
 20
4929.5489384541
 30
0.0
 40
17.73078453303971
100
AcDbArc
 50
97.2930101399
 51
105.1437664243
  0
LINE
  5
363
330
1F
100
AcDbEntity
  8
0
  6
Continuous
 62
     7
370
    25
100
AcDbLine
 10
6785.042257162
 20
4946.7681679049
 30
0.0
 11
6785.3507045278
 21
4946.6639923823
 31
0.0
  0
LINE
  5
364
330
1F
100
AcDbEntity
  8
0
  6
Continuous
 62
     7
370
    25
100
AcDbLine
 10
6787.731919209
 20
4947.4598562313
 30
0.0
 11
6787.731919209
 21
4947.136279816
 31
0.0
  0
LINE
  5
365
330
1F
100
AcDbEntity
  8
0
  6
Continuous
 62
     7
370
    25
100
AcDbLine
 10
6798.1173050743
 20
4946.8742906856
 30
0.0
 11
6797.7148017632
 21
4946.7944586329
 31
0.0
  0
LINE
  5
366
330
1F
100
AcDbEntity
  8
0
  6
Continuous
 62
     7
370
    25
100
AcDbLine
 10
6799.9420835929
 20
4946.2579869756
 30
0.0
 11
6799.5395802818
 21
4946.1781549229
 31
0.0
  0
ARC
  5
367
330
1F
100
AcDbEntity
  8
0
  6
Continuous
 62
     7
370
    25
100
AcDbCircle
 10
6795.8172613434
 20
4938.1665461887
 30
0.0
 40
8.834111884543965
100
AcDbArc
 50
65.0796807337
 51
77.5963840455
  0
LINE
  5
368
330
1F
100
AcDbEntity
  8
0
  6
Continuous
 62
     7
370
    25
100
AcDbLine
 10
6797.7148017632
 20
4947.1728914375
 30
0.0
 11
6797.7148017632
 21
4946.7944586329
 31
0.0
  0
LINE
  5
369
330
1F
100
AcDbEntity
  8
0
  6
Continuous
 62
     7
370
    25
100
AcDbLine
 10
6783.4355173727
 20
4946.4939627571
 30
0.0
 11
6783.4355173727
 21
4945.8066901967
 31
0.0
  0
LINE
  5
36A
330
1F
100
AcDbEntity
  8
0
  6
Continuous
 62
     7
370
    25
100
AcDbLine
 10
6783.4355173727
 20
4945.8066901967
 30
0.0
 11
6782.9327993279
 21
4945.8239036294
 31
0.0
  0
ARC
  5
36B
330
1F
100
AcDbEntity
  8
0
  6
Continuous
 62
     7
370
    25
100
AcDbCircle
 10
6783.9002302854
 20
4945.0837169163
 30
0.0
 40
0.8594465983325363
100
AcDbArc
 50
122.732106952
 51
183.1199656665
  0
LINE
  5
36C
330
1F
100
AcDbEntity
  8
0
  6
Continuous
 62
     7
370
    25
100
AcDbLine
 10
6783.0420575888
 20
4945.0369400171
 30
0.0
 11
6782.5393395441
 21
4945.0541534498
 31
0.0
  0
LINE
  5
36D
330
1F
100
AcDbEntity
  8
0
  6
Continuous
 62
     7
370
    25
100
AcDbLine
 10
6783.0420575888
 20
4945.2214471581
 30
0.0
 11
6783.0420575888
 21
4945.0369400171
 31
0.0
  0
LINE
  5
36E
330
1F
100
AcDbEntity
  8
0
  6
Continuous
 62
     7
370
    25
100
AcDbLine
 10
6800.5275315856
 20
4946.1873729844
 30
0.0
 11
6800.5275315856
 21
4945.2214471581
 31
0.0
  0
LINE
  5
36F
330
1F
100
AcDbEntity
  8
0
  6
Continuous
 62
     7
370
    25
100
AcDbLine
 10
6800.5275315856
 20
4945.2214471581
 30
0.0
 11
6801.0302496304
 21
4945.2042337254
 31
0.0
  0
ARC
  5
370
330
1F
100
AcDbEntity
  8
0
  6
Continuous
 62
     7
370
    25
100
AcDbCircle
 10
6799.6693588891
 20
4945.1746702588
 30
0.0
 40
0.8594465983355698
100
AcDbArc
 50
302.7321069522
 51
3.1199656664
  0
LINE
  5
371
330
1F
100
AcDbEntity
  8
0
  6
Continuous
 62
     7
370
    25
100
AcDbLine
 10
6800.1340718018
 20
4944.4516969784
 30
0.0
 11
6800.6367898465
 21
4944.4344835458
 31
0.0
  0
LINE
  5
372
330
1F
100
AcDbEntity
  8
0
  6
Continuous
 62
     7
370
    25
100
AcDbLine
 10
6800.1340718018
 20
4945.4176228047
 30
0.0
 11
6800.1340718018
 21
4944.4516969784
 31
0.0
  0
LINE
  5
373
330
1F
100
AcDbEntity
  8
0
  6
Continuous
 62
     7
370
    25
100
AcDbLine
 10
6784.0300088927
 20
4945.0461580786
 30
0.0
 11
6784.0300088927
 21
4944.0802322523
 31
0.0
  0
LINE
  5
374
330
1F
100
AcDbEntity
  8
0
  6
Continuous
 62
     7
370
    25
100
AcDbLine
 10
6783.6275055815
 20
4944.0004001996
 30
0.0
 11
6784.0300088927
 21
4944.0802322523
 31
0.0
  0
ARC
  5
375
330
1F
100
AcDbEntity
  8
0
  6
Continuous
 62
     7
370
    25
100
AcDbCircle
 10
6787.7523278311
 20
4952.0918409866
 30
0.0
 40
8.834111884741528
100
AcDbArc
 50
245.0796807338
 51
257.5963840453
  0
LINE
  5
376
330
1F
100
AcDbEntity
  8
0
  6
Continuous
 62
     7
370
    25
100
AcDbLine
 10
6785.8547874113
 20
4944.4298543686
 30
0.0
 11
6785.8547874113
 21
4943.4639285423
 31
0.0
  0
LINE
  5
377
330
1F
100
AcDbEntity
  8
0
  6
Continuous
 62
     7
370
    25
100
AcDbLine
 10
6785.4522841002
 20
4943.3840964896
 30
0.0
 11
6785.8547874113
 21
4943.4639285423
 31
0.0
  0
LINE
  5
378
330
1F
100
AcDbEntity
  8
0
  6
Continuous
 62
     7
370
    25
100
AcDbLine
 10
6798.2188846467
 20
4944.5603206191
 30
0.0
 11
6798.2188846467
 21
4943.5943947929
 31
0.0
  0
LINE
  5
379
330
1F
100
AcDbEntity
  8
0
  6
Continuous
 62
     7
370
    25
100
AcDbLine
 10
6798.5273320125
 20
4943.4902192702
 30
0.0
 11
6798.2188846467
 21
4943.5943947929
 31
0.0
  0
ARC
  5
37A
330
1F
100
AcDbEntity
  8
0
  6
Continuous
 62
     7
370
    25
100
AcDbCircle
 10
6793.5868603384
 20
4960.7094487213
 30
0.0
 40
17.73078453325455
100
AcDbArc
 50
277.29301014
 51
285.1437664242
  0
LINE
  5
37B
330
1F
100
AcDbEntity
  8
0
  6
Continuous
 62
     7
370
    25
100
AcDbLine
 10
6795.8376699655
 20
4944.0880331854
 30
0.0
 11
6795.8376699655
 21
4943.1221073591
 31
0.0
  0
LINE
  5
37C
330
1F
100
AcDbEntity
  8
0
  6
Continuous
 62
     7
370
    25
100
AcDbLine
 10
6796.1461173313
 20
4943.0179318365
 30
0.0
 11
6795.8376699655
 21
4943.1221073591
 31
0.0
  0
LINE
  5
37D
330
1F
100
AcDbEntity
  8
0
  6
Continuous
 62
     7
370
    25
100
AcDbLine
 10
6789.1671486992
 20
4943.9341674579
 30
0.0
 11
6789.1671486992
 21
4942.9682416316
 31
0.0
  0
LINE
  5
37E
330
1F
100
AcDbEntity
  8
0
  6
Continuous
 62
     7
370
    25
100
AcDbLine
 10
6792.1412350125
 20
4943.8323325724
 30
0.0
 11
6792.1412350125
 21
4942.8664067461
 31
0.0
  0
ARC
  5
37F
330
1F
100
AcDbEntity
  8
0
  6
Continuous
 62
     7
370
    25
100
AcDbCircle
 10
6791.7730243586
 20
4975.5928107401
 30
0.0
 40
32.72847533059004
100
AcDbArc
 50
265.4332158269
 51
270.6446179146
  0
LINE
  5
380
330
1F
100
AcDbEntity
  8
0
  6
Continuous
 62
     7
370
    25
100
AcDbLine
 10
6789.1671486992
 20
4942.9682416316
 30
0.0
 11
6789.1006411025
 21
4942.8381286273
 31
0.0
  0
LINE
  5
381
330
1F
100
AcDbEntity
  8
0
  6
Continuous
 62
     7
370
    25
100
AcDbLine
 10
6792.1412350125
 20
4942.8664067461
 30
0.0
 11
6792.0747274157
 21
4942.7362937418
 31
0.0
  0
CIRCLE
  5
382
330
1F
100
AcDbEntity
  8
0
  6
Continuous
 62
     7
370
    25
100
AcDbCircle
 10
6191.7847945872
 20
4953.8920765741
 30
0.0
 40
29.5000000000006
  0
CIRCLE
  5
383
330
1F
100
AcDbEntity
  8
0
  6
Continuous
 62
     7
370
    25
100
AcDbCircle
 10
6191.7847945872
 20
4953.8920765741
 30
0.0
 40
30.00000000000118
  0
CIRCLE
  5
384
330
1F
100
AcDbEntity
  8
0
  6
Continuous
 62
     7
370
    25
100
AcDbCircle
 10
5591.7847945872
 20
4953.8920765741
 30
0.0
 40
29.50000000000112
  0
CIRCLE
  5
385
330
1F
100
AcDbEntity
  8
0
  6
Continuous
 62
     7
370
    25
100
AcDbCircle
 10
5591.7847945872
 20
4953.8920765741
 30
0.0
 40
30.00000000000118
  0
CIRCLE
  5
386
330
1F
100
AcDbEntity
  8
0
  6
Continuous
 62
     7
370
    25
100
AcDbCircle
 10
7391.7847945872
 20
4953.8920765741
 30
0.0
 40
29.5000000000006
  0
CIRCLE
  5
387
330
1F
100
AcDbEntity
  8
0
  6
Continuous
 62
     7
370
    25
100
AcDbCircle
 10
7391.7847945872
 20
4953.8920765741
 30
0.0
 40
30.00000000000066
  0
CIRCLE
  5
388
330
1F
100
AcDbEntity
  8
0
  6
Continuous
 62
     7
370
    25
100
AcDbCircle
 10
7991.7847945872
 20
4953.8920765741
 30
0.0
 40
29.5000000000006
  0
CIRCLE
  5
389
330
1F
100
AcDbEntity
  8
0
  6
Continuous
 62
     7
370
    25
100
AcDbCircle
 10
7991.7847945872
 20
4953.8920765741
 30
0.0
 40
30.00000000000066
  0
CIRCLE
  5
38A
330
1F
100
AcDbEntity
  8
0
  6
Continuous
 62
     7
370
    25
100
AcDbCircle
 10
6791.7847945872
 20
4953.8920765741
 30
0.0
 40
29.50000000000009
  0
CIRCLE
  5
38B
330
1F
100
AcDbEntity
  8
0
  6
Continuous
 62
     7
370
    25
100
AcDbCircle
 10
6791.7847945872
 20
4953.8920765741
 30
0.0
 40
30.00000000000066
  0
LINE
  5
38C
330
1F
100
AcDbEntity
  8
0
  6
Continuous
 62
     7
370
    25
100
AcDbLine
 10
6179.6341087765
 20
4949.2702983092
 30
0.0
 11
6203.9354803979
 21
4949.2702983092
 31
0.0
  0
LINE
  5
38D
330
1F
100
AcDbEntity
  8
0
  6
Continuous
 62
     7
370
    25
100
AcDbLine
 10
6204.9031239547
 20
4949.0023491168
 30
0.0
 11
6203.9354803979
 21
4949.2702983092
 31
0.0
  0
ARC
  5
38E
330
1F
100
AcDbEntity
  8
0
  6
Continuous
 62
     7
370
    25
100
AcDbCircle
 10
6191.7847945872
 20
4953.8920765741
 30
0.0
 40
13.99999999999974
100
AcDbArc
 50
200.4424420745
 51
339.5575579255
  0
LINE
  5
38F
330
1F
100
AcDbEntity
  8
0
  6
Continuous
 62
     7
370
    25
100
AcDbLine
 10
6179.6341087765
 20
4949.2702983092
 30
0.0
 11
6178.6664652198
 21
4949.0023491168
 31
0.0
  0
LWPOLYLINE
  5
390
330
1F
100
AcDbEntity
  8
0
  6
Continuous
 62
     7
370
    25
100
AcDbPolyline
 90
       34
 70
   128
 43
0.0
 10
6191.7847945872
 20
4947.685031658
 10
6193.6536506253
 20
4947.6388443345
 10
6195.4549613369
 20
4947.5019516941
 10
6197.1236226596
 20
4947.2793013936
 10
6198.5993248256
 20
4946.978940595
 10
6199.8287321137
 20
4946.6117251201
 10
6200.7674105414
 20
4946.1909270928
 10
6201.3814338244
 20
4945.7317552504
 10
6201.6486095617
 20
4945.2508052595
 10
6201.5592813258
 20
4944.7654599059
 10
6201.116677672
 20
4944.2932608353
 10
6200.3367954496
 20
4943.8512745524
 10
6199.247821634
 20
4943.455475593
 10
6197.8891145762
 20
4943.1201691627
 10
6196.3097814893
 20
4942.8574741096
 10
6194.566903586
 20
4942.6768849173
 10
6192.7234730149
 20
4942.5849285499
 10
6190.8461161596
 20
4942.5849285499
 10
6189.0026855884
 20
4942.6768849173
 10
6187.2598076852
 20
4942.8574741096
 10
6185.6804745983
 20
4943.1201691627
 10
6184.3217675405
 20
4943.455475593
 10
6183.2327937249
 20
4943.8512745524
 10
6182.4529115024
 20
4944.2932608353
 10
6182.0103078487
 20
4944.7654599059
 10
6181.9209796128
 20
4945.2508052595
 10
6182.18815535
 20
4945.7317552504
 10
6182.8021786331
 20
4946.1909270928
 10
6183.7408570607
 20
4946.6117251201
 10
6184.9702643488
 20
4946.978940595
 10
6186.4459665149
 20
4947.2793013936
 10
6188.1146278376
 20
4947.5019516941
 10
6189.9159385492
 20
4947.6388443345
 10
6191.7847945872
 20
4947.685031658
  0
ARC
  5
391
330
1F
100
AcDbEntity
  8
0
  6
Continuous
 62
     7
370
    25
100
AcDbCircle
 10
6191.7847945872
 20
4953.8920765741
 30
0.0
 40
13.0000000000008
100
AcDbArc
 50
339.1745965348
 51
200.8254034652
  0
ARC
  5
392
330
1F
100
AcDbEntity
  8
0
  6
Continuous
 62
     7
370
    25
100
AcDbCircle
 10
6191.7847945872
 20
4953.8920765741
 30
0.0
 40
13.99999999999974
100
AcDbArc
 50
339.5575579255
 51
200.4424420745
  0
LWPOLYLINE
  5
393
330
1F
100
AcDbEntity
  8
0
  6
Continuous
 62
     7
370
    25
100
AcDbPolyline
 90
        3
 70
   128
 43
0.0
 10
6201.0347945872
 20
4946.0070676343
 10
6201.1597945872
 20
4945.6121565007
 10
6201.0347945872
 20
4945.2172453672
  0
LWPOLYLINE
  5
394
330
1F
100
AcDbEntity
  8
0
  6
Continuous
 62
     7
370
    25
100
AcDbPolyline
 90
        3
 70
   128
 43
0.0
 10
6200.1340718018
 20
4944.5085976478
 10
6199.5798222026
 20
4944.264105027
 10
6198.5273320125
 20
4943.926276429
  0
ARC
  5
395
330
1F
100
AcDbEntity
  8
0
  6
Continuous
 62
     7
370
    25
100
AcDbCircle
 10
6191.9151287701
 20
4975.6997374014
 30
0.0
 40
32.51304127706523
100
AcDbArc
 50
270.39845666
 51
276.9293382745
  0
ARC
  5
396
330
1F
100
AcDbEntity
  8
0
  6
Continuous
 62
     7
370
    25
100
AcDbCircle
 10
6190.9139469779
 20
4968.5457958266
 30
0.0
 40
25.32349552655714
100
AcDbArc
 50
258.4758326321
 51
265.8937831657
  0
LWPOLYLINE
  5
397
330
1F
100
AcDbEntity
  8
0
  6
Continuous
 62
     7
370
    25
100
AcDbPolyline
 90
        3
 70
   128
 43
0.0
 10
6183.6275055815
 20
4944.4162763578
 10
6183.1234239699
 20
4944.6836024957
 10
6182.6650081243
 20
4945.0498504659
  0
LWPOLYLINE
  5
398
330
1F
100
AcDbEntity
  8
0
  6
Continuous
 62
     7
370
    25
100
AcDbPolyline
 90
        3
 70
   128
 43
0.0
 10
6182.5347945872
 20
4945.2172453672
 10
6182.4097945872
 20
4945.6121565007
 10
6182.5347945872
 20
4946.0070676343
  0
ARC
  5
399
330
1F
100
AcDbEntity
  8
0
  6
Continuous
 62
     7
370
    25
100
AcDbCircle
 10
7391.7847945872
 20
4953.8920765741
 30
0.0
 40
13.0000000000008
100
AcDbArc
 50
339.1745965348
 51
200.8254034652
  0
LINE
  5
39A
330
1F
100
AcDbEntity
  8
0
  6
Continuous
 62
     7
370
    25
100
AcDbLine
 10
7379.6341087765
 20
4949.2702983092
 30
0.0
 11
7403.9354803979
 21
4949.2702983092
 31
0.0
  0
LINE
  5
39B
330
1F
100
AcDbEntity
  8
0
  6
Continuous
 62
     7
370
    25
100
AcDbLine
 10
7404.9031239547
 20
4949.0023491168
 30
0.0
 11
7403.9354803979
 21
4949.2702983092
 31
0.0
  0
ARC
  5
39C
330
1F
100
AcDbEntity
  8
0
  6
Continuous
 62
     7
370
    25
100
AcDbCircle
 10
7391.7847945872
 20
4953.8920765741
 30
0.0
 40
13.99999999999974
100
AcDbArc
 50
200.4424420745
 51
339.5575579255
  0
LINE
  5
39D
330
1F
100
AcDbEntity
  8
0
  6
Continuous
 62
     7
370
    25
100
AcDbLine
 10
7379.6341087765
 20
4949.2702983092
 30
0.0
 11
7378.6664652198
 21
4949.0023491168
 31
0.0
  0
LWPOLYLINE
  5
39E
330
1F
100
AcDbEntity
  8
0
  6
Continuous
 62
     7
370
    25
100
AcDbPolyline
 90
       34
 70
   128
 43
0.0
 10
7391.7847945872
 20
4947.685031658
 10
7393.6536506253
 20
4947.6388443345
 10
7395.4549613369
 20
4947.5019516941
 10
7397.1236226596
 20
4947.2793013936
 10
7398.5993248256
 20
4946.978940595
 10
7399.8287321137
 20
4946.6117251201
 10
7400.7674105414
 20
4946.1909270928
 10
7401.3814338244
 20
4945.7317552504
 10
7401.6486095617
 20
4945.2508052595
 10
7401.5592813258
 20
4944.7654599059
 10
7401.116677672
 20
4944.2932608353
 10
7400.3367954496
 20
4943.8512745524
 10
7399.247821634
 20
4943.455475593
 10
7397.8891145762
 20
4943.1201691627
 10
7396.3097814893
 20
4942.8574741096
 10
7394.566903586
 20
4942.6768849173
 10
7392.7234730149
 20
4942.5849285499
 10
7390.8461161596
 20
4942.5849285499
 10
7389.0026855884
 20
4942.6768849173
 10
7387.2598076852
 20
4942.8574741096
 10
7385.6804745983
 20
4943.1201691627
 10
7384.3217675405
 20
4943.455475593
 10
7383.2327937249
 20
4943.8512745524
 10
7382.4529115024
 20
4944.2932608353
 10
7382.0103078487
 20
4944.7654599059
 10
7381.9209796128
 20
4945.2508052595
 10
7382.18815535
 20
4945.7317552504
 10
7382.8021786331
 20
4946.1909270928
 10
7383.7408570607
 20
4946.6117251201
 10
7384.9702643488
 20
4946.978940595
 10
7386.4459665149
 20
4947.2793013936
 10
7388.1146278376
 20
4947.5019516941
 10
7389.9159385492
 20
4947.6388443345
 10
7391.7847945872
 20
4947.685031658
  0
ARC
  5
39F
330
1F
100
AcDbEntity
  8
0
  6
Continuous
 62
     7
370
    25
100
AcDbCircle
 10
7391.7847945872
 20
4953.8920765741
 30
0.0
 40
13.99999999999974
100
AcDbArc
 50
339.5575579255
 51
200.4424420745
  0
LWPOLYLINE
  5
3A0
330
1F
100
AcDbEntity
  8
0
  6
Continuous
 62
     7
370
    25
100
AcDbPolyline
 90
        3
 70
   128
 43
0.0
 10
7401.0347945872
 20
4946.0070676343
 10
7401.1597945872
 20
4945.6121565007
 10
7401.0347945872
 20
4945.2172453672
  0
LWPOLYLINE
  5
3A1
330
1F
100
AcDbEntity
  8
0
  6
Continuous
 62
     7
370
    25
100
AcDbPolyline
 90
        3
 70
   128
 43
0.0
 10
7400.1340718018
 20
4944.5085976478
 10
7399.5798222026
 20
4944.264105027
 10
7398.5273320125
 20
4943.926276429
  0
ARC
  5
3A2
330
1F
100
AcDbEntity
  8
0
  6
Continuous
 62
     7
370
    25
100
AcDbCircle
 10
7391.9151287701
 20
4975.6997374014
 30
0.0
 40
32.51304127710358
100
AcDbArc
 50
270.39845666
 51
276.9293382745
  0
ARC
  5
3A3
330
1F
100
AcDbEntity
  8
0
  6
Continuous
 62
     7
370
    25
100
AcDbCircle
 10
7390.9139469779
 20
4968.5457958266
 30
0.0
 40
25.32349552655714
100
AcDbArc
 50
258.4758326321
 51
265.8937831657
  0
LWPOLYLINE
  5
3A4
330
1F
100
AcDbEntity
  8
0
  6
Continuous
 62
     7
370
    25
100
AcDbPolyline
 90
        3
 70
   128
 43
0.0
 10
7383.6275055815
 20
4944.4162763578
 10
7383.1234239699
 20
4944.6836024957
 10
7382.6650081243
 20
4945.0498504659
  0
LWPOLYLINE
  5
3A5
330
1F
100
AcDbEntity
  8
0
  6
Continuous
 62
     7
370
    25
100
AcDbPolyline
 90
        3
 70
   128
 43
0.0
 10
7382.5347945872
 20
4945.2172453672
 10
7382.4097945872
 20
4945.6121565007
 10
7382.5347945872
 20
4946.0070676343
  0
LINE
  5
3A6
330
1F
100
AcDbEntity
  8
0
  6
Continuous
 62
     7
370
    25
100
AcDbLine
 10
5579.6341087765
 20
4949.2702983092
 30
0.0
 11
5603.9354803979
 21
4949.2702983092
 31
0.0
  0
LINE
  5
3A7
330
1F
100
AcDbEntity
  8
0
  6
Continuous
 62
     7
370
    25
100
AcDbLine
 10
5604.9031239547
 20
4949.0023491168
 30
0.0
 11
5603.9354803979
 21
4949.2702983092
 31
0.0
  0
ARC
  5
3A8
330
1F
100
AcDbEntity
  8
0
  6
Continuous
 62
     7
370
    25
100
AcDbCircle
 10
5591.7847945872
 20
4953.8920765741
 30
0.0
 40
13.99999999999974
100
AcDbArc
 50
200.4424420745
 51
339.5575579255
  0
LINE
  5
3A9
330
1F
100
AcDbEntity
  8
0
  6
Continuous
 62
     7
370
    25
100
AcDbLine
 10
5579.6341087765
 20
4949.2702983092
 30
0.0
 11
5578.6664652198
 21
4949.0023491168
 31
0.0
  0
LWPOLYLINE
  5
3AA
330
1F
100
AcDbEntity
  8
0
  6
Continuous
 62
     7
370
    25
100
AcDbPolyline
 90
       34
 70
   128
 43
0.0
 10
5591.7847945872
 20
4947.685031658
 10
5593.6536506253
 20
4947.6388443345
 10
5595.4549613369
 20
4947.5019516941
 10
5597.1236226596
 20
4947.2793013936
 10
5598.5993248256
 20
4946.978940595
 10
5599.8287321137
 20
4946.6117251201
 10
5600.7674105414
 20
4946.1909270928
 10
5601.3814338244
 20
4945.7317552504
 10
5601.6486095617
 20
4945.2508052595
 10
5601.5592813258
 20
4944.7654599059
 10
5601.116677672
 20
4944.2932608353
 10
5600.3367954496
 20
4943.8512745524
 10
5599.247821634
 20
4943.455475593
 10
5597.8891145762
 20
4943.1201691627
 10
5596.3097814893
 20
4942.8574741096
 10
5594.566903586
 20
4942.6768849173
 10
5592.7234730149
 20
4942.5849285499
 10
5590.8461161596
 20
4942.5849285499
 10
5589.0026855884
 20
4942.6768849173
 10
5587.2598076852
 20
4942.8574741096
 10
5585.6804745983
 20
4943.1201691627
 10
5584.3217675405
 20
4943.455475593
 10
5583.2327937249
 20
4943.8512745524
 10
5582.4529115024
 20
4944.2932608353
 10
5582.0103078487
 20
4944.7654599059
 10
5581.9209796128
 20
4945.2508052595
 10
5582.18815535
 20
4945.7317552504
 10
5582.8021786331
 20
4946.1909270928
 10
5583.7408570607
 20
4946.6117251201
 10
5584.9702643488
 20
4946.978940595
 10
5586.4459665149
 20
4947.2793013936
 10
5588.1146278376
 20
4947.5019516941
 10
5589.9159385492
 20
4947.6388443345
 10
5591.7847945872
 20
4947.685031658
  0
ARC
  5
3AB
330
1F
100
AcDbEntity
  8
0
  6
Continuous
 62
     7
370
    25
100
AcDbCircle
 10
5591.7847945872
 20
4953.8920765741
 30
0.0
 40
13.00000000000028
100
AcDbArc
 50
339.1745965348
 51
200.8254034652
  0
ARC
  5
3AC
330
1F
100
AcDbEntity
  8
0
  6
Continuous
 62
     7
370
    25
100
AcDbCircle
 10
5591.7847945872
 20
4953.8920765741
 30
0.0
 40
13.99999999999974
100
AcDbArc
 50
339.5575579255
 51
200.4424420745
  0
LWPOLYLINE
  5
3AD
330
1F
100
AcDbEntity
  8
0
  6
Continuous
 62
     7
370
    25
100
AcDbPolyline
 90
        3
 70
   128
 43
0.0
 10
5601.014165923
 20
4946.0381737298
 10
5601.1597945872
 20
4945.6121565007
 10
5601.0347945872
 20
4945.2172453672
  0
LWPOLYLINE
  5
3AE
330
1F
100
AcDbEntity
  8
0
  6
Continuous
 62
     7
370
    25
100
AcDbPolyline
 90
        3
 70
   128
 43
0.0
 10
5600.1340718018
 20
4944.5085976478
 10
5599.5798222026
 20
4944.264105027
 10
5598.5273320125
 20
4943.926276429
  0
ARC
  5
3AF
330
1F
100
AcDbEntity
  8
0
  6
Continuous
 62
     7
370
    25
100
AcDbCircle
 10
5591.9151287701
 20
4975.6997374014
 30
0.0
 40
32.51304127711434
100
AcDbArc
 50
270.39845666
 51
276.9293382745
  0
ARC
  5
3B0
330
1F
100
AcDbEntity
  8
0
  6
Continuous
 62
     7
370
    25
100
AcDbCircle
 10
5590.9139469778
 20
4968.5457958266
 30
0.0
 40
25.32349552653884
100
AcDbArc
 50
258.4758326321
 51
265.8937831657
  0
LWPOLYLINE
  5
3B1
330
1F
100
AcDbEntity
  8
0
  6
Continuous
 62
     7
370
    25
100
AcDbPolyline
 90
        3
 70
   128
 43
0.0
 10
5583.6275055815
 20
4944.4162763578
 10
5583.1234239699
 20
4944.6836024957
 10
5582.6650081243
 20
4945.0498504659
  0
LWPOLYLINE
  5
3B2
330
1F
100
AcDbEntity
  8
0
  6
Continuous
 62
     7
370
    25
100
AcDbPolyline
 90
        3
 70
   128
 43
0.0
 10
5582.5347945872
 20
4945.2172453672
 10
5582.4097945872
 20
4945.6121565007
 10
5582.5554232844
 20
4946.0381737775
  0
LINE
  5
3B3
330
1F
100
AcDbEntity
  8
0
  6
Continuous
 62
     7
370
    25
100
AcDbLine
 10
6779.6341087765
 20
4949.2702983092
 30
0.0
 11
6803.9354803979
 21
4949.2702983092
 31
0.0
  0
LINE
  5
3B4
330
1F
100
AcDbEntity
  8
0
  6
Continuous
 62
     7
370
    25
100
AcDbLine
 10
6804.9031239547
 20
4949.0023491168
 30
0.0
 11
6803.9354803979
 21
4949.2702983092
 31
0.0
  0
ARC
  5
3B5
330
1F
100
AcDbEntity
  8
0
  6
Continuous
 62
     7
370
    25
100
AcDbCircle
 10
6791.7847945872
 20
4953.8920765741
 30
0.0
 40
13.99999999999974
100
AcDbArc
 50
200.4424420745
 51
339.5575579255
  0
LINE
  5
3B6
330
1F
100
AcDbEntity
  8
0
  6
Continuous
 62
     7
370
    25
100
AcDbLine
 10
6779.6341087765
 20
4949.2702983092
 30
0.0
 11
6778.6664652198
 21
4949.0023491168
 31
0.0
  0
LWPOLYLINE
  5
3B7
330
1F
100
AcDbEntity
  8
0
  6
Continuous
 62
     7
370
    25
100
AcDbPolyline
 90
       34
 70
   128
 43
0.0
 10
6791.7847945872
 20
4947.685031658
 10
6793.6536506253
 20
4947.6388443345
 10
6795.4549613369
 20
4947.5019516941
 10
6797.1236226596
 20
4947.2793013936
 10
6798.5993248256
 20
4946.978940595
 10
6799.8287321137
 20
4946.6117251201
 10
6800.7674105414
 20
4946.1909270928
 10
6801.3814338244
 20
4945.7317552504
 10
6801.6486095617
 20
4945.2508052595
 10
6801.5592813258
 20
4944.7654599059
 10
6801.116677672
 20
4944.2932608353
 10
6800.3367954496
 20
4943.8512745524
 10
6799.247821634
 20
4943.455475593
 10
6797.8891145762
 20
4943.1201691627
 10
6796.3097814893
 20
4942.8574741096
 10
6794.566903586
 20
4942.6768849173
 10
6792.7234730149
 20
4942.5849285499
 10
6790.8461161596
 20
4942.5849285499
 10
6789.0026855884
 20
4942.6768849173
 10
6787.2598076852
 20
4942.8574741096
 10
6785.6804745983
 20
4943.1201691627
 10
6784.3217675405
 20
4943.455475593
 10
6783.2327937249
 20
4943.8512745524
 10
6782.4529115024
 20
4944.2932608353
 10
6782.0103078487
 20
4944.7654599059
 10
6781.9209796128
 20
4945.2508052595
 10
6782.18815535
 20
4945.7317552504
 10
6782.8021786331
 20
4946.1909270928
 10
6783.7408570607
 20
4946.6117251201
 10
6784.9702643488
 20
4946.978940595
 10
6786.4459665149
 20
4947.2793013936
 10
6788.1146278376
 20
4947.5019516941
 10
6789.9159385492
 20
4947.6388443345
 10
6791.7847945872
 20
4947.685031658
  0
ARC
  5
3B8
330
1F
100
AcDbEntity
  8
0
  6
Continuous
 62
     7
370
    25
100
AcDbCircle
 10
6791.7847945872
 20
4953.8920765741
 30
0.0
 40
13.99999999999974
100
AcDbArc
 50
339.5575579255
 51
200.4424420745
  0
ARC
  5
3B9
330
1F
100
AcDbEntity
  8
0
  6
Continuous
 62
     7
370
    25
100
AcDbCircle
 10
6791.7847945872
 20
4953.8920765741
 30
0.0
 40
13.00000000000028
100
AcDbArc
 50
339.1745965348
 51
200.8254034652
  0
LWPOLYLINE
  5
3BA
330
1F
100
AcDbEntity
  8
0
  6
Continuous
 62
     7
370
    25
100
AcDbPolyline
 90
        3
 70
   128
 43
0.0
 10
6801.0347945872
 20
4946.0070676343
 10
6801.1597945872
 20
4945.6121565007
 10
6801.0347945872
 20
4945.2172453672
  0
LWPOLYLINE
  5
3BB
330
1F
100
AcDbEntity
  8
0
  6
Continuous
 62
     7
370
    25
100
AcDbPolyline
 90
        3
 70
   128
 43
0.0
 10
6800.1340718018
 20
4944.5085976478
 10
6799.5798222026
 20
4944.264105027
 10
6798.5273320125
 20
4943.926276429
  0
ARC
  5
3BC
330
1F
100
AcDbEntity
  8
0
  6
Continuous
 62
     7
370
    25
100
AcDbCircle
 10
6791.9151287701
 20
4975.6997374014
 30
0.0
 40
32.51304127712987
100
AcDbArc
 50
270.39845666
 51
276.9293382745
  0
ARC
  5
3BD
330
1F
100
AcDbEntity
  8
0
  6
Continuous
 62
     7
370
    25
100
AcDbCircle
 10
6790.9139469778
 20
4968.5457958265
 30
0.0
 40
25.32349552648298
100
AcDbArc
 50
258.4758326321
 51
265.8937831658
  0
LWPOLYLINE
  5
3BE
330
1F
100
AcDbEntity
  8
0
  6
Continuous
 62
     7
370
    25
100
AcDbPolyline
 90
        3
 70
   128
 43
0.0
 10
6783.6275055815
 20
4944.4162763578
 10
6783.1234239699
 20
4944.6836024957
 10
6782.6650081243
 20
4945.0498504659
  0
LWPOLYLINE
  5
3BF
330
1F
100
AcDbEntity
  8
0
  6
Continuous
 62
     7
370
    25
100
AcDbPolyline
 90
        3
 70
   128
 43
0.0
 10
6782.5347945872
 20
4945.2172453672
 10
6782.4097945872
 20
4945.6121565007
 10
6782.5347945872
 20
4946.0070676343
  0
ARC
  5
3C0
330
1F
100
AcDbEntity
  8
0
  6
Continuous
 62
     7
370
    25
100
AcDbCircle
 10
7991.7847945872
 20
4953.8920765741
 30
0.0
 40
13.0000000000008
100
AcDbArc
 50
339.1745965348
 51
200.8254034652
  0
LINE
  5
3C1
330
1F
100
AcDbEntity
  8
0
  6
Continuous
 62
     7
370
    25
100
AcDbLine
 10
7979.6341087765
 20
4949.2702983092
 30
0.0
 11
8003.9354803979
 21
4949.2702983092
 31
0.0
  0
ARC
  5
3C2
330
1F
100
AcDbEntity
  8
0
  6
Continuous
 62
     7
370
    25
100
AcDbCircle
 10
7991.7847945872
 20
4953.8920765741
 30
0.0
 40
14.00000000000059
100
AcDbArc
 50
339.5575579255
 51
200.4424420745
  0
LINE
  5
3C3
330
1F
100
AcDbEntity
  8
0
  6
Continuous
 62
     7
370
    25
100
AcDbLine
 10
8004.9031239547
 20
4949.0023491168
 30
0.0
 11
8003.9354803979
 21
4949.2702983092
 31
0.0
  0
LINE
  5
3C4
330
1F
100
AcDbEntity
  8
0
  6
Continuous
 62
     7
370
    25
100
AcDbLine
 10
7979.6341087765
 20
4949.2702983092
 30
0.0
 11
7978.6664652198
 21
4949.0023491168
 31
0.0
  0
ARC
  5
3C5
330
1F
100
AcDbEntity
  8
0
  6
Continuous
 62
     7
370
    25
100
AcDbCircle
 10
7991.7847945872
 20
4953.8920765741
 30
0.0
 40
14.00000000000059
100
AcDbArc
 50
200.4424420745
 51
339.5575579255
  0
LWPOLYLINE
  5
3C6
330
1F
100
AcDbEntity
  8
0
  6
Continuous
 62
     7
370
    25
100
AcDbPolyline
 90
       34
 70
   128
 43
0.0
 10
7991.7847945872
 20
4947.685031658
 10
7993.6536506253
 20
4947.6388443345
 10
7995.4549613369
 20
4947.5019516941
 10
7997.1236226596
 20
4947.2793013936
 10
7998.5993248256
 20
4946.978940595
 10
7999.8287321137
 20
4946.6117251201
 10
8000.7674105414
 20
4946.1909270928
 10
8001.3814338244
 20
4945.7317552504
 10
8001.6486095617
 20
4945.2508052595
 10
8001.5592813258
 20
4944.7654599059
 10
8001.116677672
 20
4944.2932608353
 10
8000.3367954496
 20
4943.8512745524
 10
7999.247821634
 20
4943.455475593
 10
7997.8891145762
 20
4943.1201691627
 10
7996.3097814893
 20
4942.8574741096
 10
7994.566903586
 20
4942.6768849173
 10
7992.7234730149
 20
4942.5849285499
 10
7990.8461161596
 20
4942.5849285499
 10
7989.0026855884
 20
4942.6768849173
 10
7987.2598076852
 20
4942.8574741096
 10
7985.6804745983
 20
4943.1201691627
 10
7984.3217675405
 20
4943.455475593
 10
7983.2327937249
 20
4943.8512745524
 10
7982.4529115024
 20
4944.2932608353
 10
7982.0103078487
 20
4944.7654599059
 10
7981.9209796128
 20
4945.2508052595
 10
7982.18815535
 20
4945.7317552504
 10
7982.8021786331
 20
4946.1909270928
 10
7983.7408570607
 20
4946.6117251201
 10
7984.9702643488
 20
4946.978940595
 10
7986.4459665149
 20
4947.2793013936
 10
7988.1146278376
 20
4947.5019516941
 10
7989.9159385492
 20
4947.6388443345
 10
7991.7847945872
 20
4947.685031658
  0
LWPOLYLINE
  5
3C7
330
1F
100
AcDbEntity
  8
0
  6
Continuous
 62
     7
370
    25
100
AcDbPolyline
 90
        3
 70
   128
 43
0.0
 10
8001.0347945872
 20
4946.0070676343
 10
8001.1597945872
 20
4945.6121565007
 10
8001.0347945872
 20
4945.2172453672
  0
LWPOLYLINE
  5
3C8
330
1F
100
AcDbEntity
  8
0
  6
Continuous
 62
     7
370
    25
100
AcDbPolyline
 90
        3
 70
   128
 43
0.0
 10
8000.1340718018
 20
4944.5085976478
 10
7999.5798222026
 20
4944.264105027
 10
7998.5273320125
 20
4943.926276429
  0
ARC
  5
3C9
330
1F
100
AcDbEntity
  8
0
  6
Continuous
 62
     7
370
    25
100
AcDbCircle
 10
7991.9151287701
 20
4975.6997374014
 30
0.0
 40
32.51304127712987
100
AcDbArc
 50
270.39845666
 51
276.9293382745
  0
ARC
  5
3CA
330
1F
100
AcDbEntity
  8
0
  6
Continuous
 62
     7
370
    25
100
AcDbCircle
 10
7990.9139469778
 20
4968.5457958266
 30
0.0
 40
25.32349552651499
100
AcDbArc
 50
258.4758326321
 51
265.8937831657
  0
LWPOLYLINE
  5
3CB
330
1F
100
AcDbEntity
  8
0
  6
Continuous
 62
     7
370
    25
100
AcDbPolyline
 90
        3
 70
   128
 43
0.0
 10
7983.6275055815
 20
4944.4162763578
 10
7983.1234239699
 20
4944.6836024957
 10
7982.6650081243
 20
4945.0498504659
  0
LWPOLYLINE
  5
3CC
330
1F
100
AcDbEntity
  8
0
  6
Continuous
 62
     7
370
    25
100
AcDbPolyline
 90
        3
 70
   128
 43
0.0
 10
7982.5347945872
 20
4945.2172453672
 10
7982.4097945872
 20
4945.6121565007
 10
7982.5399710532
 20
4946.0151056558
  0
LINE
  5
3CD
330
1F
100
AcDbEntity
  8
0
  6
Continuous
 62
     8
370
    25
100
AcDbLine
 10
5417.1785803071
 20
4220.2359864382
 30
0.0
 11
5471.3910088674
 21
4220.2359864382
 31
0.0
  0
LINE
  5
3CE
330
1F
100
AcDbEntity
  8
0
  6
Continuous
 62
     8
370
    25
100
AcDbLine
 10
5471.5942363424
 20
4344.8893043983
 30
0.0
 11
5416.9753528321
 21
4344.8893043983
 31
0.0
  0
LINE
  5
3CF
330
1F
100
AcDbEntity
  8
0
  6
Continuous
 62
     8
370
    25
100
AcDbLine
 10
5421.2847945872
 20
4361.0416622996
 30
0.0
 11
5467.2847945872
 21
4361.0416622996
 31
0.0
  0
LINE
  5
3D0
330
1F
100
AcDbEntity
  8
0
  6
Continuous
 62
     7
370
    25
100
AcDbLine
 10
8660.1211151347
 20
4365.5416622996
 30
0.0
 11
8645.1211151347
 21
4365.5416622996
 31
0.0
  0
LINE
  5
3D1
330
1F
100
AcDbEntity
  8
0
  6
Continuous
 62
     7
370
    25
100
AcDbLine
 10
8645.1211151347
 20
4285.5416622996
 30
0.0
 11
8660.1211151347
 21
4285.5416622996
 31
0.0
  0
ARC
  5
3D2
330
1F
100
AcDbEntity
  8
0
  6
Continuous
 62
     7
370
    25
100
AcDbCircle
 10
8660.1211151347
 20
4345.5416622996
 30
0.0
 40
20.0
100
AcDbArc
 50
0.0
 51
90.0
  0
ARC
  5
3D3
330
1F
100
AcDbEntity
  8
0
  6
Continuous
 62
     7
370
    25
100
AcDbCircle
 10
8660.1211151347
 20
4305.5416622996
 30
0.0
 40
20.00000000000091
100
AcDbArc
 50
270.0
 51
0.0
  0
LINE
  5
3D4
330
1F
100
AcDbEntity
  8
0
  6
Continuous
 62
     7
370
    25
100
AcDbLine
 10
8645.1211151347
 20
4345.5416622996
 30
0.0
 11
8635.1211151347
 21
4345.5416622996
 31
0.0
  0
LINE
  5
3D5
330
1F
100
AcDbEntity
  8
0
  6
Continuous
 62
     7
370
    25
100
AcDbLine
 10
8635.1211151347
 20
4305.5416622996
 30
0.0
 11
8645.1211151347
 21
4305.5416622996
 31
0.0
  0
LINE
  5
3D6
330
1F
100
AcDbEntity
  8
0
  6
Continuous
 62
     7
370
    25
100
AcDbLine
 10
8827.6211151347
 20
4345.5416622996
 30
0.0
 11
8680.1211151347
 21
4345.5416622996
 31
0.0
  0
LINE
  5
3D7
330
1F
100
AcDbEntity
  8
0
  6
Continuous
 62
     7
370
    25
100
AcDbLine
 10
8680.1211151347
 20
4305.5416622996
 30
0.0
 11
8827.6211151347
 21
4305.5416622996
 31
0.0
  0
LINE
  5
3D8
330
1F
100
AcDbEntity
  8
0
  6
Continuous
 62
     7
370
    25
100
AcDbLine
 10
8871.6211151347
 20
4393.8920765741
 30
0.0
 11
8871.6211151347
 21
4364.0416622996
 31
0.0
  0
LINE
  5
3D9
330
1F
100
AcDbEntity
  8
0
  6
Continuous
 62
     7
370
    25
100
AcDbLine
 10
8871.6211151347
 20
4350.0416622996
 30
0.0
 11
8871.6211151347
 21
4347.5416622996
 31
0.0
  0
LINE
  5
3DA
330
1F
100
AcDbEntity
  8
0
  6
Continuous
 62
     7
370
    25
100
AcDbLine
 10
8903.6211151347
 20
4347.5416622996
 30
0.0
 11
8903.6211151347
 21
4350.0416622996
 31
0.0
  0
LINE
  5
3DB
330
1F
100
AcDbEntity
  8
0
  6
Continuous
 62
     7
370
    25
100
AcDbLine
 10
8903.6211151347
 20
4364.0416622996
 30
0.0
 11
8903.6211151347
 21
4393.8920765741
 31
0.0
  0
LINE
  5
3DC
330
1F
100
AcDbEntity
  8
0
  6
Continuous
 62
     7
370
    25
100
AcDbLine
 10
8921.6211151347
 20
4287.5416622996
 30
0.0
 11
8914.9305568898
 21
4344.8893043983
 31
0.0
  0
LINE
  5
3DD
330
1F
100
AcDbEntity
  8
0
  6
Continuous
 62
     7
370
    25
100
AcDbLine
 10
8855.4922167698
 20
4303.5796763146
 30
0.0
 11
8853.6211151347
 21
4287.5416622996
 31
0.0
  0
LINE
  5
3DE
330
1F
100
AcDbEntity
  8
0
  6
Continuous
 62
     7
370
    25
100
AcDbLine
 10
8853.6211151347
 20
4287.5416622996
 30
0.0
 11
8860.5149008545
 21
4220.2359864382
 31
0.0
  0
LINE
  5
3DF
330
1F
100
AcDbEntity
  8
0
  6
Continuous
 62
     7
370
    25
100
AcDbLine
 10
8914.7273294148
 20
4220.2359864382
 30
0.0
 11
8921.6211151347
 21
4287.5416622996
 31
0.0
  0
LINE
  5
3E0
330
1F
100
AcDbEntity
  8
0
  6
Continuous
 62
     7
370
    25
100
AcDbLine
 10
8843.6211151347
 20
4353.0416622996
 30
0.0
 11
8839.6211151347
 21
4351.5416622996
 31
0.0
  0
LINE
  5
3E1
330
1F
100
AcDbEntity
  8
0
  6
Continuous
 62
     7
370
    25
100
AcDbLine
 10
8839.6211151347
 20
4299.5416622996
 30
0.0
 11
8843.6211151347
 21
4298.0416622996
 31
0.0
  0
ARC
  5
3E2
330
1F
100
AcDbEntity
  8
0
  6
Continuous
 62
     7
370
    25
100
AcDbCircle
 10
8911.9507674726
 20
4344.5416622996
 30
0.0
 40
3.000000000000701
100
AcDbArc
 50
6.654425046
 51
90.0
  0
ARC
  5
3E3
330
1F
100
AcDbEntity
  8
0
  6
Continuous
 62
     7
370
    25
100
AcDbCircle
 10
8863.4992872685
 20
4220.5416622996
 30
0.0
 40
3.000000000000424
100
AcDbArc
 50
185.8481280262
 51
270.0
  0
ARC
  5
3E4
330
1F
100
AcDbEntity
  8
0
  6
Continuous
 62
     7
370
    25
100
AcDbCircle
 10
8911.7429430009
 20
4220.5416622996
 30
0.0
 40
3.0
100
AcDbArc
 50
270.0
 51
354.1518719738
  0
ARC
  5
3E5
330
1F
100
AcDbEntity
  8
0
  6
Continuous
 62
     7
370
    25
100
AcDbCircle
 10
8830.6211151347
 20
4348.5416622996
 30
0.0
 40
3.0
100
AcDbArc
 50
90.0
 51
180.0
  0
ARC
  5
3E6
330
1F
100
AcDbEntity
  8
0
  6
Continuous
 62
     7
370
    25
100
AcDbCircle
 10
8830.6211151347
 20
4302.5416622996
 30
0.0
 40
3.0
100
AcDbArc
 50
180.0
 51
270.0
  0
LINE
  5
3E7
330
1F
100
AcDbEntity
  8
0
  6
Continuous
 62
     7
370
    25
100
AcDbLine
 10
8839.6211151347
 20
4351.5416622996
 30
0.0
 11
8830.6211151347
 21
4351.5416622996
 31
0.0
  0
LINE
  5
3E8
330
1F
100
AcDbEntity
  8
0
  6
Continuous
 62
     7
370
    25
100
AcDbLine
 10
8830.6211151347
 20
4299.5416622996
 30
0.0
 11
8839.6211151347
 21
4299.5416622996
 31
0.0
  0
LINE
  5
3E9
330
1F
100
AcDbEntity
  8
0
  6
Continuous
 62
     7
370
    25
100
AcDbLine
 10
8912.6211151347
 20
4350.0416622996
 30
0.0
 11
8910.6211151347
 21
4354.0416622996
 31
0.0
  0
LINE
  5
3EA
330
1F
100
AcDbEntity
  8
0
  6
Continuous
 62
     7
370
    25
100
AcDbLine
 10
8864.6211151347
 20
4354.0416622996
 30
0.0
 11
8862.6211151347
 21
4350.0416622996
 31
0.0
  0
LINE
  5
3EB
330
1F
100
AcDbEntity
  8
0
  6
Continuous
 62
     7
370
    25
100
AcDbLine
 10
8864.6211151347
 20
4361.0416622996
 30
0.0
 11
8864.6211151347
 21
4354.0416622996
 31
0.0
  0
LINE
  5
3EC
330
1F
100
AcDbEntity
  8
0
  6
Continuous
 62
     7
370
    25
100
AcDbLine
 10
8910.6211151347
 20
4354.0416622996
 30
0.0
 11
8910.6211151347
 21
4361.0416622996
 31
0.0
  0
ARC
  5
3ED
330
1F
100
AcDbEntity
  8
0
  6
Continuous
 62
     7
370
    25
100
AcDbCircle
 10
8867.6211151347
 20
4361.0416622996
 30
0.0
 40
3.0
100
AcDbArc
 50
90.0
 51
180.0
  0
ARC
  5
3EE
330
1F
100
AcDbEntity
  8
0
  6
Continuous
 62
     7
370
    25
100
AcDbCircle
 10
8907.6211151347
 20
4361.0416622996
 30
0.0
 40
3.0
100
AcDbArc
 50
0.0
 51
90.0
  0
LINE
  5
3EF
330
1F
100
AcDbEntity
  8
0
  6
Continuous
 62
     7
370
    25
100
AcDbLine
 10
8843.6211151347
 20
4303.5416622996
 30
0.0
 11
8855.5159602965
 21
4303.5416622996
 31
0.0
  0
LINE
  5
3F0
330
1F
100
AcDbEntity
  8
0
  6
Continuous
 62
     7
370
    25
100
AcDbLine
 10
8860.6211151347
 20
4347.5416622996
 30
0.0
 11
8843.6211151347
 21
4347.5416622996
 31
0.0
  0
ARC
  5
3F1
330
1F
100
AcDbEntity
  8
0
  6
Continuous
 62
     7
370
    25
100
AcDbCircle
 10
8662.7746740602
 20
5024.3577759674
 30
0.0
 40
37.00000000000131
100
AcDbArc
 50
59.0753555839
 51
96.9246444161
  0
LINE
  5
3F2
330
1F
100
AcDbEntity
  8
0
  6
Continuous
 62
     7
370
    25
100
AcDbLine
 10
8697.6211151347
 20
4983.8920765741
 30
0.0
 11
8695.1211151347
 21
4983.8920765741
 31
0.0
  0
LINE
  5
3F3
330
1F
100
AcDbEntity
  8
0
  6
Continuous
 62
     7
370
    25
100
AcDbLine
 10
8695.1211151347
 20
4923.8920765741
 30
0.0
 11
8697.6211151347
 21
4923.8920765741
 31
0.0
  0
LINE
  5
3F4
330
1F
100
AcDbEntity
  8
0
  6
Continuous
 62
     7
370
    25
100
AcDbLine
 10
8697.6211151347
 20
4923.8920765741
 30
0.0
 11
8698.1211151347
 21
4924.3920765741
 31
0.0
  0
LINE
  5
3F5
330
1F
100
AcDbEntity
  8
0
  6
Continuous
 62
     7
370
    25
100
AcDbLine
 10
8698.1211151347
 20
4983.3920765741
 30
0.0
 11
8697.6211151347
 21
4983.8920765741
 31
0.0
  0
LINE
  5
3F6
330
1F
100
AcDbEntity
  8
0
  6
Continuous
 62
     7
370
    25
100
AcDbLine
 10
8706.7711151347
 20
4939.8920765741
 30
0.0
 11
8829.1211151347
 21
4939.8920765741
 31
0.0
  0
LINE
  5
3F7
330
1F
100
AcDbEntity
  8
0
  6
Continuous
 62
     7
370
    25
100
AcDbLine
 10
8698.1211151347
 20
4939.8920765741
 30
0.0
 11
8703.4918045694
 21
4939.8920765741
 31
0.0
  0
LINE
  5
3F8
330
1F
100
AcDbEntity
  8
0
  6
Continuous
 62
     7
370
    25
100
AcDbLine
 10
8863.1211151347
 20
4967.8920765741
 30
0.0
 11
8698.1211151347
 21
4967.8920765741
 31
0.0
  0
LINE
  5
3F9
330
1F
100
AcDbEntity
  8
0
  6
Continuous
 62
     7
370
    25
100
AcDbLine
 10
8864.1211151347
 20
4966.8920765741
 30
0.0
 11
8863.1211151347
 21
4967.8920765741
 31
0.0
  0
LINE
  5
3FA
330
1F
100
AcDbEntity
  8
0
  6
Continuous
 62
     7
370
    25
100
AcDbLine
 10
8647.7785208545
 20
5063.3272275514
 30
0.0
 11
8693.3785208545
 21
5053.6346483392
 31
0.0
  0
ARC
  5
3FB
330
1F
100
AcDbEntity
  8
0
  6
Continuous
 62
     7
370
    25
100
AcDbCircle
 10
8692.9211151347
 20
5051.4827236176
 30
0.0
 40
2.200000000000728
100
AcDbArc
 50
0.0
 51
78.0
  0
LINE
  5
3FC
330
1F
100
AcDbEntity
  8
0
  6
Continuous
 62
     7
370
    25
100
AcDbLine
 10
8695.1211151347
 20
5051.4827236176
 30
0.0
 11
8695.1211151347
 21
4643.8920765741
 31
0.0
  0
LINE
  5
3FD
330
1F
100
AcDbEntity
  8
0
  6
Continuous
 62
     7
370
    25
100
AcDbLine
 10
8695.1211151347
 20
4643.8920765741
 30
0.0
 11
9122.9211151347
 21
4643.8920765741
 31
0.0
  0
ARC
  5
3FE
330
1F
100
AcDbEntity
  8
0
  6
Continuous
 62
     7
370
    25
100
AcDbCircle
 10
9122.9211151347
 20
4641.6920765741
 30
0.0
 40
2.199999999999818
100
AcDbArc
 50
0.0
 51
90.0
  0
LINE
  5
3FF
330
1F
100
AcDbEntity
  8
0
  6
Continuous
 62
     7
370
    25
100
AcDbLine
 10
9125.1211151347
 20
4641.6920765741
 30
0.0
 11
9125.1211151347
 21
4618.8920765741
 31
0.0
  0
LINE
  5
400
330
1F
100
AcDbEntity
  8
0
  6
Continuous
 62
     7
370
    25
100
AcDbLine
 10
9125.1211151347
 20
4618.8920765741
 30
0.0
 11
9122.1211151347
 21
4618.8920765741
 31
0.0
  0
LINE
  5
401
330
1F
100
AcDbEntity
  8
0
  6
Continuous
 62
     7
370
    25
100
AcDbLine
 10
9122.1211151347
 20
4618.8920765741
 30
0.0
 11
9122.1211151347
 21
4618.8820765741
 31
0.0
  0
LINE
  5
402
330
1F
100
AcDbEntity
  8
0
  6
Continuous
 62
     7
370
    25
100
AcDbLine
 10
9122.1211151347
 20
4393.8920765741
 30
0.0
 11
9122.1211151347
 21
4618.8820765741
 31
0.0
  0
LINE
  5
403
330
1F
100
AcDbEntity
  8
0
  6
Continuous
 62
     7
370
    25
100
AcDbLine
 10
9122.1211151347
 20
4393.8920765741
 30
0.0
 11
8648.2211151347
 21
4393.8920765741
 31
0.0
  0
LINE
  5
404
330
1F
100
AcDbEntity
  8
0
  6
Continuous
 62
     7
370
    25
100
AcDbLine
 10
8648.2211151347
 20
5038.4920765741
 30
0.0
 11
8648.2211151347
 21
4393.8920765741
 31
0.0
  0
LINE
  5
405
330
1F
100
AcDbEntity
  8
0
  6
Continuous
 62
     7
370
    25
100
AcDbLine
 10
8648.2211151347
 20
5038.4920765741
 30
0.0
 11
8649.2211151347
 21
5038.4920765741
 31
0.0
  0
LINE
  5
406
330
1F
100
AcDbEntity
  8
0
  6
Continuous
 62
     7
370
    25
100
AcDbLine
 10
8649.2211151347
 20
5038.4920765741
 30
0.0
 11
8649.2211151347
 21
5040.4920765741
 31
0.0
  0
LINE
  5
407
330
1F
100
AcDbEntity
  8
0
  6
Continuous
 62
     7
370
    25
100
AcDbLine
 10
8645.1211151347
 20
5040.4920765741
 30
0.0
 11
8645.1211151347
 21
5061.1753028298
 31
0.0
  0
ARC
  5
408
330
1F
100
AcDbEntity
  8
0
  6
Continuous
 62
     7
370
    25
100
AcDbCircle
 10
8647.3211151347
 20
5061.1753028298
 30
0.0
 40
2.200000000000728
100
AcDbArc
 50
78.0
 51
180.0
  0
LINE
  5
409
330
1F
100
AcDbEntity
  8
0
  6
Continuous
 62
     7
370
    25
100
AcDbLine
 10
8649.2211151347
 20
5040.4920765741
 30
0.0
 11
8645.1211151347
 21
5040.4920765741
 31
0.0
  0
LINE
  5
40A
330
1F
100
AcDbEntity
  8
0
  6
Continuous
 62
     7
370
    25
100
AcDbLine
 10
8645.1211151347
 20
4393.8920765741
 30
0.0
 11
8645.1211151347
 21
5038.4920765741
 31
0.0
  0
LINE
  5
40B
330
1F
100
AcDbEntity
  8
0
  6
Continuous
 62
     7
370
    25
100
AcDbLine
 10
8645.1211151347
 20
5038.4920765741
 30
0.0
 11
8648.2211151347
 21
5038.4920765741
 31
0.0
  0
LINE
  5
40C
330
1F
100
AcDbEntity
  8
0
  6
Continuous
 62
     7
370
    25
100
AcDbLine
 10
8648.2211151347
 20
4393.8920765741
 30
0.0
 11
8645.1211151347
 21
4393.8920765741
 31
0.0
  0
LINE
  5
40D
330
1F
100
AcDbEntity
  8
0
  6
Continuous
 62
     7
370
    25
100
AcDbLine
 10
9125.2211151347
 20
4393.8920765741
 30
0.0
 11
9125.2211151347
 21
4618.8820765741
 31
0.0
  0
LINE
  5
40E
330
1F
100
AcDbEntity
  8
0
  6
Continuous
 62
     7
370
    25
100
AcDbLine
 10
9125.2211151347
 20
4393.8920765741
 30
0.0
 11
9122.1211151347
 21
4393.8920765741
 31
0.0
  0
LINE
  5
40F
330
1F
100
AcDbEntity
  8
0
  6
Continuous
 62
     7
370
    25
100
AcDbLine
 10
9122.1211151347
 20
4618.8820765741
 30
0.0
 11
9125.2211151347
 21
4618.8820765741
 31
0.0
  0
LINE
  5
410
330
1F
100
AcDbEntity
  8
0
  6
Continuous
 62
     7
370
    25
100
AcDbLine
 10
8646.3211151347
 20
5040.4920765741
 30
0.0
 11
8646.3211151347
 21
5038.8920765741
 31
0.0
  0
LINE
  5
411
330
1F
100
AcDbEntity
  8
0
  6
Continuous
 62
     7
370
    25
100
AcDbLine
 10
8645.1211151347
 20
5040.4920765741
 30
0.0
 11
8645.1211151347
 21
5038.8920765741
 31
0.0
  0
LINE
  5
412
330
1F
100
AcDbEntity
  8
0
  6
Continuous
 62
     7
370
    25
100
AcDbLine
 10
8645.1211151347
 20
5038.8920765741
 30
0.0
 11
8646.3211151347
 21
5038.8920765741
 31
0.0
  0
LINE
  5
413
330
1F
100
AcDbEntity
  8
0
  6
Continuous
 62
     7
370
    25
100
AcDbLine
 10
8645.1211151347
 20
4320.0400439907
 30
0.0
 11
8645.1211151347
 21
4285.5416622996
 31
0.0
  0
LINE
  5
414
330
1F
100
AcDbEntity
  8
0
  6
Continuous
 62
     7
370
    25
100
AcDbLine
 10
8645.1211151347
 20
4365.5416622996
 30
0.0
 11
8645.1211151347
 21
4320.0400439907
 31
0.0
  0
LINE
  5
415
330
1F
100
AcDbEntity
  8
0
  6
Continuous
 62
     7
370
    25
100
AcDbLine
 10
8680.1211151347
 20
4322.7908531452
 30
0.0
 11
8680.1211151347
 21
4305.5416622996
 31
0.0
  0
LINE
  5
416
330
1F
100
AcDbEntity
  8
0
  6
Continuous
 62
     7
370
    25
100
AcDbLine
 10
8680.1211151347
 20
4345.5416622996
 30
0.0
 11
8680.1211151347
 21
4322.7908531452
 31
0.0
  0
LINE
  5
417
330
1F
100
AcDbEntity
  8
0
  6
Continuous
 62
     7
370
    25
100
AcDbLine
 10
8635.1211151347
 20
4322.7908531452
 30
0.0
 11
8635.1211151347
 21
4305.5416622996
 31
0.0
  0
LINE
  5
418
330
1F
100
AcDbEntity
  8
0
  6
Continuous
 62
     7
370
    25
100
AcDbLine
 10
8635.1211151347
 20
4345.5416622996
 30
0.0
 11
8635.1211151347
 21
4322.7908531452
 31
0.0
  0
LWPOLYLINE
  5
419
330
1F
100
AcDbEntity
  8
0
  6
Continuous
 62
     7
370
    25
100
AcDbPolyline
 90
       20
 70
   128
 43
0.0
 10
8862.3993613543
 20
4344.8893043983
 10
8863.4047593821
 20
4343.2692456012
 10
8864.6791079343
 20
4341.023732196
 10
8865.9896999816
 20
4338.3398813587
 10
8867.0023517947
 20
4335.7313626221
 10
8867.7864875469
 20
4332.7870026918
 10
8868.1139012716
 20
4330.3781524287
 10
8868.1341439311
 20
4327.8152769735
 10
8867.8258652069
 20
4325.3084353595
 10
8867.2043309775
 20
4322.7900656277
 10
8866.0062063623
 20
4319.5872464956
 10
8864.5013269376
 20
4316.5359235248
 10
8862.3857097868
 20
4312.978972263
 10
8860.2148610151
 20
4309.7705914634
 10
8858.6040030996
 20
4307.5597618405
 10
8857.1956390614
 20
4305.7087819831
 10
8856.328878872
 20
4304.5996017499
 10
8855.7360729199
 20
4303.8522184559
 10
8855.4940640398
 20
4303.5495026644
 10
8855.5159933818
 20
4303.5769023766
  0
LINE
  5
41A
330
1F
100
AcDbEntity
  8
0
  6
Continuous
 62
     7
370
    25
100
AcDbLine
 10
8853.6211151347
 20
4287.5416622996
 30
0.0
 11
8921.6211151347
 21
4287.5416622996
 31
0.0
  0
LINE
  5
41B
330
1F
100
AcDbEntity
  8
0
  6
Continuous
 62
     7
370
    25
100
AcDbLine
 10
8839.6211151347
 20
4351.5416622996
 30
0.0
 11
8839.6211151347
 21
4299.5416622996
 31
0.0
  0
LINE
  5
41C
330
1F
100
AcDbEntity
  8
0
  6
Continuous
 62
     7
370
    25
100
AcDbLine
 10
8843.6211151347
 20
4353.0416622996
 30
0.0
 11
8843.6211151347
 21
4298.0416622996
 31
0.0
  0
ARC
  5
41D
330
1F
100
AcDbEntity
  8
0
  6
Continuous
 62
     7
370
    25
100
AcDbCircle
 10
8865.2523700184
 20
4344.6829874564
 30
0.0
 40
2.860458899834922
100
AcDbArc
 50
92.0237024967
 51
175.863823239
  0
LINE
  5
41E
330
1F
100
AcDbEntity
  8
0
  6
Continuous
 62
     7
370
    25
100
AcDbLine
 10
8865.1513588383
 20
4347.5416622996
 30
0.0
 11
8911.9507674726
 21
4347.5416622996
 31
0.0
  0
LINE
  5
41F
330
1F
100
AcDbEntity
  8
0
  6
Continuous
 62
     7
370
    25
100
AcDbLine
 10
8863.4992872685
 20
4217.5416622996
 30
0.0
 11
8911.7429429866
 21
4217.5416622996
 31
0.0
  0
LINE
  5
420
330
1F
100
AcDbEntity
  8
0
  6
Continuous
 62
     7
370
    25
100
AcDbLine
 10
8827.6211151347
 20
4348.5416622996
 30
0.0
 11
8827.6211151347
 21
4302.5416622996
 31
0.0
  0
LINE
  5
421
330
1F
100
AcDbEntity
  8
0
  6
Continuous
 62
     7
370
    25
100
AcDbLine
 10
8864.6211151347
 20
4354.0416622996
 30
0.0
 11
8910.6211151347
 21
4354.0416622996
 31
0.0
  0
LINE
  5
422
330
1F
100
AcDbEntity
  8
0
  6
Continuous
 62
     7
370
    25
100
AcDbLine
 10
8862.6211151347
 20
4350.0416622996
 30
0.0
 11
8912.6211151347
 21
4350.0416622996
 31
0.0
  0
LINE
  5
423
330
1F
100
AcDbEntity
  8
0
  6
Continuous
 62
     7
370
    25
100
AcDbLine
 10
8867.6211151347
 20
4364.0416622996
 30
0.0
 11
8907.6211149608
 21
4364.0416622996
 31
0.0
  0
ARC
  5
424
330
1F
100
AcDbEntity
  8
0
  6
Continuous
 62
     7
370
    25
100
AcDbCircle
 10
8792.8317651743
 20
4300.1707037031
 30
0.0
 40
82.70068733933402
100
AcDbArc
 50
32.7332300192
 51
34.9457141132
  0
LINE
  5
425
330
1F
100
AcDbEntity
  8
0
  6
Continuous
 62
     7
370
    25
100
AcDbLine
 10
8860.6211151347
 20
4347.5416622996
 30
0.0
 11
8865.1513588383
 21
4347.5416622996
 31
0.0
  0
LINE
  5
426
330
1F
100
AcDbEntity
  8
0
  6
Continuous
 62
     7
370
    25
100
AcDbLine
 10
8704.0669470638
 20
4939.8920765741
 30
0.0
 11
8703.6211151347
 21
4939.8920765741
 31
0.0
  0
LINE
  5
427
330
1F
100
AcDbEntity
  8
0
  6
Continuous
 62
     7
370
    25
100
AcDbLine
 10
8706.6211151347
 20
4939.8920765741
 30
0.0
 11
8704.0669470638
 21
4939.8920765741
 31
0.0
  0
LINE
  5
428
330
1F
100
AcDbEntity
  8
0
  6
Continuous
 62
     7
370
    25
100
AcDbLine
 10
8697.6211151347
 20
4923.8920765741
 30
0.0
 11
8697.6211151347
 21
4983.8920765741
 31
0.0
  0
LINE
  5
429
330
1F
100
AcDbEntity
  8
0
  6
Continuous
 62
     7
370
    25
100
AcDbLine
 10
8698.1211151347
 20
4983.3920765741
 30
0.0
 11
8698.1211151347
 21
4924.3920765741
 31
0.0
  0
LINE
  5
42A
330
1F
100
AcDbEntity
  8
0
  6
Continuous
 62
     7
370
    25
100
AcDbLine
 10
8697.6211151347
 20
4965.4640329309
 30
0.0
 11
8697.6211151347
 21
4983.8920765741
 31
0.0
  0
LINE
  5
42B
330
1F
100
AcDbEntity
  8
0
  6
Continuous
 62
     7
370
    25
100
AcDbLine
 10
8697.6211151347
 20
4923.8920765741
 30
0.0
 11
8697.6211151347
 21
4965.4640329309
 31
0.0
  0
LINE
  5
42C
330
1F
100
AcDbEntity
  8
0
  6
Continuous
 62
     7
370
    25
100
AcDbLine
 10
8698.1211151347
 20
4965.2711669916
 30
0.0
 11
8698.1211151347
 21
4924.3920765741
 31
0.0
  0
LINE
  5
42D
330
1F
100
AcDbEntity
  8
0
  6
Continuous
 62
     7
370
    25
100
AcDbLine
 10
8698.1211151347
 20
4983.3920765741
 30
0.0
 11
8698.1211151347
 21
4965.2711669916
 31
0.0
  0
LINE
  5
42E
330
1F
100
AcDbEntity
  8
0
  6
Continuous
 62
     7
370
    25
100
AcDbLine
 10
8863.1211151347
 20
4949.0023491168
 30
0.0
 11
8863.1211151347
 21
4967.8920765741
 31
0.0
  0
LINE
  5
42F
330
1F
100
AcDbEntity
  8
0
  6
Continuous
 62
     7
370
    25
100
AcDbLine
 10
8829.1211151347
 20
4939.8920765741
 30
0.0
 11
8863.1211151347
 21
4949.0023491168
 31
0.0
  0
ARC
  5
430
330
1F
100
AcDbEntity
  8
0
  6
Continuous
 62
     7
370
    25
100
AcDbCircle
 10
8705.1211836841
 20
4925.9441153478
 30
0.0
 40
14.04520901103043
100
AcDbArc
 50
83.253721142
 51
96.6618607909
  0
LINE
  5
431
330
1F
100
AcDbEntity
  8
0
  6
Continuous
 62
     7
370
    25
100
AcDbLine
 10
8864.1211151347
 20
4966.8920765741
 30
0.0
 11
8864.1211151347
 21
4949.2702983092
 31
0.0
  0
LINE
  5
432
330
1F
100
AcDbEntity
  8
0
  6
Continuous
 62
     7
370
    25
100
AcDbLine
 10
8864.1211151347
 20
4949.2702983092
 30
0.0
 11
8863.1211151347
 21
4949.0023491168
 31
0.0
  0
LINE
  5
433
330
1F
100
AcDbEntity
  8
0
  6
Continuous
 62
     8
370
    25
100
AcDbLine
 10
8660.1211151347
 20
4320.0400439907
 30
0.0
 11
8660.1211151347
 21
4285.5416622996
 31
0.0
  0
LINE
  5
434
330
1F
100
AcDbEntity
  8
0
  6
Continuous
 62
     8
370
    25
100
AcDbLine
 10
8660.1211151347
 20
4365.5416622996
 30
0.0
 11
8660.1211151347
 21
4320.0400439907
 31
0.0
  0
LINE
  5
435
330
1F
100
AcDbEntity
  8
0
  6
Continuous
 62
     8
370
    25
100
AcDbLine
 10
8914.9305568898
 20
4344.8893043983
 30
0.0
 11
8862.3993613543
 21
4344.8893043983
 31
0.0
  0
LINE
  5
436
330
1F
100
AcDbEntity
  8
0
  6
Continuous
 62
     8
370
    25
100
AcDbLine
 10
8860.5149008545
 20
4220.2359864382
 30
0.0
 11
8914.7273294148
 21
4220.2359864382
 31
0.0
  0
LINE
  5
437
330
1F
100
AcDbEntity
  8
0
  6
Continuous
 62
     8
370
    25
100
AcDbLine
 10
8830.6211151347
 20
4351.5416622996
 30
0.0
 11
8830.6211151347
 21
4299.5416622996
 31
0.0
  0
LINE
  5
438
330
1F
100
AcDbEntity
  8
0
  6
Continuous
 62
     8
370
    25
100
AcDbLine
 10
8864.6211151347
 20
4361.0416622996
 30
0.0
 11
8910.6211151347
 21
4361.0416622996
 31
0.0
  0
LINE
  5
439
330
1F
100
AcDbEntity
  8
0
  6
Continuous
 62
     7
370
    25
100
AcDbLine
 10
5464.2847945872
 20
4043.8739707735
 30
0.0
 11
5464.2847945872
 21
4053.8739707735
 31
0.0
  0
LINE
  5
43A
330
1F
100
AcDbEntity
  8
0
  6
Continuous
 62
     7
370
    25
100
AcDbLine
 10
5424.2847945872
 20
4053.8739707735
 30
0.0
 11
5424.2847945872
 21
4043.8739707735
 31
0.0
  0
LINE
  5
43B
330
1F
100
AcDbEntity
  8
0
  6
Continuous
 62
     7
370
    25
100
AcDbLine
 10
7497.7847945872
 20
3993.3739707735
 30
0.0
 11
7499.2847945872
 21
3991.8739707735
 31
0.0
  0
LINE
  5
43C
330
1F
100
AcDbEntity
  8
0
  6
Continuous
 62
     7
370
    25
100
AcDbLine
 10
7524.2847945872
 20
3991.8739707735
 30
0.0
 11
7525.7847945872
 21
3993.3739707735
 31
0.0
  0
LINE
  5
43D
330
1F
100
AcDbEntity
  8
0
  6
Continuous
 62
     7
370
    25
100
AcDbLine
 10
7497.7847945872
 20
3993.8739707735
 30
0.0
 11
7497.7847945872
 21
3993.3739707735
 31
0.0
  0
LINE
  5
43E
330
1F
100
AcDbEntity
  8
0
  6
Continuous
 62
     7
370
    25
100
AcDbLine
 10
7525.7847945872
 20
3993.3739707735
 30
0.0
 11
7525.7847945872
 21
3993.8739707735
 31
0.0
  0
LINE
  5
43F
330
1F
100
AcDbEntity
  8
0
  6
Continuous
 62
     7
370
    25
100
AcDbLine
 10
5697.7847945872
 20
3993.3739707735
 30
0.0
 11
5699.2847945872
 21
3991.8739707735
 31
0.0
  0
LINE
  5
440
330
1F
100
AcDbEntity
  8
0
  6
Continuous
 62
     7
370
    25
100
AcDbLine
 10
5724.2847945872
 20
3991.8739707735
 30
0.0
 11
5725.7847945872
 21
3993.3739707735
 31
0.0
  0
LINE
  5
441
330
1F
100
AcDbEntity
  8
0
  6
Continuous
 62
     7
370
    25
100
AcDbLine
 10
5697.7847945872
 20
3993.8739707735
 30
0.0
 11
5697.7847945872
 21
3993.3739707735
 31
0.0
  0
LINE
  5
442
330
1F
100
AcDbEntity
  8
0
  6
Continuous
 62
     7
370
    25
100
AcDbLine
 10
5725.7847945872
 20
3993.3739707735
 30
0.0
 11
5725.7847945872
 21
3993.8739707735
 31
0.0
  0
LINE
  5
443
330
1F
100
AcDbEntity
  8
0
  6
Continuous
 62
     7
370
    25
100
AcDbLine
 10
8097.7847945872
 20
3993.8739707735
 30
0.0
 11
8097.7847945872
 21
3993.3739707735
 31
0.0
  0
LINE
  5
444
330
1F
100
AcDbEntity
  8
0
  6
Continuous
 62
     7
370
    25
100
AcDbLine
 10
8125.7847945872
 20
3993.3739707735
 30
0.0
 11
8125.7847945872
 21
3993.8739707735
 31
0.0
  0
LINE
  5
445
330
1F
100
AcDbEntity
  8
0
  6
Continuous
 62
     7
370
    25
100
AcDbLine
 10
8097.7847945872
 20
3993.3739707735
 30
0.0
 11
8099.2847945872
 21
3991.8739707735
 31
0.0
  0
LINE
  5
446
330
1F
100
AcDbEntity
  8
0
  6
Continuous
 62
     7
370
    25
100
AcDbLine
 10
8124.2847945872
 20
3991.8739707735
 30
0.0
 11
8125.7847945872
 21
3993.3739707735
 31
0.0
  0
LINE
  5
447
330
1F
100
AcDbEntity
  8
0
  6
Continuous
 62
     7
370
    25
100
AcDbLine
 10
6297.7847945872
 20
3993.3739707735
 30
0.0
 11
6299.2847945872
 21
3991.8739707735
 31
0.0
  0
LINE
  5
448
330
1F
100
AcDbEntity
  8
0
  6
Continuous
 62
     7
370
    25
100
AcDbLine
 10
6324.2847945872
 20
3991.8739707735
 30
0.0
 11
6325.7847945872
 21
3993.3739707735
 31
0.0
  0
LINE
  5
449
330
1F
100
AcDbEntity
  8
0
  6
Continuous
 62
     7
370
    25
100
AcDbLine
 10
6297.7847945872
 20
3993.8739707735
 30
0.0
 11
6297.7847945872
 21
3993.3739707735
 31
0.0
  0
LINE
  5
44A
330
1F
100
AcDbEntity
  8
0
  6
Continuous
 62
     7
370
    25
100
AcDbLine
 10
6325.7847945872
 20
3993.3739707735
 30
0.0
 11
6325.7847945872
 21
3993.8739707735
 31
0.0
  0
LINE
  5
44B
330
1F
100
AcDbEntity
  8
0
  6
Continuous
 62
     7
370
    25
100
AcDbLine
 10
6897.7847945872
 20
3993.3739707735
 30
0.0
 11
6899.2847945872
 21
3991.8739707735
 31
0.0
  0
LINE
  5
44C
330
1F
100
AcDbEntity
  8
0
  6
Continuous
 62
     7
370
    25
100
AcDbLine
 10
6924.2847945872
 20
3991.8739707735
 30
0.0
 11
6925.7847945872
 21
3993.3739707735
 31
0.0
  0
LINE
  5
44D
330
1F
100
AcDbEntity
  8
0
  6
Continuous
 62
     7
370
    25
100
AcDbLine
 10
6897.7847945872
 20
3993.8739707735
 30
0.0
 11
6897.7847945872
 21
3993.3739707735
 31
0.0
  0
LINE
  5
44E
330
1F
100
AcDbEntity
  8
0
  6
Continuous
 62
     7
370
    25
100
AcDbLine
 10
6925.7847945872
 20
3993.3739707735
 30
0.0
 11
6925.7847945872
 21
3993.8739707735
 31
0.0
  0
LINE
  5
44F
330
1F
100
AcDbEntity
  8
0
  6
Continuous
 62
     7
370
    25
100
AcDbLine
 10
6221.7847945872
 20
3991.3739707735
 30
0.0
 11
6221.7847945872
 21
3993.8739707735
 31
0.0
  0
LINE
  5
450
330
1F
100
AcDbEntity
  8
0
  6
Continuous
 62
     7
370
    25
100
AcDbLine
 10
6161.7847945872
 20
3993.8739707735
 30
0.0
 11
6161.7847945872
 21
3991.3739707735
 31
0.0
  0
LINE
  5
451
330
1F
100
AcDbEntity
  8
0
  6
Continuous
 62
     7
370
    25
100
AcDbLine
 10
6161.7847945872
 20
3991.3739707735
 30
0.0
 11
6162.2847945872
 21
3990.8739707735
 31
0.0
  0
LINE
  5
452
330
1F
100
AcDbEntity
  8
0
  6
Continuous
 62
     7
370
    25
100
AcDbLine
 10
6221.2847945872
 20
3990.8739707735
 30
0.0
 11
6221.7847945872
 21
3991.3739707735
 31
0.0
  0
LINE
  5
453
330
1F
100
AcDbEntity
  8
0
  6
Continuous
 62
     7
370
    25
100
AcDbLine
 10
5621.7847945872
 20
3991.3739707735
 30
0.0
 11
5621.7847945872
 21
3993.8739707735
 31
0.0
  0
LINE
  5
454
330
1F
100
AcDbEntity
  8
0
  6
Continuous
 62
     7
370
    25
100
AcDbLine
 10
5561.7847945872
 20
3993.8739707735
 30
0.0
 11
5561.7847945872
 21
3991.3739707735
 31
0.0
  0
LINE
  5
455
330
1F
100
AcDbEntity
  8
0
  6
Continuous
 62
     7
370
    25
100
AcDbLine
 10
5561.7847945872
 20
3991.3739707735
 30
0.0
 11
5562.2847945872
 21
3990.8739707735
 31
0.0
  0
LINE
  5
456
330
1F
100
AcDbEntity
  8
0
  6
Continuous
 62
     7
370
    25
100
AcDbLine
 10
5621.2847945872
 20
3990.8739707735
 30
0.0
 11
5621.7847945872
 21
3991.3739707735
 31
0.0
  0
LINE
  5
457
330
1F
100
AcDbEntity
  8
0
  6
Continuous
 62
     7
370
    25
100
AcDbLine
 10
7421.7847945872
 20
3991.3739707735
 30
0.0
 11
7421.7847945872
 21
3993.8739707735
 31
0.0
  0
LINE
  5
458
330
1F
100
AcDbEntity
  8
0
  6
Continuous
 62
     7
370
    25
100
AcDbLine
 10
7361.7847945872
 20
3993.8739707735
 30
0.0
 11
7361.7847945872
 21
3991.3739707735
 31
0.0
  0
LINE
  5
459
330
1F
100
AcDbEntity
  8
0
  6
Continuous
 62
     7
370
    25
100
AcDbLine
 10
7361.7847945872
 20
3991.3739707735
 30
0.0
 11
7362.2847945872
 21
3990.8739707735
 31
0.0
  0
LINE
  5
45A
330
1F
100
AcDbEntity
  8
0
  6
Continuous
 62
     7
370
    25
100
AcDbLine
 10
7421.2847945872
 20
3990.8739707735
 30
0.0
 11
7421.7847945872
 21
3991.3739707735
 31
0.0
  0
LINE
  5
45B
330
1F
100
AcDbEntity
  8
0
  6
Continuous
 62
     7
370
    25
100
AcDbLine
 10
8021.7847945872
 20
3991.3739707735
 30
0.0
 11
8021.7847945872
 21
3993.8739707735
 31
0.0
  0
LINE
  5
45C
330
1F
100
AcDbEntity
  8
0
  6
Continuous
 62
     7
370
    25
100
AcDbLine
 10
7961.7847945872
 20
3993.8739707735
 30
0.0
 11
7961.7847945872
 21
3991.3739707735
 31
0.0
  0
LINE
  5
45D
330
1F
100
AcDbEntity
  8
0
  6
Continuous
 62
     7
370
    25
100
AcDbLine
 10
7961.7847945872
 20
3991.3739707735
 30
0.0
 11
7962.2847945872
 21
3990.8739707735
 31
0.0
  0
LINE
  5
45E
330
1F
100
AcDbEntity
  8
0
  6
Continuous
 62
     7
370
    25
100
AcDbLine
 10
8021.2847945872
 20
3990.8739707735
 30
0.0
 11
8021.7847945872
 21
3991.3739707735
 31
0.0
  0
LINE
  5
45F
330
1F
100
AcDbEntity
  8
0
  6
Continuous
 62
     7
370
    25
100
AcDbLine
 10
6821.7847945872
 20
3991.3739707735
 30
0.0
 11
6821.7847945872
 21
3993.8739707735
 31
0.0
  0
LINE
  5
460
330
1F
100
AcDbEntity
  8
0
  6
Continuous
 62
     7
370
    25
100
AcDbLine
 10
6761.7847945872
 20
3993.8739707735
 30
0.0
 11
6761.7847945872
 21
3991.3739707735
 31
0.0
  0
LINE
  5
461
330
1F
100
AcDbEntity
  8
0
  6
Continuous
 62
     7
370
    25
100
AcDbLine
 10
6761.7847945872
 20
3991.3739707735
 30
0.0
 11
6762.2847945872
 21
3990.8739707735
 31
0.0
  0
LINE
  5
462
330
1F
100
AcDbEntity
  8
0
  6
Continuous
 62
     7
370
    25
100
AcDbLine
 10
6821.2847945872
 20
3990.8739707735
 30
0.0
 11
6821.7847945872
 21
3991.3739707735
 31
0.0
  0
LINE
  5
463
330
1F
100
AcDbEntity
  8
0
  6
Continuous
 62
     7
370
    25
100
AcDbLine
 10
6177.7847945872
 20
3990.8739707735
 30
0.0
 11
6177.7847945872
 21
3825.8739707735
 31
0.0
  0
LINE
  5
464
330
1F
100
AcDbEntity
  8
0
  6
Continuous
 62
     7
370
    25
100
AcDbLine
 10
6205.7847945872
 20
3825.8739707735
 30
0.0
 11
6205.7847945872
 21
3990.8739707735
 31
0.0
  0
LINE
  5
465
330
1F
100
AcDbEntity
  8
0
  6
Continuous
 62
     7
370
    25
100
AcDbLine
 10
6177.7847945872
 20
3825.8739707735
 30
0.0
 11
6178.7847945872
 21
3824.8739707735
 31
0.0
  0
LINE
  5
466
330
1F
100
AcDbEntity
  8
0
  6
Continuous
 62
     7
370
    25
100
AcDbLine
 10
6204.7847945872
 20
3824.8739707735
 30
0.0
 11
6205.7847945872
 21
3825.8739707735
 31
0.0
  0
LINE
  5
467
330
1F
100
AcDbEntity
  8
0
  6
Continuous
 62
     7
370
    25
100
AcDbLine
 10
7377.7847945872
 20
3990.8739707735
 30
0.0
 11
7377.7847945872
 21
3825.8739707735
 31
0.0
  0
LINE
  5
468
330
1F
100
AcDbEntity
  8
0
  6
Continuous
 62
     7
370
    25
100
AcDbLine
 10
7405.7847945872
 20
3825.8739707735
 30
0.0
 11
7405.7847945872
 21
3990.8739707735
 31
0.0
  0
LINE
  5
469
330
1F
100
AcDbEntity
  8
0
  6
Continuous
 62
     7
370
    25
100
AcDbLine
 10
7377.7847945872
 20
3825.8739707735
 30
0.0
 11
7378.7847945872
 21
3824.8739707735
 31
0.0
  0
LINE
  5
46A
330
1F
100
AcDbEntity
  8
0
  6
Continuous
 62
     7
370
    25
100
AcDbLine
 10
7404.7847945872
 20
3824.8739707735
 30
0.0
 11
7405.7847945872
 21
3825.8739707735
 31
0.0
  0
LINE
  5
46B
330
1F
100
AcDbEntity
  8
0
  6
Continuous
 62
     7
370
    25
100
AcDbLine
 10
5577.7847945872
 20
3990.8739707735
 30
0.0
 11
5577.7847945872
 21
3825.8739707735
 31
0.0
  0
LINE
  5
46C
330
1F
100
AcDbEntity
  8
0
  6
Continuous
 62
     7
370
    25
100
AcDbLine
 10
5605.7847945872
 20
3825.8739707735
 30
0.0
 11
5605.7847945872
 21
3990.8739707735
 31
0.0
  0
LINE
  5
46D
330
1F
100
AcDbEntity
  8
0
  6
Continuous
 62
     7
370
    25
100
AcDbLine
 10
5577.7847945872
 20
3825.8739707735
 30
0.0
 11
5578.7847945872
 21
3824.8739707735
 31
0.0
  0
LINE
  5
46E
330
1F
100
AcDbEntity
  8
0
  6
Continuous
 62
     7
370
    25
100
AcDbLine
 10
5604.7847945872
 20
3824.8739707735
 30
0.0
 11
5605.7847945872
 21
3825.8739707735
 31
0.0
  0
LINE
  5
46F
330
1F
100
AcDbEntity
  8
0
  6
Continuous
 62
     7
370
    25
100
AcDbLine
 10
6777.7847945872
 20
3990.8739707735
 30
0.0
 11
6777.7847945872
 21
3825.8739707735
 31
0.0
  0
LINE
  5
470
330
1F
100
AcDbEntity
  8
0
  6
Continuous
 62
     7
370
    25
100
AcDbLine
 10
6805.7847945872
 20
3825.8739707735
 30
0.0
 11
6805.7847945872
 21
3990.8739707735
 31
0.0
  0
LINE
  5
471
330
1F
100
AcDbEntity
  8
0
  6
Continuous
 62
     7
370
    25
100
AcDbLine
 10
6777.7847945872
 20
3825.8739707735
 30
0.0
 11
6778.7847945872
 21
3824.8739707735
 31
0.0
  0
LINE
  5
472
330
1F
100
AcDbEntity
  8
0
  6
Continuous
 62
     7
370
    25
100
AcDbLine
 10
6804.7847945872
 20
3824.8739707735
 30
0.0
 11
6805.7847945872
 21
3825.8739707735
 31
0.0
  0
LINE
  5
473
330
1F
100
AcDbEntity
  8
0
  6
Continuous
 62
     7
370
    25
100
AcDbLine
 10
7977.7847945872
 20
3990.8739707735
 30
0.0
 11
7977.7847945872
 21
3825.8739707735
 31
0.0
  0
LINE
  5
474
330
1F
100
AcDbEntity
  8
0
  6
Continuous
 62
     7
370
    25
100
AcDbLine
 10
8005.7847945872
 20
3825.8739707735
 30
0.0
 11
8005.7847945872
 21
3990.8739707735
 31
0.0
  0
LINE
  5
475
330
1F
100
AcDbEntity
  8
0
  6
Continuous
 62
     7
370
    25
100
AcDbLine
 10
7977.7847945872
 20
3825.8739707735
 30
0.0
 11
7978.7847945872
 21
3824.8739707735
 31
0.0
  0
LINE
  5
476
330
1F
100
AcDbEntity
  8
0
  6
Continuous
 62
     7
370
    25
100
AcDbLine
 10
8004.7847945872
 20
3824.8739707735
 30
0.0
 11
8005.7847945872
 21
3825.8739707735
 31
0.0
  0
LINE
  5
477
330
1F
100
AcDbEntity
  8
0
  6
Continuous
 62
     7
370
    25
100
AcDbLine
 10
8245.1347945872
 20
3563.7739707735
 30
0.0
 11
5338.4347945872
 21
3563.7739707735
 31
0.0
  0
LINE
  5
478
330
1F
100
AcDbEntity
  8
0
  6
Continuous
 62
     7
370
    25
100
AcDbLine
 10
5338.4347945872
 20
3563.7739707735
 30
0.0
 11
5338.4347945872
 21
3563.8739707735
 31
0.0
  0
LINE
  5
479
330
1F
100
AcDbEntity
  8
0
  6
Continuous
 62
     7
370
    25
100
AcDbLine
 10
8245.1347945872
 20
3563.7739707735
 30
0.0
 11
8245.1347945872
 21
3563.8739707735
 31
0.0
  0
LWPOLYLINE
  5
47A
330
1F
100
AcDbEntity
  8
0
  6
Continuous
 62
     7
370
    25
100
AcDbPolyline
 90
        3
 70
   128
 43
0.0
 10
8245.1347945872
 20
3563.7739707735
 10
8245.4566936186
 20
3563.8056750609
 10
8245.7004800121
 20
3563.8739707735
  0
LWPOLYLINE
  5
47B
330
1F
100
AcDbEntity
  8
0
  6
Continuous
 62
     7
370
    25
100
AcDbPolyline
 90
        3
 70
   128
 43
0.0
 10
5337.8691091623
 20
3563.8739707735
 10
5338.1128955559
 20
3563.8056750609
 10
5338.4347945872
 20
3563.7739707735
  0
LINE
  5
47C
330
1F
100
AcDbEntity
  8
0
  6
Continuous
 62
     7
370
    25
100
AcDbLine
 10
8291.7847945872
 20
4043.8739707735
 30
0.0
 11
8289.7847945872
 21
4043.8739707735
 31
0.0
  0
LINE
  5
47D
330
1F
100
AcDbEntity
  8
0
  6
Continuous
 62
     7
370
    25
100
AcDbLine
 10
8291.7847945872
 20
4043.8739707735
 30
0.0
 11
8291.7847945872
 21
4041.2165650537
 31
0.0
  0
LINE
  5
47E
330
1F
100
AcDbEntity
  8
0
  6
Continuous
 62
     7
370
    25
100
AcDbLine
 10
8291.7847945872
 20
4041.2165650537
 30
0.0
 11
8289.7847945872
 21
4041.2165650537
 31
0.0
  0
LINE
  5
47F
330
1F
100
AcDbEntity
  8
0
  6
Continuous
 62
     7
370
    25
100
AcDbLine
 10
8289.7847945872
 20
4043.8739707735
 30
0.0
 11
8289.7847945872
 21
4041.2165650537
 31
0.0
  0
LINE
  5
480
330
1F
100
AcDbEntity
  8
0
  6
Continuous
 62
     7
370
    25
100
AcDbLine
 10
8291.7847945872
 20
3995.6165650537
 30
0.0
 11
8289.7847945872
 21
3995.6165650537
 31
0.0
  0
LINE
  5
481
330
1F
100
AcDbEntity
  8
0
  6
Continuous
 62
     7
370
    25
100
AcDbLine
 10
8291.7847945872
 20
4041.2165650537
 30
0.0
 11
8291.7847945872
 21
3995.6165650537
 31
0.0
  0
LINE
  5
482
330
1F
100
AcDbEntity
  8
0
  6
Continuous
 62
     7
370
    25
100
AcDbLine
 10
8289.7847945872
 20
4041.2165650537
 30
0.0
 11
8289.7847945872
 21
3995.6165650537
 31
0.0
  0
LINE
  5
483
330
1F
100
AcDbEntity
  8
0
  6
Continuous
 62
     7
370
    25
100
AcDbLine
 10
8291.7847945872
 20
3993.8739707735
 30
0.0
 11
8289.7847945872
 21
3993.8739707735
 31
0.0
  0
LINE
  5
484
330
1F
100
AcDbEntity
  8
0
  6
Continuous
 62
     7
370
    25
100
AcDbLine
 10
8291.7847945872
 20
3995.6165650537
 30
0.0
 11
8291.7847945872
 21
3993.8739707735
 31
0.0
  0
LINE
  5
485
330
1F
100
AcDbEntity
  8
0
  6
Continuous
 62
     7
370
    25
100
AcDbLine
 10
8289.7847945872
 20
3995.6165650537
 30
0.0
 11
8289.7847945872
 21
3993.8739707735
 31
0.0
  0
LINE
  5
486
330
1F
100
AcDbEntity
  8
0
  6
Continuous
 62
     7
370
    25
100
AcDbLine
 10
8291.7847945872
 20
3566.0739707735
 30
0.0
 11
8289.7847945872
 21
3566.0739707735
 31
0.0
  0
LINE
  5
487
330
1F
100
AcDbEntity
  8
0
  6
Continuous
 62
     7
370
    25
100
AcDbLine
 10
8291.7847945872
 20
3993.8739707735
 30
0.0
 11
8291.7847945872
 21
3566.0739707735
 31
0.0
  0
LINE
  5
488
330
1F
100
AcDbEntity
  8
0
  6
Continuous
 62
     7
370
    25
100
AcDbLine
 10
8289.7847945872
 20
3993.8739707735
 30
0.0
 11
8289.7847945872
 21
3566.0739707735
 31
0.0
  0
LINE
  5
489
330
1F
100
AcDbEntity
  8
0
  6
Continuous
 62
     7
370
    25
100
AcDbLine
 10
8291.7847945872
 20
3563.8739707735
 30
0.0
 11
8289.7847945872
 21
3563.8739707735
 31
0.0
  0
LINE
  5
48A
330
1F
100
AcDbEntity
  8
0
  6
Continuous
 62
     7
370
    25
100
AcDbLine
 10
8291.7847945872
 20
3566.0739707735
 30
0.0
 11
8291.7847945872
 21
3563.8739707735
 31
0.0
  0
LINE
  5
48B
330
1F
100
AcDbEntity
  8
0
  6
Continuous
 62
     7
370
    25
100
AcDbLine
 10
8289.7847945872
 20
3566.0739707735
 30
0.0
 11
8289.7847945872
 21
3563.8739707735
 31
0.0
  0
LWPOLYLINE
  5
48C
330
1F
100
AcDbEntity
  8
0
  6
Continuous
 62
     7
370
    25
100
AcDbPolyline
 90
        3
 70
   128
 43
0.0
 10
8289.4658195548
 20
3563.8739707735
 10
8289.2895745855
 20
3563.8335364043
 10
8288.6847945872
 20
3563.7739707735
  0
LINE
  5
48D
330
1F
100
AcDbEntity
  8
0
  6
Continuous
 62
     7
370
    25
100
AcDbLine
 10
8288.6847945872
 20
3563.7739707735
 30
0.0
 11
8249.8847945872
 21
3563.7739707735
 31
0.0
  0
LWPOLYLINE
  5
48E
330
1F
100
AcDbEntity
  8
0
  6
Continuous
 62
     7
370
    25
100
AcDbPolyline
 90
        3
 70
   128
 43
0.0
 10
8249.1037696197
 20
3563.8739707735
 10
8249.280014589
 20
3563.8335364043
 10
8249.8847945872
 20
3563.7739707735
  0
LINE
  5
48F
330
1F
100
AcDbEntity
  8
0
  6
Continuous
 62
     7
370
    25
100
AcDbLine
 10
5291.7847945872
 20
4041.2165650537
 30
0.0
 11
5293.7847945872
 21
4041.2165650537
 31
0.0
  0
LINE
  5
490
330
1F
100
AcDbEntity
  8
0
  6
Continuous
 62
     7
370
    25
100
AcDbLine
 10
5291.7847945872
 20
4043.8739707735
 30
0.0
 11
5293.7847945872
 21
4043.8739707735
 31
0.0
  0
LINE
  5
491
330
1F
100
AcDbEntity
  8
0
  6
Continuous
 62
     7
370
    25
100
AcDbLine
 10
5293.7847945872
 20
4043.8739707735
 30
0.0
 11
5293.7847945872
 21
4041.2165650537
 31
0.0
  0
LINE
  5
492
330
1F
100
AcDbEntity
  8
0
  6
Continuous
 62
     7
370
    25
100
AcDbLine
 10
5291.7847945872
 20
4043.8739707735
 30
0.0
 11
5291.7847945872
 21
4041.2165650537
 31
0.0
  0
LINE
  5
493
330
1F
100
AcDbEntity
  8
0
  6
Continuous
 62
     7
370
    25
100
AcDbLine
 10
5291.7847945872
 20
3995.6165650537
 30
0.0
 11
5293.7847945872
 21
3995.6165650537
 31
0.0
  0
LINE
  5
494
330
1F
100
AcDbEntity
  8
0
  6
Continuous
 62
     7
370
    25
100
AcDbLine
 10
5293.7847945872
 20
4041.2165650537
 30
0.0
 11
5293.7847945872
 21
3995.6165650537
 31
0.0
  0
LINE
  5
495
330
1F
100
AcDbEntity
  8
0
  6
Continuous
 62
     7
370
    25
100
AcDbLine
 10
5291.7847945872
 20
4041.2165650537
 30
0.0
 11
5291.7847945872
 21
3995.6165650537
 31
0.0
  0
LINE
  5
496
330
1F
100
AcDbEntity
  8
0
  6
Continuous
 62
     7
370
    25
100
AcDbLine
 10
5291.7847945872
 20
3993.8739707735
 30
0.0
 11
5293.7847945872
 21
3993.8739707735
 31
0.0
  0
LINE
  5
497
330
1F
100
AcDbEntity
  8
0
  6
Continuous
 62
     7
370
    25
100
AcDbLine
 10
5293.7847945872
 20
3995.6165650537
 30
0.0
 11
5293.7847945872
 21
3993.8739707735
 31
0.0
  0
LINE
  5
498
330
1F
100
AcDbEntity
  8
0
  6
Continuous
 62
     7
370
    25
100
AcDbLine
 10
5291.7847945872
 20
3995.6165650537
 30
0.0
 11
5291.7847945872
 21
3993.8739707735
 31
0.0
  0
LINE
  5
499
330
1F
100
AcDbEntity
  8
0
  6
Continuous
 62
     7
370
    25
100
AcDbLine
 10
5291.7847945872
 20
3566.0739707735
 30
0.0
 11
5293.7847945872
 21
3566.0739707735
 31
0.0
  0
LINE
  5
49A
330
1F
100
AcDbEntity
  8
0
  6
Continuous
 62
     7
370
    25
100
AcDbLine
 10
5293.7847945872
 20
3993.8739707735
 30
0.0
 11
5293.7847945872
 21
3566.0739707735
 31
0.0
  0
LINE
  5
49B
330
1F
100
AcDbEntity
  8
0
  6
Continuous
 62
     7
370
    25
100
AcDbLine
 10
5291.7847945872
 20
3993.8739707735
 30
0.0
 11
5291.7847945872
 21
3566.0739707735
 31
0.0
  0
LINE
  5
49C
330
1F
100
AcDbEntity
  8
0
  6
Continuous
 62
     7
370
    25
100
AcDbLine
 10
5291.7847945872
 20
3563.8739707735
 30
0.0
 11
5293.7847945872
 21
3563.8739707735
 31
0.0
  0
LINE
  5
49D
330
1F
100
AcDbEntity
  8
0
  6
Continuous
 62
     7
370
    25
100
AcDbLine
 10
5293.7847945872
 20
3566.0739707735
 30
0.0
 11
5293.7847945872
 21
3563.8739707735
 31
0.0
  0
LINE
  5
49E
330
1F
100
AcDbEntity
  8
0
  6
Continuous
 62
     7
370
    25
100
AcDbLine
 10
5291.7847945872
 20
3566.0739707735
 30
0.0
 11
5291.7847945872
 21
3563.8739707735
 31
0.0
  0
LWPOLYLINE
  5
49F
330
1F
100
AcDbEntity
  8
0
  6
Continuous
 62
     7
370
    25
100
AcDbPolyline
 90
        3
 70
   128
 43
0.0
 10
5294.1037696196
 20
3563.8739707735
 10
5294.280014589
 20
3563.8335364043
 10
5294.8847945872
 20
3563.7739707735
  0
LINE
  5
4A0
330
1F
100
AcDbEntity
  8
0
  6
Continuous
 62
     7
370
    25
100
AcDbLine
 10
5294.8847945872
 20
3563.7739707735
 30
0.0
 11
5333.6847945872
 21
3563.7739707735
 31
0.0
  0
LWPOLYLINE
  5
4A1
330
1F
100
AcDbEntity
  8
0
  6
Continuous
 62
     7
370
    25
100
AcDbPolyline
 90
        3
 70
   128
 43
0.0
 10
5334.4658195548
 20
3563.8739707735
 10
5334.2895745855
 20
3563.8335364043
 10
5333.6847945872
 20
3563.7739707735
  0
LINE
  5
4A2
330
1F
100
AcDbEntity
  8
0
  6
Continuous
 62
     7
370
    25
100
AcDbLine
 10
8289.7847945872
 20
4043.8739707735
 30
0.0
 11
5293.7847945872
 21
4043.8739707735
 31
0.0
  0
LINE
  5
4A3
330
1F
100
AcDbEntity
  8
0
  6
Continuous
 62
     7
370
    25
100
AcDbLine
 10
5293.7847945872
 20
4041.2165650537
 30
0.0
 11
8289.7847945872
 21
4041.2165650537
 31
0.0
  0
LINE
  5
4A4
330
1F
100
AcDbEntity
  8
0
  6
Continuous
 62
     7
370
    25
100
AcDbLine
 10
8289.7847945872
 20
3995.6165650537
 30
0.0
 11
5293.7847945872
 21
3995.6165650537
 31
0.0
  0
LINE
  5
4A5
330
1F
100
AcDbEntity
  8
0
  6
Continuous
 62
     7
370
    25
100
AcDbLine
 10
5293.7847945872
 20
3993.8739707735
 30
0.0
 11
8289.7847945872
 21
3993.8739707735
 31
0.0
  0
LINE
  5
4A6
330
1F
100
AcDbEntity
  8
0
  6
Continuous
 62
     7
370
    25
100
AcDbLine
 10
8289.7847945872
 20
3608.8739707735
 30
0.0
 11
5293.7847945872
 21
3608.8739707735
 31
0.0
  0
LINE
  5
4A7
330
1F
100
AcDbEntity
  8
0
  6
Continuous
 62
     7
370
    25
100
AcDbLine
 10
5293.7847945872
 20
3606.6739707735
 30
0.0
 11
8289.7847945872
 21
3606.6739707735
 31
0.0
  0
LINE
  5
4A8
330
1F
100
AcDbEntity
  8
0
  6
Continuous
 62
     7
370
    25
100
AcDbLine
 10
8289.7847945872
 20
3566.0739707735
 30
0.0
 11
5293.7847945872
 21
3566.0739707735
 31
0.0
  0
LINE
  5
4A9
330
1F
100
AcDbEntity
  8
0
  6
Continuous
 62
     7
370
    25
100
AcDbLine
 10
5293.7847945872
 20
3566.0739707735
 30
0.0
 11
5293.7847945872
 21
3606.6739707735
 31
0.0
  0
LINE
  5
4AA
330
1F
100
AcDbEntity
  8
0
  6
Continuous
 62
     7
370
    25
100
AcDbLine
 10
8289.7847945872
 20
3566.0739707735
 30
0.0
 11
8289.7847945872
 21
3606.6739707735
 31
0.0
  0
LINE
  5
4AB
330
1F
100
AcDbEntity
  8
0
  6
Continuous
 62
     7
370
    25
100
AcDbLine
 10
5293.7847945872
 20
3563.8739707735
 30
0.0
 11
8289.7847945872
 21
3563.8739707735
 31
0.0
  0
LINE
  5
4AC
330
1F
100
AcDbEntity
  8
0
  6
Continuous
 62
     7
370
    25
100
AcDbLine
 10
8289.7847945872
 20
3609.2163318344
 30
0.0
 11
5293.7847945872
 21
3609.2163318344
 31
0.0
  0
LINE
  5
4AD
330
1F
100
AcDbEntity
  8
0
  6
Continuous
 62
     7
370
    25
100
AcDbLine
 10
5293.7847945872
 20
3734.5914110894
 30
0.0
 11
8289.7847945872
 21
3734.5914110894
 31
0.0
  0
LINE
  5
4AE
330
1F
100
AcDbEntity
  8
0
  6
Continuous
 62
     7
370
    25
100
AcDbLine
 10
8289.7847945872
 20
3735.2490500285
 30
0.0
 11
5293.7847945872
 21
3735.2490500285
 31
0.0
  0
ARC
  5
4AF
330
1F
100
AcDbEntity
  8
0
  6
Continuous
 62
     7
370
    25
100
AcDbCircle
 10
5444.2847945872
 20
3801.3739707735
 30
0.0
 40
5.249999999999787
100
AcDbArc
 50
12.0173291624
 51
175.590907759
  0
LINE
  5
4B0
330
1F
100
AcDbEntity
  8
0
  6
Continuous
 62
     7
370
    25
100
AcDbLine
 10
5449.41973912
 20
3802.4670602691
 30
0.0
 11
5439.0503316201
 21
3801.7775763308
 31
0.0
  0
ARC
  5
4B1
330
1F
100
AcDbEntity
  8
0
  6
Continuous
 62
     7
370
    25
100
AcDbCircle
 10
5444.2847945872
 20
3801.3739707735
 30
0.0
 40
5.249999999999692
100
AcDbArc
 50
192.0173291624
 51
355.590907759
  0
LINE
  5
4B2
330
1F
100
AcDbEntity
  8
0
  6
Continuous
 62
     7
370
    25
100
AcDbLine
 10
5439.1498500545
 20
3800.280881278
 30
0.0
 11
5449.5192575543
 21
3800.9703652163
 31
0.0
  0
ARC
  5
4B3
330
1F
100
AcDbEntity
  8
0
  6
Continuous
 62
     7
370
    25
100
AcDbCircle
 10
5444.2847945872
 20
3801.3739707735
 30
0.0
 40
5.249999999999692
100
AcDbArc
 50
175.590907759
 51
192.0173291624
  0
ARC
  5
4B4
330
1F
100
AcDbEntity
  8
0
  6
Continuous
 62
     7
370
    25
100
AcDbCircle
 10
5444.2847945872
 20
3801.3739707735
 30
0.0
 40
5.249999999999787
100
AcDbArc
 50
355.590907759
 51
12.0173291624
  0
CIRCLE
  5
4B5
330
1F
100
AcDbEntity
  8
0
  6
Continuous
 62
     7
370
    25
100
AcDbCircle
 10
5444.2847945872
 20
3801.3739707735
 30
0.0
 40
24.5
  0
CIRCLE
  5
4B6
330
1F
100
AcDbEntity
  8
0
  6
Continuous
 62
     7
370
    25
100
AcDbCircle
 10
5444.2847945872
 20
3801.3739707735
 30
0.0
 40
35.0
  0
CIRCLE
  5
4B7
330
1F
100
AcDbEntity
  8
0
  6
Continuous
 62
     7
370
    25
100
AcDbCircle
 10
5444.2847945872
 20
3801.3739707735
 30
0.0
 40
22.5
  0
CIRCLE
  5
4B8
330
1F
100
AcDbEntity
  8
0
  6
Continuous
 62
     7
370
    25
100
AcDbCircle
 10
5444.2847945872
 20
3801.3739707735
 30
0.0
 40
21.5
  0
CIRCLE
  5
4B9
330
1F
100
AcDbEntity
  8
0
  6
Continuous
 62
     7
370
    25
100
AcDbCircle
 10
5444.2847945872
 20
3801.3739707735
 30
0.0
 40
19.55298992456301
  0
CIRCLE
  5
4BA
330
1F
100
AcDbEntity
  8
0
  6
Continuous
 62
     7
370
    25
100
AcDbCircle
 10
5444.2847945872
 20
3801.3739707735
 30
0.0
 40
6.182050807568885
  0
ARC
  5
4BB
330
1F
100
AcDbEntity
  8
0
  6
Continuous
 62
     7
370
    25
100
AcDbCircle
 10
5444.2847945872
 20
3801.3739707735
 30
0.0
 40
19.49999999999958
100
AcDbArc
 50
166.9496950603
 51
193.0503049397
  0
ARC
  5
4BC
330
1F
100
AcDbEntity
  8
0
  6
Continuous
 62
     7
370
    25
100
AcDbCircle
 10
5429.1851257167
 20
3797.8739707735
 30
0.0
 40
4.000000000000179
100
AcDbArc
 50
193.0503049397
 51
13.0503049397
  0
ARC
  5
4BD
330
1F
100
AcDbEntity
  8
0
  6
Continuous
 62
     7
370
    25
100
AcDbCircle
 10
5444.2847945872
 20
3801.3739707735
 30
0.0
 40
11.5000000000001
100
AcDbArc
 50
166.9496950603
 51
193.0503049397
  0
ARC
  5
4BE
330
1F
100
AcDbEntity
  8
0
  6
Continuous
 62
     7
370
    25
100
AcDbCircle
 10
5429.1851257167
 20
3804.8739707735
 30
0.0
 40
4.000000000000179
100
AcDbArc
 50
346.9496950603
 51
166.9496950603
  0
ARC
  5
4BF
330
1F
100
AcDbEntity
  8
0
  6
Continuous
 62
     7
370
    25
100
AcDbCircle
 10
5444.2847945872
 20
3801.3739707735
 30
0.0
 40
19.50000000000023
100
AcDbArc
 50
256.9496950603
 51
283.0503049397
  0
ARC
  5
4C0
330
1F
100
AcDbEntity
  8
0
  6
Continuous
 62
     7
370
    25
100
AcDbCircle
 10
5447.7847945872
 20
3786.274301903
 30
0.0
 40
4.000000000000179
100
AcDbArc
 50
283.0503049397
 51
103.0503049397
  0
ARC
  5
4C1
330
1F
100
AcDbEntity
  8
0
  6
Continuous
 62
     7
370
    25
100
AcDbCircle
 10
5444.2847945872
 20
3801.3739707735
 30
0.0
 40
11.49999999999966
100
AcDbArc
 50
256.9496950603
 51
283.0503049397
  0
ARC
  5
4C2
330
1F
100
AcDbEntity
  8
0
  6
Continuous
 62
     7
370
    25
100
AcDbCircle
 10
5440.7847945872
 20
3786.274301903
 30
0.0
 40
4.000000000000384
100
AcDbArc
 50
76.9496950603
 51
256.9496950603
  0
ARC
  5
4C3
330
1F
100
AcDbEntity
  8
0
  6
Continuous
 62
     7
370
    25
100
AcDbCircle
 10
5444.2847945872
 20
3801.3739707735
 30
0.0
 40
19.49999999999958
100
AcDbArc
 50
346.9496950603
 51
13.0503049397
  0
ARC
  5
4C4
330
1F
100
AcDbEntity
  8
0
  6
Continuous
 62
     7
370
    25
100
AcDbCircle
 10
5459.3844634578
 20
3804.8739707735
 30
0.0
 40
4.000000000000179
100
AcDbArc
 50
13.0503049397
 51
193.0503049397
  0
ARC
  5
4C5
330
1F
100
AcDbEntity
  8
0
  6
Continuous
 62
     7
370
    25
100
AcDbCircle
 10
5444.2847945872
 20
3801.3739707735
 30
0.0
 40
11.5000000000001
100
AcDbArc
 50
346.9496950603
 51
13.0503049397
  0
ARC
  5
4C6
330
1F
100
AcDbEntity
  8
0
  6
Continuous
 62
     7
370
    25
100
AcDbCircle
 10
5459.3844634578
 20
3797.8739707735
 30
0.0
 40
4.000000000000179
100
AcDbArc
 50
166.9496950603
 51
346.9496950603
  0
ARC
  5
4C7
330
1F
100
AcDbEntity
  8
0
  6
Continuous
 62
     7
370
    25
100
AcDbCircle
 10
5444.2847945872
 20
3801.3739707735
 30
0.0
 40
11.5000000000001
100
AcDbArc
 50
76.9496950603
 51
103.0503049397
  0
ARC
  5
4C8
330
1F
100
AcDbEntity
  8
0
  6
Continuous
 62
     7
370
    25
100
AcDbCircle
 10
5447.7847945872
 20
3816.4736396441
 30
0.0
 40
4.000000000000179
100
AcDbArc
 50
256.9496950603
 51
76.9496950603
  0
ARC
  5
4C9
330
1F
100
AcDbEntity
  8
0
  6
Continuous
 62
     7
370
    25
100
AcDbCircle
 10
5440.7847945872
 20
3816.4736396441
 30
0.0
 40
4.000000000000179
100
AcDbArc
 50
103.0503049397
 51
283.0503049397
  0
ARC
  5
4CA
330
1F
100
AcDbEntity
  8
0
  6
Continuous
 62
     7
370
    25
100
AcDbCircle
 10
5444.2847945872
 20
3801.3739707735
 30
0.0
 40
19.50000000000023
100
AcDbArc
 50
76.9496950603
 51
103.0503049397
  0
CIRCLE
  5
4CB
330
1F
100
AcDbEntity
  8
0
  6
Continuous
 62
     7
370
    25
100
AcDbCircle
 10
5444.2847945872
 20
3801.3739707735
 30
0.0
 40
5.682050807568885
  0
LINE
  5
4CC
330
1F
100
AcDbEntity
  8
0
  6
Continuous
 62
     7
370
    25
100
AcDbLine
 10
5464.2847945872
 20
4053.8739707735
 30
0.0
 11
5424.2847945872
 21
4053.8739707735
 31
0.0
  0
LINE
  5
4CD
330
1F
100
AcDbEntity
  8
0
  6
Continuous
 62
     7
370
    25
100
AcDbLine
 10
5459.1976125751
 20
3793.8783373134
 30
0.0
 11
5456.0175688184
 21
3795.7143364323
 31
0.0
  0
LINE
  5
4CE
330
1F
100
AcDbEntity
  8
0
  6
Continuous
 62
     7
370
    25
100
AcDbLine
 10
5432.552020356
 20
3795.7143364323
 30
0.0
 11
5429.3719765994
 21
3793.8783373134
 31
0.0
  0
LINE
  5
4CF
330
1F
100
AcDbEntity
  8
0
  6
Continuous
 62
     7
370
    25
100
AcDbLine
 10
5443.3197945872
 20
3818.3071356353
 30
0.0
 11
5443.3197945872
 21
3812.8334112049
 31
0.0
  0
LINE
  5
4D0
330
1F
100
AcDbEntity
  8
0
  6
Continuous
 62
     7
370
    25
100
AcDbLine
 10
5445.2497945872
 20
3818.3071356353
 30
0.0
 11
5443.3197945872
 21
3818.3071356353
 31
0.0
  0
LINE
  5
4D1
330
1F
100
AcDbEntity
  8
0
  6
Continuous
 62
     7
370
    25
100
AcDbLine
 10
5445.2497945872
 20
3812.8334112049
 30
0.0
 11
5445.2497945872
 21
3818.3071356353
 31
0.0
  0
ARC
  5
4D2
330
1F
100
AcDbEntity
  8
0
  6
Continuous
 62
     7
370
    25
100
AcDbCircle
 10
5444.2847945872
 20
3801.3739707735
 30
0.0
 40
14.49999999999978
100
AcDbArc
 50
242.1062884445
 51
297.8937115397
  0
ARC
  5
4D3
330
1F
100
AcDbEntity
  8
0
  6
Continuous
 62
     7
370
    25
100
AcDbCircle
 10
5444.2847945872
 20
3801.3739707735
 30
0.0
 40
14.50000000000014
100
AcDbArc
 50
93.815953349
 51
117.893711559
  0
ARC
  5
4D4
330
1F
100
AcDbEntity
  8
0
  6
Continuous
 62
     7
370
    25
100
AcDbCircle
 10
5444.2847945872
 20
3801.3739707735
 30
0.0
 40
14.50000000000086
100
AcDbArc
 50
152.1062884444
 51
206.184046651
  0
ARC
  5
4D5
330
1F
100
AcDbEntity
  8
0
  6
Continuous
 62
     7
370
    25
100
AcDbCircle
 10
5444.2847945872
 20
3801.3739707735
 30
0.0
 40
14.50000000000017
100
AcDbArc
 50
333.815953349
 51
27.8937115589
  0
ARC
  5
4D6
330
1F
100
AcDbEntity
  8
0
  6
Continuous
 62
     7
370
    25
100
AcDbCircle
 10
5444.2847945872
 20
3801.3739707735
 30
0.0
 40
14.50000000000055
100
AcDbArc
 50
62.1062884563
 51
86.184046651
  0
LWPOLYLINE
  5
4D7
330
1F
100
AcDbEntity
  8
0
  6
Continuous
 62
     7
370
    25
100
AcDbPolyline
 90
       37
 70
   128
 43
0.0
 10
5413.7847945872
 20
4007.2057314606
 10
5415.8685727192
 20
4007.3840545799
 10
5417.8890363071
 20
4007.91360568
 10
5419.7847945872
 20
4008.7782946188
 10
5421.4982459035
 20
4009.9518482603
 10
5422.9773279047
 20
4011.3986087711
 10
5424.1770994326
 20
4013.074617065
 10
5425.0611060367
 20
4014.9289484782
 10
5425.6024876234
 20
4016.9052600891
 10
5425.7847945872
 20
4018.9435026694
 10
5425.6024876234
 20
4020.9817452497
 10
5425.0611060367
 20
4022.9580568606
 10
5424.1770994326
 20
4024.8123882738
 10
5422.9773279047
 20
4026.4883965678
 10
5421.4982459035
 20
4027.9351570785
 10
5419.7847945872
 20
4029.10871072
 10
5417.8890363071
 20
4029.9733996588
 10
5415.8685727192
 20
4030.5029507589
 10
5413.7847945872
 20
4030.6812738782
 10
5411.7010164552
 20
4030.5029507589
 10
5409.6805528673
 20
4029.9733996588
 10
5407.7847945872
 20
4029.10871072
 10
5406.071343271
 20
4027.9351570785
 10
5404.5922612698
 20
4026.4883965678
 10
5403.3924897418
 20
4024.8123882738
 10
5402.5084831378
 20
4022.9580568606
 10
5401.9671015511
 20
4020.9817452497
 10
5401.7847945872
 20
4018.9435026694
 10
5401.9671015511
 20
4016.9052600891
 10
5402.5084831378
 20
4014.9289484782
 10
5403.3924897418
 20
4013.074617065
 10
5404.5922612698
 20
4011.3986087711
 10
5406.071343271
 20
4009.9518482603
 10
5407.7847945872
 20
4008.7782946188
 10
5409.6805528673
 20
4007.91360568
 10
5411.7010164552
 20
4007.3840545799
 10
5413.7847945872
 20
4007.2057314606
  0
LINE
  5
4D8
330
1F
100
AcDbEntity
  8
0
  6
Continuous
 62
     7
370
    25
100
AcDbLine
 10
7524.2847945872
 20
3991.8739707735
 30
0.0
 11
7499.2847945872
 21
3991.8739707735
 31
0.0
  0
LINE
  5
4D9
330
1F
100
AcDbEntity
  8
0
  6
Continuous
 62
     7
370
    25
100
AcDbLine
 10
7497.7847945872
 20
3993.3739707735
 30
0.0
 11
7525.7847945872
 21
3993.3739707735
 31
0.0
  0
LINE
  5
4DA
330
1F
100
AcDbEntity
  8
0
  6
Continuous
 62
     7
370
    25
100
AcDbLine
 10
5724.2847945872
 20
3991.8739707735
 30
0.0
 11
5699.2847945872
 21
3991.8739707735
 31
0.0
  0
LINE
  5
4DB
330
1F
100
AcDbEntity
  8
0
  6
Continuous
 62
     7
370
    25
100
AcDbLine
 10
5697.7847945872
 20
3993.3739707735
 30
0.0
 11
5725.7847945872
 21
3993.3739707735
 31
0.0
  0
LINE
  5
4DC
330
1F
100
AcDbEntity
  8
0
  6
Continuous
 62
     7
370
    25
100
AcDbLine
 10
8097.7847945872
 20
3993.3739707735
 30
0.0
 11
8125.7847945872
 21
3993.3739707735
 31
0.0
  0
LINE
  5
4DD
330
1F
100
AcDbEntity
  8
0
  6
Continuous
 62
     7
370
    25
100
AcDbLine
 10
8124.2847945872
 20
3991.8739707735
 30
0.0
 11
8099.2847945872
 21
3991.8739707735
 31
0.0
  0
LINE
  5
4DE
330
1F
100
AcDbEntity
  8
0
  6
Continuous
 62
     7
370
    25
100
AcDbLine
 10
6324.2847945872
 20
3991.8739707735
 30
0.0
 11
6299.2847945872
 21
3991.8739707735
 31
0.0
  0
LINE
  5
4DF
330
1F
100
AcDbEntity
  8
0
  6
Continuous
 62
     7
370
    25
100
AcDbLine
 10
6297.7847945872
 20
3993.3739707735
 30
0.0
 11
6325.7847945872
 21
3993.3739707735
 31
0.0
  0
LINE
  5
4E0
330
1F
100
AcDbEntity
  8
0
  6
Continuous
 62
     7
370
    25
100
AcDbLine
 10
6924.2847945872
 20
3991.8739707735
 30
0.0
 11
6899.2847945872
 21
3991.8739707735
 31
0.0
  0
LINE
  5
4E1
330
1F
100
AcDbEntity
  8
0
  6
Continuous
 62
     7
370
    25
100
AcDbLine
 10
6897.7847945872
 20
3993.3739707735
 30
0.0
 11
6925.7847945872
 21
3993.3739707735
 31
0.0
  0
LINE
  5
4E2
330
1F
100
AcDbEntity
  8
0
  6
Continuous
 62
     7
370
    25
100
AcDbLine
 10
6161.7847945872
 20
3991.3739707735
 30
0.0
 11
6221.7847945872
 21
3991.3739707735
 31
0.0
  0
LINE
  5
4E3
330
1F
100
AcDbEntity
  8
0
  6
Continuous
 62
     7
370
    25
100
AcDbLine
 10
6221.2847945872
 20
3990.8739707735
 30
0.0
 11
6162.2847945872
 21
3990.8739707735
 31
0.0
  0
LINE
  5
4E4
330
1F
100
AcDbEntity
  8
0
  6
Continuous
 62
     7
370
    25
100
AcDbLine
 10
5561.7847945872
 20
3991.3739707735
 30
0.0
 11
5621.7847945872
 21
3991.3739707735
 31
0.0
  0
LINE
  5
4E5
330
1F
100
AcDbEntity
  8
0
  6
Continuous
 62
     7
370
    25
100
AcDbLine
 10
5621.2847945872
 20
3990.8739707735
 30
0.0
 11
5562.2847945872
 21
3990.8739707735
 31
0.0
  0
LINE
  5
4E6
330
1F
100
AcDbEntity
  8
0
  6
Continuous
 62
     7
370
    25
100
AcDbLine
 10
7361.7847945872
 20
3991.3739707735
 30
0.0
 11
7421.7847945872
 21
3991.3739707735
 31
0.0
  0
LINE
  5
4E7
330
1F
100
AcDbEntity
  8
0
  6
Continuous
 62
     7
370
    25
100
AcDbLine
 10
7421.2847945872
 20
3990.8739707735
 30
0.0
 11
7362.2847945872
 21
3990.8739707735
 31
0.0
  0
LINE
  5
4E8
330
1F
100
AcDbEntity
  8
0
  6
Continuous
 62
     7
370
    25
100
AcDbLine
 10
7961.7847945872
 20
3991.3739707735
 30
0.0
 11
8021.7847945872
 21
3991.3739707735
 31
0.0
  0
LINE
  5
4E9
330
1F
100
AcDbEntity
  8
0
  6
Continuous
 62
     7
370
    25
100
AcDbLine
 10
8021.2847945872
 20
3990.8739707735
 30
0.0
 11
7962.2847945872
 21
3990.8739707735
 31
0.0
  0
LINE
  5
4EA
330
1F
100
AcDbEntity
  8
0
  6
Continuous
 62
     7
370
    25
100
AcDbLine
 10
6761.7847945872
 20
3991.3739707735
 30
0.0
 11
6821.7847945872
 21
3991.3739707735
 31
0.0
  0
LINE
  5
4EB
330
1F
100
AcDbEntity
  8
0
  6
Continuous
 62
     7
370
    25
100
AcDbLine
 10
6821.2847945872
 20
3990.8739707735
 30
0.0
 11
6762.2847945872
 21
3990.8739707735
 31
0.0
  0
LINE
  5
4EC
330
1F
100
AcDbEntity
  8
0
  6
Continuous
 62
     7
370
    25
100
AcDbLine
 10
7964.5677723168
 20
3990.8739707735
 30
0.0
 11
7962.2847945872
 21
3990.8739707735
 31
0.0
  0
LINE
  5
4ED
330
1F
100
AcDbEntity
  8
0
  6
Continuous
 62
     7
370
    25
100
AcDbLine
 10
8021.2847945872
 20
3990.8739707735
 30
0.0
 11
7964.5677723168
 21
3990.8739707735
 31
0.0
  0
LINE
  5
4EE
330
1F
100
AcDbEntity
  8
0
  6
Continuous
 62
     7
370
    25
100
AcDbLine
 10
7964.1064668545
 20
3991.3739707735
 30
0.0
 11
8021.7847945872
 21
3991.3739707735
 31
0.0
  0
LINE
  5
4EF
330
1F
100
AcDbEntity
  8
0
  6
Continuous
 62
     7
370
    25
100
AcDbLine
 10
7961.7847945872
 20
3991.3739707735
 30
0.0
 11
7964.1064668545
 21
3991.3739707735
 31
0.0
  0
LINE
  5
4F0
330
1F
100
AcDbEntity
  8
0
  6
Continuous
 62
     7
370
    25
100
AcDbLine
 10
6164.5677723168
 20
3990.8739707735
 30
0.0
 11
6162.2847945872
 21
3990.8739707735
 31
0.0
  0
LINE
  5
4F1
330
1F
100
AcDbEntity
  8
0
  6
Continuous
 62
     7
370
    25
100
AcDbLine
 10
6221.2847945872
 20
3990.8739707735
 30
0.0
 11
6164.5677723168
 21
3990.8739707735
 31
0.0
  0
LINE
  5
4F2
330
1F
100
AcDbEntity
  8
0
  6
Continuous
 62
     7
370
    25
100
AcDbLine
 10
6164.1064668545
 20
3991.3739707735
 30
0.0
 11
6221.7847945872
 21
3991.3739707735
 31
0.0
  0
LINE
  5
4F3
330
1F
100
AcDbEntity
  8
0
  6
Continuous
 62
     7
370
    25
100
AcDbLine
 10
6161.7847945872
 20
3991.3739707735
 30
0.0
 11
6164.1064668545
 21
3991.3739707735
 31
0.0
  0
LINE
  5
4F4
330
1F
100
AcDbEntity
  8
0
  6
Continuous
 62
     7
370
    25
100
AcDbLine
 10
5564.5677723168
 20
3990.8739707735
 30
0.0
 11
5562.2847945872
 21
3990.8739707735
 31
0.0
  0
LINE
  5
4F5
330
1F
100
AcDbEntity
  8
0
  6
Continuous
 62
     7
370
    25
100
AcDbLine
 10
5621.2847945872
 20
3990.8739707735
 30
0.0
 11
5564.5677723168
 21
3990.8739707735
 31
0.0
  0
LINE
  5
4F6
330
1F
100
AcDbEntity
  8
0
  6
Continuous
 62
     7
370
    25
100
AcDbLine
 10
5564.1064668545
 20
3991.3739707735
 30
0.0
 11
5621.7847945872
 21
3991.3739707735
 31
0.0
  0
LINE
  5
4F7
330
1F
100
AcDbEntity
  8
0
  6
Continuous
 62
     7
370
    25
100
AcDbLine
 10
5561.7847945872
 20
3991.3739707735
 30
0.0
 11
5564.1064668545
 21
3991.3739707735
 31
0.0
  0
LINE
  5
4F8
330
1F
100
AcDbEntity
  8
0
  6
Continuous
 62
     7
370
    25
100
AcDbLine
 10
6764.1064668545
 20
3991.3739707735
 30
0.0
 11
6821.7847945872
 21
3991.3739707735
 31
0.0
  0
LINE
  5
4F9
330
1F
100
AcDbEntity
  8
0
  6
Continuous
 62
     7
370
    25
100
AcDbLine
 10
6761.7847945872
 20
3991.3739707735
 30
0.0
 11
6764.1064668545
 21
3991.3739707735
 31
0.0
  0
LINE
  5
4FA
330
1F
100
AcDbEntity
  8
0
  6
Continuous
 62
     7
370
    25
100
AcDbLine
 10
6764.5677723168
 20
3990.8739707735
 30
0.0
 11
6762.2847945872
 21
3990.8739707735
 31
0.0
  0
LINE
  5
4FB
330
1F
100
AcDbEntity
  8
0
  6
Continuous
 62
     7
370
    25
100
AcDbLine
 10
6821.2847945872
 20
3990.8739707735
 30
0.0
 11
6764.5677723168
 21
3990.8739707735
 31
0.0
  0
LINE
  5
4FC
330
1F
100
AcDbEntity
  8
0
  6
Continuous
 62
     7
370
    25
100
AcDbLine
 10
7364.5677723168
 20
3990.8739707735
 30
0.0
 11
7362.2847945872
 21
3990.8739707735
 31
0.0
  0
LINE
  5
4FD
330
1F
100
AcDbEntity
  8
0
  6
Continuous
 62
     7
370
    25
100
AcDbLine
 10
7421.2847945872
 20
3990.8739707735
 30
0.0
 11
7364.5677723168
 21
3990.8739707735
 31
0.0
  0
LINE
  5
4FE
330
1F
100
AcDbEntity
  8
0
  6
Continuous
 62
     7
370
    25
100
AcDbLine
 10
7364.1064668545
 20
3991.3739707735
 30
0.0
 11
7421.7847945872
 21
3991.3739707735
 31
0.0
  0
LINE
  5
4FF
330
1F
100
AcDbEntity
  8
0
  6
Continuous
 62
     7
370
    25
100
AcDbLine
 10
7361.7847945872
 20
3991.3739707735
 30
0.0
 11
7364.1064668545
 21
3991.3739707735
 31
0.0
  0
LINE
  5
500
330
1F
100
AcDbEntity
  8
0
  6
Continuous
 62
     7
370
    25
100
AcDbLine
 10
6177.7847945872
 20
3825.8739707735
 30
0.0
 11
6205.7847945872
 21
3825.8739707735
 31
0.0
  0
LINE
  5
501
330
1F
100
AcDbEntity
  8
0
  6
Continuous
 62
     7
370
    25
100
AcDbLine
 10
6204.7847945872
 20
3824.8739707735
 30
0.0
 11
6178.7847945872
 21
3824.8739707735
 31
0.0
  0
LINE
  5
502
330
1F
100
AcDbEntity
  8
0
  6
Continuous
 62
     7
370
    25
100
AcDbLine
 10
7377.7847945872
 20
3825.8739707735
 30
0.0
 11
7405.7847945872
 21
3825.8739707735
 31
0.0
  0
LINE
  5
503
330
1F
100
AcDbEntity
  8
0
  6
Continuous
 62
     7
370
    25
100
AcDbLine
 10
7404.7847945872
 20
3824.8739707735
 30
0.0
 11
7378.7847945872
 21
3824.8739707735
 31
0.0
  0
LINE
  5
504
330
1F
100
AcDbEntity
  8
0
  6
Continuous
 62
     7
370
    25
100
AcDbLine
 10
5577.7847945872
 20
3825.8739707735
 30
0.0
 11
5605.7847945872
 21
3825.8739707735
 31
0.0
  0
LINE
  5
505
330
1F
100
AcDbEntity
  8
0
  6
Continuous
 62
     7
370
    25
100
AcDbLine
 10
5604.7847945872
 20
3824.8739707735
 30
0.0
 11
5578.7847945872
 21
3824.8739707735
 31
0.0
  0
LINE
  5
506
330
1F
100
AcDbEntity
  8
0
  6
Continuous
 62
     7
370
    25
100
AcDbLine
 10
6777.7847945872
 20
3825.8739707735
 30
0.0
 11
6805.7847945872
 21
3825.8739707735
 31
0.0
  0
LINE
  5
507
330
1F
100
AcDbEntity
  8
0
  6
Continuous
 62
     7
370
    25
100
AcDbLine
 10
6804.7847945872
 20
3824.8739707735
 30
0.0
 11
6778.7847945872
 21
3824.8739707735
 31
0.0
  0
LINE
  5
508
330
1F
100
AcDbEntity
  8
0
  6
Continuous
 62
     7
370
    25
100
AcDbLine
 10
7977.7847945872
 20
3825.8739707735
 30
0.0
 11
8005.7847945872
 21
3825.8739707735
 31
0.0
  0
LINE
  5
509
330
1F
100
AcDbEntity
  8
0
  6
Continuous
 62
     7
370
    25
100
AcDbLine
 10
8004.7847945872
 20
3824.8739707735
 30
0.0
 11
7978.7847945872
 21
3824.8739707735
 31
0.0
  0
LINE
  5
50A
330
1F
100
AcDbEntity
  8
0
  6
Continuous
 62
     8
370
    25
100
AcDbLine
 10
8288.6847945872
 20
3563.8739707735
 30
0.0
 11
8288.6847945872
 21
3563.7739707735
 31
0.0
  0
LINE
  5
50B
330
1F
100
AcDbEntity
  8
0
  6
Continuous
 62
     8
370
    25
100
AcDbLine
 10
8249.8847945872
 20
3563.8739707735
 30
0.0
 11
8249.8847945872
 21
3563.7739707735
 31
0.0
  0
LINE
  5
50C
330
1F
100
AcDbEntity
  8
0
  6
Continuous
 62
     8
370
    25
100
AcDbLine
 10
5294.8847945872
 20
3563.8739707735
 30
0.0
 11
5294.8847945872
 21
3563.7739707735
 31
0.0
  0
LINE
  5
50D
330
1F
100
AcDbEntity
  8
0
  6
Continuous
 62
     8
370
    25
100
AcDbLine
 10
5333.6847945872
 20
3563.8739707735
 30
0.0
 11
5333.6847945872
 21
3563.7739707735
 31
0.0
  0
LINE
  5
50E
330
1F
100
AcDbEntity
  8
0
  6
Continuous
 62
     8
370
    25
100
AcDbLine
 10
5293.7847945872
 20
3993.5316097127
 30
0.0
 11
5561.7847945872
 21
3993.5316097127
 31
0.0
  0
LINE
  5
50F
330
1F
100
AcDbEntity
  8
0
  6
Continuous
 62
     8
370
    25
100
AcDbLine
 10
5621.7847945872
 20
3993.5316097127
 30
0.0
 11
5697.7847945872
 21
3993.5316097127
 31
0.0
  0
LINE
  5
510
330
1F
100
AcDbEntity
  8
0
  6
Continuous
 62
     8
370
    25
100
AcDbLine
 10
5725.7847945872
 20
3993.5316097127
 30
0.0
 11
6161.7847945872
 21
3993.5316097127
 31
0.0
  0
LINE
  5
511
330
1F
100
AcDbEntity
  8
0
  6
Continuous
 62
     8
370
    25
100
AcDbLine
 10
6221.7847945872
 20
3993.5316097127
 30
0.0
 11
6297.7847945872
 21
3993.5316097127
 31
0.0
  0
LINE
  5
512
330
1F
100
AcDbEntity
  8
0
  6
Continuous
 62
     8
370
    25
100
AcDbLine
 10
6325.7847945872
 20
3993.5316097127
 30
0.0
 11
6761.7847945872
 21
3993.5316097127
 31
0.0
  0
LINE
  5
513
330
1F
100
AcDbEntity
  8
0
  6
Continuous
 62
     8
370
    25
100
AcDbLine
 10
6821.7847945872
 20
3993.5316097127
 30
0.0
 11
6897.7847945872
 21
3993.5316097127
 31
0.0
  0
LINE
  5
514
330
1F
100
AcDbEntity
  8
0
  6
Continuous
 62
     8
370
    25
100
AcDbLine
 10
6925.7847945872
 20
3993.5316097127
 30
0.0
 11
7361.7847945872
 21
3993.5316097127
 31
0.0
  0
LINE
  5
515
330
1F
100
AcDbEntity
  8
0
  6
Continuous
 62
     8
370
    25
100
AcDbLine
 10
7421.7847945872
 20
3993.5316097127
 30
0.0
 11
7497.7847945872
 21
3993.5316097127
 31
0.0
  0
LINE
  5
516
330
1F
100
AcDbEntity
  8
0
  6
Continuous
 62
     8
370
    25
100
AcDbLine
 10
7525.7847945872
 20
3993.5316097127
 30
0.0
 11
7961.7847945872
 21
3993.5316097127
 31
0.0
  0
LINE
  5
517
330
1F
100
AcDbEntity
  8
0
  6
Continuous
 62
     8
370
    25
100
AcDbLine
 10
8021.7847945872
 20
3993.5316097127
 30
0.0
 11
8097.7847945872
 21
3993.5316097127
 31
0.0
  0
LINE
  5
518
330
1F
100
AcDbEntity
  8
0
  6
Continuous
 62
     8
370
    25
100
AcDbLine
 10
8125.7847945872
 20
3993.5316097127
 30
0.0
 11
8289.7847945872
 21
3993.5316097127
 31
0.0
  0
LINE
  5
519
330
1F
100
AcDbEntity
  8
0
  6
Continuous
 62
     8
370
    25
100
AcDbLine
 10
8289.7847945872
 20
3868.1565304577
 30
0.0
 11
8005.7847945872
 21
3868.1565304577
 31
0.0
  0
LINE
  5
51A
330
1F
100
AcDbEntity
  8
0
  6
Continuous
 62
     8
370
    25
100
AcDbLine
 10
7977.7847945872
 20
3868.1565304577
 30
0.0
 11
7405.7847945872
 21
3868.1565304577
 31
0.0
  0
LINE
  5
51B
330
1F
100
AcDbEntity
  8
0
  6
Continuous
 62
     8
370
    25
100
AcDbLine
 10
7377.7847945872
 20
3868.1565304577
 30
0.0
 11
6805.7847945872
 21
3868.1565304577
 31
0.0
  0
LINE
  5
51C
330
1F
100
AcDbEntity
  8
0
  6
Continuous
 62
     8
370
    25
100
AcDbLine
 10
6777.7847945872
 20
3868.1565304577
 30
0.0
 11
6205.7847945872
 21
3868.1565304577
 31
0.0
  0
LINE
  5
51D
330
1F
100
AcDbEntity
  8
0
  6
Continuous
 62
     8
370
    25
100
AcDbLine
 10
6177.7847945872
 20
3868.1565304577
 30
0.0
 11
5605.7847945872
 21
3868.1565304577
 31
0.0
  0
LINE
  5
51E
330
1F
100
AcDbEntity
  8
0
  6
Continuous
 62
     8
370
    25
100
AcDbLine
 10
5577.7847945872
 20
3868.1565304577
 30
0.0
 11
5293.7847945872
 21
3868.1565304577
 31
0.0
  0
LINE
  5
51F
330
1F
100
AcDbEntity
  8
0
  6
Continuous
 62
     8
370
    25
100
AcDbLine
 10
5293.7847945872
 20
3867.4988915185
 30
0.0
 11
5577.7847945872
 21
3867.4988915185
 31
0.0
  0
LINE
  5
520
330
1F
100
AcDbEntity
  8
0
  6
Continuous
 62
     8
370
    25
100
AcDbLine
 10
5605.7847945872
 20
3867.4988915185
 30
0.0
 11
6177.7847945872
 21
3867.4988915185
 31
0.0
  0
LINE
  5
521
330
1F
100
AcDbEntity
  8
0
  6
Continuous
 62
     8
370
    25
100
AcDbLine
 10
6205.7847945872
 20
3867.4988915185
 30
0.0
 11
6777.7847945872
 21
3867.4988915185
 31
0.0
  0
LINE
  5
522
330
1F
100
AcDbEntity
  8
0
  6
Continuous
 62
     8
370
    25
100
AcDbLine
 10
6805.7847945872
 20
3867.4988915185
 30
0.0
 11
7377.7847945872
 21
3867.4988915185
 31
0.0
  0
LINE
  5
523
330
1F
100
AcDbEntity
  8
0
  6
Continuous
 62
     8
370
    25
100
AcDbLine
 10
7405.7847945872
 20
3867.4988915185
 30
0.0
 11
7977.7847945872
 21
3867.4988915185
 31
0.0
  0
LINE
  5
524
330
1F
100
AcDbEntity
  8
0
  6
Continuous
 62
     8
370
    25
100
AcDbLine
 10
8005.7847945872
 20
3867.4988915185
 30
0.0
 11
8289.7847945872
 21
3867.4988915185
 31
0.0
  0
ENDSEC
  0
SECTION
  2
OBJECTS
  0
DICTIONARY
  5
C
330
0
100
AcDbDictionary
281
     1
  3
ACAD_GROUP
350
D
  3
ACAD_LAYOUT
350
1A
  3
ACAD_MLINESTYLE
350
17
  3
ACAD_PLOTSETTINGS
350
19
  3
ACAD_PLOTSTYLENAME
350
E
  3
ACAD_SCALELIST
350
47
  3
DWGPROPS
350
525
  0
DICTIONARY
  5
D
102
{ACAD_REACTORS
330
C
102
}
330
C
100
AcDbDictionary
281
     1
  0
DICTIONARY
  5
1A
102
{ACAD_REACTORS
330
C
102
}
330
C
100
AcDbDictionary
281
     1
  3
Layout1
350
1E
  3
Layout2
350
26
  3
Model
350
22
  0
DICTIONARY
  5
17
102
{ACAD_REACTORS
330
C
102
}
330
C
100
AcDbDictionary
281
     1
  3
Standard
350
18
  0
DICTIONARY
  5
19
102
{ACAD_REACTORS
330
C
102
}
330
C
100
AcDbDictionary
281
     1
  0
ACDBDICTIONARYWDFLT
  5
E
102
{ACAD_REACTORS
330
C
102
}
330
C
100
AcDbDictionary
281
     1
  3
Normal
350
F
100
AcDbDictionaryWithDefault
340
F
  0
DICTIONARY
  5
47
102
{ACAD_REACTORS
330
C
102
}
330
C
100
AcDbDictionary
281
     1
  3
A0
350
48
  3
A1
350
49
  3
A2
350
4A
  3
A3
350
4B
  3
A4
350
4C
  3
A5
350
4D
  3
A6
350
4E
  3
A7
350
4F
  3
A8
350
50
  3
A9
350
51
  3
B0
350
52
  3
B1
350
53
  3
B2
350
54
  3
B3
350
55
  3
B4
350
56
  3
B5
350
57
  3
B6
350
58
  3
B7
350
59
  3
B8
350
5A
  3
B9
350
5B
  3
C0
350
5C
  3
C1
350
5D
  3
C2
350
5E
  3
C3
350
5F
  3
C4
350
60
  3
C5
350
61
  3
C6
350
62
  3
C7
350
63
  3
C8
350
64
  3
C9
350
65
  3
D0
350
66
  3
D1
350
67
  3
D2
350
68
  0
XRECORD
  5
525
102
{ACAD_REACTORS
330
C
102
}
330
C
100
AcDbXrecord
280
     1
  1
DWGPROPS COOKIE
  2

  3

  4

  6

  7

  8
radek.stransky
  9

300
=
301
=
302
=
303
=
304
=
305
=
306
=
307
=
308
=
309
=
 40
0.0
 41
2459842.204440093
 42
2459842.20444066
  1

 90
        0
  0
LAYOUT
  5
1E
102
{ACAD_REACTORS
330
1A
102
}
330
1A
100
AcDbPlotSettings
  1

  2
none_device
  4

  6

 40
0.0
 41
0.0
 42
0.0
 43
0.0
 44
0.0
 45
0.0
 46
0.0
 47
0.0
 48
0.0
 49
0.0
140
0.0
141
0.0
142
1.0
143
1.0
 70
   688
 72
     1
 73
     0
 74
     5
  7

 75
    16
147
1.0
148
0.0
149
0.0
100
AcDbLayout
  1
Layout1
 70
     1
 71
     1
 10
0.0
 20
0.0
 11
420.0
 21
297.0
 12
0.0
 22
0.0
 32
0.0
 14
1.0000000000E+20
 24
1.0000000000E+20
 34
1.0000000000E+20
 15
-1.0000000000E+20
 25
-1.0000000000E+20
 35
-1.0000000000E+20
146
0.0
 13
0.0
 23
0.0
 33
0.0
 16
1.0
 26
0.0
 36
0.0
 17
0.0
 27
1.0
 37
0.0
 76
     0
330
1B
  0
LAYOUT
  5
26
102
{ACAD_REACTORS
330
1A
102
}
330
1A
100
AcDbPlotSettings
  1

  2
none_device
  4

  6

 40
0.0
 41
0.0
 42
0.0
 43
0.0
 44
0.0
 45
0.0
 46
0.0
 47
0.0
 48
0.0
 49
0.0
140
0.0
141
0.0
142
1.0
143
1.0
 70
   688
 72
     1
 73
     0
 74
     5
  7

 75
    16
147
1.0
148
0.0
149
0.0
100
AcDbLayout
  1
Layout2
 70
     1
 71
     2
 10
0.0
 20
0.0
 11
0.0
 21
0.0
 12
0.0
 22
0.0
 32
0.0
 14
0.0
 24
0.0
 34
0.0
 15
0.0
 25
0.0
 35
0.0
146
0.0
 13
0.0
 23
0.0
 33
0.0
 16
1.0
 26
0.0
 36
0.0
 17
0.0
 27
1.0
 37
0.0
 76
     0
330
23
  0
LAYOUT
  5
22
102
{ACAD_REACTORS
330
1A
102
}
330
1A
100
AcDbPlotSettings
  1

  2
none_device
  4
Letter_(8.50_x_11.00_Inches)
  6

 40
6.35
 41
6.35
 42
6.35000508
 43
6.35000508
 44
215.9
 45
279.4
 46
0.0
 47
0.0
 48
0.0
 49
0.0
140
0.0
141
0.0
142
1.0
143
1.0
 70
  1712
 72
     1
 73
     0
 74
     0
  7

 75
     0
147
1.0
148
0.0
149
0.0
100
AcDbLayout
  1
Model
 70
     1
 71
     0
 10
0.0
 20
0.0
 11
20000.0
 21
10000.0
 12
0.0
 22
0.0
 32
0.0
 14
0.0
 24
0.0
 34
0.0
 15
20000.0
 25
10000.0
 35
0.0
146
0.0
 13
0.0
 23
0.0
 33
0.0
 16
1.0
 26
0.0
 36
0.0
 17
0.0
 27
1.0
 37
0.0
 76
     0
330
1F
331
29
  0
MLINESTYLE
  5
18
102
{ACAD_REACTORS
330
17
102
}
330
17
100
AcDbMlineStyle
  2
Standard
 70
     0
  3

 62
   256
 51
90.0
 52
90.0
 71
     2
 49
0.5
 62
   256
  6
BYLAYER
 49
-0.5
 62
   256
  6
BYLAYER
  0
ACDBPLACEHOLDER
  5
F
102
{ACAD_REACTORS
330
E
102
}
330
E
  0
SCALE
  5
48
102
{ACAD_REACTORS
330
47
102
}
330
47
100
AcDbScale
 70
     0
300
1:1
140
1.0
141
1.0
290
     1
  0
SCALE
  5
49
102
{ACAD_REACTORS
330
47
102
}
330
47
100
AcDbScale
 70
     0
300
1:2
140
1.0
141
2.0
290
     0
  0
SCALE
  5
4A
102
{ACAD_REACTORS
330
47
102
}
330
47
100
AcDbScale
 70
     0
300
1:4
140
1.0
141
4.0
290
     0
  0
SCALE
  5
4B
102
{ACAD_REACTORS
330
47
102
}
330
47
100
AcDbScale
 70
     0
300
1:5
140
1.0
141
5.0
290
     0
  0
SCALE
  5
4C
102
{ACAD_REACTORS
330
47
102
}
330
47
100
AcDbScale
 70
     0
300
1:8
140
1.0
141
8.0
290
     0
  0
SCALE
  5
4D
102
{ACAD_REACTORS
330
47
102
}
330
47
100
AcDbScale
 70
     0
300
1:10
140
1.0
141
10.0
290
     0
  0
SCALE
  5
4E
102
{ACAD_REACTORS
330
47
102
}
330
47
100
AcDbScale
 70
     0
300
1:16
140
1.0
141
16.0
290
     0
  0
SCALE
  5
4F
102
{ACAD_REACTORS
330
47
102
}
330
47
100
AcDbScale
 70
     0
300
1:20
140
1.0
141
20.0
290
     0
  0
SCALE
  5
50
102
{ACAD_REACTORS
330
47
102
}
330
47
100
AcDbScale
 70
     0
300
1:30
140
1.0
141
30.0
290
     0
  0
SCALE
  5
51
102
{ACAD_REACTORS
330
47
102
}
330
47
100
AcDbScale
 70
     0
300
1:40
140
1.0
141
40.0
290
     0
  0
SCALE
  5
52
102
{ACAD_REACTORS
330
47
102
}
330
47
100
AcDbScale
 70
     0
300
1:50
140
1.0
141
50.0
290
     0
  0
SCALE
  5
53
102
{ACAD_REACTORS
330
47
102
}
330
47
100
AcDbScale
 70
     0
300
1:100
140
1.0
141
100.0
290
     0
  0
SCALE
  5
54
102
{ACAD_REACTORS
330
47
102
}
330
47
100
AcDbScale
 70
     0
300
2:1
140
2.0
141
1.0
290
     0
  0
SCALE
  5
55
102
{ACAD_REACTORS
330
47
102
}
330
47
100
AcDbScale
 70
     0
300
4:1
140
4.0
141
1.0
290
     0
  0
SCALE
  5
56
102
{ACAD_REACTORS
330
47
102
}
330
47
100
AcDbScale
 70
     0
300
8:1
140
8.0
141
1.0
290
     0
  0
SCALE
  5
57
102
{ACAD_REACTORS
330
47
102
}
330
47
100
AcDbScale
 70
     0
300
10:1
140
10.0
141
1.0
290
     0
  0
SCALE
  5
58
102
{ACAD_REACTORS
330
47
102
}
330
47
100
AcDbScale
 70
     0
300
100:1
140
100.0
141
1.0
290
     0
  0
SCALE
  5
59
102
{ACAD_REACTORS
330
47
102
}
330
47
100
AcDbScale
 70
     0
300
1/128" = 1'-0"
140
0.0078125
141
12.0
290
     0
  0
SCALE
  5
5A
102
{ACAD_REACTORS
330
47
102
}
330
47
100
AcDbScale
 70
     0
300
1/64" = 1'-0"
140
0.015625
141
12.0
290
     0
  0
SCALE
  5
5B
102
{ACAD_REACTORS
330
47
102
}
330
47
100
AcDbScale
 70
     0
300
1/32" = 1'-0"
140
0.03125
141
12.0
290
     0
  0
SCALE
  5
5C
102
{ACAD_REACTORS
330
47
102
}
330
47
100
AcDbScale
 70
     0
300
1/16" = 1'-0"
140
0.0625
141
12.0
290
     0
  0
SCALE
  5
5D
102
{ACAD_REACTORS
330
47
102
}
330
47
100
AcDbScale
 70
     0
300
3/32" = 1'-0"
140
0.09375
141
12.0
290
     0
  0
SCALE
  5
5E
102
{ACAD_REACTORS
330
47
102
}
330
47
100
AcDbScale
 70
     0
300
1/8" = 1'-0"
140
0.125
141
12.0
290
     0
  0
SCALE
  5
5F
102
{ACAD_REACTORS
330
47
102
}
330
47
100
AcDbScale
 70
     0
300
3/16" = 1'-0"
140
0.1875
141
12.0
290
     0
  0
SCALE
  5
60
102
{ACAD_REACTORS
330
47
102
}
330
47
100
AcDbScale
 70
     0
300
1/4" = 1'-0"
140
0.25
141
12.0
290
     0
  0
SCALE
  5
61
102
{ACAD_REACTORS
330
47
102
}
330
47
100
AcDbScale
 70
     0
300
3/8" = 1'-0"
140
0.375
141
12.0
290
     0
  0
SCALE
  5
62
102
{ACAD_REACTORS
330
47
102
}
330
47
100
AcDbScale
 70
     0
300
1/2" = 1'-0"
140
0.5
141
12.0
290
     0
  0
SCALE
  5
63
102
{ACAD_REACTORS
330
47
102
}
330
47
100
AcDbScale
 70
     0
300
3/4" = 1'-0"
140
0.75
141
12.0
290
     0
  0
SCALE
  5
64
102
{ACAD_REACTORS
330
47
102
}
330
47
100
AcDbScale
 70
     0
300
1" = 1'-0"
140
1.0
141
12.0
290
     0
  0
SCALE
  5
65
102
{ACAD_REACTORS
330
47
102
}
330
47
100
AcDbScale
 70
     0
300
1-1/2" = 1'-0"
140
1.5
141
12.0
290
     0
  0
SCALE
  5
66
102
{ACAD_REACTORS
330
47
102
}
330
47
100
AcDbScale
 70
     0
300
3" = 1'-0"
140
3.0
141
12.0
290
     0
  0
SCALE
  5
67
102
{ACAD_REACTORS
330
47
102
}
330
47
100
AcDbScale
 70
     0
300
6" = 1'-0"
140
6.0
141
12.0
290
     0
  0
SCALE
  5
68
102
{ACAD_REACTORS
330
47
102
}
330
47
100
AcDbScale
 70
     0
300
1'-0" = 1'-0"
140
12.0
141
12.0
290
     0
  0
ENDSEC
  0
EOF
