  0
SECTION
  2
HEADER
  9
$ACADVER
  1
AC1015
  9
$ACADMAINTVER
 70
     6
  9
$DWGCODEPAGE
  3
ANSI_1250
  9
$INSBASE
 10
0.0
 20
0.0
 30
0.0
  9
$EXTMIN
 10
0.0
 20
0.0
 30
0.0
  9
$EXTMAX
 10
20000.0
 20
10000.0
 30
0.0
  9
$LIMMIN
 10
0.0
 20
0.0
  9
$LIMMAX
 10
20000.0
 20
10000.0
  9
$ORTHOMODE
 70
     0
  9
$REGENMODE
 70
     1
  9
$FILLMODE
 70
     1
  9
$QTEXTMODE
 70
     0
  9
$MIRRTEXT
 70
     1
  9
$LTSCALE
 40
1.0
  9
$ATTMODE
 70
     1
  9
$TEXTSIZE
 40
2.0
  9
$TRACEWID
 40
1.0
  9
$TEXTSTYLE
  7
Standard
  9
$CLAYER
  8
0
  9
$CELTYPE
  6
ByLayer
  9
$CECOLOR
 62
   256
  9
$CELTSCALE
 40
1.0
  9
$DISPSILH
 70
     0
  9
$DIMSCALE
 40
1.0
  9
$DIMASZ
 40
2.0
  9
$DIMEXO
 40
1.0
  9
$DIMDLI
 40
3.75
  9
$DIMRND
 40
0.0
  9
$DIMDLE
 40
0.0
  9
$DIMEXE
 40
1.0
  9
$DIMTP
 40
0.0
  9
$DIMTM
 40
0.0
  9
$DIMTXT
 40
2.0
  9
$DIMCEN
 40
2.5
  9
$DIMTSZ
 40
0.0
  9
$DIMTOL
 70
     0
  9
$DIMLIM
 70
     0
  9
$DIMTIH
 70
     1
  9
$DIMTOH
 70
     1
  9
$DIMSE1
 70
     0
  9
$DIMSE2
 70
     0
  9
$DIMTAD
 70
     1
  9
$DIMZIN
 70
     0
  9
$DIMBLK
  1

  9
$DIMASO
 70
     1
  9
$DIMSHO
 70
     1
  9
$DIMPOST
  1

  9
$DIMAPOST
  1

  9
$DIMALT
 70
     0
  9
$DIMALTD
 70
     3
  9
$DIMALTF
 40
0.0393700787
  9
$DIMLFAC
 40
1.0
  9
$DIMTOFL
 70
     1
  9
$DIMTVP
 40
0.0
  9
$DIMTIX
 70
     0
  9
$DIMSOXD
 70
     0
  9
$DIMSAH
 70
     0
  9
$DIMBLK1
  1

  9
$DIMBLK2
  1

  9
$DIMSTYLE
  2
ISO-25
  9
$DIMCLRD
 70
     0
  9
$DIMCLRE
 70
     0
  9
$DIMCLRT
 70
     0
  9
$DIMTFAC
 40
1.0
  9
$DIMGAP
 40
1.524
  9
$DIMJUST
 70
     0
  9
$DIMSD1
 70
     0
  9
$DIMSD2
 70
     0
  9
$DIMTOLJ
 70
     0
  9
$DIMTZIN
 70
     0
  9
$DIMALTZ
 70
     0
  9
$DIMALTTZ
 70
     0
  9
$DIMUPT
 70
     0
  9
$DIMDEC
 70
     2
  9
$DIMTDEC
 70
     0
  9
$DIMALTU
 70
     2
  9
$DIMALTTD
 70
     3
  9
$DIMTXSTY
  7
Standard
  9
$DIMAUNIT
 70
     0
  9
$DIMADEC
 70
     2
  9
$DIMALTRND
 40
0.0
  9
$DIMAZIN
 70
     0
  9
$DIMDSEP
 70
    44
  9
$DIMATFIT
 70
     3
  9
$DIMFRAC
 70
     0
  9
$DIMLDRBLK
  1

  9
$DIMLUNIT
 70
     2
  9
$DIMLWD
 70
    -2
  9
$DIMLWE
 70
    -2
  9
$DIMTMOVE
 70
     0
  9
$LUNITS
 70
     2
  9
$LUPREC
 70
     3
  9
$SKETCHINC
 40
1.0
  9
$FILLETRAD
 40
10.0
  9
$AUNITS
 70
     0
  9
$AUPREC
 70
     2
  9
$MENU
  1
.
  9
$ELEVATION
 40
0.0
  9
$PELEVATION
 40
0.0
  9
$THICKNESS
 40
0.0
  9
$LIMCHECK
 70
     0
  9
$CHAMFERA
 40
0.0
  9
$CHAMFERB
 40
0.0
  9
$CHAMFERC
 40
0.0
  9
$CHAMFERD
 40
0.0
  9
$SKPOLY
 70
     0
  9
$TDCREATE
 40
2459838.578051447
  9
$TDUCREATE
 40
2459838.494718113
  9
$TDUPDATE
 40
2459838.578051805
  9
$TDUUPDATE
 40
2459838.494718472
  9
$TDINDWG
 40
0.0000000116
  9
$TDUSRTIMER
 40
0.0000000116
  9
$USRTIMER
 70
     1
  9
$ANGBASE
 50
0.0
  9
$ANGDIR
 70
     0
  9
$PDMODE
 70
     0
  9
$PDSIZE
 40
-1.0
  9
$PLINEWID
 40
0.0
  9
$SPLFRAME
 70
     0
  9
$SPLINETYPE
 70
     6
  9
$SPLINESEGS
 70
     8
  9
$HANDSEED
  5
3CC
  9
$SURFTAB1
 70
     6
  9
$SURFTAB2
 70
     6
  9
$SURFTYPE
 70
     6
  9
$SURFU
 70
     6
  9
$SURFV
 70
     6
  9
$UCSBASE
  2

  9
$UCSNAME
  2

  9
$UCSORG
 10
0.0
 20
0.0
 30
0.0
  9
$UCSXDIR
 10
1.0
 20
0.0
 30
0.0
  9
$UCSYDIR
 10
0.0
 20
1.0
 30
0.0
  9
$UCSORTHOREF
  2

  9
$UCSORTHOVIEW
 70
     0
  9
$UCSORGTOP
 10
0.0
 20
0.0
 30
0.0
  9
$UCSORGBOTTOM
 10
0.0
 20
0.0
 30
0.0
  9
$UCSORGLEFT
 10
0.0
 20
0.0
 30
0.0
  9
$UCSORGRIGHT
 10
0.0
 20
0.0
 30
0.0
  9
$UCSORGFRONT
 10
0.0
 20
0.0
 30
0.0
  9
$UCSORGBACK
 10
0.0
 20
0.0
 30
0.0
  9
$PUCSBASE
  2

  9
$PUCSNAME
  2

  9
$PUCSORG
 10
0.0
 20
0.0
 30
0.0
  9
$PUCSXDIR
 10
1.0
 20
0.0
 30
0.0
  9
$PUCSYDIR
 10
0.0
 20
1.0
 30
0.0
  9
$PUCSORTHOREF
  2

  9
$PUCSORTHOVIEW
 70
     0
  9
$PUCSORGTOP
 10
0.0
 20
0.0
 30
0.0
  9
$PUCSORGBOTTOM
 10
0.0
 20
0.0
 30
0.0
  9
$PUCSORGLEFT
 10
0.0
 20
0.0
 30
0.0
  9
$PUCSORGRIGHT
 10
0.0
 20
0.0
 30
0.0
  9
$PUCSORGFRONT
 10
0.0
 20
0.0
 30
0.0
  9
$PUCSORGBACK
 10
0.0
 20
0.0
 30
0.0
  9
$USERI1
 70
     0
  9
$USERI2
 70
     0
  9
$USERI3
 70
     0
  9
$USERI4
 70
     0
  9
$USERI5
 70
     0
  9
$USERR1
 40
0.0
  9
$USERR2
 40
0.0
  9
$USERR3
 40
0.0
  9
$USERR4
 40
0.0
  9
$USERR5
 40
0.0
  9
$WORLDVIEW
 70
     1
  9
$SHADEDGE
 70
     3
  9
$SHADEDIF
 70
    70
  9
$TILEMODE
 70
     1
  9
$MAXACTVP
 70
    64
  9
$PINSBASE
 10
0.0
 20
0.0
 30
0.0
  9
$PLIMCHECK
 70
     0
  9
$PEXTMIN
 10
1.0000000000E+20
 20
1.0000000000E+20
 30
1.0000000000E+20
  9
$PEXTMAX
 10
-1.0000000000E+20
 20
-1.0000000000E+20
 30
-1.0000000000E+20
  9
$PLIMMIN
 10
0.0
 20
0.0
  9
$PLIMMAX
 10
420.0
 20
297.0
  9
$UNITMODE
 70
     0
  9
$VISRETAIN
 70
     1
  9
$PLINEGEN
 70
     0
  9
$PSLTSCALE
 70
     1
  9
$TREEDEPTH
 70
  3020
  9
$CMLSTYLE
  2
Standard
  9
$CMLJUST
 70
     0
  9
$CMLSCALE
 40
20.0
  9
$PROXYGRAPHICS
 70
     1
  9
$MEASUREMENT
 70
     1
  9
$CELWEIGHT
370
    -1
  9
$ENDCAPS
280
     0
  9
$JOINSTYLE
280
     0
  9
$LWDISPLAY
290
     1
  9
$INSUNITS
 70
     4
  9
$HYPERLINKBASE
  1

  9
$STYLESHEET
  1

  9
$XEDIT
290
     1
  9
$CEPSNTYPE
380
     0
  9
$PSTYLEMODE
290
     1
  9
$FINGERPRINTGUID
  2
{533f6261-9fda-42f3-9d2d-1db386bbfb39}
  9
$VERSIONGUID
  2
{FAEB1C32-E019-11D5-929B-00C0DF256EC4}
  9
$EXTNAMES
290
     1
  9
$PSVPSCALE
 40
0.0
  9
$OLESTARTUP
290
     0
  0
ENDSEC
  0
SECTION
  2
CLASSES
  0
CLASS
  1
ACDBDICTIONARYWDFLT
  2
AcDbDictionaryWithDefault
  3
ObjectDBX Classes
 90
        0
280
     0
281
     0
  0
CLASS
  1
VISUALSTYLE
  2
AcDbVisualStyle
  3
ObjectDBX Classes
 90
     4095
280
     0
281
     0
  0
CLASS
  1
MATERIAL
  2
AcDbMaterial
  3
ObjectDBX Classes
 90
     1153
280
     0
281
     0
  0
CLASS
  1
SCALE
  2
AcDbScale
  3
ObjectDBX Classes
 90
     1153
280
     0
281
     0
  0
CLASS
  1
TABLESTYLE
  2
AcDbTableStyle
  3
ObjectDBX Classes
 90
     4095
280
     0
281
     0
  0
CLASS
  1
MLEADERSTYLE
  2
AcDbMLeaderStyle
  3
ACDB_MLEADERSTYLE_CLASS
 90
     4095
280
     0
281
     0
  0
CLASS
  1
SUN
  2
AcDbSun
  3
SCENEOE
 90
     1153
280
     0
281
     0
  0
CLASS
  1
ACDBPLACEHOLDER
  2
AcDbPlaceHolder
  3
ObjectDBX Classes
 90
        0
280
     0
281
     0
  0
CLASS
  1
LAYOUT
  2
AcDbLayout
  3
ObjectDBX Classes
 90
        0
280
     0
281
     0
  0
ENDSEC
  0
SECTION
  2
TABLES
  0
TABLE
  2
VPORT
  5
8
330
0
100
AcDbSymbolTable
 70
     1
  0
VPORT
  5
29
330
8
100
AcDbSymbolTableRecord
100
AcDbViewportTableRecord
  2
*Active
 70
     0
 10
0.0
 20
0.0
 11
1.0
 21
1.0
 12
10000.0
 22
5000.0
 13
0.0
 23
0.0
 14
10.0
 24
10.0
 15
10.0
 25
10.0
 16
0.0
 26
0.0
 36
1.0
 17
0.0
 27
0.0
 37
0.0
 40
10000.0
 41
2.0
 42
50.0
 43
0.0
 44
0.0
 50
0.0
 51
0.0
 71
     0
 72
  2000
 73
     1
 74
     3
 75
     0
 76
     0
 77
     0
 78
     0
281
     0
 65
     1
110
0.0
120
0.0
130
0.0
111
1.0
121
0.0
131
0.0
112
0.0
122
1.0
132
0.0
 79
     0
146
0.0
  0
ENDTAB
  0
TABLE
  2
LTYPE
  5
5
330
0
100
AcDbSymbolTable
 70
     6
  0
LTYPE
  5
14
330
5
100
AcDbSymbolTableRecord
100
AcDbLinetypeTableRecord
  2
ByBlock
 70
     0
  3

 72
    65
 73
     0
 40
0.0
  0
LTYPE
  5
15
330
5
100
AcDbSymbolTableRecord
100
AcDbLinetypeTableRecord
  2
ByLayer
 70
     0
  3

 72
    65
 73
     0
 40
0.0
  0
LTYPE
  5
16
330
5
100
AcDbSymbolTableRecord
100
AcDbLinetypeTableRecord
  2
Continuous
 70
     0
  3
Solid line
 72
    65
 73
     0
 40
0.0
  0
LTYPE
  5
6E
330
5
100
AcDbSymbolTableRecord
100
AcDbLinetypeTableRecord
  2
HIDDEN
 70
     0
  3
Hidden __ __ __ __ __ __ __ __ __ __ __ __ __ __
 72
    65
 73
     2
 40
1.905
 49
1.27
 74
     0
 49
-0.635
 74
     0
  0
LTYPE
  5
6F
330
5
100
AcDbSymbolTableRecord
100
AcDbLinetypeTableRecord
  2
PHANTOM
 70
     0
  3
Phantom ______  __  __  ______  __  __  ______
 72
    65
 73
     6
 40
12.7
 49
6.35
 74
     0
 49
-1.27
 74
     0
 49
1.27
 74
     0
 49
-1.27
 74
     0
 49
1.27
 74
     0
 49
-1.27
 74
     0
  0
LTYPE
  5
70
330
5
100
AcDbSymbolTableRecord
100
AcDbLinetypeTableRecord
  2
CENTER
 70
     0
  3
Center ____ _ ____ _ ____ _ ____ _ ____ _ ____
 72
    65
 73
     4
 40
10.16
 49
6.35
 74
     0
 49
-1.27
 74
     0
 49
1.27
 74
     0
 49
-1.27
 74
     0
  0
LTYPE
  5
71
330
5
100
AcDbSymbolTableRecord
100
AcDbLinetypeTableRecord
  2
CENTERX2
 70
     0
  3
Center (2x) ________  __  ________  __  _____
 72
    65
 73
     4
 40
20.32
 49
12.7
 74
     0
 49
-2.54
 74
     0
 49
2.54
 74
     0
 49
-2.54
 74
     0
  0
LTYPE
  5
72
330
5
100
AcDbSymbolTableRecord
100
AcDbLinetypeTableRecord
  2
DOT2
 70
     0
  3
Dot (.5x) ........................................
 72
    65
 73
     2
 40
0.635
 49
0.0
 74
     0
 49
-0.635
 74
     0
  0
ENDTAB
  0
TABLE
  2
LAYER
  5
2
330
0
100
AcDbSymbolTable
 70
    13
  0
LAYER
  5
10
330
2
100
AcDbSymbolTableRecord
100
AcDbLayerTableRecord
  2
0
 70
     0
 62
     7
  6
Continuous
370
    -3
390
F
  0
LAYER
  5
73
330
2
100
AcDbSymbolTableRecord
100
AcDbLayerTableRecord
  2
FORMAT
 70
     0
 62
     7
  6
Continuous
370
    -3
390
F
  0
LAYER
  5
74
330
2
100
AcDbSymbolTableRecord
100
AcDbLayerTableRecord
  2
OSA
 70
     0
 62
     7
  6
CENTER
370
    -3
390
F
  0
LAYER
  5
75
330
2
100
AcDbSymbolTableRecord
100
AcDbLayerTableRecord
  2
0_35
 70
     0
 62
     7
  6
Continuous
370
    35
390
F
  0
LAYER
  5
76
330
2
100
AcDbSymbolTableRecord
100
AcDbLayerTableRecord
  2
0_5
 70
     0
 62
     7
  6
Continuous
370
    50
390
F
  0
LAYER
  5
77
330
2
100
AcDbSymbolTableRecord
100
AcDbLayerTableRecord
  2
0_25
 70
     0
 62
     7
  6
Continuous
370
    25
390
F
  0
LAYER
  5
78
330
2
100
AcDbSymbolTableRecord
100
AcDbLayerTableRecord
  2
0_18
 70
     0
 62
     7
  6
Continuous
370
    -3
390
F
  0
LAYER
  5
79
330
2
100
AcDbSymbolTableRecord
100
AcDbLayerTableRecord
  2
SLD-0
 70
     0
 62
   179
  6
Continuous
370
    -3
390
F
  0
LAYER
  5
7A
330
2
100
AcDbSymbolTableRecord
100
AcDbLayerTableRecord
  2
KOTY
 70
     0
 62
     7
  6
Continuous
370
    -3
390
F
  0
LAYER
  5
7B
330
2
100
AcDbSymbolTableRecord
100
AcDbLayerTableRecord
  2
SILNA
 70
     0
 62
   179
  6
Continuous
370
    -3
390
F
  0
LAYER
  5
7C
330
2
100
AcDbSymbolTableRecord
100
AcDbLayerTableRecord
  2
0_18_1
 70
     0
 62
   179
  6
Continuous
370
    -3
390
F
  0
LAYER
  5
7D
330
2
100
AcDbSymbolTableRecord
100
AcDbLayerTableRecord
  2
0_35_1
 70
     0
 62
   179
  6
Continuous
370
    35
390
F
  0
LAYER
  5
7E
330
2
100
AcDbSymbolTableRecord
100
AcDbLayerTableRecord
  2
0_5_1
 70
     0
 62
   179
  6
Continuous
370
    50
390
F
  0
ENDTAB
  0
TABLE
  2
STYLE
  5
3
330
0
100
AcDbSymbolTable
 70
     1
  0
STYLE
  5
11
330
3
100
AcDbSymbolTableRecord
100
AcDbTextStyleTableRecord
  2
Standard
 70
     0
 40
0.0
 41
1.0
 50
0.0
 71
     0
 42
2.0
  3
txt
  4

  0
ENDTAB
  0
TABLE
  2
VIEW
  5
6
330
0
100
AcDbSymbolTable
 70
     0
  0
ENDTAB
  0
TABLE
  2
UCS
  5
7
330
0
100
AcDbSymbolTable
 70
     0
  0
ENDTAB
  0
TABLE
  2
APPID
  5
9
330
0
100
AcDbSymbolTable
 70
     1
  0
APPID
  5
12
330
9
100
AcDbSymbolTableRecord
100
AcDbRegAppTableRecord
  2
ACAD
 70
     0
  0
ENDTAB
  0
TABLE
  2
DIMSTYLE
  5
A
330
0
100
AcDbSymbolTable
 70
     1
100
AcDbDimStyleTable
  0
DIMSTYLE
105
27
330
A
100
AcDbSymbolTableRecord
100
AcDbDimStyleTableRecord
  2
ISO-25
 70
     0
 41
2.5
 42
0.625
 43
3.75
 44
1.25
 73
     0
 74
     0
 77
     1
 78
     8
140
2.5
141
2.5
143
0.0393700787
147
0.625
171
     3
172
     1
178
     0
271
     2
272
     2
274
     3
278
    44
283
     0
284
     8
340
11
  0
ENDTAB
  0
TABLE
  2
BLOCK_RECORD
  5
1
330
0
100
AcDbSymbolTable
 70
     1
  0
BLOCK_RECORD
  5
1F
330
1
100
AcDbSymbolTableRecord
100
AcDbBlockTableRecord
  2
*Model_Space
340
22
  0
BLOCK_RECORD
  5
1B
330
1
100
AcDbSymbolTableRecord
100
AcDbBlockTableRecord
  2
*Paper_Space
340
1E
  0
BLOCK_RECORD
  5
23
330
1
100
AcDbSymbolTableRecord
100
AcDbBlockTableRecord
  2
*Paper_Space0
340
26
  0
ENDTAB
  0
ENDSEC
  0
SECTION
  2
BLOCKS
  0
BLOCK
  5
20
330
1F
100
AcDbEntity
  8
0
100
AcDbBlockBegin
  2
*Model_Space
 70
     0
 10
0.0
 20
0.0
 30
0.0
  3
*Model_Space
  1

  0
ENDBLK
  5
21
330
1F
100
AcDbEntity
  8
0
100
AcDbBlockEnd
  0
BLOCK
  5
1C
330
1B
100
AcDbEntity
 67
     1
  8
0
100
AcDbBlockBegin
  2
*Paper_Space
 70
     0
 10
0.0
 20
0.0
 30
0.0
  3
*Paper_Space
  1

  0
ENDBLK
  5
1D
330
1B
100
AcDbEntity
 67
     1
  8
0
100
AcDbBlockEnd
  0
BLOCK
  5
24
330
23
100
AcDbEntity
  8
0
100
AcDbBlockBegin
  2
*Paper_Space0
 70
     0
 10
0.0
 20
0.0
 30
0.0
  3
*Paper_Space0
  1

  0
ENDBLK
  5
25
330
23
100
AcDbEntity
  8
0
100
AcDbBlockEnd
  0
ENDSEC
  0
SECTION
  2
ENTITIES
  0
LINE
  5
7F
330
1F
100
AcDbEntity
  8
0
  6
Continuous
 62
     7
370
    25
100
AcDbLine
 10
5617.7971600709
 20
4745.9852014543
 30
0.0
 11
5617.7971600709
 21
4730.7410916816
 31
0.0
  0
LINE
  5
80
330
1F
100
AcDbEntity
  8
0
  6
Continuous
 62
     7
370
    25
100
AcDbLine
 10
5617.7971600709
 20
4716.7410916816
 30
0.0
 11
5617.7971600709
 21
4714.2410916816
 31
0.0
  0
LINE
  5
81
330
1F
100
AcDbEntity
  8
0
  6
Continuous
 62
     7
370
    25
100
AcDbLine
 10
5649.7971600709
 20
4714.2410916816
 30
0.0
 11
5649.7971600709
 21
4716.7410916816
 31
0.0
  0
LINE
  5
82
330
1F
100
AcDbEntity
  8
0
  6
Continuous
 62
     7
370
    25
100
AcDbLine
 10
5649.7971600709
 20
4730.7410916816
 30
0.0
 11
5649.7971600709
 21
4745.9852014543
 31
0.0
  0
LINE
  5
83
330
1F
100
AcDbEntity
  8
0
  6
Continuous
 62
     7
370
    25
100
AcDbLine
 10
5599.7971600709
 20
4654.2410916816
 30
0.0
 11
5606.6909457908
 21
4586.9354158202
 31
0.0
  0
LINE
  5
84
330
1F
100
AcDbEntity
  8
0
  6
Continuous
 62
     7
370
    25
100
AcDbLine
 10
5660.9033743511
 20
4586.9354158202
 30
0.0
 11
5667.7971600709
 21
4654.2410916816
 31
0.0
  0
LINE
  5
85
330
1F
100
AcDbEntity
  8
0
  6
Continuous
 62
     7
370
    25
100
AcDbLine
 10
5667.7971600709
 20
4654.2410916816
 30
0.0
 11
5661.1066018261
 21
4711.5887337802
 31
0.0
  0
LINE
  5
86
330
1F
100
AcDbEntity
  8
0
  6
Continuous
 62
     7
370
    25
100
AcDbLine
 10
5606.4877183158
 20
4711.5887337802
 30
0.0
 11
5599.7971600709
 21
4654.2410916816
 31
0.0
  0
ARC
  5
87
330
1F
100
AcDbEntity
  8
0
  6
Continuous
 62
     7
370
    25
100
AcDbCircle
 10
5609.467507733
 20
4711.2410916816
 30
0.0
 40
3.0
100
AcDbArc
 50
90.0
 51
173.345574954
  0
ARC
  5
88
330
1F
100
AcDbEntity
  8
0
  6
Continuous
 62
     7
370
    25
100
AcDbCircle
 10
5658.1268124088
 20
4711.2410916816
 30
0.0
 40
3.0
100
AcDbArc
 50
6.654425046
 51
90.0
  0
ARC
  5
89
330
1F
100
AcDbEntity
  8
0
  6
Continuous
 62
     7
370
    25
100
AcDbCircle
 10
5609.6753322047
 20
4587.2410916816
 30
0.0
 40
3.0
100
AcDbArc
 50
185.8481280262
 51
270.0
  0
ARC
  5
8A
330
1F
100
AcDbEntity
  8
0
  6
Continuous
 62
     7
370
    25
100
AcDbCircle
 10
5657.9189879371
 20
4587.2410916816
 30
0.0
 40
3.0
100
AcDbArc
 50
270.0
 51
354.1518719738
  0
LINE
  5
8B
330
1F
100
AcDbEntity
  8
0
  6
Continuous
 62
     7
370
    25
100
AcDbLine
 10
5658.7971600709
 20
4716.7410916816
 30
0.0
 11
5656.7971600709
 21
4720.7410916816
 31
0.0
  0
LINE
  5
8C
330
1F
100
AcDbEntity
  8
0
  6
Continuous
 62
     7
370
    25
100
AcDbLine
 10
5610.7971600709
 20
4720.7410916816
 30
0.0
 11
5608.7971600709
 21
4716.7410916816
 31
0.0
  0
LINE
  5
8D
330
1F
100
AcDbEntity
  8
0
  6
Continuous
 62
     7
370
    25
100
AcDbLine
 10
5610.7971600709
 20
4727.7410916816
 30
0.0
 11
5610.7971600709
 21
4720.7410916816
 31
0.0
  0
LINE
  5
8E
330
1F
100
AcDbEntity
  8
0
  6
Continuous
 62
     7
370
    25
100
AcDbLine
 10
5656.7971600709
 20
4720.7410916816
 30
0.0
 11
5656.7971600709
 21
4727.7410916816
 31
0.0
  0
ARC
  5
8F
330
1F
100
AcDbEntity
  8
0
  6
Continuous
 62
     7
370
    25
100
AcDbCircle
 10
5613.7971600709
 20
4727.7410916816
 30
0.0
 40
3.0
100
AcDbArc
 50
90.0
 51
180.0
  0
ARC
  5
90
330
1F
100
AcDbEntity
  8
0
  6
Continuous
 62
     7
370
    25
100
AcDbCircle
 10
5653.7971600709
 20
4727.7410916816
 30
0.0
 40
3.0
100
AcDbArc
 50
0.0
 51
90.0
  0
LINE
  5
91
330
1F
100
AcDbEntity
  8
0
  6
Continuous
 62
     7
370
    25
100
AcDbLine
 10
7381.2971600709
 20
5415.4684277099
 30
0.0
 11
7379.2971600709
 21
5415.4684277099
 31
0.0
  0
LINE
  5
92
330
1F
100
AcDbEntity
  8
0
  6
Continuous
 62
     7
370
    25
100
AcDbLine
 10
5483.2971600709
 20
5415.4684277099
 30
0.0
 11
5481.2971600709
 21
5415.4684277099
 31
0.0
  0
LINE
  5
93
330
1F
100
AcDbEntity
  8
0
  6
Continuous
 62
     7
370
    25
100
AcDbLine
 10
7379.2971600709
 20
5415.4684277099
 30
0.0
 11
5483.2971600709
 21
5415.4684277099
 31
0.0
  0
ARC
  5
94
330
1F
100
AcDbEntity
  8
0
  6
Continuous
 62
     7
370
    25
100
AcDbCircle
 10
5603.2971600709
 20
5376.4509008476
 30
0.0
 40
37.0000000000005
100
AcDbArc
 50
75.2574286589
 51
104.7425713411
  0
LINE
  5
95
330
1F
100
AcDbEntity
  8
0
  6
Continuous
 62
     7
370
    25
100
AcDbLine
 10
7029.7065025682
 20
5292.0758589569
 30
0.0
 11
7029.7971600709
 21
5291.9852014543
 31
0.0
  0
LINE
  5
96
330
1F
100
AcDbEntity
  8
0
  6
Continuous
 62
     7
370
    25
100
AcDbLine
 10
7032.7971600709
 20
5291.9852014543
 30
0.0
 11
7032.8878175735
 21
5292.0758589569
 31
0.0
  0
LINE
  5
97
330
1F
100
AcDbEntity
  8
0
  6
Continuous
 62
     7
370
    25
100
AcDbLine
 10
6429.7065025682
 20
5292.0758589569
 30
0.0
 11
6429.7971600709
 21
5291.9852014543
 31
0.0
  0
LINE
  5
98
330
1F
100
AcDbEntity
  8
0
  6
Continuous
 62
     7
370
    25
100
AcDbLine
 10
6432.7971600709
 20
5291.9852014543
 30
0.0
 11
6432.8878175735
 21
5292.0758589569
 31
0.0
  0
LINE
  5
99
330
1F
100
AcDbEntity
  8
0
  6
Continuous
 62
     7
370
    25
100
AcDbLine
 10
5829.7065025682
 20
5292.0758589569
 30
0.0
 11
5829.7971600709
 21
5291.9852014543
 31
0.0
  0
LINE
  5
9A
330
1F
100
AcDbEntity
  8
0
  6
Continuous
 62
     7
370
    25
100
AcDbLine
 10
5832.7971600709
 20
5291.9852014543
 30
0.0
 11
5832.8878175735
 21
5292.0758589569
 31
0.0
  0
LINE
  5
9B
330
1F
100
AcDbEntity
  8
0
  6
Continuous
 62
     7
370
    25
100
AcDbLine
 10
5822.0471600709
 20
5297.8260221092
 30
0.0
 11
5822.0471600709
 21
5297.2223184677
 31
0.0
  0
LINE
  5
9C
330
1F
100
AcDbEntity
  8
0
  6
Continuous
 62
     7
370
    25
100
AcDbLine
 10
5840.5471600709
 20
5297.2223184677
 30
0.0
 11
5840.5471600709
 21
5297.8260221092
 31
0.0
  0
LINE
  5
9D
330
1F
100
AcDbEntity
  8
0
  6
Continuous
 62
     7
370
    25
100
AcDbLine
 10
5838.7971600709
 20
5298.188244294
 30
0.0
 11
5838.7971600709
 21
5298.3888001405
 31
0.0
  0
LINE
  5
9E
330
1F
100
AcDbEntity
  8
0
  6
Continuous
 62
     7
370
    25
100
AcDbLine
 10
5823.7971600709
 20
5298.8849286817
 30
0.0
 11
5823.7971600709
 21
5298.188244294
 31
0.0
  0
LINE
  5
9F
330
1F
100
AcDbEntity
  8
0
  6
Continuous
 62
     7
370
    25
100
AcDbLine
 10
7022.0471600709
 20
5297.8260221092
 30
0.0
 11
7022.0471600709
 21
5297.2223184677
 31
0.0
  0
LINE
  5
A0
330
1F
100
AcDbEntity
  8
0
  6
Continuous
 62
     7
370
    25
100
AcDbLine
 10
7040.5471600709
 20
5297.2223184677
 30
0.0
 11
7040.5471600709
 21
5297.8260221092
 31
0.0
  0
LINE
  5
A1
330
1F
100
AcDbEntity
  8
0
  6
Continuous
 62
     7
370
    25
100
AcDbLine
 10
7038.7971600709
 20
5298.188244294
 30
0.0
 11
7038.7971600709
 21
5298.3888001405
 31
0.0
  0
LINE
  5
A2
330
1F
100
AcDbEntity
  8
0
  6
Continuous
 62
     7
370
    25
100
AcDbLine
 10
7023.7971600709
 20
5298.8849286817
 30
0.0
 11
7023.7971600709
 21
5298.188244294
 31
0.0
  0
LINE
  5
A3
330
1F
100
AcDbEntity
  8
0
  6
Continuous
 62
     7
370
    25
100
AcDbLine
 10
6422.0471600709
 20
5297.8260221092
 30
0.0
 11
6422.0471600709
 21
5297.2223184677
 31
0.0
  0
LINE
  5
A4
330
1F
100
AcDbEntity
  8
0
  6
Continuous
 62
     7
370
    25
100
AcDbLine
 10
6440.5471600709
 20
5297.2223184677
 30
0.0
 11
6440.5471600709
 21
5297.8260221092
 31
0.0
  0
LINE
  5
A5
330
1F
100
AcDbEntity
  8
0
  6
Continuous
 62
     7
370
    25
100
AcDbLine
 10
6438.7971600709
 20
5298.188244294
 30
0.0
 11
6438.7971600709
 21
5298.3888001405
 31
0.0
  0
LINE
  5
A6
330
1F
100
AcDbEntity
  8
0
  6
Continuous
 62
     7
370
    25
100
AcDbLine
 10
6423.7971600709
 20
5298.8849286817
 30
0.0
 11
6423.7971600709
 21
5298.188244294
 31
0.0
  0
LINE
  5
A7
330
1F
100
AcDbEntity
  8
0
  6
Continuous
 62
     7
370
    25
100
AcDbLine
 10
6432.9471600709
 20
5292.0803336674
 30
0.0
 11
6432.9471600709
 21
5292.0827736088
 31
0.0
  0
LINE
  5
A8
330
1F
100
AcDbEntity
  8
0
  6
Continuous
 62
     7
370
    25
100
AcDbLine
 10
7032.9471600709
 20
5292.0803336674
 30
0.0
 11
7032.9471600709
 21
5292.0827736088
 31
0.0
  0
LINE
  5
A9
330
1F
100
AcDbEntity
  8
0
  6
Continuous
 62
     7
370
    25
100
AcDbLine
 10
5832.9471600709
 20
5292.0803336674
 30
0.0
 11
5832.9471600709
 21
5292.0827736088
 31
0.0
  0
ARC
  5
AA
330
1F
100
AcDbEntity
  8
0
  6
Continuous
 62
     7
370
    25
100
AcDbCircle
 10
5633.7971600709
 20
4692.2410916816
 30
0.0
 40
40.00000000000009
100
AcDbArc
 50
125.0996321954
 51
216.1070114058
  0
ARC
  5
AB
330
1F
100
AcDbEntity
  8
0
  6
Continuous
 62
     7
370
    25
100
AcDbCircle
 10
5633.7971600709
 20
4692.2410916816
 30
0.0
 40
40.00000000000078
100
AcDbArc
 50
323.8929885942
 51
54.9003678046
  0
LINE
  5
AC
330
1F
100
AcDbEntity
  8
0
  6
Continuous
 62
     7
370
    25
100
AcDbLine
 10
5599.7971600709
 20
4654.2410916816
 30
0.0
 11
5667.7971600709
 21
4654.2410916816
 31
0.0
  0
LINE
  5
AD
330
1F
100
AcDbEntity
  8
0
  6
Continuous
 62
     7
370
    25
100
AcDbLine
 10
5609.467507733
 20
4714.2410916816
 30
0.0
 11
5658.1268124088
 21
4714.2410916816
 31
0.0
  0
LINE
  5
AE
330
1F
100
AcDbEntity
  8
0
  6
Continuous
 62
     7
370
    25
100
AcDbLine
 10
5609.6753322047
 20
4584.2410916816
 30
0.0
 11
5657.9189879371
 21
4584.2410916816
 31
0.0
  0
LINE
  5
AF
330
1F
100
AcDbEntity
  8
0
  6
Continuous
 62
     7
370
    25
100
AcDbLine
 10
5610.7971600709
 20
4720.7410916816
 30
0.0
 11
5656.7971600709
 21
4720.7410916816
 31
0.0
  0
LINE
  5
B0
330
1F
100
AcDbEntity
  8
0
  6
Continuous
 62
     7
370
    25
100
AcDbLine
 10
5608.7971600709
 20
4716.7410916816
 30
0.0
 11
5658.7971600709
 21
4716.7410916816
 31
0.0
  0
LINE
  5
B1
330
1F
100
AcDbEntity
  8
0
  6
Continuous
 62
     7
370
    25
100
AcDbLine
 10
5613.7971600709
 20
4730.7410916816
 30
0.0
 11
5653.7971600709
 21
4730.7410916816
 31
0.0
  0
LINE
  5
B2
330
1F
100
AcDbEntity
  8
0
  6
Continuous
 62
     7
370
    25
100
AcDbLine
 10
5650.2971600709
 20
4714.2410916816
 30
0.0
 11
5649.7971600709
 21
4714.6073609279
 31
0.0
  0
LINE
  5
B3
330
1F
100
AcDbEntity
  8
0
  6
Continuous
 62
     7
370
    25
100
AcDbLine
 10
5617.7971600709
 20
4714.6073609279
 30
0.0
 11
5617.2971600709
 21
4714.2410916816
 31
0.0
  0
LINE
  5
B4
330
1F
100
AcDbEntity
  8
0
  6
Continuous
 62
     7
370
    25
100
AcDbLine
 10
7334.6471600709
 20
4969.3252014543
 30
0.0
 11
5527.9471600709
 21
4969.3252014543
 31
0.0
  0
LINE
  5
B5
330
1F
100
AcDbEntity
  8
0
  6
Continuous
 62
     7
370
    25
100
AcDbLine
 10
7334.6471600709
 20
4970.9752014543
 30
0.0
 11
5527.9471600709
 21
4970.9752014543
 31
0.0
  0
LINE
  5
B6
330
1F
100
AcDbEntity
  8
0
  6
Continuous
 62
     7
370
    25
100
AcDbLine
 10
7334.6471600709
 20
4969.3252014543
 30
0.0
 11
7334.6471600709
 21
4970.9752014543
 31
0.0
  0
LINE
  5
B7
330
1F
100
AcDbEntity
  8
0
  6
Continuous
 62
     7
370
    25
100
AcDbLine
 10
5527.9471600709
 20
4969.3252014543
 30
0.0
 11
5527.9471600709
 21
4970.9752014543
 31
0.0
  0
LINE
  5
B8
330
1F
100
AcDbEntity
  8
0
  6
Continuous
 62
     7
370
    25
100
AcDbLine
 10
7336.2971600709
 20
4747.6352014543
 30
0.0
 11
7336.2971600709
 21
4969.3252014543
 31
0.0
  0
LINE
  5
B9
330
1F
100
AcDbEntity
  8
0
  6
Continuous
 62
     7
370
    25
100
AcDbLine
 10
7336.2971600709
 20
4747.6352014543
 30
0.0
 11
7334.6471600709
 21
4747.6352014543
 31
0.0
  0
LINE
  5
BA
330
1F
100
AcDbEntity
  8
0
  6
Continuous
 62
     7
370
    25
100
AcDbLine
 10
7334.6471600709
 20
4747.6352014543
 30
0.0
 11
7334.6471600709
 21
4969.3252014543
 31
0.0
  0
LINE
  5
BB
330
1F
100
AcDbEntity
  8
0
  6
Continuous
 62
     7
370
    25
100
AcDbLine
 10
7334.6471600709
 20
4969.3252014543
 30
0.0
 11
7336.2971600709
 21
4969.3252014543
 31
0.0
  0
LINE
  5
BC
330
1F
100
AcDbEntity
  8
0
  6
Continuous
 62
     7
370
    25
100
AcDbLine
 10
7334.6471600709
 20
4747.6352014543
 30
0.0
 11
5527.9471600709
 21
4747.6352014543
 31
0.0
  0
LINE
  5
BD
330
1F
100
AcDbEntity
  8
0
  6
Continuous
 62
     7
370
    25
100
AcDbLine
 10
5527.9471600709
 20
4747.6352014543
 30
0.0
 11
5527.9471600709
 21
4969.3252014543
 31
0.0
  0
LINE
  5
BE
330
1F
100
AcDbEntity
  8
0
  6
Continuous
 62
     7
370
    25
100
AcDbLine
 10
7334.6471600709
 20
4745.9852014543
 30
0.0
 11
5527.9471600709
 21
4745.9852014543
 31
0.0
  0
LINE
  5
BF
330
1F
100
AcDbEntity
  8
0
  6
Continuous
 62
     7
370
    25
100
AcDbLine
 10
5527.9471600709
 20
4745.9852014543
 30
0.0
 11
5527.9471600709
 21
4747.6352014543
 31
0.0
  0
LINE
  5
C0
330
1F
100
AcDbEntity
  8
0
  6
Continuous
 62
     7
370
    25
100
AcDbLine
 10
7334.6471600709
 20
4745.9852014543
 30
0.0
 11
7334.6471600709
 21
4747.6352014543
 31
0.0
  0
LINE
  5
C1
330
1F
100
AcDbEntity
  8
0
  6
Continuous
 62
     7
370
    25
100
AcDbLine
 10
5526.2971600709
 20
4747.6352014543
 30
0.0
 11
5526.2971600709
 21
4969.3252014543
 31
0.0
  0
LINE
  5
C2
330
1F
100
AcDbEntity
  8
0
  6
Continuous
 62
     7
370
    25
100
AcDbLine
 10
5526.2971600709
 20
4969.3252014543
 30
0.0
 11
5527.9471600709
 21
4969.3252014543
 31
0.0
  0
LINE
  5
C3
330
1F
100
AcDbEntity
  8
0
  6
Continuous
 62
     7
370
    25
100
AcDbLine
 10
5527.9471600709
 20
4747.6352014543
 30
0.0
 11
5526.2971600709
 21
4747.6352014543
 31
0.0
  0
LINE
  5
C4
330
1F
100
AcDbEntity
  8
0
  6
Continuous
 62
     7
370
    25
100
AcDbLine
 10
7381.2971600709
 20
4745.9852014543
 30
0.0
 11
7381.2971600709
 21
4970.9752014543
 31
0.0
  0
LINE
  5
C5
330
1F
100
AcDbEntity
  8
0
  6
Continuous
 62
     7
370
    25
100
AcDbLine
 10
7378.1971600709
 20
4745.9852014543
 30
0.0
 11
7381.2971600709
 21
4745.9852014543
 31
0.0
  0
LINE
  5
C6
330
1F
100
AcDbEntity
  8
0
  6
Continuous
 62
     7
370
    25
100
AcDbLine
 10
7378.1971600709
 20
4745.9852014543
 30
0.0
 11
7378.1971600709
 21
4970.9752014543
 31
0.0
  0
LINE
  5
C7
330
1F
100
AcDbEntity
  8
0
  6
Continuous
 62
     7
370
    25
100
AcDbLine
 10
7381.2971600709
 20
4970.9752014543
 30
0.0
 11
7378.1971600709
 21
4970.9752014543
 31
0.0
  0
LINE
  5
C8
330
1F
100
AcDbEntity
  8
0
  6
Continuous
 62
     7
370
    25
100
AcDbLine
 10
7339.3971600709
 20
4745.9852014543
 30
0.0
 11
7378.1971600709
 21
4745.9852014543
 31
0.0
  0
LINE
  5
C9
330
1F
100
AcDbEntity
  8
0
  6
Continuous
 62
     7
370
    25
100
AcDbLine
 10
7339.3971600709
 20
4745.9852014543
 30
0.0
 11
7339.3971600709
 21
4970.9752014543
 31
0.0
  0
LINE
  5
CA
330
1F
100
AcDbEntity
  8
0
  6
Continuous
 62
     7
370
    25
100
AcDbLine
 10
7378.1971600709
 20
4970.9752014543
 30
0.0
 11
7339.3971600709
 21
4970.9752014543
 31
0.0
  0
LINE
  5
CB
330
1F
100
AcDbEntity
  8
0
  6
Continuous
 62
     7
370
    25
100
AcDbLine
 10
7336.2971600709
 20
4970.9752014543
 30
0.0
 11
7339.3971600709
 21
4970.9752014543
 31
0.0
  0
LINE
  5
CC
330
1F
100
AcDbEntity
  8
0
  6
Continuous
 62
     7
370
    25
100
AcDbLine
 10
7339.3971600709
 20
4745.9852014543
 30
0.0
 11
7336.2971600709
 21
4745.9852014543
 31
0.0
  0
LINE
  5
CD
330
1F
100
AcDbEntity
  8
0
  6
Continuous
 62
     7
370
    25
100
AcDbLine
 10
7336.2971600709
 20
4745.9852014543
 30
0.0
 11
7336.2971600709
 21
4747.6352014543
 31
0.0
  0
LINE
  5
CE
330
1F
100
AcDbEntity
  8
0
  6
Continuous
 62
     7
370
    25
100
AcDbLine
 10
7336.2971600709
 20
4969.3252014543
 30
0.0
 11
7336.2971600709
 21
4970.9752014543
 31
0.0
  0
LINE
  5
CF
330
1F
100
AcDbEntity
  8
0
  6
Continuous
 62
     7
370
    25
100
AcDbLine
 10
7381.2971600709
 20
4995.9852014543
 30
0.0
 11
7379.2971600709
 21
4995.9852014543
 31
0.0
  0
LINE
  5
D0
330
1F
100
AcDbEntity
  8
0
  6
Continuous
 62
     7
370
    25
100
AcDbLine
 10
7381.2971600709
 20
4995.9852014543
 30
0.0
 11
7381.2971600709
 21
4993.7852014543
 31
0.0
  0
LINE
  5
D1
330
1F
100
AcDbEntity
  8
0
  6
Continuous
 62
     7
370
    25
100
AcDbLine
 10
7381.2971600709
 20
4993.7852014543
 30
0.0
 11
7379.2971600709
 21
4993.7852014543
 31
0.0
  0
LINE
  5
D2
330
1F
100
AcDbEntity
  8
0
  6
Continuous
 62
     7
370
    25
100
AcDbLine
 10
7379.2971600709
 20
4995.9852014543
 30
0.0
 11
7379.2971600709
 21
4993.7852014543
 31
0.0
  0
LINE
  5
D3
330
1F
100
AcDbEntity
  8
0
  6
Continuous
 62
     7
370
    25
100
AcDbLine
 10
7381.2971600709
 20
4993.7852014543
 30
0.0
 11
7381.2971600709
 21
4970.9852014543
 31
0.0
  0
LINE
  5
D4
330
1F
100
AcDbEntity
  8
0
  6
Continuous
 62
     7
370
    25
100
AcDbLine
 10
7379.2971600709
 20
4993.7852014543
 30
0.0
 11
7379.2971600709
 21
4970.9852014543
 31
0.0
  0
LINE
  5
D5
330
1F
100
AcDbEntity
  8
0
  6
Continuous
 62
     7
370
    25
100
AcDbLine
 10
7381.2971600709
 20
4970.9852014543
 30
0.0
 11
7379.2971600709
 21
4970.9852014543
 31
0.0
  0
LINE
  5
D6
330
1F
100
AcDbEntity
  8
0
  6
Continuous
 62
     7
370
    25
100
AcDbLine
 10
7381.2971600709
 20
4970.9852014543
 30
0.0
 11
7381.2971600709
 21
4970.9752014543
 31
0.0
  0
LINE
  5
D7
330
1F
100
AcDbEntity
  8
0
  6
Continuous
 62
     7
370
    25
100
AcDbLine
 10
7379.2971600709
 20
4970.9852014543
 30
0.0
 11
7379.2971600709
 21
4970.9752014543
 31
0.0
  0
LINE
  5
D8
330
1F
100
AcDbEntity
  8
0
  6
Continuous
 62
     7
370
    25
100
AcDbLine
 10
7381.2971600709
 20
5405.7277732194
 30
0.0
 11
7379.2971600709
 21
5405.7277732194
 31
0.0
  0
LINE
  5
D9
330
1F
100
AcDbEntity
  8
0
  6
Continuous
 62
     7
370
    25
100
AcDbLine
 10
7381.2971600709
 20
5403.5758484978
 30
0.0
 11
7379.2971600709
 21
5403.5758484978
 31
0.0
  0
LINE
  5
DA
330
1F
100
AcDbEntity
  8
0
  6
Continuous
 62
     7
370
    25
100
AcDbLine
 10
7381.2971600709
 20
5405.7277732194
 30
0.0
 11
7381.2971600709
 21
5403.5758484978
 31
0.0
  0
LINE
  5
DB
330
1F
100
AcDbEntity
  8
0
  6
Continuous
 62
     7
370
    25
100
AcDbLine
 10
7379.2971600709
 20
5405.7277732194
 30
0.0
 11
7379.2971600709
 21
5403.5758484978
 31
0.0
  0
LINE
  5
DC
330
1F
100
AcDbEntity
  8
0
  6
Continuous
 62
     7
370
    25
100
AcDbLine
 10
7381.2971600709
 20
5403.5758484978
 30
0.0
 11
7381.2971600709
 21
4995.9852014543
 31
0.0
  0
LINE
  5
DD
330
1F
100
AcDbEntity
  8
0
  6
Continuous
 62
     7
370
    25
100
AcDbLine
 10
7379.2971600709
 20
5403.5758484978
 30
0.0
 11
7379.2971600709
 21
4995.9852014543
 31
0.0
  0
LINE
  5
DE
330
1F
100
AcDbEntity
  8
0
  6
Continuous
 62
     7
370
    25
100
AcDbLine
 10
7381.2971600709
 20
5415.4203524315
 30
0.0
 11
7379.2971600709
 21
5415.4203524315
 31
0.0
  0
LINE
  5
DF
330
1F
100
AcDbEntity
  8
0
  6
Continuous
 62
     7
370
    25
100
AcDbLine
 10
7381.2971600709
 20
5415.4203524315
 30
0.0
 11
7381.2971600709
 21
5405.7277732194
 31
0.0
  0
LINE
  5
E0
330
1F
100
AcDbEntity
  8
0
  6
Continuous
 62
     7
370
    25
100
AcDbLine
 10
7379.2971600709
 20
5415.4203524315
 30
0.0
 11
7379.2971600709
 21
5405.7277732194
 31
0.0
  0
LINE
  5
E1
330
1F
100
AcDbEntity
  8
0
  6
Continuous
 62
     7
370
    25
100
AcDbLine
 10
7381.2971600709
 20
5415.4684277099
 30
0.0
 11
7381.2971600709
 21
5415.4203524315
 31
0.0
  0
LINE
  5
E2
330
1F
100
AcDbEntity
  8
0
  6
Continuous
 62
     7
370
    25
100
AcDbLine
 10
7379.2971600709
 20
5415.4684277099
 30
0.0
 11
7379.2971600709
 21
5415.4203524315
 31
0.0
  0
LINE
  5
E3
330
1F
100
AcDbEntity
  8
0
  6
Continuous
 62
     7
370
    25
100
AcDbLine
 10
5484.3971600709
 20
4745.9852014543
 30
0.0
 11
5484.3971600709
 21
4970.9752014543
 31
0.0
  0
LINE
  5
E4
330
1F
100
AcDbEntity
  8
0
  6
Continuous
 62
     7
370
    25
100
AcDbLine
 10
5484.3971600709
 20
4745.9852014543
 30
0.0
 11
5481.2971600709
 21
4745.9852014543
 31
0.0
  0
LINE
  5
E5
330
1F
100
AcDbEntity
  8
0
  6
Continuous
 62
     7
370
    25
100
AcDbLine
 10
5481.2971600709
 20
4745.9852014543
 30
0.0
 11
5481.2971600709
 21
4970.9752014543
 31
0.0
  0
LINE
  5
E6
330
1F
100
AcDbEntity
  8
0
  6
Continuous
 62
     7
370
    25
100
AcDbLine
 10
5481.2971600709
 20
4970.9752014543
 30
0.0
 11
5484.3971600709
 21
4970.9752014543
 31
0.0
  0
LINE
  5
E7
330
1F
100
AcDbEntity
  8
0
  6
Continuous
 62
     7
370
    25
100
AcDbLine
 10
5523.1971600709
 20
4745.9852014543
 30
0.0
 11
5523.1971600709
 21
4970.9752014543
 31
0.0
  0
LINE
  5
E8
330
1F
100
AcDbEntity
  8
0
  6
Continuous
 62
     7
370
    25
100
AcDbLine
 10
5523.1971600709
 20
4745.9852014543
 30
0.0
 11
5484.3971600709
 21
4745.9852014543
 31
0.0
  0
LINE
  5
E9
330
1F
100
AcDbEntity
  8
0
  6
Continuous
 62
     7
370
    25
100
AcDbLine
 10
5484.3971600709
 20
4970.9752014543
 30
0.0
 11
5523.1971600709
 21
4970.9752014543
 31
0.0
  0
LINE
  5
EA
330
1F
100
AcDbEntity
  8
0
  6
Continuous
 62
     7
370
    25
100
AcDbLine
 10
5523.1971600709
 20
4745.9852014543
 30
0.0
 11
5526.2971600709
 21
4745.9852014543
 31
0.0
  0
LINE
  5
EB
330
1F
100
AcDbEntity
  8
0
  6
Continuous
 62
     7
370
    25
100
AcDbLine
 10
5526.2971600709
 20
4745.9852014543
 30
0.0
 11
5526.2971600709
 21
4747.6352014543
 31
0.0
  0
LINE
  5
EC
330
1F
100
AcDbEntity
  8
0
  6
Continuous
 62
     7
370
    25
100
AcDbLine
 10
5526.2971600709
 20
4969.3252014543
 30
0.0
 11
5526.2971600709
 21
4970.9752014543
 31
0.0
  0
LINE
  5
ED
330
1F
100
AcDbEntity
  8
0
  6
Continuous
 62
     7
370
    25
100
AcDbLine
 10
5526.2971600709
 20
4970.9752014543
 30
0.0
 11
5523.1971600709
 21
4970.9752014543
 31
0.0
  0
LINE
  5
EE
330
1F
100
AcDbEntity
  8
0
  6
Continuous
 62
     7
370
    25
100
AcDbLine
 10
5481.2971600709
 20
4970.9852014543
 30
0.0
 11
5483.2971600709
 21
4970.9852014543
 31
0.0
  0
LINE
  5
EF
330
1F
100
AcDbEntity
  8
0
  6
Continuous
 62
     7
370
    25
100
AcDbLine
 10
5481.2971600709
 20
4993.7852014543
 30
0.0
 11
5481.2971600709
 21
4970.9852014543
 31
0.0
  0
LINE
  5
F0
330
1F
100
AcDbEntity
  8
0
  6
Continuous
 62
     7
370
    25
100
AcDbLine
 10
5481.2971600709
 20
4993.7852014543
 30
0.0
 11
5483.2971600709
 21
4993.7852014543
 31
0.0
  0
LINE
  5
F1
330
1F
100
AcDbEntity
  8
0
  6
Continuous
 62
     7
370
    25
100
AcDbLine
 10
5483.2971600709
 20
4993.7852014543
 30
0.0
 11
5483.2971600709
 21
4970.9852014543
 31
0.0
  0
LINE
  5
F2
330
1F
100
AcDbEntity
  8
0
  6
Continuous
 62
     7
370
    25
100
AcDbLine
 10
5481.2971600709
 20
4995.9852014543
 30
0.0
 11
5481.2971600709
 21
4993.7852014543
 31
0.0
  0
LINE
  5
F3
330
1F
100
AcDbEntity
  8
0
  6
Continuous
 62
     7
370
    25
100
AcDbLine
 10
5481.2971600709
 20
4995.9852014543
 30
0.0
 11
5483.2971600709
 21
4995.9852014543
 31
0.0
  0
LINE
  5
F4
330
1F
100
AcDbEntity
  8
0
  6
Continuous
 62
     7
370
    25
100
AcDbLine
 10
5483.2971600709
 20
4995.9852014543
 30
0.0
 11
5483.2971600709
 21
4993.7852014543
 31
0.0
  0
LINE
  5
F5
330
1F
100
AcDbEntity
  8
0
  6
Continuous
 62
     7
370
    25
100
AcDbLine
 10
5481.2971600709
 20
4970.9852014543
 30
0.0
 11
5481.2971600709
 21
4970.9752014543
 31
0.0
  0
LINE
  5
F6
330
1F
100
AcDbEntity
  8
0
  6
Continuous
 62
     7
370
    25
100
AcDbLine
 10
5483.2971600709
 20
4970.9852014543
 30
0.0
 11
5483.2971600709
 21
4970.9752014543
 31
0.0
  0
LINE
  5
F7
330
1F
100
AcDbEntity
  8
0
  6
Continuous
 62
     7
370
    25
100
AcDbLine
 10
5481.2971600709
 20
5403.5758484978
 30
0.0
 11
5483.2971600709
 21
5403.5758484978
 31
0.0
  0
LINE
  5
F8
330
1F
100
AcDbEntity
  8
0
  6
Continuous
 62
     7
370
    25
100
AcDbLine
 10
5481.2971600709
 20
5403.5758484978
 30
0.0
 11
5481.2971600709
 21
4995.9852014543
 31
0.0
  0
LINE
  5
F9
330
1F
100
AcDbEntity
  8
0
  6
Continuous
 62
     7
370
    25
100
AcDbLine
 10
5483.2971600709
 20
5403.5758484978
 30
0.0
 11
5483.2971600709
 21
4995.9852014543
 31
0.0
  0
LINE
  5
FA
330
1F
100
AcDbEntity
  8
0
  6
Continuous
 62
     7
370
    25
100
AcDbLine
 10
5481.2971600709
 20
5405.7277732194
 30
0.0
 11
5483.2971600709
 21
5405.7277732194
 31
0.0
  0
LINE
  5
FB
330
1F
100
AcDbEntity
  8
0
  6
Continuous
 62
     7
370
    25
100
AcDbLine
 10
5481.2971600709
 20
5405.7277732194
 30
0.0
 11
5481.2971600709
 21
5403.5758484978
 31
0.0
  0
LINE
  5
FC
330
1F
100
AcDbEntity
  8
0
  6
Continuous
 62
     7
370
    25
100
AcDbLine
 10
5483.2971600709
 20
5405.7277732194
 30
0.0
 11
5483.2971600709
 21
5403.5758484978
 31
0.0
  0
LINE
  5
FD
330
1F
100
AcDbEntity
  8
0
  6
Continuous
 62
     7
370
    25
100
AcDbLine
 10
5481.2971600709
 20
5415.4203524315
 30
0.0
 11
5483.2971600709
 21
5415.4203524315
 31
0.0
  0
LINE
  5
FE
330
1F
100
AcDbEntity
  8
0
  6
Continuous
 62
     7
370
    25
100
AcDbLine
 10
5481.2971600709
 20
5415.4203524315
 30
0.0
 11
5481.2971600709
 21
5405.7277732194
 31
0.0
  0
LINE
  5
FF
330
1F
100
AcDbEntity
  8
0
  6
Continuous
 62
     7
370
    25
100
AcDbLine
 10
5483.2971600709
 20
5415.4203524315
 30
0.0
 11
5483.2971600709
 21
5405.7277732194
 31
0.0
  0
LINE
  5
100
330
1F
100
AcDbEntity
  8
0
  6
Continuous
 62
     7
370
    25
100
AcDbLine
 10
5481.2971600709
 20
5415.4684277099
 30
0.0
 11
5481.2971600709
 21
5415.4203524315
 31
0.0
  0
LINE
  5
101
330
1F
100
AcDbEntity
  8
0
  6
Continuous
 62
     7
370
    25
100
AcDbLine
 10
5483.2971600709
 20
5415.4684277099
 30
0.0
 11
5483.2971600709
 21
5415.4203524315
 31
0.0
  0
LINE
  5
102
330
1F
100
AcDbEntity
  8
0
  6
Continuous
 62
     7
370
    25
100
AcDbLine
 10
7379.2971600709
 20
4995.9852014543
 30
0.0
 11
5483.2971600709
 21
4995.9852014543
 31
0.0
  0
LINE
  5
103
330
1F
100
AcDbEntity
  8
0
  6
Continuous
 62
     7
370
    25
100
AcDbLine
 10
5483.2971600709
 20
4993.7852014543
 30
0.0
 11
7379.2971600709
 21
4993.7852014543
 31
0.0
  0
LINE
  5
104
330
1F
100
AcDbEntity
  8
0
  6
Continuous
 62
     7
370
    25
100
AcDbLine
 10
5483.2971600709
 20
4970.9852014543
 30
0.0
 11
7379.2971600709
 21
4970.9852014543
 31
0.0
  0
LINE
  5
105
330
1F
100
AcDbEntity
  8
0
  6
Continuous
 62
     7
370
    25
100
AcDbLine
 10
5483.2971600709
 20
5403.5758484978
 30
0.0
 11
7379.2971600709
 21
5403.5758484978
 31
0.0
  0
LINE
  5
106
330
1F
100
AcDbEntity
  8
0
  6
Continuous
 62
     7
370
    25
100
AcDbLine
 10
7379.2971600709
 20
5405.7277732194
 30
0.0
 11
5483.2971600709
 21
5405.7277732194
 31
0.0
  0
LINE
  5
107
330
1F
100
AcDbEntity
  8
0
  6
Continuous
 62
     7
370
    25
100
AcDbLine
 10
5483.2971600709
 20
5415.4203524315
 30
0.0
 11
7379.2971600709
 21
5415.4203524315
 31
0.0
  0
LWPOLYLINE
  5
108
330
1F
100
AcDbEntity
  8
0
  6
Continuous
 62
     7
370
    25
100
AcDbPolyline
 90
       14
 70
   128
 43
0.0
 10
5603.2971600709
 20
5408.1911265834
 10
5605.3809382029
 20
5408.2290303325
 10
5607.4014017908
 20
5408.3415898936
 10
5609.2971600709
 20
5408.5253852013
 10
5611.0106113871
 20
5408.7748317283
 10
5612.4896933883
 20
5409.0823501681
 10
5613.6894649163
 20
5409.4385967283
 10
5614.5734715203
 20
5409.8327470377
 10
5615.1148531071
 20
5410.2528250385
 10
5615.2971600709
 20
5410.6860668733
 10
5615.1148531071
 20
5411.119308708
 10
5614.5734715203
 20
5411.5393867088
 10
5613.6894649163
 20
5411.9335370182
 10
5612.7127929446
 20
5412.2328216678
  0
LWPOLYLINE
  5
109
330
1F
100
AcDbEntity
  8
0
  6
Continuous
 62
     7
370
    25
100
AcDbPolyline
 90
       14
 70
   128
 43
0.0
 10
5593.8815271972
 20
5412.2328216678
 10
5592.9048552255
 20
5411.9335370182
 10
5592.0208486215
 20
5411.5393867088
 10
5591.4794670348
 20
5411.119308708
 10
5591.2971600709
 20
5410.6860668733
 10
5591.4794670348
 20
5410.2528250385
 10
5592.0208486215
 20
5409.8327470377
 10
5592.9048552255
 20
5409.4385967283
 10
5594.1046267535
 20
5409.0823501681
 10
5595.5837087547
 20
5408.7748317283
 10
5597.2971600709
 20
5408.5253852013
 10
5599.192918351
 20
5408.3415898936
 10
5601.2133819389
 20
5408.2290303325
 10
5603.2971600709
 20
5408.1911265834
  0
CIRCLE
  5
10A
330
1F
100
AcDbEntity
  8
0
  6
Continuous
 62
     7
370
    25
100
AcDbCircle
 10
6551.2971600709
 20
5305.9852014543
 30
0.0
 40
12.5
  0
LINE
  5
10B
330
1F
100
AcDbEntity
  8
0
  6
Continuous
 62
     7
370
    25
100
AcDbLine
 10
6550.9072338355
 20
5311.1815952672
 30
0.0
 11
6550.9072338355
 21
5314.7273149118
 31
0.0
  0
ARC
  5
10C
330
1F
100
AcDbEntity
  8
0
  6
Continuous
 62
     7
370
    25
100
AcDbCircle
 10
6549.2901909403
 20
5314.7273149118
 30
0.0
 40
1.617042895244595
100
AcDbArc
 50
0.0
 51
180.0
  0
LINE
  5
10D
330
1F
100
AcDbEntity
  8
0
  6
Continuous
 62
     7
370
    25
100
AcDbLine
 10
6547.673148045
 20
5314.7273149118
 30
0.0
 11
6547.673148045
 21
5307.1888633261
 31
0.0
  0
ARC
  5
10E
330
1F
100
AcDbEntity
  8
0
  6
Continuous
 62
     7
370
    25
100
AcDbCircle
 10
6545.8280977818
 20
5305.401234524
 30
0.0
 40
2.569012885871402
100
AcDbArc
 50
44.0944057146
 51
105.4941474424
  0
LINE
  5
10F
330
1F
100
AcDbEntity
  8
0
  6
Continuous
 62
     7
370
    25
100
AcDbLine
 10
6545.1418118252
 20
5307.8768836901
 30
0.0
 11
6545.1418118252
 21
5302.4557691247
 31
0.0
  0
ARC
  5
110
330
1F
100
AcDbEntity
  8
0
  6
Continuous
 62
     7
370
    25
100
AcDbCircle
 10
6551.4643421529
 20
5302.4557691247
 30
0.0
 40
6.322530327734057
100
AcDbArc
 50
180.0
 51
270.0
  0
LINE
  5
111
330
1F
100
AcDbEntity
  8
0
  6
Continuous
 62
     7
370
    25
100
AcDbLine
 10
6551.4643421529
 20
5296.1332387969
 30
0.0
 11
6553.8315665599
 21
5296.1332387969
 31
0.0
  0
ARC
  5
112
330
1F
100
AcDbEntity
  8
0
  6
Continuous
 62
     7
370
    25
100
AcDbCircle
 10
6553.8315665599
 20
5300.6888393476
 30
0.0
 40
4.555600550638701
100
AcDbArc
 50
270.0
 51
0.0
  0
LINE
  5
113
330
1F
100
AcDbEntity
  8
0
  6
Continuous
 62
     7
370
    25
100
AcDbLine
 10
6558.3871671105
 20
5300.6888393476
 30
0.0
 11
6558.3871671105
 21
5308.5256098758
 31
0.0
  0
ARC
  5
114
330
1F
100
AcDbEntity
  8
0
  6
Continuous
 62
     7
370
    25
100
AcDbCircle
 10
6557.0335558643
 20
5308.5256098758
 30
0.0
 40
1.353611246209766
100
AcDbArc
 50
0.0
 51
90.0
  0
LINE
  5
115
330
1F
100
AcDbEntity
  8
0
  6
Continuous
 62
     7
370
    25
100
AcDbLine
 10
6557.0335558643
 20
5309.879221122
 30
0.0
 11
6556.5393303996
 21
5309.879221122
 31
0.0
  0
ARC
  5
116
330
1F
100
AcDbEntity
  8
0
  6
Continuous
 62
     7
370
    25
100
AcDbCircle
 10
6556.5393303996
 20
5308.5256098758
 30
0.0
 40
1.353611246209766
100
AcDbArc
 50
90.0
 51
118.7365577358
  0
ARC
  5
117
330
1F
100
AcDbEntity
  8
0
  6
Continuous
 62
     7
370
    25
100
AcDbCircle
 10
6554.5560705299
 20
5309.4741897993
 30
0.0
 40
1.353611246208857
100
AcDbArc
 50
10.1404867648
 51
90.0000000001
  0
LINE
  5
118
330
1F
100
AcDbEntity
  8
0
  6
Continuous
 62
     7
370
    25
100
AcDbLine
 10
6554.5560705299
 20
5310.8278010455
 30
0.0
 11
6553.9767532478
 21
5310.8278010455
 31
0.0
  0
ARC
  5
119
330
1F
100
AcDbEntity
  8
0
  6
Continuous
 62
     7
370
    25
100
AcDbCircle
 10
6553.9767532478
 20
5309.4741897993
 30
0.0
 40
1.353611246208857
100
AcDbArc
 50
90.0
 51
124.7440022271
  0
ARC
  5
11A
330
1F
100
AcDbEntity
  8
0
  6
Continuous
 62
     7
370
    25
100
AcDbCircle
 10
6551.9934933781
 20
5309.9833440345
 30
0.0
 40
1.353611246208857
100
AcDbArc
 50
26.4592691593
 51
90.0
  0
LINE
  5
11B
330
1F
100
AcDbEntity
  8
0
  6
Continuous
 62
     7
370
    25
100
AcDbLine
 10
6551.9934933781
 20
5311.3369552807
 30
0.0
 11
6551.536882459
 21
5311.3369552807
 31
0.0
  0
ARC
  5
11C
330
1F
100
AcDbEntity
  8
0
  6
Continuous
 62
     7
370
    25
100
AcDbCircle
 10
6551.536882459
 20
5309.9833440345
 30
0.0
 40
1.353611246209766
100
AcDbArc
 50
90.0
 51
117.7207121261
  0
ARC
  5
11D
330
1F
100
AcDbEntity
  8
0
  6
Continuous
 62
     7
370
    25
100
AcDbCircle
 10
6550.5452525242
 20
5307.0564746377
 30
0.0
 40
0.6676186886570576
100
AcDbArc
 50
180.0
 51
0.0
  0
LINE
  5
11E
330
1F
100
AcDbEntity
  8
0
  6
Continuous
 62
     7
370
    25
100
AcDbLine
 10
6551.2128712128
 20
5309.9975061722
 30
0.0
 11
6551.2128712128
 21
5307.0564746377
 31
0.0
  0
ARC
  5
11F
330
1F
100
AcDbEntity
  8
0
  6
Continuous
 62
     7
370
    25
100
AcDbCircle
 10
6551.4529813291
 20
5309.9975061722
 30
0.0
 40
0.2401101162877239
100
AcDbArc
 50
90.0
 51
180.0
  0
LINE
  5
120
330
1F
100
AcDbEntity
  8
0
  6
Continuous
 62
     7
370
    25
100
AcDbLine
 10
6552.077394508
 20
5310.2376162885
 30
0.0
 11
6551.4529813291
 21
5310.2376162885
 31
0.0
  0
ARC
  5
121
330
1F
100
AcDbEntity
  8
0
  6
Continuous
 62
     7
370
    25
100
AcDbCircle
 10
6552.077394508
 20
5309.9975061722
 30
0.0
 40
0.2401101162868144
100
AcDbArc
 50
0.0
 51
90.0
  0
LINE
  5
122
330
1F
100
AcDbEntity
  8
0
  6
Continuous
 62
     7
370
    25
100
AcDbLine
 10
6552.3175046243
 20
5307.0564746377
 30
0.0
 11
6552.3175046243
 21
5309.9975061722
 31
0.0
  0
ARC
  5
123
330
1F
100
AcDbEntity
  8
0
  6
Continuous
 62
     7
370
    25
100
AcDbCircle
 10
6552.985123313
 20
5307.0564746377
 30
0.0
 40
0.6676186886570576
100
AcDbArc
 50
180.0
 51
0.0
  0
LINE
  5
124
330
1F
100
AcDbEntity
  8
0
  6
Continuous
 62
     7
370
    25
100
AcDbLine
 10
6553.6527420016
 20
5309.488351937
 30
0.0
 11
6553.6527420016
 21
5307.0564746377
 31
0.0
  0
ARC
  5
125
330
1F
100
AcDbEntity
  8
0
  6
Continuous
 62
     7
370
    25
100
AcDbCircle
 10
6553.8928521179
 20
5309.488351937
 30
0.0
 40
0.2401101162868144
100
AcDbArc
 50
90.0
 51
180.0
  0
LINE
  5
126
330
1F
100
AcDbEntity
  8
0
  6
Continuous
 62
     7
370
    25
100
AcDbLine
 10
6554.6399716598
 20
5309.7284620533
 30
0.0
 11
6553.8928521179
 21
5309.7284620533
 31
0.0
  0
ARC
  5
127
330
1F
100
AcDbEntity
  8
0
  6
Continuous
 62
     7
370
    25
100
AcDbCircle
 10
6554.6399716598
 20
5309.488351937
 30
0.0
 40
0.2401101162868144
100
AcDbArc
 50
0.0
 51
90.0
  0
LINE
  5
128
330
1F
100
AcDbEntity
  8
0
  6
Continuous
 62
     7
370
    25
100
AcDbLine
 10
6554.8800817761
 20
5307.0564746377
 30
0.0
 11
6554.8800817761
 21
5309.488351937
 31
0.0
  0
ARC
  5
129
330
1F
100
AcDbEntity
  8
0
  6
Continuous
 62
     7
370
    25
100
AcDbCircle
 10
6555.5477004648
 20
5307.0564746377
 30
0.0
 40
0.6676186886570576
100
AcDbArc
 50
180.0
 51
0.0
  0
LINE
  5
12A
330
1F
100
AcDbEntity
  8
0
  6
Continuous
 62
     7
370
    25
100
AcDbLine
 10
6556.2153191534
 20
5308.5720016284
 30
0.0
 11
6556.2153191534
 21
5307.0564746377
 31
0.0
  0
ARC
  5
12B
330
1F
100
AcDbEntity
  8
0
  6
Continuous
 62
     7
370
    25
100
AcDbCircle
 10
6556.4554292697
 20
5308.5720016284
 30
0.0
 40
0.2401101162877239
100
AcDbArc
 50
90.0
 51
180.0
  0
LINE
  5
12C
330
1F
100
AcDbEntity
  8
0
  6
Continuous
 62
     7
370
    25
100
AcDbLine
 10
6557.1174569942
 20
5308.8121117447
 30
0.0
 11
6556.4554292697
 21
5308.8121117447
 31
0.0
  0
ARC
  5
12D
330
1F
100
AcDbEntity
  8
0
  6
Continuous
 62
     7
370
    25
100
AcDbCircle
 10
6557.1174569942
 20
5308.5720016284
 30
0.0
 40
0.2401101162877239
100
AcDbArc
 50
0.0
 51
90.0
  0
LINE
  5
12E
330
1F
100
AcDbEntity
  8
0
  6
Continuous
 62
     7
370
    25
100
AcDbLine
 10
6557.3575671105
 20
5300.6888393476
 30
0.0
 11
6557.3575671105
 21
5308.5720016284
 31
0.0
  0
ARC
  5
12F
330
1F
100
AcDbEntity
  8
0
  6
Continuous
 62
     7
370
    25
100
AcDbCircle
 10
6553.8315665599
 20
5300.6888393476
 30
0.0
 40
3.526000550638855
100
AcDbArc
 50
270.0
 51
0.0
  0
LINE
  5
130
330
1F
100
AcDbEntity
  8
0
  6
Continuous
 62
     7
370
    25
100
AcDbLine
 10
6551.4643421529
 20
5297.1628387969
 30
0.0
 11
6553.8315665599
 21
5297.1628387969
 31
0.0
  0
ARC
  5
131
330
1F
100
AcDbEntity
  8
0
  6
Continuous
 62
     7
370
    25
100
AcDbCircle
 10
6551.4643421529
 20
5302.4557691247
 30
0.0
 40
5.292930327734211
100
AcDbArc
 50
180.0
 51
270.0
  0
LINE
  5
132
330
1F
100
AcDbEntity
  8
0
  6
Continuous
 62
     7
370
    25
100
AcDbLine
 10
6546.1714118252
 20
5306.9018768868
 30
0.0
 11
6546.1714118252
 21
5302.4557691247
 31
0.0
  0
ARC
  5
133
330
1F
100
AcDbEntity
  8
0
  6
Continuous
 62
     7
370
    25
100
AcDbCircle
 10
6545.8280977818
 20
5305.401234524
 30
0.0
 40
1.53941288587157
100
AcDbArc
 50
0.0
 51
77.1137478469
  0
LINE
  5
134
330
1F
100
AcDbEntity
  8
0
  6
Continuous
 62
     7
370
    25
100
AcDbLine
 10
6547.3675106677
 20
5303.446813642
 30
0.0
 11
6547.3675106677
 21
5305.401234524
 31
0.0
  0
ARC
  5
135
330
1F
100
AcDbEntity
  8
0
  6
Continuous
 62
     7
370
    25
100
AcDbCircle
 10
6548.0351293564
 20
5303.446813642
 30
0.0
 40
0.6676186886570576
100
AcDbArc
 50
180.0
 51
0.0
  0
LINE
  5
136
330
1F
100
AcDbEntity
  8
0
  6
Continuous
 62
     7
370
    25
100
AcDbLine
 10
6548.702748045
 20
5314.7273149118
 30
0.0
 11
6548.702748045
 21
5303.446813642
 31
0.0
  0
LINE
  5
137
330
1F
100
AcDbEntity
  8
0
  6
Continuous
 62
     7
370
    25
100
AcDbLine
 10
6549.8776338355
 20
5307.0564746377
 30
0.0
 11
6549.8776338355
 21
5314.7273149118
 31
0.0
  0
ARC
  5
138
330
1F
100
AcDbEntity
  8
0
  6
Continuous
 62
     7
370
    25
100
AcDbCircle
 10
6549.2901909403
 20
5314.7273149118
 30
0.0
 40
0.5874428952447488
100
AcDbArc
 50
0.0
 51
180.0
  0
CIRCLE
  5
139
330
1F
100
AcDbEntity
  8
0
  6
Continuous
 62
     7
370
    25
100
AcDbCircle
 10
6551.2971600709
 20
5305.9852014543
 30
0.0
 40
14.0
  0
ARC
  5
13A
330
1F
100
AcDbEntity
  8
0
  6
Continuous
 62
     7
370
    25
100
AcDbCircle
 10
7150.5452525242
 20
5307.0564746377
 30
0.0
 40
0.6676186886570576
100
AcDbArc
 50
180.0
 51
0.0
  0
LINE
  5
13B
330
1F
100
AcDbEntity
  8
0
  6
Continuous
 62
     7
370
    25
100
AcDbLine
 10
7151.2128712128
 20
5309.9975061722
 30
0.0
 11
7151.2128712128
 21
5307.0564746377
 31
0.0
  0
ARC
  5
13C
330
1F
100
AcDbEntity
  8
0
  6
Continuous
 62
     7
370
    25
100
AcDbCircle
 10
7151.4529813291
 20
5309.9975061722
 30
0.0
 40
0.2401101162877239
100
AcDbArc
 50
90.0
 51
180.0
  0
LINE
  5
13D
330
1F
100
AcDbEntity
  8
0
  6
Continuous
 62
     7
370
    25
100
AcDbLine
 10
7152.077394508
 20
5310.2376162885
 30
0.0
 11
7151.4529813291
 21
5310.2376162885
 31
0.0
  0
ARC
  5
13E
330
1F
100
AcDbEntity
  8
0
  6
Continuous
 62
     7
370
    25
100
AcDbCircle
 10
7152.077394508
 20
5309.9975061722
 30
0.0
 40
0.2401101162886334
100
AcDbArc
 50
0.0
 51
89.9999999998
  0
LINE
  5
13F
330
1F
100
AcDbEntity
  8
0
  6
Continuous
 62
     7
370
    25
100
AcDbLine
 10
7152.3175046243
 20
5307.0564746377
 30
0.0
 11
7152.3175046243
 21
5309.9975061722
 31
0.0
  0
ARC
  5
140
330
1F
100
AcDbEntity
  8
0
  6
Continuous
 62
     7
370
    25
100
AcDbCircle
 10
7152.985123313
 20
5307.0564746377
 30
0.0
 40
0.6676186886570576
100
AcDbArc
 50
180.0
 51
0.0
  0
LINE
  5
141
330
1F
100
AcDbEntity
  8
0
  6
Continuous
 62
     7
370
    25
100
AcDbLine
 10
7153.6527420016
 20
5309.488351937
 30
0.0
 11
7153.6527420016
 21
5307.0564746377
 31
0.0
  0
ARC
  5
142
330
1F
100
AcDbEntity
  8
0
  6
Continuous
 62
     7
370
    25
100
AcDbCircle
 10
7153.8928521179
 20
5309.488351937
 30
0.0
 40
0.2401101162877239
100
AcDbArc
 50
90.0
 51
180.0
  0
LINE
  5
143
330
1F
100
AcDbEntity
  8
0
  6
Continuous
 62
     7
370
    25
100
AcDbLine
 10
7154.6399716598
 20
5309.7284620533
 30
0.0
 11
7153.8928521179
 21
5309.7284620533
 31
0.0
  0
ARC
  5
144
330
1F
100
AcDbEntity
  8
0
  6
Continuous
 62
     7
370
    25
100
AcDbCircle
 10
7154.6399716598
 20
5309.488351937
 30
0.0
 40
0.2401101162886334
100
AcDbArc
 50
0.0
 51
90.0
  0
LINE
  5
145
330
1F
100
AcDbEntity
  8
0
  6
Continuous
 62
     7
370
    25
100
AcDbLine
 10
7154.8800817761
 20
5307.0564746377
 30
0.0
 11
7154.8800817761
 21
5309.488351937
 31
0.0
  0
ARC
  5
146
330
1F
100
AcDbEntity
  8
0
  6
Continuous
 62
     7
370
    25
100
AcDbCircle
 10
7155.5477004648
 20
5307.0564746377
 30
0.0
 40
0.6676186886561482
100
AcDbArc
 50
180.0
 51
0.0
  0
LINE
  5
147
330
1F
100
AcDbEntity
  8
0
  6
Continuous
 62
     7
370
    25
100
AcDbLine
 10
7156.2153191534
 20
5308.5720016284
 30
0.0
 11
7156.2153191534
 21
5307.0564746377
 31
0.0
  0
ARC
  5
148
330
1F
100
AcDbEntity
  8
0
  6
Continuous
 62
     7
370
    25
100
AcDbCircle
 10
7156.4554292697
 20
5308.5720016284
 30
0.0
 40
0.2401101162877239
100
AcDbArc
 50
90.0
 51
180.0
  0
LINE
  5
149
330
1F
100
AcDbEntity
  8
0
  6
Continuous
 62
     7
370
    25
100
AcDbLine
 10
7157.1174569942
 20
5308.8121117447
 30
0.0
 11
7156.4554292697
 21
5308.8121117447
 31
0.0
  0
ARC
  5
14A
330
1F
100
AcDbEntity
  8
0
  6
Continuous
 62
     7
370
    25
100
AcDbCircle
 10
7157.1174569942
 20
5308.5720016284
 30
0.0
 40
0.2401101162868144
100
AcDbArc
 50
0.0
 51
90.0
  0
LINE
  5
14B
330
1F
100
AcDbEntity
  8
0
  6
Continuous
 62
     7
370
    25
100
AcDbLine
 10
7157.3575671105
 20
5300.6888393476
 30
0.0
 11
7157.3575671105
 21
5308.5720016284
 31
0.0
  0
ARC
  5
14C
330
1F
100
AcDbEntity
  8
0
  6
Continuous
 62
     7
370
    25
100
AcDbCircle
 10
7153.8315665599
 20
5300.6888393476
 30
0.0
 40
3.526000550638855
100
AcDbArc
 50
270.0
 51
0.0
  0
LINE
  5
14D
330
1F
100
AcDbEntity
  8
0
  6
Continuous
 62
     7
370
    25
100
AcDbLine
 10
7151.4643421529
 20
5297.1628387969
 30
0.0
 11
7153.8315665599
 21
5297.1628387969
 31
0.0
  0
ARC
  5
14E
330
1F
100
AcDbEntity
  8
0
  6
Continuous
 62
     7
370
    25
100
AcDbCircle
 10
7151.4643421529
 20
5302.4557691247
 30
0.0
 40
5.292930327734211
100
AcDbArc
 50
180.0
 51
270.0
  0
LINE
  5
14F
330
1F
100
AcDbEntity
  8
0
  6
Continuous
 62
     7
370
    25
100
AcDbLine
 10
7146.1714118252
 20
5306.9018768868
 30
0.0
 11
7146.1714118252
 21
5302.4557691247
 31
0.0
  0
ARC
  5
150
330
1F
100
AcDbEntity
  8
0
  6
Continuous
 62
     7
370
    25
100
AcDbCircle
 10
7145.8280977818
 20
5305.401234524
 30
0.0
 40
1.539412885870834
100
AcDbArc
 50
0.0
 51
77.1137478469
  0
LINE
  5
151
330
1F
100
AcDbEntity
  8
0
  6
Continuous
 62
     7
370
    25
100
AcDbLine
 10
7147.3675106677
 20
5303.446813642
 30
0.0
 11
7147.3675106677
 21
5305.401234524
 31
0.0
  0
ARC
  5
152
330
1F
100
AcDbEntity
  8
0
  6
Continuous
 62
     7
370
    25
100
AcDbCircle
 10
7148.0351293564
 20
5303.446813642
 30
0.0
 40
0.6676186886570576
100
AcDbArc
 50
180.0
 51
0.0
  0
LINE
  5
153
330
1F
100
AcDbEntity
  8
0
  6
Continuous
 62
     7
370
    25
100
AcDbLine
 10
7148.702748045
 20
5314.7273149118
 30
0.0
 11
7148.702748045
 21
5303.446813642
 31
0.0
  0
ARC
  5
154
330
1F
100
AcDbEntity
  8
0
  6
Continuous
 62
     7
370
    25
100
AcDbCircle
 10
7149.2901909403
 20
5314.7273149118
 30
0.0
 40
0.5874428952447488
100
AcDbArc
 50
0.0
 51
180.0
  0
LINE
  5
155
330
1F
100
AcDbEntity
  8
0
  6
Continuous
 62
     7
370
    25
100
AcDbLine
 10
7149.8776338355
 20
5307.0564746377
 30
0.0
 11
7149.8776338355
 21
5314.7273149118
 31
0.0
  0
CIRCLE
  5
156
330
1F
100
AcDbEntity
  8
0
  6
Continuous
 62
     7
370
    25
100
AcDbCircle
 10
7151.2971600709
 20
5305.9852014543
 30
0.0
 40
12.5
  0
LINE
  5
157
330
1F
100
AcDbEntity
  8
0
  6
Continuous
 62
     7
370
    25
100
AcDbLine
 10
7150.9072338355
 20
5311.1815952672
 30
0.0
 11
7150.9072338355
 21
5314.7273149118
 31
0.0
  0
LINE
  5
158
330
1F
100
AcDbEntity
  8
0
  6
Continuous
 62
     7
370
    25
100
AcDbLine
 10
7147.673148045
 20
5314.7273149118
 30
0.0
 11
7147.673148045
 21
5307.1888633261
 31
0.0
  0
ARC
  5
159
330
1F
100
AcDbEntity
  8
0
  6
Continuous
 62
     7
370
    25
100
AcDbCircle
 10
7145.8280977818
 20
5305.401234524
 30
0.0
 40
2.569012885871177
100
AcDbArc
 50
44.0944057146
 51
105.4941474424
  0
LINE
  5
15A
330
1F
100
AcDbEntity
  8
0
  6
Continuous
 62
     7
370
    25
100
AcDbLine
 10
7145.1418118252
 20
5307.8768836901
 30
0.0
 11
7145.1418118252
 21
5302.4557691247
 31
0.0
  0
ARC
  5
15B
330
1F
100
AcDbEntity
  8
0
  6
Continuous
 62
     7
370
    25
100
AcDbCircle
 10
7151.4643421529
 20
5302.4557691247
 30
0.0
 40
6.322530327734057
100
AcDbArc
 50
180.0
 51
270.0
  0
LINE
  5
15C
330
1F
100
AcDbEntity
  8
0
  6
Continuous
 62
     7
370
    25
100
AcDbLine
 10
7151.4643421529
 20
5296.1332387969
 30
0.0
 11
7153.8315665599
 21
5296.1332387969
 31
0.0
  0
ARC
  5
15D
330
1F
100
AcDbEntity
  8
0
  6
Continuous
 62
     7
370
    25
100
AcDbCircle
 10
7153.8315665599
 20
5300.6888393476
 30
0.0
 40
4.555600550638701
100
AcDbArc
 50
270.0
 51
0.0
  0
LINE
  5
15E
330
1F
100
AcDbEntity
  8
0
  6
Continuous
 62
     7
370
    25
100
AcDbLine
 10
7158.3871671105
 20
5300.6888393476
 30
0.0
 11
7158.3871671105
 21
5308.5256098758
 31
0.0
  0
ARC
  5
15F
330
1F
100
AcDbEntity
  8
0
  6
Continuous
 62
     7
370
    25
100
AcDbCircle
 10
7157.0335558643
 20
5308.5256098758
 30
0.0
 40
1.353611246209766
100
AcDbArc
 50
0.0
 51
90.0
  0
LINE
  5
160
330
1F
100
AcDbEntity
  8
0
  6
Continuous
 62
     7
370
    25
100
AcDbLine
 10
7157.0335558643
 20
5309.879221122
 30
0.0
 11
7156.5393303996
 21
5309.879221122
 31
0.0
  0
ARC
  5
161
330
1F
100
AcDbEntity
  8
0
  6
Continuous
 62
     7
370
    25
100
AcDbCircle
 10
7156.5393303996
 20
5308.5256098758
 30
0.0
 40
1.353611246209766
100
AcDbArc
 50
90.0
 51
118.7365577358
  0
ARC
  5
162
330
1F
100
AcDbEntity
  8
0
  6
Continuous
 62
     7
370
    25
100
AcDbCircle
 10
7154.5560705299
 20
5309.4741897993
 30
0.0
 40
1.353611246208857
100
AcDbArc
 50
10.1404867648
 51
90.0
  0
LINE
  5
163
330
1F
100
AcDbEntity
  8
0
  6
Continuous
 62
     7
370
    25
100
AcDbLine
 10
7154.5560705299
 20
5310.8278010455
 30
0.0
 11
7153.9767532478
 21
5310.8278010455
 31
0.0
  0
ARC
  5
164
330
1F
100
AcDbEntity
  8
0
  6
Continuous
 62
     7
370
    25
100
AcDbCircle
 10
7153.9767532478
 20
5309.4741897993
 30
0.0
 40
1.353611246208857
100
AcDbArc
 50
90.0
 51
124.7440022271
  0
ARC
  5
165
330
1F
100
AcDbEntity
  8
0
  6
Continuous
 62
     7
370
    25
100
AcDbCircle
 10
7151.9934933781
 20
5309.9833440345
 30
0.0
 40
1.353611246208857
100
AcDbArc
 50
26.4592691593
 51
90.0
  0
LINE
  5
166
330
1F
100
AcDbEntity
  8
0
  6
Continuous
 62
     7
370
    25
100
AcDbLine
 10
7151.9934933781
 20
5311.3369552807
 30
0.0
 11
7151.536882459
 21
5311.3369552807
 31
0.0
  0
ARC
  5
167
330
1F
100
AcDbEntity
  8
0
  6
Continuous
 62
     7
370
    25
100
AcDbCircle
 10
7151.536882459
 20
5309.9833440345
 30
0.0
 40
1.353611246209766
100
AcDbArc
 50
90.0
 51
117.7207121261
  0
ARC
  5
168
330
1F
100
AcDbEntity
  8
0
  6
Continuous
 62
     7
370
    25
100
AcDbCircle
 10
7149.2901909403
 20
5314.7273149118
 30
0.0
 40
1.617042895244595
100
AcDbArc
 50
0.0
 51
180.0
  0
CIRCLE
  5
169
330
1F
100
AcDbEntity
  8
0
  6
Continuous
 62
     7
370
    25
100
AcDbCircle
 10
7151.2971600709
 20
5305.9852014543
 30
0.0
 40
14.00000000000091
  0
CIRCLE
  5
16A
330
1F
100
AcDbEntity
  8
0
  6
Continuous
 62
     7
370
    25
100
AcDbCircle
 10
5951.2971600709
 20
5305.9852014543
 30
0.0
 40
12.49999999999909
  0
LINE
  5
16B
330
1F
100
AcDbEntity
  8
0
  6
Continuous
 62
     7
370
    25
100
AcDbLine
 10
5950.9072338355
 20
5311.1815952672
 30
0.0
 11
5950.9072338355
 21
5314.7273149118
 31
0.0
  0
ARC
  5
16C
330
1F
100
AcDbEntity
  8
0
  6
Continuous
 62
     7
370
    25
100
AcDbCircle
 10
5949.2901909403
 20
5314.7273149118
 30
0.0
 40
1.617042895244595
100
AcDbArc
 50
0.0
 51
180.0
  0
LINE
  5
16D
330
1F
100
AcDbEntity
  8
0
  6
Continuous
 62
     7
370
    25
100
AcDbLine
 10
5947.673148045
 20
5314.7273149118
 30
0.0
 11
5947.673148045
 21
5307.1888633261
 31
0.0
  0
ARC
  5
16E
330
1F
100
AcDbEntity
  8
0
  6
Continuous
 62
     7
370
    25
100
AcDbCircle
 10
5945.8280977818
 20
5305.401234524
 30
0.0
 40
2.569012885872483
100
AcDbArc
 50
44.0944057145
 51
105.4941474424
  0
LINE
  5
16F
330
1F
100
AcDbEntity
  8
0
  6
Continuous
 62
     7
370
    25
100
AcDbLine
 10
5945.1418118252
 20
5307.8768836901
 30
0.0
 11
5945.1418118252
 21
5302.4557691247
 31
0.0
  0
ARC
  5
170
330
1F
100
AcDbEntity
  8
0
  6
Continuous
 62
     7
370
    25
100
AcDbCircle
 10
5951.4643421529
 20
5302.4557691247
 30
0.0
 40
6.322530327734057
100
AcDbArc
 50
180.0
 51
270.0
  0
LINE
  5
171
330
1F
100
AcDbEntity
  8
0
  6
Continuous
 62
     7
370
    25
100
AcDbLine
 10
5951.4643421529
 20
5296.1332387969
 30
0.0
 11
5953.8315665599
 21
5296.1332387969
 31
0.0
  0
ARC
  5
172
330
1F
100
AcDbEntity
  8
0
  6
Continuous
 62
     7
370
    25
100
AcDbCircle
 10
5953.8315665599
 20
5300.6888393476
 30
0.0
 40
4.555600550638701
100
AcDbArc
 50
270.0
 51
0.0
  0
LINE
  5
173
330
1F
100
AcDbEntity
  8
0
  6
Continuous
 62
     7
370
    25
100
AcDbLine
 10
5958.3871671105
 20
5300.6888393476
 30
0.0
 11
5958.3871671105
 21
5308.5256098758
 31
0.0
  0
ARC
  5
174
330
1F
100
AcDbEntity
  8
0
  6
Continuous
 62
     7
370
    25
100
AcDbCircle
 10
5957.0335558643
 20
5308.5256098758
 30
0.0
 40
1.353611246209766
100
AcDbArc
 50
0.0
 51
90.0
  0
LINE
  5
175
330
1F
100
AcDbEntity
  8
0
  6
Continuous
 62
     7
370
    25
100
AcDbLine
 10
5957.0335558643
 20
5309.879221122
 30
0.0
 11
5956.5393303996
 21
5309.879221122
 31
0.0
  0
ARC
  5
176
330
1F
100
AcDbEntity
  8
0
  6
Continuous
 62
     7
370
    25
100
AcDbCircle
 10
5956.5393303996
 20
5308.5256098758
 30
0.0
 40
1.353611246209766
100
AcDbArc
 50
90.0
 51
118.7365577358
  0
ARC
  5
177
330
1F
100
AcDbEntity
  8
0
  6
Continuous
 62
     7
370
    25
100
AcDbCircle
 10
5954.5560705299
 20
5309.4741897993
 30
0.0
 40
1.353611246209073
100
AcDbArc
 50
10.1404867648
 51
90.0
  0
LINE
  5
178
330
1F
100
AcDbEntity
  8
0
  6
Continuous
 62
     7
370
    25
100
AcDbLine
 10
5954.5560705299
 20
5310.8278010455
 30
0.0
 11
5953.9767532478
 21
5310.8278010455
 31
0.0
  0
ARC
  5
179
330
1F
100
AcDbEntity
  8
0
  6
Continuous
 62
     7
370
    25
100
AcDbCircle
 10
5953.9767532478
 20
5309.4741897993
 30
0.0
 40
1.353611246208857
100
AcDbArc
 50
90.0
 51
124.7440022271
  0
ARC
  5
17A
330
1F
100
AcDbEntity
  8
0
  6
Continuous
 62
     7
370
    25
100
AcDbCircle
 10
5951.9934933781
 20
5309.9833440345
 30
0.0
 40
1.353611246208857
100
AcDbArc
 50
26.4592691592
 51
90.0
  0
LINE
  5
17B
330
1F
100
AcDbEntity
  8
0
  6
Continuous
 62
     7
370
    25
100
AcDbLine
 10
5951.9934933781
 20
5311.3369552807
 30
0.0
 11
5951.536882459
 21
5311.3369552807
 31
0.0
  0
ARC
  5
17C
330
1F
100
AcDbEntity
  8
0
  6
Continuous
 62
     7
370
    25
100
AcDbCircle
 10
5951.536882459
 20
5309.9833440345
 30
0.0
 40
1.353611246209766
100
AcDbArc
 50
90.0
 51
117.7207121261
  0
ARC
  5
17D
330
1F
100
AcDbEntity
  8
0
  6
Continuous
 62
     7
370
    25
100
AcDbCircle
 10
5950.5452525242
 20
5307.0564746377
 30
0.0
 40
0.6676186886570576
100
AcDbArc
 50
180.0
 51
0.0
  0
LINE
  5
17E
330
1F
100
AcDbEntity
  8
0
  6
Continuous
 62
     7
370
    25
100
AcDbLine
 10
5951.2128712128
 20
5309.9975061722
 30
0.0
 11
5951.2128712128
 21
5307.0564746377
 31
0.0
  0
ARC
  5
17F
330
1F
100
AcDbEntity
  8
0
  6
Continuous
 62
     7
370
    25
100
AcDbCircle
 10
5951.4529813291
 20
5309.9975061722
 30
0.0
 40
0.2401101162877239
100
AcDbArc
 50
90.0
 51
180.0
  0
LINE
  5
180
330
1F
100
AcDbEntity
  8
0
  6
Continuous
 62
     7
370
    25
100
AcDbLine
 10
5952.077394508
 20
5310.2376162885
 30
0.0
 11
5951.4529813291
 21
5310.2376162885
 31
0.0
  0
ARC
  5
181
330
1F
100
AcDbEntity
  8
0
  6
Continuous
 62
     7
370
    25
100
AcDbCircle
 10
5952.077394508
 20
5309.9975061722
 30
0.0
 40
0.2401101162877239
100
AcDbArc
 50
0.0
 51
90.0
  0
LINE
  5
182
330
1F
100
AcDbEntity
  8
0
  6
Continuous
 62
     7
370
    25
100
AcDbLine
 10
5952.3175046243
 20
5307.0564746377
 30
0.0
 11
5952.3175046243
 21
5309.9975061722
 31
0.0
  0
ARC
  5
183
330
1F
100
AcDbEntity
  8
0
  6
Continuous
 62
     7
370
    25
100
AcDbCircle
 10
5952.985123313
 20
5307.0564746377
 30
0.0
 40
0.6676186886570576
100
AcDbArc
 50
180.0
 51
0.0
  0
LINE
  5
184
330
1F
100
AcDbEntity
  8
0
  6
Continuous
 62
     7
370
    25
100
AcDbLine
 10
5953.6527420016
 20
5309.488351937
 30
0.0
 11
5953.6527420016
 21
5307.0564746377
 31
0.0
  0
ARC
  5
185
330
1F
100
AcDbEntity
  8
0
  6
Continuous
 62
     7
370
    25
100
AcDbCircle
 10
5953.8928521179
 20
5309.488351937
 30
0.0
 40
0.2401101162886334
100
AcDbArc
 50
90.0
 51
180.0
  0
LINE
  5
186
330
1F
100
AcDbEntity
  8
0
  6
Continuous
 62
     7
370
    25
100
AcDbLine
 10
5954.6399716598
 20
5309.7284620533
 30
0.0
 11
5953.8928521179
 21
5309.7284620533
 31
0.0
  0
ARC
  5
187
330
1F
100
AcDbEntity
  8
0
  6
Continuous
 62
     7
370
    25
100
AcDbCircle
 10
5954.6399716598
 20
5309.488351937
 30
0.0
 40
0.2401101162877239
100
AcDbArc
 50
0.0
 51
90.0
  0
LINE
  5
188
330
1F
100
AcDbEntity
  8
0
  6
Continuous
 62
     7
370
    25
100
AcDbLine
 10
5954.8800817761
 20
5307.0564746377
 30
0.0
 11
5954.8800817761
 21
5309.488351937
 31
0.0
  0
ARC
  5
189
330
1F
100
AcDbEntity
  8
0
  6
Continuous
 62
     7
370
    25
100
AcDbCircle
 10
5955.5477004648
 20
5307.0564746377
 30
0.0
 40
0.6676186886561482
100
AcDbArc
 50
180.0
 51
0.0
  0
LINE
  5
18A
330
1F
100
AcDbEntity
  8
0
  6
Continuous
 62
     7
370
    25
100
AcDbLine
 10
5956.2153191534
 20
5308.5720016284
 30
0.0
 11
5956.2153191534
 21
5307.0564746377
 31
0.0
  0
ARC
  5
18B
330
1F
100
AcDbEntity
  8
0
  6
Continuous
 62
     7
370
    25
100
AcDbCircle
 10
5956.4554292697
 20
5308.5720016284
 30
0.0
 40
0.2401101162886334
100
AcDbArc
 50
90.0
 51
180.0
  0
LINE
  5
18C
330
1F
100
AcDbEntity
  8
0
  6
Continuous
 62
     7
370
    25
100
AcDbLine
 10
5957.1174569942
 20
5308.8121117447
 30
0.0
 11
5956.4554292697
 21
5308.8121117447
 31
0.0
  0
ARC
  5
18D
330
1F
100
AcDbEntity
  8
0
  6
Continuous
 62
     7
370
    25
100
AcDbCircle
 10
5957.1174569942
 20
5308.5720016284
 30
0.0
 40
0.2401101162868144
100
AcDbArc
 50
0.0
 51
90.0
  0
LINE
  5
18E
330
1F
100
AcDbEntity
  8
0
  6
Continuous
 62
     7
370
    25
100
AcDbLine
 10
5957.3575671105
 20
5300.6888393476
 30
0.0
 11
5957.3575671105
 21
5308.5720016284
 31
0.0
  0
ARC
  5
18F
330
1F
100
AcDbEntity
  8
0
  6
Continuous
 62
     7
370
    25
100
AcDbCircle
 10
5953.8315665599
 20
5300.6888393476
 30
0.0
 40
3.526000550638855
100
AcDbArc
 50
270.0
 51
0.0
  0
LINE
  5
190
330
1F
100
AcDbEntity
  8
0
  6
Continuous
 62
     7
370
    25
100
AcDbLine
 10
5951.4643421529
 20
5297.1628387969
 30
0.0
 11
5953.8315665599
 21
5297.1628387969
 31
0.0
  0
ARC
  5
191
330
1F
100
AcDbEntity
  8
0
  6
Continuous
 62
     7
370
    25
100
AcDbCircle
 10
5951.4643421529
 20
5302.4557691247
 30
0.0
 40
5.292930327734211
100
AcDbArc
 50
180.0
 51
270.0
  0
LINE
  5
192
330
1F
100
AcDbEntity
  8
0
  6
Continuous
 62
     7
370
    25
100
AcDbLine
 10
5946.1714118252
 20
5306.9018768868
 30
0.0
 11
5946.1714118252
 21
5302.4557691247
 31
0.0
  0
ARC
  5
193
330
1F
100
AcDbEntity
  8
0
  6
Continuous
 62
     7
370
    25
100
AcDbCircle
 10
5945.8280977818
 20
5305.401234524
 30
0.0
 40
1.53941288587157
100
AcDbArc
 50
0.0
 51
77.1137478469
  0
LINE
  5
194
330
1F
100
AcDbEntity
  8
0
  6
Continuous
 62
     7
370
    25
100
AcDbLine
 10
5947.3675106677
 20
5303.446813642
 30
0.0
 11
5947.3675106677
 21
5305.401234524
 31
0.0
  0
ARC
  5
195
330
1F
100
AcDbEntity
  8
0
  6
Continuous
 62
     7
370
    25
100
AcDbCircle
 10
5948.0351293564
 20
5303.446813642
 30
0.0
 40
0.6676186886570576
100
AcDbArc
 50
180.0
 51
0.0
  0
LINE
  5
196
330
1F
100
AcDbEntity
  8
0
  6
Continuous
 62
     7
370
    25
100
AcDbLine
 10
5948.702748045
 20
5314.7273149118
 30
0.0
 11
5948.702748045
 21
5303.446813642
 31
0.0
  0
ARC
  5
197
330
1F
100
AcDbEntity
  8
0
  6
Continuous
 62
     7
370
    25
100
AcDbCircle
 10
5949.2901909403
 20
5314.7273149118
 30
0.0
 40
0.5874428952456583
100
AcDbArc
 50
0.0
 51
180.0
  0
LINE
  5
198
330
1F
100
AcDbEntity
  8
0
  6
Continuous
 62
     7
370
    25
100
AcDbLine
 10
5949.8776338355
 20
5307.0564746377
 30
0.0
 11
5949.8776338355
 21
5314.7273149118
 31
0.0
  0
CIRCLE
  5
199
330
1F
100
AcDbEntity
  8
0
  6
Continuous
 62
     7
370
    25
100
AcDbCircle
 10
5951.2971600709
 20
5305.9852014543
 30
0.0
 40
13.99999999999909
  0
LINE
  5
19A
330
1F
100
AcDbEntity
  8
0
  6
Continuous
 62
     7
370
    25
100
AcDbLine
 10
7032.7971600709
 20
5291.9852014543
 30
0.0
 11
7029.7971600709
 21
5291.9852014543
 31
0.0
  0
LINE
  5
19B
330
1F
100
AcDbEntity
  8
0
  6
Continuous
 62
     7
370
    25
100
AcDbLine
 10
6432.7971600709
 20
5291.9852014543
 30
0.0
 11
6429.7971600709
 21
5291.9852014543
 31
0.0
  0
LINE
  5
19C
330
1F
100
AcDbEntity
  8
0
  6
Continuous
 62
     7
370
    25
100
AcDbLine
 10
5832.7971600709
 20
5291.9852014543
 30
0.0
 11
5829.7971600709
 21
5291.9852014543
 31
0.0
  0
ARC
  5
19D
330
1F
100
AcDbEntity
  8
0
  6
Continuous
 62
     7
370
    25
100
AcDbCircle
 10
5831.4067729436
 20
5328.1271900725
 30
0.0
 40
32.33234845720052
100
AcDbArc
 50
270.3195445578
 51
277.00524986
  0
ARC
  5
19E
330
1F
100
AcDbEntity
  8
0
  6
Continuous
 62
     7
370
    25
100
AcDbCircle
 10
5833.2061365416
 20
5313.7145208606
 30
0.0
 40
18.76440461087486
100
AcDbArc
 50
277.5095473836
 51
284.9272291805
  0
LINE
  5
19F
330
1F
100
AcDbEntity
  8
0
  6
Continuous
 62
     7
370
    25
100
AcDbLine
 10
5838.0396974962
 20
5296.5492699767
 30
0.0
 11
5838.0396974962
 21
5295.5833441504
 31
0.0
  0
ARC
  5
1A0
330
1F
100
AcDbEntity
  8
0
  6
Continuous
 62
     7
370
    25
100
AcDbCircle
 10
5836.164600709
 20
5303.9260456903
 30
0.0
 40
7.611360449419251
100
AcDbArc
 50
284.2619248086
 51
297.2228497749
  0
ARC
  5
1A1
330
1F
100
AcDbEntity
  8
0
  6
Continuous
 62
     7
370
    25
100
AcDbCircle
 10
5839.6400598383
 20
5297.2732679758
 30
0.0
 40
0.9028767270865782
100
AcDbArc
 50
304.3231205498
 51
1.5289520688
  0
LINE
  5
1A2
330
1F
100
AcDbEntity
  8
0
  6
Continuous
 62
     7
370
    25
100
AcDbLine
 10
5840.5426151141
 20
5297.901062247
 30
0.0
 11
5840.5426151141
 21
5297.2973586055
 31
0.0
  0
LINE
  5
1A3
330
1F
100
AcDbEntity
  8
0
  6
Continuous
 62
     7
370
    25
100
AcDbLine
 10
5839.4544490766
 20
5298.6627635588
 30
0.0
 11
5839.4544490766
 21
5298.3511118557
 31
0.0
  0
ARC
  5
1A4
330
1F
100
AcDbEntity
  8
0
  6
Continuous
 62
     7
370
    25
100
AcDbCircle
 10
5835.5656561458
 20
5289.8465997685
 30
0.0
 40
9.351440332893205
100
AcDbArc
 50
65.4271673511
 51
77.248897428
  0
LINE
  5
1A5
330
1F
100
AcDbEntity
  8
0
  6
Continuous
 62
     7
370
    25
100
AcDbLine
 10
5837.629670558
 20
5299.1834588067
 30
0.0
 11
5837.629670558
 21
5298.9674155657
 31
0.0
  0
LINE
  5
1A6
330
1F
100
AcDbEntity
  8
0
  6
Continuous
 62
     7
370
    25
100
AcDbLine
 10
5833.9813135557
 20
5299.6819294532
 30
0.0
 11
5833.9813135557
 21
5299.513383428
 31
0.0
  0
ARC
  5
1A7
330
1F
100
AcDbEntity
  8
0
  6
Continuous
 62
     7
370
    25
100
AcDbCircle
 10
5831.310346774
 20
5264.987829063
 30
0.0
 40
34.62871594154452
100
AcDbArc
 50
85.5762935841
 51
90.5015401574
  0
LINE
  5
1A8
330
1F
100
AcDbEntity
  8
0
  6
Continuous
 62
     7
370
    25
100
AcDbLine
 10
5831.0072272424
 20
5299.7770547006
 30
0.0
 11
5831.0072272424
 21
5299.6152183135
 31
0.0
  0
LINE
  5
1A9
330
1F
100
AcDbEntity
  8
0
  6
Continuous
 62
     7
370
    25
100
AcDbLine
 10
5826.9358373268
 20
5299.5153805535
 30
0.0
 11
5826.9358373268
 21
5299.3335802188
 31
0.0
  0
ARC
  5
1AA
330
1F
100
AcDbEntity
  8
0
  6
Continuous
 62
     7
370
    25
100
AcDbCircle
 10
5829.3881836002
 20
5280.7301160748
 30
0.0
 40
18.76440461087486
100
AcDbArc
 50
97.5095473836
 51
104.9272291805
  0
LINE
  5
1AB
330
1F
100
AcDbEntity
  8
0
  6
Continuous
 62
     7
370
    25
100
AcDbLine
 10
5824.5546226456
 20
5299.0896546348
 30
0.0
 11
5824.5546226456
 21
5298.8612927851
 31
0.0
  0
LINE
  5
1AC
330
1F
100
AcDbEntity
  8
0
  6
Continuous
 62
     7
370
    25
100
AcDbLine
 10
5822.4451648116
 20
5298.3551598467
 30
0.0
 11
5822.4451648116
 21
5297.9170285096
 31
0.0
  0
ARC
  5
1AD
330
1F
100
AcDbEntity
  8
0
  6
Continuous
 62
     7
370
    25
100
AcDbCircle
 10
5822.9542603036
 20
5297.1713689596
 30
0.0
 40
0.9028767270882372
100
AcDbArc
 50
124.3231205499
 51
181.5289520687
  0
ARC
  5
1AE
330
1F
100
AcDbEntity
  8
0
  6
Continuous
 62
     7
370
    25
100
AcDbCircle
 10
5824.6488735586
 20
5300.2738029369
 30
0.0
 40
3.550936144672282
100
AcDbArc
 50
233.8550182224
 51
244.8519277994
  0
LINE
  5
1AF
330
1F
100
AcDbEntity
  8
0
  6
Continuous
 62
     7
370
    25
100
AcDbLine
 10
5823.1398710652
 20
5297.059450906
 30
0.0
 11
5823.1398710652
 21
5296.0935250797
 31
0.0
  0
ARC
  5
1B0
330
1F
100
AcDbEntity
  8
0
  6
Continuous
 62
     7
370
    25
100
AcDbCircle
 10
5827.0286639959
 20
5304.5980371669
 30
0.0
 40
9.351440332805288
100
AcDbArc
 50
245.427167351
 51
257.2488974281
  0
ARC
  5
1B1
330
1F
100
AcDbEntity
  8
0
  6
Continuous
 62
     7
370
    25
100
AcDbCircle
 10
5830.3573595091
 20
5320.2153645776
 30
0.0
 40
24.38066653467549
100
AcDbArc
 50
258.189300535
 51
265.8971784142
  0
LINE
  5
1B2
330
1F
100
AcDbEntity
  8
0
  6
Continuous
 62
     7
370
    25
100
AcDbLine
 10
5828.6130065861
 20
5295.8971793338
 30
0.0
 11
5828.6130065861
 21
5294.9312535075
 31
0.0
  0
ARC
  5
1B3
330
1F
100
AcDbEntity
  8
0
  6
Continuous
 62
     7
370
    25
100
AcDbCircle
 10
5831.2839733678
 20
5329.4568078728
 30
0.0
 40
34.62871594189548
100
AcDbArc
 50
265.5762935841
 51
270.5015401573
  0
LWPOLYLINE
  5
1B4
330
1F
100
AcDbEntity
  8
0
  6
Continuous
 62
     7
370
    25
100
AcDbPolyline
 90
        6
 70
   128
 43
0.0
 10
5824.7488196976
 20
5296.8894538513
 10
5823.8485864812
 20
5297.2702115912
 10
5823.273891673
 20
5297.6910917655
 10
5823.0498521936
 20
5298.1336998908
 10
5823.1862596434
 20
5298.5786918683
 10
5823.3136566043
 20
5298.7265737472
  0
LWPOLYLINE
  5
1B5
330
1F
100
AcDbEntity
  8
0
  6
Continuous
 62
     7
370
    25
100
AcDbPolyline
 90
       14
 70
   128
 43
0.0
 10
5839.4718011323
 20
5298.4761906328
 10
5839.5444679482
 20
5298.2427886972
 10
5839.4080604984
 20
5297.7977967198
 10
5838.9171677794
 20
5297.3698691748
 10
5838.0932441587
 20
5296.9777085496
 10
5836.9722990522
 20
5296.6384541452
 10
5835.6033231399
 20
5296.3669330071
 10
5834.0461472381
 20
5296.1750119118
 10
5832.3688274061
 20
5296.0710787321
 10
5830.6446705691
 20
5296.0596758468
 10
5828.9490306543
 20
5296.1413016167
 10
5827.3560152625
 20
5296.3123886039
 10
5825.9352468107
 20
5296.565459486
 10
5824.7488196976
 20
5296.8894538513
  0
LINE
  5
1B6
330
1F
100
AcDbEntity
  8
0
  6
Continuous
 62
     7
370
    25
100
AcDbLine
 10
5840.0398970693
 20
5298.2804978645
 30
0.0
 11
5840.3017082218
 21
5298.2715332596
 31
0.0
  0
ARC
  5
1B7
330
1F
100
AcDbEntity
  8
0
  6
Continuous
 62
     7
370
    25
100
AcDbCircle
 10
5839.0565511214
 20
5298.3322123735
 30
0.0
 40
1.011320879466671
100
AcDbArc
 50
305.6817763789
 51
346.4922228012
  0
LINE
  5
1B8
330
1F
100
AcDbEntity
  8
0
  6
Continuous
 62
     7
370
    25
100
AcDbLine
 10
5838.0396974962
 20
5296.5492699767
 30
0.0
 11
5837.7312501304
 21
5296.6534454993
 31
0.0
  0
ARC
  5
1B9
330
1F
100
AcDbEntity
  8
0
  6
Continuous
 62
     7
370
    25
100
AcDbCircle
 10
5833.0992258221
 20
5313.7684994277
 30
0.0
 40
17.73078453322348
100
AcDbArc
 50
277.2930101399
 51
285.1437664242
  0
ARC
  5
1BA
330
1F
100
AcDbEntity
  8
0
  6
Continuous
 62
     7
370
    25
100
AcDbCircle
 10
5831.2853898423
 20
5328.6518614471
 30
0.0
 40
32.72847533114265
100
AcDbArc
 50
265.4332158269
 51
270.6446179145
  0
LINE
  5
1BB
330
1F
100
AcDbEntity
  8
0
  6
Continuous
 62
     7
370
    25
100
AcDbLine
 10
5828.6795141829
 20
5296.0272923381
 30
0.0
 11
5828.6130065861
 21
5295.8971793338
 31
0.0
  0
ARC
  5
1BC
330
1F
100
AcDbEntity
  8
0
  6
Continuous
 62
     7
370
    25
100
AcDbCircle
 10
5827.2646933148
 20
5305.1508916929
 30
0.0
 40
8.834111884564352
100
AcDbArc
 50
245.0796807337
 51
257.5963840455
  0
LINE
  5
1BD
330
1F
100
AcDbEntity
  8
0
  6
Continuous
 62
     7
370
    25
100
AcDbLine
 10
5823.1398710652
 20
5297.059450906
 30
0.0
 11
5823.5423743764
 21
5297.1392829587
 31
0.0
  0
LWPOLYLINE
  5
1BE
330
1F
100
AcDbEntity
  8
0
  6
Continuous
 62
     7
370
    25
100
AcDbPolyline
 90
        3
 70
   128
 43
0.0
 10
5823.7971600709
 20
5298.2646267212
 10
5823.273891673
 20
5298.6570175918
 10
5823.2368754304
 20
5298.6988904614
  0
LINE
  5
1BF
330
1F
100
AcDbEntity
  8
0
  6
Continuous
 62
     7
370
    25
100
AcDbLine
 10
5838.9168772561
 20
5298.335613817
 30
0.0
 11
5838.7971600709
 21
5298.2646267212
 31
0.0
  0
LINE
  5
1C0
330
1F
100
AcDbEntity
  8
0
  6
Continuous
 62
     7
370
    25
100
AcDbLine
 10
5833.9148059589
 20
5299.3832704237
 30
0.0
 11
5833.9813135557
 21
5299.513383428
 31
0.0
  0
ARC
  5
1C1
330
1F
100
AcDbEntity
  8
0
  6
Continuous
 62
     7
370
    25
100
AcDbCircle
 10
5831.3089302995
 20
5266.7587013148
 30
0.0
 40
32.72847533098821
100
AcDbArc
 50
85.4332158269
 51
90.6446179146
  0
LINE
  5
1C2
330
1F
100
AcDbEntity
  8
0
  6
Continuous
 62
     7
370
    25
100
AcDbLine
 10
5830.9407196457
 20
5299.4851053092
 30
0.0
 11
5831.0072272424
 21
5299.6152183135
 31
0.0
  0
LWPOLYLINE
  5
1C3
330
1F
100
AcDbEntity
  8
0
  6
Continuous
 62
     7
370
    25
100
AcDbPolyline
 90
        7
 70
   128
 43
0.0
 10
5825.3441233679
 20
5297.0075257097
 10
5824.5026184542
 20
5297.3663479537
 10
5823.978818755
 20
5297.7636011571
 10
5823.797216562
 20
5298.1807102015
 10
5823.9663033918
 20
5298.5981715318
 10
5824.4781729323
 20
5298.9964651201
 10
5824.5546226456
 20
5299.0383452511
  0
LWPOLYLINE
  5
1C4
330
1F
100
AcDbEntity
  8
0
  6
Continuous
 62
     7
370
    25
100
AcDbPolyline
 90
       14
 70
   128
 43
0.0
 10
5838.7482274281
 20
5298.4096208699
 10
5838.7499912993
 20
5298.4056070988
 10
5838.75628588
 20
5297.9858613438
 10
5838.4138000281
 20
5297.5755787907
 10
5837.7385480014
 20
5297.1939437955
 10
5836.7621038341
 20
5296.8588011866
 10
5835.5301249703
 20
5296.5858218598
 10
5834.1002173724
 20
5296.3877700251
 10
5832.5392419305
 20
5296.2739063661
 10
5830.9201881213
 20
5296.2495550209
 10
5829.3187611015
 20
5296.3158546315
 10
5827.8098418186
 20
5296.4697051017
 10
5826.4639856614
 20
5296.7039125545
 10
5825.3441233679
 20
5297.0075257097
  0
LINE
  5
1C5
330
1F
100
AcDbEntity
  8
0
  6
Continuous
 62
     7
370
    25
100
AcDbLine
 10
5830.9407196457
 20
5299.7764910384
 30
0.0
 11
5830.9407196457
 21
5299.4851053092
 31
0.0
  0
LINE
  5
1C6
330
1F
100
AcDbEntity
  8
0
  6
Continuous
 62
     7
370
    25
100
AcDbLine
 10
5826.9358373268
 20
5299.3335802188
 30
0.0
 11
5827.2442846926
 21
5299.2294046962
 31
0.0
  0
ARC
  5
1C7
330
1F
100
AcDbEntity
  8
0
  6
Continuous
 62
     7
370
    25
100
AcDbCircle
 10
5829.4950943197
 20
5281.6420633341
 30
0.0
 40
17.73078453322258
100
AcDbArc
 50
97.2930101399
 51
105.1437664242
  0
LINE
  5
1C8
330
1F
100
AcDbEntity
  8
0
  6
Continuous
 62
     7
370
    25
100
AcDbLine
 10
5824.5546226456
 20
5298.8612927851
 30
0.0
 11
5824.8630700114
 21
5298.7571172625
 31
0.0
  0
LINE
  5
1C9
330
1F
100
AcDbEntity
  8
0
  6
Continuous
 62
     7
370
    25
100
AcDbLine
 10
5827.2442846926
 20
5299.5529811115
 30
0.0
 11
5827.2442846926
 21
5299.2294046962
 31
0.0
  0
LINE
  5
1CA
330
1F
100
AcDbEntity
  8
0
  6
Continuous
 62
     7
370
    25
100
AcDbLine
 10
5837.629670558
 20
5298.9674155657
 30
0.0
 11
5837.2271672468
 21
5298.887583513
 31
0.0
  0
LINE
  5
1CB
330
1F
100
AcDbEntity
  8
0
  6
Continuous
 62
     7
370
    25
100
AcDbLine
 10
5839.4544490766
 20
5298.3511118557
 30
0.0
 11
5839.0519457654
 21
5298.2712798031
 31
0.0
  0
ARC
  5
1CC
330
1F
100
AcDbEntity
  8
0
  6
Continuous
 62
     7
370
    25
100
AcDbCircle
 10
5835.329626827
 20
5290.2596710687
 30
0.0
 40
8.834111884758673
100
AcDbArc
 50
65.0796807338
 51
77.5963840453
  0
LINE
  5
1CD
330
1F
100
AcDbEntity
  8
0
  6
Continuous
 62
     7
370
    25
100
AcDbLine
 10
5837.2271672468
 20
5299.2660163176
 30
0.0
 11
5837.2271672468
 21
5298.887583513
 31
0.0
  0
LINE
  5
1CE
330
1F
100
AcDbEntity
  8
0
  6
Continuous
 62
     7
370
    25
100
AcDbLine
 10
5822.9478828564
 20
5298.5870876373
 30
0.0
 11
5822.9478828564
 21
5297.8998150769
 31
0.0
  0
LINE
  5
1CF
330
1F
100
AcDbEntity
  8
0
  6
Continuous
 62
     7
370
    25
100
AcDbLine
 10
5822.9478828564
 20
5297.8998150769
 30
0.0
 11
5822.4451648116
 21
5297.9170285096
 31
0.0
  0
ARC
  5
1D0
330
1F
100
AcDbEntity
  8
0
  6
Continuous
 62
     7
370
    25
100
AcDbCircle
 10
5823.412595769
 20
5297.1768417965
 30
0.0
 40
0.8594465983364284
100
AcDbArc
 50
122.7321069522
 51
183.1199656663
  0
LINE
  5
1D1
330
1F
100
AcDbEntity
  8
0
  6
Continuous
 62
     7
370
    25
100
AcDbLine
 10
5822.5544230725
 20
5297.1300648972
 30
0.0
 11
5822.0517050278
 21
5297.1472783299
 31
0.0
  0
LINE
  5
1D2
330
1F
100
AcDbEntity
  8
0
  6
Continuous
 62
     7
370
    25
100
AcDbLine
 10
5822.5544230725
 20
5297.3145720382
 30
0.0
 11
5822.5544230725
 21
5297.1300648972
 31
0.0
  0
LINE
  5
1D3
330
1F
100
AcDbEntity
  8
0
  6
Continuous
 62
     7
370
    25
100
AcDbLine
 10
5840.0398970693
 20
5298.2804978645
 30
0.0
 11
5840.0398970693
 21
5297.3145720382
 31
0.0
  0
LINE
  5
1D4
330
1F
100
AcDbEntity
  8
0
  6
Continuous
 62
     7
370
    25
100
AcDbLine
 10
5840.0398970693
 20
5297.3145720382
 30
0.0
 11
5840.5426151141
 21
5297.2973586055
 31
0.0
  0
ARC
  5
1D5
330
1F
100
AcDbEntity
  8
0
  6
Continuous
 62
     7
370
    25
100
AcDbCircle
 10
5839.1817243728
 20
5297.267795139
 30
0.0
 40
0.8594465983382448
100
AcDbArc
 50
302.7321069524
 51
3.1199656663
  0
LINE
  5
1D6
330
1F
100
AcDbEntity
  8
0
  6
Continuous
 62
     7
370
    25
100
AcDbLine
 10
5839.6464372854
 20
5296.5448218586
 30
0.0
 11
5840.1491553302
 21
5296.5276084259
 31
0.0
  0
LINE
  5
1D7
330
1F
100
AcDbEntity
  8
0
  6
Continuous
 62
     7
370
    25
100
AcDbLine
 10
5839.6464372854
 20
5297.5107476849
 30
0.0
 11
5839.6464372854
 21
5296.5448218586
 31
0.0
  0
LINE
  5
1D8
330
1F
100
AcDbEntity
  8
0
  6
Continuous
 62
     7
370
    25
100
AcDbLine
 10
5823.5423743764
 20
5297.1392829587
 30
0.0
 11
5823.5423743764
 21
5296.1733571324
 31
0.0
  0
LINE
  5
1D9
330
1F
100
AcDbEntity
  8
0
  6
Continuous
 62
     7
370
    25
100
AcDbLine
 10
5823.1398710652
 20
5296.0935250797
 30
0.0
 11
5823.5423743764
 21
5296.1733571324
 31
0.0
  0
ARC
  5
1DA
330
1F
100
AcDbEntity
  8
0
  6
Continuous
 62
     7
370
    25
100
AcDbCircle
 10
5827.2646933148
 20
5304.1849658666
 30
0.0
 40
8.834111884569685
100
AcDbArc
 50
245.0796807337
 51
257.5963840455
  0
LINE
  5
1DB
330
1F
100
AcDbEntity
  8
0
  6
Continuous
 62
     7
370
    25
100
AcDbLine
 10
5825.367152895
 20
5296.5229792487
 30
0.0
 11
5825.367152895
 21
5295.5570534224
 31
0.0
  0
LINE
  5
1DC
330
1F
100
AcDbEntity
  8
0
  6
Continuous
 62
     7
370
    25
100
AcDbLine
 10
5824.9646495838
 20
5295.4772213698
 30
0.0
 11
5825.367152895
 21
5295.5570534224
 31
0.0
  0
LINE
  5
1DD
330
1F
100
AcDbEntity
  8
0
  6
Continuous
 62
     7
370
    25
100
AcDbLine
 10
5837.7312501304
 20
5296.6534454993
 30
0.0
 11
5837.7312501304
 21
5295.687519673
 31
0.0
  0
LINE
  5
1DE
330
1F
100
AcDbEntity
  8
0
  6
Continuous
 62
     7
370
    25
100
AcDbLine
 10
5838.0396974962
 20
5295.5833441504
 30
0.0
 11
5837.7312501304
 21
5295.687519673
 31
0.0
  0
ARC
  5
1DF
330
1F
100
AcDbEntity
  8
0
  6
Continuous
 62
     7
370
    25
100
AcDbCircle
 10
5833.0992258221
 20
5312.802573601
 30
0.0
 40
17.7307845327971
100
AcDbArc
 50
277.2930101398
 51
285.1437664243
  0
LINE
  5
1E0
330
1F
100
AcDbEntity
  8
0
  6
Continuous
 62
     7
370
    25
100
AcDbLine
 10
5835.3500354492
 20
5296.1811580656
 30
0.0
 11
5835.3500354492
 21
5295.2152322393
 31
0.0
  0
LINE
  5
1E1
330
1F
100
AcDbEntity
  8
0
  6
Continuous
 62
     7
370
    25
100
AcDbLine
 10
5835.658482815
 20
5295.1110567167
 30
0.0
 11
5835.3500354492
 21
5295.2152322393
 31
0.0
  0
LINE
  5
1E2
330
1F
100
AcDbEntity
  8
0
  6
Continuous
 62
     7
370
    25
100
AcDbLine
 10
5828.6795141829
 20
5296.0272923381
 30
0.0
 11
5828.6795141829
 21
5295.0613665118
 31
0.0
  0
LINE
  5
1E3
330
1F
100
AcDbEntity
  8
0
  6
Continuous
 62
     7
370
    25
100
AcDbLine
 10
5831.6536004961
 20
5295.9254574525
 30
0.0
 11
5831.6536004961
 21
5294.9595316262
 31
0.0
  0
ARC
  5
1E4
330
1F
100
AcDbEntity
  8
0
  6
Continuous
 62
     7
370
    25
100
AcDbCircle
 10
5831.2853898423
 20
5327.6859356213
 30
0.0
 40
32.72847533166161
100
AcDbArc
 50
265.4332158269
 51
270.6446179145
  0
LINE
  5
1E5
330
1F
100
AcDbEntity
  8
0
  6
Continuous
 62
     7
370
    25
100
AcDbLine
 10
5828.6795141829
 20
5295.0613665118
 30
0.0
 11
5828.6130065861
 21
5294.9312535075
 31
0.0
  0
LINE
  5
1E6
330
1F
100
AcDbEntity
  8
0
  6
Continuous
 62
     7
370
    25
100
AcDbLine
 10
5831.6536004961
 20
5294.9595316262
 30
0.0
 11
5831.5870928994
 21
5294.8294186219
 31
0.0
  0
ARC
  5
1E7
330
1F
100
AcDbEntity
  8
0
  6
Continuous
 62
     7
370
    25
100
AcDbCircle
 10
7031.4067729436
 20
5328.1271900725
 30
0.0
 40
32.33234845725782
100
AcDbArc
 50
270.3195445578
 51
277.00524986
  0
ARC
  5
1E8
330
1F
100
AcDbEntity
  8
0
  6
Continuous
 62
     7
370
    25
100
AcDbCircle
 10
7033.2061365416
 20
5313.7145208606
 30
0.0
 40
18.76440461087486
100
AcDbArc
 50
277.5095473836
 51
284.9272291805
  0
LINE
  5
1E9
330
1F
100
AcDbEntity
  8
0
  6
Continuous
 62
     7
370
    25
100
AcDbLine
 10
7038.0396974962
 20
5296.5492699767
 30
0.0
 11
7038.0396974962
 21
5295.5833441504
 31
0.0
  0
ARC
  5
1EA
330
1F
100
AcDbEntity
  8
0
  6
Continuous
 62
     7
370
    25
100
AcDbCircle
 10
7036.164600709
 20
5303.9260456904
 30
0.0
 40
7.611360449513524
100
AcDbArc
 50
284.2619248087
 51
297.2228497748
  0
ARC
  5
1EB
330
1F
100
AcDbEntity
  8
0
  6
Continuous
 62
     7
370
    25
100
AcDbCircle
 10
7039.6400598383
 20
5297.2732679758
 30
0.0
 40
0.9028767270874631
100
AcDbArc
 50
304.3231205498
 51
1.5289520687
  0
LINE
  5
1EC
330
1F
100
AcDbEntity
  8
0
  6
Continuous
 62
     7
370
    25
100
AcDbLine
 10
7040.5426151141
 20
5297.901062247
 30
0.0
 11
7040.5426151141
 21
5297.2973586055
 31
0.0
  0
LINE
  5
1ED
330
1F
100
AcDbEntity
  8
0
  6
Continuous
 62
     7
370
    25
100
AcDbLine
 10
7039.4544490766
 20
5298.6627635588
 30
0.0
 11
7039.4544490766
 21
5298.3511118557
 31
0.0
  0
ARC
  5
1EE
330
1F
100
AcDbEntity
  8
0
  6
Continuous
 62
     7
370
    25
100
AcDbCircle
 10
7035.5656561458
 20
5289.8465997685
 30
0.0
 40
9.351440332893205
100
AcDbArc
 50
65.4271673511
 51
77.248897428
  0
LINE
  5
1EF
330
1F
100
AcDbEntity
  8
0
  6
Continuous
 62
     7
370
    25
100
AcDbLine
 10
7037.629670558
 20
5299.1834588067
 30
0.0
 11
7037.629670558
 21
5298.9674155657
 31
0.0
  0
LINE
  5
1F0
330
1F
100
AcDbEntity
  8
0
  6
Continuous
 62
     7
370
    25
100
AcDbLine
 10
7033.9813135557
 20
5299.6819294532
 30
0.0
 11
7033.9813135557
 21
5299.513383428
 31
0.0
  0
ARC
  5
1F1
330
1F
100
AcDbEntity
  8
0
  6
Continuous
 62
     7
370
    25
100
AcDbCircle
 10
7031.310346774
 20
5264.987829063
 30
0.0
 40
34.62871594155546
100
AcDbArc
 50
85.5762935841
 51
90.5015401574
  0
LINE
  5
1F2
330
1F
100
AcDbEntity
  8
0
  6
Continuous
 62
     7
370
    25
100
AcDbLine
 10
7031.0072272424
 20
5299.7770547006
 30
0.0
 11
7031.0072272424
 21
5299.6152183135
 31
0.0
  0
LINE
  5
1F3
330
1F
100
AcDbEntity
  8
0
  6
Continuous
 62
     7
370
    25
100
AcDbLine
 10
7026.9358373268
 20
5299.5153805535
 30
0.0
 11
7026.9358373268
 21
5299.3335802188
 31
0.0
  0
ARC
  5
1F4
330
1F
100
AcDbEntity
  8
0
  6
Continuous
 62
     7
370
    25
100
AcDbCircle
 10
7029.3881836003
 20
5280.7301160748
 30
0.0
 40
18.76440461090917
100
AcDbArc
 50
97.5095473836
 51
104.9272291805
  0
LINE
  5
1F5
330
1F
100
AcDbEntity
  8
0
  6
Continuous
 62
     7
370
    25
100
AcDbLine
 10
7024.5546226456
 20
5299.0896546348
 30
0.0
 11
7024.5546226456
 21
5298.8612927851
 31
0.0
  0
LINE
  5
1F6
330
1F
100
AcDbEntity
  8
0
  6
Continuous
 62
     7
370
    25
100
AcDbLine
 10
7022.4451648116
 20
5298.3551598467
 30
0.0
 11
7022.4451648116
 21
5297.9170285096
 31
0.0
  0
ARC
  5
1F7
330
1F
100
AcDbEntity
  8
0
  6
Continuous
 62
     7
370
    25
100
AcDbCircle
 10
7022.9542603036
 20
5297.1713689596
 30
0.0
 40
0.9028767270928164
100
AcDbArc
 50
124.3231205501
 51
181.5289520686
  0
ARC
  5
1F8
330
1F
100
AcDbEntity
  8
0
  6
Continuous
 62
     7
370
    25
100
AcDbCircle
 10
7024.664802621
 20
5300.3033886184
 30
0.0
 40
3.584487150410602
100
AcDbArc
 50
234.2803054907
 51
244.8224129076
  0
LINE
  5
1F9
330
1F
100
AcDbEntity
  8
0
  6
Continuous
 62
     7
370
    25
100
AcDbLine
 10
7023.1398710652
 20
5297.059450906
 30
0.0
 11
7023.1398710652
 21
5296.0935250797
 31
0.0
  0
ARC
  5
1FA
330
1F
100
AcDbEntity
  8
0
  6
Continuous
 62
     7
370
    25
100
AcDbCircle
 10
7027.0286639959
 20
5304.5980371669
 30
0.0
 40
9.351440332848217
100
AcDbArc
 50
245.4271673511
 51
257.2488974281
  0
ARC
  5
1FB
330
1F
100
AcDbEntity
  8
0
  6
Continuous
 62
     7
370
    25
100
AcDbCircle
 10
7030.3573595091
 20
5320.2153645776
 30
0.0
 40
24.38066653467549
100
AcDbArc
 50
258.189300535
 51
265.8971784142
  0
LINE
  5
1FC
330
1F
100
AcDbEntity
  8
0
  6
Continuous
 62
     7
370
    25
100
AcDbLine
 10
7028.6130065861
 20
5295.8971793338
 30
0.0
 11
7028.6130065861
 21
5294.9312535075
 31
0.0
  0
ARC
  5
1FD
330
1F
100
AcDbEntity
  8
0
  6
Continuous
 62
     7
370
    25
100
AcDbCircle
 10
7031.2839733678
 20
5329.4568078728
 30
0.0
 40
34.62871594182911
100
AcDbArc
 50
265.5762935841
 51
270.5015401573
  0
LWPOLYLINE
  5
1FE
330
1F
100
AcDbEntity
  8
0
  6
Continuous
 62
     7
370
    25
100
AcDbPolyline
 90
        6
 70
   128
 43
0.0
 10
7024.7488196976
 20
5296.8894538513
 10
7023.8485864812
 20
5297.2702115912
 10
7023.273891673
 20
5297.6910917655
 10
7023.0498521936
 20
5298.1336998908
 10
7023.1862596434
 20
5298.5786918683
 10
7023.313656542
 20
5298.7265736853
  0
LWPOLYLINE
  5
1FF
330
1F
100
AcDbEntity
  8
0
  6
Continuous
 62
     7
370
    25
100
AcDbPolyline
 90
        6
 70
   128
 43
0.0
 10
7039.4544490766
 20
5298.5074570693
 10
7039.5444679482
 20
5298.2427886972
 10
7039.4080604984
 20
5297.7977967198
 10
7038.9171677794
 20
5297.3698691748
 10
7038.0932441587
 20
5296.9777085496
 10
7037.7399319062
 20
5296.8545552274
  0
LINE
  5
200
330
1F
100
AcDbEntity
  8
0
  6
Continuous
 62
     7
370
    25
100
AcDbLine
 10
7025.0710866309
 20
5296.7873060401
 30
0.0
 11
7024.7488196976
 21
5296.8894538513
 31
0.0
  0
LINE
  5
201
330
1F
100
AcDbEntity
  8
0
  6
Continuous
 62
     7
370
    25
100
AcDbLine
 10
7040.0398970693
 20
5298.2804978645
 30
0.0
 11
7040.3017082218
 21
5298.2715332596
 31
0.0
  0
ARC
  5
202
330
1F
100
AcDbEntity
  8
0
  6
Continuous
 62
     7
370
    25
100
AcDbCircle
 10
7039.0565511214
 20
5298.3322123735
 30
0.0
 40
1.011320879467555
100
AcDbArc
 50
305.681776379
 51
346.4922228013
  0
LINE
  5
203
330
1F
100
AcDbEntity
  8
0
  6
Continuous
 62
     7
370
    25
100
AcDbLine
 10
7038.0396974962
 20
5296.5492699767
 30
0.0
 11
7037.7312501304
 21
5296.6534454993
 31
0.0
  0
ARC
  5
204
330
1F
100
AcDbEntity
  8
0
  6
Continuous
 62
     7
370
    25
100
AcDbCircle
 10
7033.0992258221
 20
5313.7684994277
 30
0.0
 40
17.73078453322017
100
AcDbArc
 50
277.2930101399
 51
285.1437664243
  0
ARC
  5
205
330
1F
100
AcDbEntity
  8
0
  6
Continuous
 62
     7
370
    25
100
AcDbCircle
 10
7031.2853898423
 20
5328.6518614471
 30
0.0
 40
32.72847533116087
100
AcDbArc
 50
265.4332158269
 51
270.6446179145
  0
LINE
  5
206
330
1F
100
AcDbEntity
  8
0
  6
Continuous
 62
     7
370
    25
100
AcDbLine
 10
7028.6795141829
 20
5296.0272923381
 30
0.0
 11
7028.6130065861
 21
5295.8971793338
 31
0.0
  0
ARC
  5
207
330
1F
100
AcDbEntity
  8
0
  6
Continuous
 62
     7
370
    25
100
AcDbCircle
 10
7027.2646933148
 20
5305.1508916929
 30
0.0
 40
8.834111884548415
100
AcDbArc
 50
245.0796807337
 51
257.5963840455
  0
LINE
  5
208
330
1F
100
AcDbEntity
  8
0
  6
Continuous
 62
     7
370
    25
100
AcDbLine
 10
7023.1398710652
 20
5297.059450906
 30
0.0
 11
7023.5423743764
 21
5297.1392829587
 31
0.0
  0
LWPOLYLINE
  5
209
330
1F
100
AcDbEntity
  8
0
  6
Continuous
 62
     7
370
    25
100
AcDbPolyline
 90
        3
 70
   128
 43
0.0
 10
7023.7971600709
 20
5298.2646267212
 10
7023.273891673
 20
5298.6570175918
 10
7023.2368754406
 20
5298.6988904493
  0
LINE
  5
20A
330
1F
100
AcDbEntity
  8
0
  6
Continuous
 62
     7
370
    25
100
AcDbLine
 10
7038.9168772161
 20
5298.3356137921
 30
0.0
 11
7038.7971600709
 21
5298.2646267212
 31
0.0
  0
LINE
  5
20B
330
1F
100
AcDbEntity
  8
0
  6
Continuous
 62
     7
370
    25
100
AcDbLine
 10
7033.9148059589
 20
5299.3832704237
 30
0.0
 11
7033.9813135557
 21
5299.513383428
 31
0.0
  0
ARC
  5
20C
330
1F
100
AcDbEntity
  8
0
  6
Continuous
 62
     7
370
    25
100
AcDbCircle
 10
7031.3089302995
 20
5266.7587013148
 30
0.0
 40
32.72847533099275
100
AcDbArc
 50
85.4332158269
 51
90.6446179146
  0
LINE
  5
20D
330
1F
100
AcDbEntity
  8
0
  6
Continuous
 62
     7
370
    25
100
AcDbLine
 10
7030.9407196457
 20
5299.4851053092
 30
0.0
 11
7031.0072272424
 21
5299.6152183135
 31
0.0
  0
LWPOLYLINE
  5
20E
330
1F
100
AcDbEntity
  8
0
  6
Continuous
 62
     7
370
    25
100
AcDbPolyline
 90
        7
 70
   128
 43
0.0
 10
7025.3441233679
 20
5297.0075257097
 10
7024.5026184542
 20
5297.3663479537
 10
7023.978818755
 20
5297.7636011571
 10
7023.797216562
 20
5298.1807102015
 10
7023.9663033918
 20
5298.5981715318
 10
7024.4781729323
 20
5298.9964651201
 10
7024.5546226456
 20
5299.0383452511
  0
LWPOLYLINE
  5
20F
330
1F
100
AcDbEntity
  8
0
  6
Continuous
 62
     7
370
    25
100
AcDbPolyline
 90
       14
 70
   128
 43
0.0
 10
7038.7482273743
 20
5298.4096209912
 10
7038.7499912993
 20
5298.4056070988
 10
7038.75628588
 20
5297.9858613438
 10
7038.4138000281
 20
5297.5755787907
 10
7037.7385480014
 20
5297.1939437955
 10
7036.7621038341
 20
5296.8588011866
 10
7035.5301249703
 20
5296.5858218598
 10
7034.1002173724
 20
5296.3877700251
 10
7032.5392419305
 20
5296.2739063661
 10
7030.9201881213
 20
5296.2495550209
 10
7029.3187611015
 20
5296.3158546315
 10
7027.8098418186
 20
5296.4697051017
 10
7026.4639856614
 20
5296.7039125545
 10
7025.3441233679
 20
5297.0075257097
  0
LINE
  5
210
330
1F
100
AcDbEntity
  8
0
  6
Continuous
 62
     7
370
    25
100
AcDbLine
 10
7030.9407196457
 20
5299.7764910384
 30
0.0
 11
7030.9407196457
 21
5299.4851053092
 31
0.0
  0
LINE
  5
211
330
1F
100
AcDbEntity
  8
0
  6
Continuous
 62
     7
370
    25
100
AcDbLine
 10
7026.9358373268
 20
5299.3335802188
 30
0.0
 11
7027.2442846926
 21
5299.2294046962
 31
0.0
  0
ARC
  5
212
330
1F
100
AcDbEntity
  8
0
  6
Continuous
 62
     7
370
    25
100
AcDbCircle
 10
7029.4950943197
 20
5281.6420633341
 30
0.0
 40
17.73078453322258
100
AcDbArc
 50
97.2930101399
 51
105.1437664242
  0
LINE
  5
213
330
1F
100
AcDbEntity
  8
0
  6
Continuous
 62
     7
370
    25
100
AcDbLine
 10
7024.5546226456
 20
5298.8612927851
 30
0.0
 11
7024.8630700114
 21
5298.7571172625
 31
0.0
  0
LINE
  5
214
330
1F
100
AcDbEntity
  8
0
  6
Continuous
 62
     7
370
    25
100
AcDbLine
 10
7027.2442846926
 20
5299.5529811115
 30
0.0
 11
7027.2442846926
 21
5299.2294046962
 31
0.0
  0
LINE
  5
215
330
1F
100
AcDbEntity
  8
0
  6
Continuous
 62
     7
370
    25
100
AcDbLine
 10
7037.629670558
 20
5298.9674155657
 30
0.0
 11
7037.2271672468
 21
5298.887583513
 31
0.0
  0
LINE
  5
216
330
1F
100
AcDbEntity
  8
0
  6
Continuous
 62
     7
370
    25
100
AcDbLine
 10
7039.4544490766
 20
5298.3511118557
 30
0.0
 11
7039.0519457654
 21
5298.2712798031
 31
0.0
  0
ARC
  5
217
330
1F
100
AcDbEntity
  8
0
  6
Continuous
 62
     7
370
    25
100
AcDbCircle
 10
7035.329626827
 20
5290.2596710687
 30
0.0
 40
8.834111884742565
100
AcDbArc
 50
65.0796807338
 51
77.5963840453
  0
LINE
  5
218
330
1F
100
AcDbEntity
  8
0
  6
Continuous
 62
     7
370
    25
100
AcDbLine
 10
7037.2271672468
 20
5299.2660163176
 30
0.0
 11
7037.2271672468
 21
5298.887583513
 31
0.0
  0
LINE
  5
219
330
1F
100
AcDbEntity
  8
0
  6
Continuous
 62
     7
370
    25
100
AcDbLine
 10
7022.9478828564
 20
5298.5870876373
 30
0.0
 11
7022.9478828564
 21
5297.8998150769
 31
0.0
  0
LINE
  5
21A
330
1F
100
AcDbEntity
  8
0
  6
Continuous
 62
     7
370
    25
100
AcDbLine
 10
7022.9478828564
 20
5297.8998150769
 30
0.0
 11
7022.4451648116
 21
5297.9170285096
 31
0.0
  0
ARC
  5
21B
330
1F
100
AcDbEntity
  8
0
  6
Continuous
 62
     7
370
    25
100
AcDbCircle
 10
7023.412595769
 20
5297.1768417965
 30
0.0
 40
0.8594465983355204
100
AcDbArc
 50
122.7321069522
 51
183.1199656663
  0
LINE
  5
21C
330
1F
100
AcDbEntity
  8
0
  6
Continuous
 62
     7
370
    25
100
AcDbLine
 10
7022.5544230725
 20
5297.1300648972
 30
0.0
 11
7022.0517050278
 21
5297.1472783299
 31
0.0
  0
LINE
  5
21D
330
1F
100
AcDbEntity
  8
0
  6
Continuous
 62
     7
370
    25
100
AcDbLine
 10
7022.5544230725
 20
5297.3145720382
 30
0.0
 11
7022.5544230725
 21
5297.1300648972
 31
0.0
  0
LINE
  5
21E
330
1F
100
AcDbEntity
  8
0
  6
Continuous
 62
     7
370
    25
100
AcDbLine
 10
7040.0398970693
 20
5298.2804978645
 30
0.0
 11
7040.0398970693
 21
5297.3145720382
 31
0.0
  0
LINE
  5
21F
330
1F
100
AcDbEntity
  8
0
  6
Continuous
 62
     7
370
    25
100
AcDbLine
 10
7040.0398970693
 20
5297.3145720382
 30
0.0
 11
7040.5426151141
 21
5297.2973586055
 31
0.0
  0
ARC
  5
220
330
1F
100
AcDbEntity
  8
0
  6
Continuous
 62
     7
370
    25
100
AcDbCircle
 10
7039.1817243728
 20
5297.267795139
 30
0.0
 40
0.8594465983357604
100
AcDbArc
 50
302.7321069522
 51
3.1199656664
  0
LINE
  5
221
330
1F
100
AcDbEntity
  8
0
  6
Continuous
 62
     7
370
    25
100
AcDbLine
 10
7039.6464372854
 20
5296.5448218586
 30
0.0
 11
7040.1491553302
 21
5296.5276084259
 31
0.0
  0
LINE
  5
222
330
1F
100
AcDbEntity
  8
0
  6
Continuous
 62
     7
370
    25
100
AcDbLine
 10
7039.6464372854
 20
5297.5107476849
 30
0.0
 11
7039.6464372854
 21
5296.5448218586
 31
0.0
  0
LINE
  5
223
330
1F
100
AcDbEntity
  8
0
  6
Continuous
 62
     7
370
    25
100
AcDbLine
 10
7023.5423743764
 20
5297.1392829587
 30
0.0
 11
7023.5423743764
 21
5296.1733571324
 31
0.0
  0
LINE
  5
224
330
1F
100
AcDbEntity
  8
0
  6
Continuous
 62
     7
370
    25
100
AcDbLine
 10
7023.1398710652
 20
5296.0935250797
 30
0.0
 11
7023.5423743764
 21
5296.1733571324
 31
0.0
  0
ARC
  5
225
330
1F
100
AcDbEntity
  8
0
  6
Continuous
 62
     7
370
    25
100
AcDbCircle
 10
7027.2646933148
 20
5304.1849658666
 30
0.0
 40
8.834111884569685
100
AcDbArc
 50
245.0796807337
 51
257.5963840455
  0
LINE
  5
226
330
1F
100
AcDbEntity
  8
0
  6
Continuous
 62
     7
370
    25
100
AcDbLine
 10
7025.367152895
 20
5296.5229792487
 30
0.0
 11
7025.367152895
 21
5295.5570534224
 31
0.0
  0
LINE
  5
227
330
1F
100
AcDbEntity
  8
0
  6
Continuous
 62
     7
370
    25
100
AcDbLine
 10
7024.9646495838
 20
5295.4772213698
 30
0.0
 11
7025.367152895
 21
5295.5570534224
 31
0.0
  0
LINE
  5
228
330
1F
100
AcDbEntity
  8
0
  6
Continuous
 62
     7
370
    25
100
AcDbLine
 10
7037.7312501304
 20
5296.6534454993
 30
0.0
 11
7037.7312501304
 21
5295.687519673
 31
0.0
  0
LINE
  5
229
330
1F
100
AcDbEntity
  8
0
  6
Continuous
 62
     7
370
    25
100
AcDbLine
 10
7038.0396974962
 20
5295.5833441504
 30
0.0
 11
7037.7312501304
 21
5295.687519673
 31
0.0
  0
ARC
  5
22A
330
1F
100
AcDbEntity
  8
0
  6
Continuous
 62
     7
370
    25
100
AcDbCircle
 10
7033.0992258222
 20
5312.8025736009
 30
0.0
 40
17.7307845327557
100
AcDbArc
 50
277.2930101398
 51
285.1437664244
  0
LINE
  5
22B
330
1F
100
AcDbEntity
  8
0
  6
Continuous
 62
     7
370
    25
100
AcDbLine
 10
7035.3500354492
 20
5296.1811580656
 30
0.0
 11
7035.3500354492
 21
5295.2152322393
 31
0.0
  0
LINE
  5
22C
330
1F
100
AcDbEntity
  8
0
  6
Continuous
 62
     7
370
    25
100
AcDbLine
 10
7035.658482815
 20
5295.1110567167
 30
0.0
 11
7035.3500354492
 21
5295.2152322393
 31
0.0
  0
LINE
  5
22D
330
1F
100
AcDbEntity
  8
0
  6
Continuous
 62
     7
370
    25
100
AcDbLine
 10
7028.6795141829
 20
5296.0272923381
 30
0.0
 11
7028.6795141829
 21
5295.0613665118
 31
0.0
  0
LINE
  5
22E
330
1F
100
AcDbEntity
  8
0
  6
Continuous
 62
     7
370
    25
100
AcDbLine
 10
7031.6536004961
 20
5295.9254574525
 30
0.0
 11
7031.6536004961
 21
5294.9595316262
 31
0.0
  0
ARC
  5
22F
330
1F
100
AcDbEntity
  8
0
  6
Continuous
 62
     7
370
    25
100
AcDbCircle
 10
7031.2853898423
 20
5327.6859356213
 30
0.0
 40
32.72847533168797
100
AcDbArc
 50
265.4332158269
 51
270.6446179145
  0
LINE
  5
230
330
1F
100
AcDbEntity
  8
0
  6
Continuous
 62
     7
370
    25
100
AcDbLine
 10
7028.6795141829
 20
5295.0613665118
 30
0.0
 11
7028.6130065861
 21
5294.9312535075
 31
0.0
  0
LINE
  5
231
330
1F
100
AcDbEntity
  8
0
  6
Continuous
 62
     7
370
    25
100
AcDbLine
 10
7031.6536004961
 20
5294.9595316262
 30
0.0
 11
7031.5870928994
 21
5294.8294186219
 31
0.0
  0
ARC
  5
232
330
1F
100
AcDbEntity
  8
0
  6
Continuous
 62
     7
370
    25
100
AcDbCircle
 10
6431.4067729436
 20
5328.1271900726
 30
0.0
 40
32.33234845727328
100
AcDbArc
 50
270.3195445578
 51
277.00524986
  0
ARC
  5
233
330
1F
100
AcDbEntity
  8
0
  6
Continuous
 62
     7
370
    25
100
AcDbCircle
 10
6433.2061365416
 20
5313.7145208606
 30
0.0
 40
18.76440461086574
100
AcDbArc
 50
277.5095473836
 51
284.9272291806
  0
LINE
  5
234
330
1F
100
AcDbEntity
  8
0
  6
Continuous
 62
     7
370
    25
100
AcDbLine
 10
6438.0396974962
 20
5296.5492699767
 30
0.0
 11
6438.0396974962
 21
5295.5833441504
 31
0.0
  0
ARC
  5
235
330
1F
100
AcDbEntity
  8
0
  6
Continuous
 62
     7
370
    25
100
AcDbCircle
 10
6436.164600709
 20
5303.9260456904
 30
0.0
 40
7.611360449444025
100
AcDbArc
 50
284.2619248087
 51
297.2228497749
  0
ARC
  5
236
330
1F
100
AcDbEntity
  8
0
  6
Continuous
 62
     7
370
    25
100
AcDbCircle
 10
6439.6400598383
 20
5297.2732679758
 30
0.0
 40
0.902876727090765
100
AcDbArc
 50
304.3231205499
 51
1.5289520686
  0
LINE
  5
237
330
1F
100
AcDbEntity
  8
0
  6
Continuous
 62
     7
370
    25
100
AcDbLine
 10
6440.5426151141
 20
5297.901062247
 30
0.0
 11
6440.5426151141
 21
5297.2973586055
 31
0.0
  0
LINE
  5
238
330
1F
100
AcDbEntity
  8
0
  6
Continuous
 62
     7
370
    25
100
AcDbLine
 10
6439.4544490766
 20
5298.6627635588
 30
0.0
 11
6439.4544490766
 21
5298.3511118557
 31
0.0
  0
ARC
  5
239
330
1F
100
AcDbEntity
  8
0
  6
Continuous
 62
     7
370
    25
100
AcDbCircle
 10
6435.5656561458
 20
5289.8465997685
 30
0.0
 40
9.351440332938958
100
AcDbArc
 50
65.4271673511
 51
77.248897428
  0
LINE
  5
23A
330
1F
100
AcDbEntity
  8
0
  6
Continuous
 62
     7
370
    25
100
AcDbLine
 10
6437.629670558
 20
5299.1834588067
 30
0.0
 11
6437.629670558
 21
5298.9674155657
 31
0.0
  0
LINE
  5
23B
330
1F
100
AcDbEntity
  8
0
  6
Continuous
 62
     7
370
    25
100
AcDbLine
 10
6433.9813135557
 20
5299.6819294532
 30
0.0
 11
6433.9813135557
 21
5299.513383428
 31
0.0
  0
ARC
  5
23C
330
1F
100
AcDbEntity
  8
0
  6
Continuous
 62
     7
370
    25
100
AcDbCircle
 10
6431.310346774
 20
5264.9878290631
 30
0.0
 40
34.62871594146819
100
AcDbArc
 50
85.5762935841
 51
90.5015401574
  0
LINE
  5
23D
330
1F
100
AcDbEntity
  8
0
  6
Continuous
 62
     7
370
    25
100
AcDbLine
 10
6431.0072272424
 20
5299.7770547006
 30
0.0
 11
6431.0072272424
 21
5299.6152183135
 31
0.0
  0
LINE
  5
23E
330
1F
100
AcDbEntity
  8
0
  6
Continuous
 62
     7
370
    25
100
AcDbLine
 10
6426.9358373268
 20
5299.5153805535
 30
0.0
 11
6426.9358373268
 21
5299.3335802188
 31
0.0
  0
ARC
  5
23F
330
1F
100
AcDbEntity
  8
0
  6
Continuous
 62
     7
370
    25
100
AcDbCircle
 10
6429.3881836003
 20
5280.7301160748
 30
0.0
 40
18.76440461094465
100
AcDbArc
 50
97.5095473837
 51
104.9272291805
  0
LINE
  5
240
330
1F
100
AcDbEntity
  8
0
  6
Continuous
 62
     7
370
    25
100
AcDbLine
 10
6424.5546226456
 20
5299.0896546348
 30
0.0
 11
6424.5546226456
 21
5298.8612927851
 31
0.0
  0
LINE
  5
241
330
1F
100
AcDbEntity
  8
0
  6
Continuous
 62
     7
370
    25
100
AcDbLine
 10
6422.4451648116
 20
5298.3551598467
 30
0.0
 11
6422.4451648116
 21
5297.9170285096
 31
0.0
  0
ARC
  5
242
330
1F
100
AcDbEntity
  8
0
  6
Continuous
 62
     7
370
    25
100
AcDbCircle
 10
6422.9542603036
 20
5297.1713689596
 30
0.0
 40
0.9028767270882372
100
AcDbArc
 50
124.3231205499
 51
181.5289520687
  0
ARC
  5
243
330
1F
100
AcDbEntity
  8
0
  6
Continuous
 62
     7
370
    25
100
AcDbCircle
 10
6424.6488735585
 20
5300.2738029368
 30
0.0
 40
3.550936144483944
100
AcDbArc
 50
233.8550182221
 51
244.8519277997
  0
LINE
  5
244
330
1F
100
AcDbEntity
  8
0
  6
Continuous
 62
     7
370
    25
100
AcDbLine
 10
6423.1398710652
 20
5297.059450906
 30
0.0
 11
6423.1398710652
 21
5296.0935250797
 31
0.0
  0
ARC
  5
245
330
1F
100
AcDbEntity
  8
0
  6
Continuous
 62
     7
370
    25
100
AcDbCircle
 10
6427.0286639959
 20
5304.5980371668
 30
0.0
 40
9.351440332785256
100
AcDbArc
 50
245.427167351
 51
257.2488974281
  0
ARC
  5
246
330
1F
100
AcDbEntity
  8
0
  6
Continuous
 62
     7
370
    25
100
AcDbCircle
 10
6430.3573595091
 20
5320.2153645777
 30
0.0
 40
24.38066653475315
100
AcDbArc
 50
258.189300535
 51
265.8971784142
  0
LINE
  5
247
330
1F
100
AcDbEntity
  8
0
  6
Continuous
 62
     7
370
    25
100
AcDbLine
 10
6428.6130065861
 20
5295.8971793338
 30
0.0
 11
6428.6130065861
 21
5294.9312535075
 31
0.0
  0
ARC
  5
248
330
1F
100
AcDbEntity
  8
0
  6
Continuous
 62
     7
370
    25
100
AcDbCircle
 10
6431.2839733678
 20
5329.4568078728
 30
0.0
 40
34.62871594184821
100
AcDbArc
 50
265.5762935841
 51
270.5015401573
  0
LWPOLYLINE
  5
249
330
1F
100
AcDbEntity
  8
0
  6
Continuous
 62
     7
370
    25
100
AcDbPolyline
 90
        6
 70
   128
 43
0.0
 10
6424.7488196976
 20
5296.8894538513
 10
6423.8485864812
 20
5297.2702115912
 10
6423.273891673
 20
5297.6910917655
 10
6423.0498521936
 20
5298.1336998908
 10
6423.1862596434
 20
5298.5786918683
 10
6423.3424263628
 20
5298.7543846517
  0
LWPOLYLINE
  5
24A
330
1F
100
AcDbEntity
  8
0
  6
Continuous
 62
     7
370
    25
100
AcDbPolyline
 90
        6
 70
   128
 43
0.0
 10
6439.4544490766
 20
5298.5074570693
 10
6439.5444679482
 20
5298.2427886972
 10
6439.4080604984
 20
5297.7977967198
 10
6438.9171677794
 20
5297.3698691748
 10
6438.0932441587
 20
5296.9777085496
 10
6437.7399319062
 20
5296.8545552274
  0
LINE
  5
24B
330
1F
100
AcDbEntity
  8
0
  6
Continuous
 62
     7
370
    25
100
AcDbLine
 10
6425.0710866309
 20
5296.7873060401
 30
0.0
 11
6424.7488196976
 21
5296.8894538513
 31
0.0
  0
LINE
  5
24C
330
1F
100
AcDbEntity
  8
0
  6
Continuous
 62
     7
370
    25
100
AcDbLine
 10
6440.0398970693
 20
5298.2804978645
 30
0.0
 11
6440.3017082218
 21
5298.2715332596
 31
0.0
  0
ARC
  5
24D
330
1F
100
AcDbEntity
  8
0
  6
Continuous
 62
     7
370
    25
100
AcDbCircle
 10
6439.0565511214
 20
5298.3322123735
 30
0.0
 40
1.01132087946469
100
AcDbArc
 50
305.6817763788
 51
346.4922228013
  0
LINE
  5
24E
330
1F
100
AcDbEntity
  8
0
  6
Continuous
 62
     7
370
    25
100
AcDbLine
 10
6438.0396974962
 20
5296.5492699767
 30
0.0
 11
6437.7312501304
 21
5296.6534454993
 31
0.0
  0
ARC
  5
24F
330
1F
100
AcDbEntity
  8
0
  6
Continuous
 62
     7
370
    25
100
AcDbCircle
 10
6433.0992258221
 20
5313.7684994277
 30
0.0
 40
17.73078453322567
100
AcDbArc
 50
277.2930101399
 51
285.1437664243
  0
ARC
  5
250
330
1F
100
AcDbEntity
  8
0
  6
Continuous
 62
     7
370
    25
100
AcDbCircle
 10
6431.2853898423
 20
5328.6518614471
 30
0.0
 40
32.7284753311281
100
AcDbArc
 50
265.4332158269
 51
270.6446179145
  0
LINE
  5
251
330
1F
100
AcDbEntity
  8
0
  6
Continuous
 62
     7
370
    25
100
AcDbLine
 10
6428.6795141829
 20
5296.0272923381
 30
0.0
 11
6428.6130065861
 21
5295.8971793338
 31
0.0
  0
ARC
  5
252
330
1F
100
AcDbEntity
  8
0
  6
Continuous
 62
     7
370
    25
100
AcDbCircle
 10
6427.2646933148
 20
5305.1508916929
 30
0.0
 40
8.834111884590284
100
AcDbArc
 50
245.0796807337
 51
257.5963840454
  0
LINE
  5
253
330
1F
100
AcDbEntity
  8
0
  6
Continuous
 62
     7
370
    25
100
AcDbLine
 10
6423.1398710652
 20
5297.059450906
 30
0.0
 11
6423.5423743764
 21
5297.1392829587
 31
0.0
  0
LWPOLYLINE
  5
254
330
1F
100
AcDbEntity
  8
0
  6
Continuous
 62
     7
370
    25
100
AcDbPolyline
 90
        3
 70
   128
 43
0.0
 10
6423.7971600709
 20
5298.2646267212
 10
6423.273891673
 20
5298.6570175918
 10
6423.2609638816
 20
5298.6712072072
  0
LINE
  5
255
330
1F
100
AcDbEntity
  8
0
  6
Continuous
 62
     7
370
    25
100
AcDbLine
 10
6438.9168772232
 20
5298.3356137965
 30
0.0
 11
6438.7971600709
 21
5298.2646267212
 31
0.0
  0
LINE
  5
256
330
1F
100
AcDbEntity
  8
0
  6
Continuous
 62
     7
370
    25
100
AcDbLine
 10
6433.9148059589
 20
5299.3832704237
 30
0.0
 11
6433.9813135557
 21
5299.513383428
 31
0.0
  0
ARC
  5
257
330
1F
100
AcDbEntity
  8
0
  6
Continuous
 62
     7
370
    25
100
AcDbCircle
 10
6431.3089302995
 20
5266.7587013148
 30
0.0
 40
32.72847533098457
100
AcDbArc
 50
85.4332158269
 51
90.6446179146
  0
LINE
  5
258
330
1F
100
AcDbEntity
  8
0
  6
Continuous
 62
     7
370
    25
100
AcDbLine
 10
6430.9407196457
 20
5299.4851053092
 30
0.0
 11
6431.0072272424
 21
5299.6152183135
 31
0.0
  0
LWPOLYLINE
  5
259
330
1F
100
AcDbEntity
  8
0
  6
Continuous
 62
     7
370
    25
100
AcDbPolyline
 90
        7
 70
   128
 43
0.0
 10
6425.3441233679
 20
5297.0075257097
 10
6424.5026184542
 20
5297.3663479537
 10
6423.978818755
 20
5297.7636011571
 10
6423.797216562
 20
5298.1807102015
 10
6423.9663033918
 20
5298.5981715318
 10
6424.4781729323
 20
5298.9964651201
 10
6424.5546226456
 20
5299.0383452511
  0
LWPOLYLINE
  5
25A
330
1F
100
AcDbEntity
  8
0
  6
Continuous
 62
     7
370
    25
100
AcDbPolyline
 90
       14
 70
   128
 43
0.0
 10
6438.7482274081
 20
5298.4096209149
 10
6438.7499912993
 20
5298.4056070988
 10
6438.75628588
 20
5297.9858613438
 10
6438.4138000281
 20
5297.5755787907
 10
6437.7385480014
 20
5297.1939437955
 10
6436.7621038341
 20
5296.8588011866
 10
6435.5301249703
 20
5296.5858218598
 10
6434.1002173724
 20
5296.3877700251
 10
6432.5392419305
 20
5296.2739063661
 10
6430.9201881213
 20
5296.2495550209
 10
6429.3187611015
 20
5296.3158546315
 10
6427.8098418186
 20
5296.4697051017
 10
6426.4639856614
 20
5296.7039125545
 10
6425.3441233679
 20
5297.0075257097
  0
LINE
  5
25B
330
1F
100
AcDbEntity
  8
0
  6
Continuous
 62
     7
370
    25
100
AcDbLine
 10
6430.9407196457
 20
5299.7764910384
 30
0.0
 11
6430.9407196457
 21
5299.4851053092
 31
0.0
  0
LINE
  5
25C
330
1F
100
AcDbEntity
  8
0
  6
Continuous
 62
     7
370
    25
100
AcDbLine
 10
6426.9358373268
 20
5299.3335802188
 30
0.0
 11
6427.2442846926
 21
5299.2294046962
 31
0.0
  0
ARC
  5
25D
330
1F
100
AcDbEntity
  8
0
  6
Continuous
 62
     7
370
    25
100
AcDbCircle
 10
6429.4950943197
 20
5281.6420633341
 30
0.0
 40
17.73078453325543
100
AcDbArc
 50
97.29301014
 51
105.1437664242
  0
LINE
  5
25E
330
1F
100
AcDbEntity
  8
0
  6
Continuous
 62
     7
370
    25
100
AcDbLine
 10
6424.5546226456
 20
5298.8612927851
 30
0.0
 11
6424.8630700114
 21
5298.7571172625
 31
0.0
  0
LINE
  5
25F
330
1F
100
AcDbEntity
  8
0
  6
Continuous
 62
     7
370
    25
100
AcDbLine
 10
6427.2442846926
 20
5299.5529811115
 30
0.0
 11
6427.2442846926
 21
5299.2294046962
 31
0.0
  0
LINE
  5
260
330
1F
100
AcDbEntity
  8
0
  6
Continuous
 62
     7
370
    25
100
AcDbLine
 10
6437.629670558
 20
5298.9674155657
 30
0.0
 11
6437.2271672468
 21
5298.887583513
 31
0.0
  0
LINE
  5
261
330
1F
100
AcDbEntity
  8
0
  6
Continuous
 62
     7
370
    25
100
AcDbLine
 10
6439.4544490766
 20
5298.3511118557
 30
0.0
 11
6439.0519457654
 21
5298.2712798031
 31
0.0
  0
ARC
  5
262
330
1F
100
AcDbEntity
  8
0
  6
Continuous
 62
     7
370
    25
100
AcDbCircle
 10
6435.329626827
 20
5290.2596710687
 30
0.0
 40
8.834111884763123
100
AcDbArc
 50
65.0796807338
 51
77.5963840453
  0
LINE
  5
263
330
1F
100
AcDbEntity
  8
0
  6
Continuous
 62
     7
370
    25
100
AcDbLine
 10
6437.2271672468
 20
5299.2660163176
 30
0.0
 11
6437.2271672468
 21
5298.887583513
 31
0.0
  0
LINE
  5
264
330
1F
100
AcDbEntity
  8
0
  6
Continuous
 62
     7
370
    25
100
AcDbLine
 10
6422.9478828564
 20
5298.5870876373
 30
0.0
 11
6422.9478828564
 21
5297.8998150769
 31
0.0
  0
LINE
  5
265
330
1F
100
AcDbEntity
  8
0
  6
Continuous
 62
     7
370
    25
100
AcDbLine
 10
6422.9478828564
 20
5297.8998150769
 30
0.0
 11
6422.4451648116
 21
5297.9170285096
 31
0.0
  0
ARC
  5
266
330
1F
100
AcDbEntity
  8
0
  6
Continuous
 62
     7
370
    25
100
AcDbCircle
 10
6423.412595769
 20
5297.1768417965
 30
0.0
 40
0.8594465983332467
100
AcDbArc
 50
122.7321069522
 51
183.1199656665
  0
LINE
  5
267
330
1F
100
AcDbEntity
  8
0
  6
Continuous
 62
     7
370
    25
100
AcDbLine
 10
6422.5544230725
 20
5297.1300648972
 30
0.0
 11
6422.0517050278
 21
5297.1472783299
 31
0.0
  0
LINE
  5
268
330
1F
100
AcDbEntity
  8
0
  6
Continuous
 62
     7
370
    25
100
AcDbLine
 10
6422.5544230725
 20
5297.3145720382
 30
0.0
 11
6422.5544230725
 21
5297.1300648972
 31
0.0
  0
LINE
  5
269
330
1F
100
AcDbEntity
  8
0
  6
Continuous
 62
     7
370
    25
100
AcDbLine
 10
6440.0398970693
 20
5298.2804978645
 30
0.0
 11
6440.0398970693
 21
5297.3145720382
 31
0.0
  0
LINE
  5
26A
330
1F
100
AcDbEntity
  8
0
  6
Continuous
 62
     7
370
    25
100
AcDbLine
 10
6440.0398970693
 20
5297.3145720382
 30
0.0
 11
6440.5426151141
 21
5297.2973586055
 31
0.0
  0
ARC
  5
26B
330
1F
100
AcDbEntity
  8
0
  6
Continuous
 62
     7
370
    25
100
AcDbCircle
 10
6439.1817243728
 20
5297.267795139
 30
0.0
 40
0.8594465983409197
100
AcDbArc
 50
302.7321069524
 51
3.1199656663
  0
LINE
  5
26C
330
1F
100
AcDbEntity
  8
0
  6
Continuous
 62
     7
370
    25
100
AcDbLine
 10
6439.6464372854
 20
5296.5448218586
 30
0.0
 11
6440.1491553302
 21
5296.5276084259
 31
0.0
  0
LINE
  5
26D
330
1F
100
AcDbEntity
  8
0
  6
Continuous
 62
     7
370
    25
100
AcDbLine
 10
6439.6464372854
 20
5297.5107476849
 30
0.0
 11
6439.6464372854
 21
5296.5448218586
 31
0.0
  0
LINE
  5
26E
330
1F
100
AcDbEntity
  8
0
  6
Continuous
 62
     7
370
    25
100
AcDbLine
 10
6423.5423743764
 20
5297.1392829587
 30
0.0
 11
6423.5423743764
 21
5296.1733571324
 31
0.0
  0
LINE
  5
26F
330
1F
100
AcDbEntity
  8
0
  6
Continuous
 62
     7
370
    25
100
AcDbLine
 10
6423.1398710652
 20
5296.0935250797
 30
0.0
 11
6423.5423743764
 21
5296.1733571324
 31
0.0
  0
ARC
  5
270
330
1F
100
AcDbEntity
  8
0
  6
Continuous
 62
     7
370
    25
100
AcDbCircle
 10
6427.2646933148
 20
5304.1849658667
 30
0.0
 40
8.834111884614583
100
AcDbArc
 50
245.0796807337
 51
257.5963840454
  0
LINE
  5
271
330
1F
100
AcDbEntity
  8
0
  6
Continuous
 62
     7
370
    25
100
AcDbLine
 10
6425.367152895
 20
5296.5229792487
 30
0.0
 11
6425.367152895
 21
5295.5570534224
 31
0.0
  0
LINE
  5
272
330
1F
100
AcDbEntity
  8
0
  6
Continuous
 62
     7
370
    25
100
AcDbLine
 10
6424.9646495838
 20
5295.4772213698
 30
0.0
 11
6425.367152895
 21
5295.5570534224
 31
0.0
  0
LINE
  5
273
330
1F
100
AcDbEntity
  8
0
  6
Continuous
 62
     7
370
    25
100
AcDbLine
 10
6437.7312501304
 20
5296.6534454993
 30
0.0
 11
6437.7312501304
 21
5295.687519673
 31
0.0
  0
LINE
  5
274
330
1F
100
AcDbEntity
  8
0
  6
Continuous
 62
     7
370
    25
100
AcDbLine
 10
6438.0396974962
 20
5295.5833441504
 30
0.0
 11
6437.7312501304
 21
5295.687519673
 31
0.0
  0
ARC
  5
275
330
1F
100
AcDbEntity
  8
0
  6
Continuous
 62
     7
370
    25
100
AcDbCircle
 10
6433.0992258222
 20
5312.8025736009
 30
0.0
 40
17.73078453275857
100
AcDbArc
 50
277.2930101398
 51
285.1437664244
  0
LINE
  5
276
330
1F
100
AcDbEntity
  8
0
  6
Continuous
 62
     7
370
    25
100
AcDbLine
 10
6435.3500354492
 20
5296.1811580656
 30
0.0
 11
6435.3500354492
 21
5295.2152322393
 31
0.0
  0
LINE
  5
277
330
1F
100
AcDbEntity
  8
0
  6
Continuous
 62
     7
370
    25
100
AcDbLine
 10
6435.658482815
 20
5295.1110567167
 30
0.0
 11
6435.3500354492
 21
5295.2152322393
 31
0.0
  0
LINE
  5
278
330
1F
100
AcDbEntity
  8
0
  6
Continuous
 62
     7
370
    25
100
AcDbLine
 10
6428.6795141829
 20
5296.0272923381
 30
0.0
 11
6428.6795141829
 21
5295.0613665118
 31
0.0
  0
LINE
  5
279
330
1F
100
AcDbEntity
  8
0
  6
Continuous
 62
     7
370
    25
100
AcDbLine
 10
6431.6536004961
 20
5295.9254574525
 30
0.0
 11
6431.6536004961
 21
5294.9595316262
 31
0.0
  0
ARC
  5
27A
330
1F
100
AcDbEntity
  8
0
  6
Continuous
 62
     7
370
    25
100
AcDbCircle
 10
6431.2853898423
 20
5327.6859356213
 30
0.0
 40
32.72847533166893
100
AcDbArc
 50
265.4332158269
 51
270.6446179145
  0
LINE
  5
27B
330
1F
100
AcDbEntity
  8
0
  6
Continuous
 62
     7
370
    25
100
AcDbLine
 10
6428.6795141829
 20
5295.0613665118
 30
0.0
 11
6428.6130065861
 21
5294.9312535075
 31
0.0
  0
LINE
  5
27C
330
1F
100
AcDbEntity
  8
0
  6
Continuous
 62
     7
370
    25
100
AcDbLine
 10
6431.6536004961
 20
5294.9595316262
 30
0.0
 11
6431.5870928994
 21
5294.8294186219
 31
0.0
  0
CIRCLE
  5
27D
330
1F
100
AcDbEntity
  8
0
  6
Continuous
 62
     7
370
    25
100
AcDbCircle
 10
7031.2971600709
 20
5305.9852014543
 30
0.0
 40
29.49999999999986
  0
CIRCLE
  5
27E
330
1F
100
AcDbEntity
  8
0
  6
Continuous
 62
     7
370
    25
100
AcDbCircle
 10
7031.2971600709
 20
5305.9852014543
 30
0.0
 40
30.00000000000043
  0
CIRCLE
  5
27F
330
1F
100
AcDbEntity
  8
0
  6
Continuous
 62
     7
370
    25
100
AcDbCircle
 10
6431.2971600709
 20
5305.9852014543
 30
0.0
 40
29.50000000000038
  0
CIRCLE
  5
280
330
1F
100
AcDbEntity
  8
0
  6
Continuous
 62
     7
370
    25
100
AcDbCircle
 10
6431.2971600709
 20
5305.9852014543
 30
0.0
 40
30.00000000000043
  0
CIRCLE
  5
281
330
1F
100
AcDbEntity
  8
0
  6
Continuous
 62
     7
370
    25
100
AcDbCircle
 10
5831.2971600709
 20
5305.9852014543
 30
0.0
 40
29.49999999999986
  0
CIRCLE
  5
282
330
1F
100
AcDbEntity
  8
0
  6
Continuous
 62
     7
370
    25
100
AcDbCircle
 10
5831.2971600709
 20
5305.9852014543
 30
0.0
 40
29.99999999999991
  0
ARC
  5
283
330
1F
100
AcDbEntity
  8
0
  6
Continuous
 62
     7
370
    25
100
AcDbCircle
 10
6431.2971600709
 20
5305.9852014543
 30
0.0
 40
13.99999999999889
100
AcDbArc
 50
339.5575579255
 51
200.4424420745
  0
LINE
  5
284
330
1F
100
AcDbEntity
  8
0
  6
Continuous
 62
     7
370
    25
100
AcDbLine
 10
6444.4154894384
 20
5301.0954739969
 30
0.0
 11
6443.4478458816
 21
5301.3634231894
 31
0.0
  0
ARC
  5
285
330
1F
100
AcDbEntity
  8
0
  6
Continuous
 62
     7
370
    25
100
AcDbCircle
 10
6431.2971600709
 20
5305.9852014543
 30
0.0
 40
13.00000000000028
100
AcDbArc
 50
339.1745965348
 51
200.8254034652
  0
LINE
  5
286
330
1F
100
AcDbEntity
  8
0
  6
Continuous
 62
     7
370
    25
100
AcDbLine
 10
6419.1464742602
 20
5301.3634231894
 30
0.0
 11
6418.1788307035
 21
5301.0954739969
 31
0.0
  0
LINE
  5
287
330
1F
100
AcDbEntity
  8
0
  6
Continuous
 62
     7
370
    25
100
AcDbLine
 10
6419.1464742602
 20
5301.3634231894
 30
0.0
 11
6443.4478458816
 21
5301.3634231894
 31
0.0
  0
ARC
  5
288
330
1F
100
AcDbEntity
  8
0
  6
Continuous
 62
     7
370
    25
100
AcDbCircle
 10
6431.2971600709
 20
5305.9852014543
 30
0.0
 40
13.99999999999889
100
AcDbArc
 50
200.4424420745
 51
339.5575579255
  0
LWPOLYLINE
  5
289
330
1F
100
AcDbEntity
  8
0
  6
Continuous
 62
     7
370
    25
100
AcDbPolyline
 90
       34
 70
   128
 43
0.0
 10
6431.2971600709
 20
5299.7781565381
 10
6433.166016109
 20
5299.7319692146
 10
6434.9673268205
 20
5299.5950765743
 10
6436.6359881433
 20
5299.3724262738
 10
6438.1116903093
 20
5299.0720654752
 10
6439.3410975974
 20
5298.7048500002
 10
6440.279776025
 20
5298.284051973
 10
6440.8937993081
 20
5297.8248801305
 10
6441.1609750453
 20
5297.3439301397
 10
6441.0716468095
 20
5296.8585847861
 10
6440.6290431557
 20
5296.3863857155
 10
6439.8491609333
 20
5295.9443994325
 10
6438.7601871177
 20
5295.5486004731
 10
6437.4014800598
 20
5295.2132940428
 10
6435.822146973
 20
5294.9505989898
 10
6434.0792690697
 20
5294.7700097975
 10
6432.2358384985
 20
5294.67805343
 10
6430.3584816433
 20
5294.67805343
 10
6428.5150510721
 20
5294.7700097975
 10
6426.7721731688
 20
5294.9505989898
 10
6425.192840082
 20
5295.2132940428
 10
6423.8341330242
 20
5295.5486004731
 10
6422.7451592085
 20
5295.9443994325
 10
6421.9652769861
 20
5296.3863857155
 10
6421.5226733323
 20
5296.8585847861
 10
6421.4333450965
 20
5297.3439301397
 10
6421.7005208337
 20
5297.8248801305
 10
6422.3145441168
 20
5298.284051973
 10
6423.2532225444
 20
5298.7048500002
 10
6424.4826298325
 20
5299.0720654752
 10
6425.9583319985
 20
5299.3724262738
 10
6427.6269933213
 20
5299.5950765743
 10
6429.4283040328
 20
5299.7319692146
 10
6431.2971600709
 20
5299.7781565381
  0
LWPOLYLINE
  5
28A
330
1F
100
AcDbEntity
  8
0
  6
Continuous
 62
     7
370
    25
100
AcDbPolyline
 90
        3
 70
   128
 43
0.0
 10
6440.5471600709
 20
5298.1001925144
 10
6440.6721600709
 20
5297.7052813809
 10
6440.5471600709
 20
5297.3103702473
  0
LWPOLYLINE
  5
28B
330
1F
100
AcDbEntity
  8
0
  6
Continuous
 62
     7
370
    25
100
AcDbPolyline
 90
        3
 70
   128
 43
0.0
 10
6439.6464372854
 20
5296.601722528
 10
6439.0921876862
 20
5296.3572299072
 10
6438.0396974962
 20
5296.0194013091
  0
ARC
  5
28C
330
1F
100
AcDbEntity
  8
0
  6
Continuous
 62
     7
370
    25
100
AcDbCircle
 10
6431.4274942538
 20
5327.7928622817
 30
0.0
 40
32.51304127723985
100
AcDbArc
 50
270.39845666
 51
276.9293382745
  0
ARC
  5
28D
330
1F
100
AcDbEntity
  8
0
  6
Continuous
 62
     7
370
    25
100
AcDbCircle
 10
6430.4263124615
 20
5320.6389207065
 30
0.0
 40
25.32349552626079
100
AcDbArc
 50
258.4758326321
 51
265.8937831658
  0
LWPOLYLINE
  5
28E
330
1F
100
AcDbEntity
  8
0
  6
Continuous
 62
     7
370
    25
100
AcDbPolyline
 90
        3
 70
   128
 43
0.0
 10
6423.1398710652
 20
5296.509401238
 10
6422.6357894536
 20
5296.7767273758
 10
6422.1773736079
 20
5297.142975346
  0
LWPOLYLINE
  5
28F
330
1F
100
AcDbEntity
  8
0
  6
Continuous
 62
     7
370
    25
100
AcDbPolyline
 90
        3
 70
   128
 43
0.0
 10
6422.0471600709
 20
5297.3103702473
 10
6421.9221600709
 20
5297.7052813809
 10
6422.0471600709
 20
5298.1001925144
  0
ARC
  5
290
330
1F
100
AcDbEntity
  8
0
  6
Continuous
 62
     7
370
    25
100
AcDbCircle
 10
7031.2971600709
 20
5305.9852014543
 30
0.0
 40
13.00000000000112
100
AcDbArc
 50
339.1745965348
 51
200.8254034652
  0
LINE
  5
291
330
1F
100
AcDbEntity
  8
0
  6
Continuous
 62
     7
370
    25
100
AcDbLine
 10
7019.1464742602
 20
5301.3634231894
 30
0.0
 11
7043.4478458816
 21
5301.3634231894
 31
0.0
  0
ARC
  5
292
330
1F
100
AcDbEntity
  8
0
  6
Continuous
 62
     7
370
    25
100
AcDbCircle
 10
7031.2971600709
 20
5305.9852014543
 30
0.0
 40
13.99999999999974
100
AcDbArc
 50
339.5575579255
 51
200.4424420745
  0
LINE
  5
293
330
1F
100
AcDbEntity
  8
0
  6
Continuous
 62
     7
370
    25
100
AcDbLine
 10
7044.4154894384
 20
5301.0954739969
 30
0.0
 11
7043.4478458816
 21
5301.3634231894
 31
0.0
  0
LINE
  5
294
330
1F
100
AcDbEntity
  8
0
  6
Continuous
 62
     7
370
    25
100
AcDbLine
 10
7019.1464742602
 20
5301.3634231894
 30
0.0
 11
7018.1788307035
 21
5301.0954739969
 31
0.0
  0
ARC
  5
295
330
1F
100
AcDbEntity
  8
0
  6
Continuous
 62
     7
370
    25
100
AcDbCircle
 10
7031.2971600709
 20
5305.9852014543
 30
0.0
 40
14.00000000000059
100
AcDbArc
 50
200.4424420745
 51
339.5575579255
  0
LWPOLYLINE
  5
296
330
1F
100
AcDbEntity
  8
0
  6
Continuous
 62
     7
370
    25
100
AcDbPolyline
 90
       34
 70
   128
 43
0.0
 10
7031.2971600709
 20
5299.7781565381
 10
7033.166016109
 20
5299.7319692146
 10
7034.9673268205
 20
5299.5950765743
 10
7036.6359881433
 20
5299.3724262738
 10
7038.1116903093
 20
5299.0720654752
 10
7039.3410975974
 20
5298.7048500002
 10
7040.279776025
 20
5298.284051973
 10
7040.8937993081
 20
5297.8248801305
 10
7041.1609750453
 20
5297.3439301397
 10
7041.0716468095
 20
5296.8585847861
 10
7040.6290431557
 20
5296.3863857155
 10
7039.8491609333
 20
5295.9443994325
 10
7038.7601871177
 20
5295.5486004731
 10
7037.4014800598
 20
5295.2132940428
 10
7035.822146973
 20
5294.9505989898
 10
7034.0792690697
 20
5294.7700097975
 10
7032.2358384985
 20
5294.67805343
 10
7030.3584816433
 20
5294.67805343
 10
7028.5150510721
 20
5294.7700097975
 10
7026.7721731688
 20
5294.9505989898
 10
7025.192840082
 20
5295.2132940428
 10
7023.8341330242
 20
5295.5486004731
 10
7022.7451592085
 20
5295.9443994325
 10
7021.9652769861
 20
5296.3863857155
 10
7021.5226733323
 20
5296.8585847861
 10
7021.4333450965
 20
5297.3439301397
 10
7021.7005208337
 20
5297.8248801305
 10
7022.3145441168
 20
5298.284051973
 10
7023.2532225444
 20
5298.7048500002
 10
7024.4826298325
 20
5299.0720654752
 10
7025.9583319985
 20
5299.3724262738
 10
7027.6269933213
 20
5299.5950765743
 10
7029.4283040328
 20
5299.7319692146
 10
7031.2971600709
 20
5299.7781565381
  0
LWPOLYLINE
  5
297
330
1F
100
AcDbEntity
  8
0
  6
Continuous
 62
     7
370
    25
100
AcDbPolyline
 90
        3
 70
   128
 43
0.0
 10
7040.5265324071
 20
5298.131297158
 10
7040.6721600709
 20
5297.7052813809
 10
7040.5471600709
 20
5297.3103702473
  0
LWPOLYLINE
  5
298
330
1F
100
AcDbEntity
  8
0
  6
Continuous
 62
     7
370
    25
100
AcDbPolyline
 90
        3
 70
   128
 43
0.0
 10
7039.6464372854
 20
5296.601722528
 10
7039.0921876862
 20
5296.3572299072
 10
7038.0396974962
 20
5296.0194013091
  0
ARC
  5
299
330
1F
100
AcDbEntity
  8
0
  6
Continuous
 62
     7
370
    25
100
AcDbCircle
 10
7031.4274942538
 20
5327.7928622816
 30
0.0
 40
32.51304127718892
100
AcDbArc
 50
270.39845666
 51
276.9293382745
  0
ARC
  5
29A
330
1F
100
AcDbEntity
  8
0
  6
Continuous
 62
     7
370
    25
100
AcDbCircle
 10
7030.4263124615
 20
5320.6389207064
 30
0.0
 40
25.32349552620034
100
AcDbArc
 50
258.4758326321
 51
265.8937831658
  0
LWPOLYLINE
  5
29B
330
1F
100
AcDbEntity
  8
0
  6
Continuous
 62
     7
370
    25
100
AcDbPolyline
 90
        3
 70
   128
 43
0.0
 10
7023.1398710652
 20
5296.509401238
 10
7022.6357894536
 20
5296.7767273758
 10
7022.1773736079
 20
5297.142975346
  0
LWPOLYLINE
  5
29C
330
1F
100
AcDbEntity
  8
0
  6
Continuous
 62
     7
370
    25
100
AcDbPolyline
 90
        3
 70
   128
 43
0.0
 10
7022.0471600709
 20
5297.3103702473
 10
7021.9221600709
 20
5297.7052813809
 10
7022.0677877316
 20
5298.1312971535
  0
LINE
  5
29D
330
1F
100
AcDbEntity
  8
0
  6
Continuous
 62
     7
370
    25
100
AcDbLine
 10
5819.1464742602
 20
5301.3634231894
 30
0.0
 11
5843.4478458816
 21
5301.3634231894
 31
0.0
  0
LINE
  5
29E
330
1F
100
AcDbEntity
  8
0
  6
Continuous
 62
     7
370
    25
100
AcDbLine
 10
5844.4154894384
 20
5301.0954739969
 30
0.0
 11
5843.4478458816
 21
5301.3634231894
 31
0.0
  0
ARC
  5
29F
330
1F
100
AcDbEntity
  8
0
  6
Continuous
 62
     7
370
    25
100
AcDbCircle
 10
5831.2971600709
 20
5305.9852014543
 30
0.0
 40
13.99999999999974
100
AcDbArc
 50
200.4424420745
 51
339.5575579255
  0
LINE
  5
2A0
330
1F
100
AcDbEntity
  8
0
  6
Continuous
 62
     7
370
    25
100
AcDbLine
 10
5819.1464742602
 20
5301.3634231894
 30
0.0
 11
5818.1788307035
 21
5301.0954739969
 31
0.0
  0
LWPOLYLINE
  5
2A1
330
1F
100
AcDbEntity
  8
0
  6
Continuous
 62
     7
370
    25
100
AcDbPolyline
 90
       34
 70
   128
 43
0.0
 10
5831.2971600709
 20
5299.7781565381
 10
5833.166016109
 20
5299.7319692146
 10
5834.9673268205
 20
5299.5950765743
 10
5836.6359881433
 20
5299.3724262738
 10
5838.1116903093
 20
5299.0720654752
 10
5839.3410975974
 20
5298.7048500002
 10
5840.279776025
 20
5298.284051973
 10
5840.8937993081
 20
5297.8248801305
 10
5841.1609750453
 20
5297.3439301397
 10
5841.0716468095
 20
5296.8585847861
 10
5840.6290431557
 20
5296.3863857155
 10
5839.8491609333
 20
5295.9443994325
 10
5838.7601871177
 20
5295.5486004731
 10
5837.4014800598
 20
5295.2132940428
 10
5835.822146973
 20
5294.9505989898
 10
5834.0792690697
 20
5294.7700097975
 10
5832.2358384985
 20
5294.67805343
 10
5830.3584816433
 20
5294.67805343
 10
5828.5150510721
 20
5294.7700097975
 10
5826.7721731688
 20
5294.9505989898
 10
5825.192840082
 20
5295.2132940428
 10
5823.8341330242
 20
5295.5486004731
 10
5822.7451592085
 20
5295.9443994325
 10
5821.9652769861
 20
5296.3863857155
 10
5821.5226733323
 20
5296.8585847861
 10
5821.4333450965
 20
5297.3439301397
 10
5821.7005208337
 20
5297.8248801305
 10
5822.3145441168
 20
5298.284051973
 10
5823.2532225444
 20
5298.7048500002
 10
5824.4826298325
 20
5299.0720654752
 10
5825.9583319985
 20
5299.3724262738
 10
5827.6269933213
 20
5299.5950765743
 10
5829.4283040328
 20
5299.7319692146
 10
5831.2971600709
 20
5299.7781565381
  0
ARC
  5
2A2
330
1F
100
AcDbEntity
  8
0
  6
Continuous
 62
     7
370
    25
100
AcDbCircle
 10
5831.2971600709
 20
5305.9852014543
 30
0.0
 40
13.99999999999974
100
AcDbArc
 50
339.5575579255
 51
200.4424420745
  0
ARC
  5
2A3
330
1F
100
AcDbEntity
  8
0
  6
Continuous
 62
     7
370
    25
100
AcDbCircle
 10
5831.2971600709
 20
5305.9852014543
 30
0.0
 40
13.00000000000028
100
AcDbArc
 50
339.1745965348
 51
200.8254034652
  0
LWPOLYLINE
  5
2A4
330
1F
100
AcDbEntity
  8
0
  6
Continuous
 62
     7
370
    25
100
AcDbPolyline
 90
        3
 70
   128
 43
0.0
 10
5840.526532643
 20
5298.1312968157
 10
5840.6721600709
 20
5297.7052813809
 10
5840.5471600709
 20
5297.3103702473
  0
LWPOLYLINE
  5
2A5
330
1F
100
AcDbEntity
  8
0
  6
Continuous
 62
     7
370
    25
100
AcDbPolyline
 90
        3
 70
   128
 43
0.0
 10
5839.6464372854
 20
5296.601722528
 10
5839.0921876862
 20
5296.3572299072
 10
5838.0396974962
 20
5296.0194013091
  0
ARC
  5
2A6
330
1F
100
AcDbEntity
  8
0
  6
Continuous
 62
     7
370
    25
100
AcDbCircle
 10
5831.4274942538
 20
5327.7928622816
 30
0.0
 40
32.51304127717526
100
AcDbArc
 50
270.39845666
 51
276.9293382745
  0
ARC
  5
2A7
330
1F
100
AcDbEntity
  8
0
  6
Continuous
 62
     7
370
    25
100
AcDbCircle
 10
5830.4263124615
 20
5320.6389207064
 30
0.0
 40
25.32349552620039
100
AcDbArc
 50
258.4758326321
 51
265.8937831658
  0
LWPOLYLINE
  5
2A8
330
1F
100
AcDbEntity
  8
0
  6
Continuous
 62
     7
370
    25
100
AcDbPolyline
 90
        3
 70
   128
 43
0.0
 10
5823.1398710652
 20
5296.509401238
 10
5822.6357894536
 20
5296.7767273758
 10
5822.1773736079
 20
5297.142975346
  0
LWPOLYLINE
  5
2A9
330
1F
100
AcDbEntity
  8
0
  6
Continuous
 62
     7
370
    25
100
AcDbPolyline
 90
        3
 70
   128
 43
0.0
 10
5822.0471600709
 20
5297.3103702473
 10
5821.9221600709
 20
5297.7052813809
 10
5822.0677874871
 20
5298.1312967987
  0
LINE
  5
2AA
330
1F
100
AcDbEntity
  8
0
  6
Continuous
 62
     8
370
    25
100
AcDbLine
 10
5606.6909457908
 20
4586.9354158202
 30
0.0
 11
5660.9033743511
 21
4586.9354158202
 31
0.0
  0
LINE
  5
2AB
330
1F
100
AcDbEntity
  8
0
  6
Continuous
 62
     8
370
    25
100
AcDbLine
 10
5661.1066018261
 20
4711.5887337802
 30
0.0
 11
5606.4877183158
 21
4711.5887337802
 31
0.0
  0
LINE
  5
2AC
330
1F
100
AcDbEntity
  8
0
  6
Continuous
 62
     8
370
    25
100
AcDbLine
 10
5610.7971600709
 20
4727.7410916816
 30
0.0
 11
5656.7971600709
 21
4727.7410916816
 31
0.0
  0
ARC
  5
2AD
330
1F
100
AcDbEntity
  8
0
  6
Continuous
 62
     7
370
    25
100
AcDbCircle
 10
7697.1104442679
 20
4712.2410916816
 30
0.0
 40
20.0
100
AcDbArc
 50
0.0
 51
90.0
  0
ARC
  5
2AE
330
1F
100
AcDbEntity
  8
0
  6
Continuous
 62
     7
370
    25
100
AcDbCircle
 10
7697.1104442679
 20
4672.2410916816
 30
0.0
 40
20.0
100
AcDbArc
 50
270.0
 51
0.0
  0
LINE
  5
2AF
330
1F
100
AcDbEntity
  8
0
  6
Continuous
 62
     7
370
    25
100
AcDbLine
 10
7697.1104442679
 20
4732.2410916816
 30
0.0
 11
7682.1104442679
 21
4732.2410916816
 31
0.0
  0
LINE
  5
2B0
330
1F
100
AcDbEntity
  8
0
  6
Continuous
 62
     7
370
    25
100
AcDbLine
 10
7682.1104442679
 20
4652.2410916816
 30
0.0
 11
7697.1104442679
 21
4652.2410916816
 31
0.0
  0
LINE
  5
2B1
330
1F
100
AcDbEntity
  8
0
  6
Continuous
 62
     7
370
    25
100
AcDbLine
 10
7682.1104442679
 20
4712.2410916816
 30
0.0
 11
7672.1104442679
 21
4712.2410916816
 31
0.0
  0
LINE
  5
2B2
330
1F
100
AcDbEntity
  8
0
  6
Continuous
 62
     7
370
    25
100
AcDbLine
 10
7672.1104442679
 20
4672.2410916816
 30
0.0
 11
7682.1104442679
 21
4672.2410916816
 31
0.0
  0
LINE
  5
2B3
330
1F
100
AcDbEntity
  8
0
  6
Continuous
 62
     7
370
    25
100
AcDbLine
 10
7864.6104442679
 20
4712.2410916816
 30
0.0
 11
7717.1104442679
 21
4712.2410916816
 31
0.0
  0
LINE
  5
2B4
330
1F
100
AcDbEntity
  8
0
  6
Continuous
 62
     7
370
    25
100
AcDbLine
 10
7717.1104442679
 20
4672.2410916816
 30
0.0
 11
7864.6104442679
 21
4672.2410916816
 31
0.0
  0
LINE
  5
2B5
330
1F
100
AcDbEntity
  8
0
  6
Continuous
 62
     7
370
    25
100
AcDbLine
 10
7908.6104442679
 20
4745.9852014543
 30
0.0
 11
7908.6104442679
 21
4730.7410916816
 31
0.0
  0
LINE
  5
2B6
330
1F
100
AcDbEntity
  8
0
  6
Continuous
 62
     7
370
    25
100
AcDbLine
 10
7908.6104442679
 20
4716.7410916816
 30
0.0
 11
7908.6104442679
 21
4714.2410916816
 31
0.0
  0
LINE
  5
2B7
330
1F
100
AcDbEntity
  8
0
  6
Continuous
 62
     7
370
    25
100
AcDbLine
 10
7940.6104442679
 20
4714.2410916816
 30
0.0
 11
7940.6104442679
 21
4716.7410916816
 31
0.0
  0
LINE
  5
2B8
330
1F
100
AcDbEntity
  8
0
  6
Continuous
 62
     7
370
    25
100
AcDbLine
 10
7940.6104442679
 20
4730.7410916816
 30
0.0
 11
7940.6104442679
 21
4745.9852014543
 31
0.0
  0
LINE
  5
2B9
330
1F
100
AcDbEntity
  8
0
  6
Continuous
 62
     7
370
    25
100
AcDbLine
 10
7958.6104442679
 20
4654.2410916816
 30
0.0
 11
7951.919886023
 21
4711.5887337802
 31
0.0
  0
LINE
  5
2BA
330
1F
100
AcDbEntity
  8
0
  6
Continuous
 62
     7
370
    25
100
AcDbLine
 10
7892.481545903
 20
4670.2791056966
 30
0.0
 11
7890.6104442679
 21
4654.2410916816
 31
0.0
  0
LINE
  5
2BB
330
1F
100
AcDbEntity
  8
0
  6
Continuous
 62
     7
370
    25
100
AcDbLine
 10
7890.6104442679
 20
4654.2410916816
 30
0.0
 11
7897.5042299877
 21
4586.9354158202
 31
0.0
  0
LINE
  5
2BC
330
1F
100
AcDbEntity
  8
0
  6
Continuous
 62
     7
370
    25
100
AcDbLine
 10
7951.716658548
 20
4586.9354158202
 30
0.0
 11
7958.6104442679
 21
4654.2410916816
 31
0.0
  0
LINE
  5
2BD
330
1F
100
AcDbEntity
  8
0
  6
Continuous
 62
     7
370
    25
100
AcDbLine
 10
7880.6104442679
 20
4719.7410916816
 30
0.0
 11
7876.6104442679
 21
4718.2410916816
 31
0.0
  0
LINE
  5
2BE
330
1F
100
AcDbEntity
  8
0
  6
Continuous
 62
     7
370
    25
100
AcDbLine
 10
7876.6104442679
 20
4666.2410916816
 30
0.0
 11
7880.6104442679
 21
4664.7410916816
 31
0.0
  0
ARC
  5
2BF
330
1F
100
AcDbEntity
  8
0
  6
Continuous
 62
     7
370
    25
100
AcDbCircle
 10
7948.9400966058
 20
4711.2410916816
 30
0.0
 40
3.0
100
AcDbArc
 50
6.654425046
 51
90.0
  0
ARC
  5
2C0
330
1F
100
AcDbEntity
  8
0
  6
Continuous
 62
     7
370
    25
100
AcDbCircle
 10
7900.4886164017
 20
4587.2410916816
 30
0.0
 40
3.0
100
AcDbArc
 50
185.8481280262
 51
270.0
  0
ARC
  5
2C1
330
1F
100
AcDbEntity
  8
0
  6
Continuous
 62
     7
370
    25
100
AcDbCircle
 10
7948.7322721341
 20
4587.2410916816
 30
0.0
 40
3.0
100
AcDbArc
 50
270.0
 51
354.1518719738
  0
LINE
  5
2C2
330
1F
100
AcDbEntity
  8
0
  6
Continuous
 62
     7
370
    25
100
AcDbLine
 10
7876.6104442679
 20
4718.2410916816
 30
0.0
 11
7867.6104442679
 21
4718.2410916816
 31
0.0
  0
LINE
  5
2C3
330
1F
100
AcDbEntity
  8
0
  6
Continuous
 62
     7
370
    25
100
AcDbLine
 10
7867.6104442679
 20
4666.2410916816
 30
0.0
 11
7876.6104442679
 21
4666.2410916816
 31
0.0
  0
ARC
  5
2C4
330
1F
100
AcDbEntity
  8
0
  6
Continuous
 62
     7
370
    25
100
AcDbCircle
 10
7867.6104442679
 20
4715.2410916816
 30
0.0
 40
3.0
100
AcDbArc
 50
90.0
 51
180.0
  0
ARC
  5
2C5
330
1F
100
AcDbEntity
  8
0
  6
Continuous
 62
     7
370
    25
100
AcDbCircle
 10
7867.6104442679
 20
4669.2410916816
 30
0.0
 40
3.0
100
AcDbArc
 50
180.0
 51
270.0
  0
LINE
  5
2C6
330
1F
100
AcDbEntity
  8
0
  6
Continuous
 62
     7
370
    25
100
AcDbLine
 10
7949.6104442679
 20
4716.7410916816
 30
0.0
 11
7947.6104442679
 21
4720.7410916816
 31
0.0
  0
LINE
  5
2C7
330
1F
100
AcDbEntity
  8
0
  6
Continuous
 62
     7
370
    25
100
AcDbLine
 10
7901.6104442679
 20
4720.7410916816
 30
0.0
 11
7899.6104442679
 21
4716.7410916816
 31
0.0
  0
ARC
  5
2C8
330
1F
100
AcDbEntity
  8
0
  6
Continuous
 62
     7
370
    25
100
AcDbCircle
 10
7904.6104442679
 20
4727.7410916816
 30
0.0
 40
3.000000000000909
100
AcDbArc
 50
90.0
 51
180.0
  0
ARC
  5
2C9
330
1F
100
AcDbEntity
  8
0
  6
Continuous
 62
     7
370
    25
100
AcDbCircle
 10
7944.6104442679
 20
4727.7410916816
 30
0.0
 40
3.0
100
AcDbArc
 50
0.0
 51
90.0
  0
LINE
  5
2CA
330
1F
100
AcDbEntity
  8
0
  6
Continuous
 62
     7
370
    25
100
AcDbLine
 10
7901.6104442679
 20
4727.7410916816
 30
0.0
 11
7901.6104442679
 21
4720.7410916816
 31
0.0
  0
LINE
  5
2CB
330
1F
100
AcDbEntity
  8
0
  6
Continuous
 62
     7
370
    25
100
AcDbLine
 10
7947.6104442679
 20
4720.7410916816
 30
0.0
 11
7947.6104442679
 21
4727.7410916816
 31
0.0
  0
LINE
  5
2CC
330
1F
100
AcDbEntity
  8
0
  6
Continuous
 62
     7
370
    25
100
AcDbLine
 10
7880.6104442679
 20
4670.2410916816
 30
0.0
 11
7892.5052894297
 21
4670.2410916816
 31
0.0
  0
LINE
  5
2CD
330
1F
100
AcDbEntity
  8
0
  6
Continuous
 62
     7
370
    25
100
AcDbLine
 10
7897.6104442679
 20
4714.2410916816
 30
0.0
 11
7880.6104442679
 21
4714.2410916816
 31
0.0
  0
ARC
  5
2CE
330
1F
100
AcDbEntity
  8
0
  6
Continuous
 62
     7
370
    25
100
AcDbCircle
 10
7699.7640031934
 20
5376.4509008476
 30
0.0
 40
37.00000000000085
100
AcDbArc
 50
59.0753555839
 51
96.9246444161
  0
LINE
  5
2CF
330
1F
100
AcDbEntity
  8
0
  6
Continuous
 62
     7
370
    25
100
AcDbLine
 10
7734.6104442679
 20
5335.9852014543
 30
0.0
 11
7732.1104442679
 21
5335.9852014543
 31
0.0
  0
LINE
  5
2D0
330
1F
100
AcDbEntity
  8
0
  6
Continuous
 62
     7
370
    25
100
AcDbLine
 10
7732.1104442679
 20
5275.9852014543
 30
0.0
 11
7734.6104442679
 21
5275.9852014543
 31
0.0
  0
LINE
  5
2D1
330
1F
100
AcDbEntity
  8
0
  6
Continuous
 62
     7
370
    25
100
AcDbLine
 10
7734.6104442679
 20
5275.9852014543
 30
0.0
 11
7735.1104442679
 21
5276.4852014543
 31
0.0
  0
LINE
  5
2D2
330
1F
100
AcDbEntity
  8
0
  6
Continuous
 62
     7
370
    25
100
AcDbLine
 10
7735.1104442679
 20
5335.4852014543
 30
0.0
 11
7734.6104442679
 21
5335.9852014543
 31
0.0
  0
LINE
  5
2D3
330
1F
100
AcDbEntity
  8
0
  6
Continuous
 62
     7
370
    25
100
AcDbLine
 10
7743.7604442679
 20
5291.9852014543
 30
0.0
 11
7866.1104442679
 21
5291.9852014543
 31
0.0
  0
LINE
  5
2D4
330
1F
100
AcDbEntity
  8
0
  6
Continuous
 62
     7
370
    25
100
AcDbLine
 10
7735.1104442679
 20
5291.9852014543
 30
0.0
 11
7740.4811337026
 21
5291.9852014543
 31
0.0
  0
LINE
  5
2D5
330
1F
100
AcDbEntity
  8
0
  6
Continuous
 62
     7
370
    25
100
AcDbLine
 10
7900.1104442679
 20
5319.9852014543
 30
0.0
 11
7735.1104442679
 21
5319.9852014543
 31
0.0
  0
LINE
  5
2D6
330
1F
100
AcDbEntity
  8
0
  6
Continuous
 62
     7
370
    25
100
AcDbLine
 10
7901.1104442679
 20
5318.9852014543
 30
0.0
 11
7900.1104442679
 21
5319.9852014543
 31
0.0
  0
LINE
  5
2D7
330
1F
100
AcDbEntity
  8
0
  6
Continuous
 62
     7
370
    25
100
AcDbLine
 10
7717.1104442679
 20
4712.2410916816
 30
0.0
 11
7717.1104442679
 21
4672.2410916816
 31
0.0
  0
LINE
  5
2D8
330
1F
100
AcDbEntity
  8
0
  6
Continuous
 62
     7
370
    25
100
AcDbLine
 10
7682.1104442679
 20
4732.2410916816
 30
0.0
 11
7682.1104442679
 21
4652.2410916816
 31
0.0
  0
LINE
  5
2D9
330
1F
100
AcDbEntity
  8
0
  6
Continuous
 62
     7
370
    25
100
AcDbLine
 10
7672.1104442679
 20
4712.2410916816
 30
0.0
 11
7672.1104442679
 21
4672.2410916816
 31
0.0
  0
LWPOLYLINE
  5
2DA
330
1F
100
AcDbEntity
  8
0
  6
Continuous
 62
     7
370
    25
100
AcDbPolyline
 90
       20
 70
   128
 43
0.0
 10
7899.3886904875
 20
4711.5887337802
 10
7900.3940885153
 20
4709.9686749832
 10
7901.6684370675
 20
4707.7231615779
 10
7902.9790291148
 20
4705.0393107406
 10
7903.9916809279
 20
4702.430792004
 10
7904.7758166801
 20
4699.4864320738
 10
7905.1032304048
 20
4697.0775818106
 10
7905.1234730643
 20
4694.5147063554
 10
7904.8151943401
 20
4692.0078647414
 10
7904.1936601107
 20
4689.4894950096
 10
7902.9955354955
 20
4686.2866758775
 10
7901.4906560708
 20
4683.2353529068
 10
7899.37503892
 20
4679.6784016449
 10
7897.2041901483
 20
4676.4700208454
 10
7895.5933322328
 20
4674.2591912225
 10
7894.1849681946
 20
4672.4082113651
 10
7893.3182080052
 20
4671.2990311319
 10
7892.7254020531
 20
4670.5516478378
 10
7892.483393173
 20
4670.2489320463
 10
7892.505322515
 20
4670.2763317585
  0
LINE
  5
2DB
330
1F
100
AcDbEntity
  8
0
  6
Continuous
 62
     7
370
    25
100
AcDbLine
 10
7890.6104442679
 20
4654.2410916816
 30
0.0
 11
7958.6104442679
 21
4654.2410916816
 31
0.0
  0
LINE
  5
2DC
330
1F
100
AcDbEntity
  8
0
  6
Continuous
 62
     7
370
    25
100
AcDbLine
 10
7880.6104442679
 20
4719.7410916816
 30
0.0
 11
7880.6104442679
 21
4664.7410916816
 31
0.0
  0
LINE
  5
2DD
330
1F
100
AcDbEntity
  8
0
  6
Continuous
 62
     7
370
    25
100
AcDbLine
 10
7876.6104442679
 20
4718.2410916816
 30
0.0
 11
7876.6104442679
 21
4666.2410916816
 31
0.0
  0
ARC
  5
2DE
330
1F
100
AcDbEntity
  8
0
  6
Continuous
 62
     7
370
    25
100
AcDbCircle
 10
7902.2416991516
 20
4711.3824168384
 30
0.0
 40
2.860458899834508
100
AcDbArc
 50
92.0237024968
 51
175.8638232391
  0
LINE
  5
2DF
330
1F
100
AcDbEntity
  8
0
  6
Continuous
 62
     7
370
    25
100
AcDbLine
 10
7902.1406879715
 20
4714.2410916816
 30
0.0
 11
7948.9400966058
 21
4714.2410916816
 31
0.0
  0
LINE
  5
2E0
330
1F
100
AcDbEntity
  8
0
  6
Continuous
 62
     7
370
    25
100
AcDbLine
 10
7900.4886164017
 20
4584.2410916816
 30
0.0
 11
7948.7322721198
 21
4584.2410916816
 31
0.0
  0
LINE
  5
2E1
330
1F
100
AcDbEntity
  8
0
  6
Continuous
 62
     7
370
    25
100
AcDbLine
 10
7864.6104442679
 20
4715.2410916816
 30
0.0
 11
7864.6104442679
 21
4669.2410916816
 31
0.0
  0
LINE
  5
2E2
330
1F
100
AcDbEntity
  8
0
  6
Continuous
 62
     7
370
    25
100
AcDbLine
 10
7901.6104442679
 20
4720.7410916816
 30
0.0
 11
7947.6104442679
 21
4720.7410916816
 31
0.0
  0
LINE
  5
2E3
330
1F
100
AcDbEntity
  8
0
  6
Continuous
 62
     7
370
    25
100
AcDbLine
 10
7899.6104442679
 20
4716.7410916816
 30
0.0
 11
7949.6104442679
 21
4716.7410916816
 31
0.0
  0
LINE
  5
2E4
330
1F
100
AcDbEntity
  8
0
  6
Continuous
 62
     7
370
    25
100
AcDbLine
 10
7904.6104442679
 20
4730.7410916816
 30
0.0
 11
7944.610444094
 21
4730.7410916816
 31
0.0
  0
ARC
  5
2E5
330
1F
100
AcDbEntity
  8
0
  6
Continuous
 62
     7
370
    25
100
AcDbCircle
 10
7829.8210943122
 20
4666.8701330882
 30
0.0
 40
82.70068733372858
100
AcDbArc
 50
32.7332300191
 51
34.9457141133
  0
LINE
  5
2E6
330
1F
100
AcDbEntity
  8
0
  6
Continuous
 62
     7
370
    25
100
AcDbLine
 10
7897.6104442679
 20
4714.2410916816
 30
0.0
 11
7902.1406879715
 21
4714.2410916816
 31
0.0
  0
LINE
  5
2E7
330
1F
100
AcDbEntity
  8
0
  6
Continuous
 62
     7
370
    25
100
AcDbLine
 10
7682.1104442679
 20
4745.9852014543
 30
0.0
 11
7682.1104442679
 21
5390.5852014543
 31
0.0
  0
LINE
  5
2E8
330
1F
100
AcDbEntity
  8
0
  6
Continuous
 62
     7
370
    25
100
AcDbLine
 10
7685.2104442679
 20
5390.5852014543
 30
0.0
 11
7685.2104442679
 21
4745.9852014543
 31
0.0
  0
LINE
  5
2E9
330
1F
100
AcDbEntity
  8
0
  6
Continuous
 62
     7
370
    25
100
AcDbLine
 10
7682.1104442679
 20
5390.5852014543
 30
0.0
 11
7685.2104442679
 21
5390.5852014543
 31
0.0
  0
LINE
  5
2EA
330
1F
100
AcDbEntity
  8
0
  6
Continuous
 62
     7
370
    25
100
AcDbLine
 10
7685.2104442679
 20
4745.9852014543
 30
0.0
 11
7682.1104442679
 21
4745.9852014543
 31
0.0
  0
LINE
  5
2EB
330
1F
100
AcDbEntity
  8
0
  6
Continuous
 62
     7
370
    25
100
AcDbLine
 10
7682.1104442679
 20
5392.5852014543
 30
0.0
 11
7682.1104442679
 21
5413.2684277099
 31
0.0
  0
ARC
  5
2EC
330
1F
100
AcDbEntity
  8
0
  6
Continuous
 62
     7
370
    25
100
AcDbCircle
 10
7684.3104442679
 20
5413.2684277099
 30
0.0
 40
2.200000000000728
100
AcDbArc
 50
78.0
 51
180.0
  0
LINE
  5
2ED
330
1F
100
AcDbEntity
  8
0
  6
Continuous
 62
     7
370
    25
100
AcDbLine
 10
7684.7678499877
 20
5415.4203524315
 30
0.0
 11
7730.3678499877
 21
5405.7277732194
 31
0.0
  0
ARC
  5
2EE
330
1F
100
AcDbEntity
  8
0
  6
Continuous
 62
     7
370
    25
100
AcDbCircle
 10
7729.9104442679
 20
5403.5758484978
 30
0.0
 40
2.199999999999374
100
AcDbArc
 50
0.0
 51
78.0
  0
LINE
  5
2EF
330
1F
100
AcDbEntity
  8
0
  6
Continuous
 62
     7
370
    25
100
AcDbLine
 10
7732.1104442679
 20
5403.5758484978
 30
0.0
 11
7732.1104442679
 21
4995.9852014543
 31
0.0
  0
LINE
  5
2F0
330
1F
100
AcDbEntity
  8
0
  6
Continuous
 62
     7
370
    25
100
AcDbLine
 10
7732.1104442679
 20
4995.9852014543
 30
0.0
 11
8159.9104442679
 21
4995.9852014543
 31
0.0
  0
ARC
  5
2F1
330
1F
100
AcDbEntity
  8
0
  6
Continuous
 62
     7
370
    25
100
AcDbCircle
 10
8159.9104442679
 20
4993.7852014543
 30
0.0
 40
2.200000000000728
100
AcDbArc
 50
0.0
 51
90.0
  0
LINE
  5
2F2
330
1F
100
AcDbEntity
  8
0
  6
Continuous
 62
     7
370
    25
100
AcDbLine
 10
8162.1104442679
 20
4993.7852014543
 30
0.0
 11
8162.1104442679
 21
4970.9852014543
 31
0.0
  0
LINE
  5
2F3
330
1F
100
AcDbEntity
  8
0
  6
Continuous
 62
     7
370
    25
100
AcDbLine
 10
8162.1104442679
 20
4970.9852014543
 30
0.0
 11
8159.1104442679
 21
4970.9852014543
 31
0.0
  0
LINE
  5
2F4
330
1F
100
AcDbEntity
  8
0
  6
Continuous
 62
     7
370
    25
100
AcDbLine
 10
8159.1104442679
 20
4970.9852014543
 30
0.0
 11
8159.1104442679
 21
4970.9752014543
 31
0.0
  0
LINE
  5
2F5
330
1F
100
AcDbEntity
  8
0
  6
Continuous
 62
     7
370
    25
100
AcDbLine
 10
8159.1104442679
 20
4745.9852014543
 30
0.0
 11
8159.1104442679
 21
4970.9752014543
 31
0.0
  0
LINE
  5
2F6
330
1F
100
AcDbEntity
  8
0
  6
Continuous
 62
     7
370
    25
100
AcDbLine
 10
8159.1104442679
 20
4745.9852014543
 30
0.0
 11
7685.2104442679
 21
4745.9852014543
 31
0.0
  0
LINE
  5
2F7
330
1F
100
AcDbEntity
  8
0
  6
Continuous
 62
     7
370
    25
100
AcDbLine
 10
7686.2104442679
 20
5390.5852014543
 30
0.0
 11
7686.2104442679
 21
5392.5852014543
 31
0.0
  0
LINE
  5
2F8
330
1F
100
AcDbEntity
  8
0
  6
Continuous
 62
     7
370
    25
100
AcDbLine
 10
7686.2104442679
 20
5392.5852014543
 30
0.0
 11
7682.1104442679
 21
5392.5852014543
 31
0.0
  0
LINE
  5
2F9
330
1F
100
AcDbEntity
  8
0
  6
Continuous
 62
     7
370
    25
100
AcDbLine
 10
7685.2104442679
 20
5390.5852014543
 30
0.0
 11
7686.2104442679
 21
5390.5852014543
 31
0.0
  0
LINE
  5
2FA
330
1F
100
AcDbEntity
  8
0
  6
Continuous
 62
     7
370
    25
100
AcDbLine
 10
8162.2104442679
 20
4745.9852014543
 30
0.0
 11
8162.2104442679
 21
4970.9752014543
 31
0.0
  0
LINE
  5
2FB
330
1F
100
AcDbEntity
  8
0
  6
Continuous
 62
     7
370
    25
100
AcDbLine
 10
8162.2104442679
 20
4745.9852014543
 30
0.0
 11
8159.1104442679
 21
4745.9852014543
 31
0.0
  0
LINE
  5
2FC
330
1F
100
AcDbEntity
  8
0
  6
Continuous
 62
     7
370
    25
100
AcDbLine
 10
8159.1104442679
 20
4970.9752014543
 30
0.0
 11
8162.2104442679
 21
4970.9752014543
 31
0.0
  0
LINE
  5
2FD
330
1F
100
AcDbEntity
  8
0
  6
Continuous
 62
     7
370
    25
100
AcDbLine
 10
7682.1104442679
 20
5392.5852014543
 30
0.0
 11
7682.1104442679
 21
5390.9852014543
 31
0.0
  0
LINE
  5
2FE
330
1F
100
AcDbEntity
  8
0
  6
Continuous
 62
     7
370
    25
100
AcDbLine
 10
7683.3104442679
 20
5392.5852014543
 30
0.0
 11
7683.3104442679
 21
5390.9852014543
 31
0.0
  0
LINE
  5
2FF
330
1F
100
AcDbEntity
  8
0
  6
Continuous
 62
     7
370
    25
100
AcDbLine
 10
7682.1104442679
 20
5390.9852014543
 30
0.0
 11
7683.3104442679
 21
5390.9852014543
 31
0.0
  0
LINE
  5
300
330
1F
100
AcDbEntity
  8
0
  6
Continuous
 62
     7
370
    25
100
AcDbLine
 10
7741.056276197
 20
5291.9852014543
 30
0.0
 11
7740.6104442679
 21
5291.9852014543
 31
0.0
  0
LINE
  5
301
330
1F
100
AcDbEntity
  8
0
  6
Continuous
 62
     7
370
    25
100
AcDbLine
 10
7743.6104442679
 20
5291.9852014543
 30
0.0
 11
7741.056276197
 21
5291.9852014543
 31
0.0
  0
LINE
  5
302
330
1F
100
AcDbEntity
  8
0
  6
Continuous
 62
     7
370
    25
100
AcDbLine
 10
7734.6104442679
 20
5275.9852014543
 30
0.0
 11
7734.6104442679
 21
5335.9852014543
 31
0.0
  0
LINE
  5
303
330
1F
100
AcDbEntity
  8
0
  6
Continuous
 62
     7
370
    25
100
AcDbLine
 10
7735.1104442679
 20
5335.4852014543
 30
0.0
 11
7735.1104442679
 21
5276.4852014543
 31
0.0
  0
LINE
  5
304
330
1F
100
AcDbEntity
  8
0
  6
Continuous
 62
     7
370
    25
100
AcDbLine
 10
7734.6104442679
 20
5317.557157811
 30
0.0
 11
7734.6104442679
 21
5335.9852014543
 31
0.0
  0
LINE
  5
305
330
1F
100
AcDbEntity
  8
0
  6
Continuous
 62
     7
370
    25
100
AcDbLine
 10
7734.6104442679
 20
5275.9852014543
 30
0.0
 11
7734.6104442679
 21
5317.557157811
 31
0.0
  0
LINE
  5
306
330
1F
100
AcDbEntity
  8
0
  6
Continuous
 62
     7
370
    25
100
AcDbLine
 10
7735.1104442679
 20
5317.3642918717
 30
0.0
 11
7735.1104442679
 21
5276.4852014543
 31
0.0
  0
LINE
  5
307
330
1F
100
AcDbEntity
  8
0
  6
Continuous
 62
     7
370
    25
100
AcDbLine
 10
7735.1104442679
 20
5335.4852014543
 30
0.0
 11
7735.1104442679
 21
5317.3642918717
 31
0.0
  0
LINE
  5
308
330
1F
100
AcDbEntity
  8
0
  6
Continuous
 62
     7
370
    25
100
AcDbLine
 10
7900.1104442679
 20
5301.0954739969
 30
0.0
 11
7900.1104442679
 21
5319.9852014543
 31
0.0
  0
LINE
  5
309
330
1F
100
AcDbEntity
  8
0
  6
Continuous
 62
     7
370
    25
100
AcDbLine
 10
7866.1104442679
 20
5291.9852014543
 30
0.0
 11
7900.1104442679
 21
5301.0954739969
 31
0.0
  0
ARC
  5
30A
330
1F
100
AcDbEntity
  8
0
  6
Continuous
 62
     7
370
    25
100
AcDbCircle
 10
7742.1105128173
 20
5278.0372402271
 30
0.0
 40
14.04520901187756
100
AcDbArc
 50
83.2537211424
 51
96.6618607905
  0
LINE
  5
30B
330
1F
100
AcDbEntity
  8
0
  6
Continuous
 62
     7
370
    25
100
AcDbLine
 10
7901.1104442679
 20
5318.9852014543
 30
0.0
 11
7901.1104442679
 21
5301.3634231894
 31
0.0
  0
LINE
  5
30C
330
1F
100
AcDbEntity
  8
0
  6
Continuous
 62
     7
370
    25
100
AcDbLine
 10
7901.1104442679
 20
5301.3634231894
 30
0.0
 11
7900.1104442679
 21
5301.0954739969
 31
0.0
  0
LINE
  5
30D
330
1F
100
AcDbEntity
  8
0
  6
Continuous
 62
     8
370
    25
100
AcDbLine
 10
7697.1104442679
 20
4732.2410916816
 30
0.0
 11
7697.1104442679
 21
4652.2410916816
 31
0.0
  0
LINE
  5
30E
330
1F
100
AcDbEntity
  8
0
  6
Continuous
 62
     8
370
    25
100
AcDbLine
 10
7951.919886023
 20
4711.5887337802
 30
0.0
 11
7899.3886904875
 21
4711.5887337802
 31
0.0
  0
LINE
  5
30F
330
1F
100
AcDbEntity
  8
0
  6
Continuous
 62
     8
370
    25
100
AcDbLine
 10
7897.5042299877
 20
4586.9354158202
 30
0.0
 11
7951.716658548
 21
4586.9354158202
 31
0.0
  0
LINE
  5
310
330
1F
100
AcDbEntity
  8
0
  6
Continuous
 62
     8
370
    25
100
AcDbLine
 10
7867.6104442679
 20
4718.2410916816
 30
0.0
 11
7867.6104442679
 21
4666.2410916816
 31
0.0
  0
LINE
  5
311
330
1F
100
AcDbEntity
  8
0
  6
Continuous
 62
     8
370
    25
100
AcDbLine
 10
7901.6104442679
 20
4727.7410916816
 30
0.0
 11
7947.6104442679
 21
4727.7410916816
 31
0.0
  0
LINE
  5
312
330
1F
100
AcDbEntity
  8
0
  6
Continuous
 62
     7
370
    25
100
AcDbLine
 10
5653.7971600709
 20
4381.853705608
 30
0.0
 11
5653.7971600709
 21
4391.8537056081
 31
0.0
  0
LINE
  5
313
330
1F
100
AcDbEntity
  8
0
  6
Continuous
 62
     7
370
    25
100
AcDbLine
 10
5613.7971600709
 20
4391.8537056081
 30
0.0
 11
5613.7971600709
 21
4381.853705608
 31
0.0
  0
LINE
  5
314
330
1F
100
AcDbEntity
  8
0
  6
Continuous
 62
     7
370
    25
100
AcDbLine
 10
6537.2971600709
 20
4331.853705608
 30
0.0
 11
6537.2971600709
 21
4331.353705608
 31
0.0
  0
LINE
  5
315
330
1F
100
AcDbEntity
  8
0
  6
Continuous
 62
     7
370
    25
100
AcDbLine
 10
6565.2971600709
 20
4331.353705608
 30
0.0
 11
6565.2971600709
 21
4331.853705608
 31
0.0
  0
LINE
  5
316
330
1F
100
AcDbEntity
  8
0
  6
Continuous
 62
     7
370
    25
100
AcDbLine
 10
6537.2971600709
 20
4331.353705608
 30
0.0
 11
6538.7971600709
 21
4329.853705608
 31
0.0
  0
LINE
  5
317
330
1F
100
AcDbEntity
  8
0
  6
Continuous
 62
     7
370
    25
100
AcDbLine
 10
6563.7971600709
 20
4329.853705608
 30
0.0
 11
6565.2971600709
 21
4331.353705608
 31
0.0
  0
LINE
  5
318
330
1F
100
AcDbEntity
  8
0
  6
Continuous
 62
     7
370
    25
100
AcDbLine
 10
7137.2971600709
 20
4331.853705608
 30
0.0
 11
7137.2971600709
 21
4331.353705608
 31
0.0
  0
LINE
  5
319
330
1F
100
AcDbEntity
  8
0
  6
Continuous
 62
     7
370
    25
100
AcDbLine
 10
7165.2971600709
 20
4331.353705608
 30
0.0
 11
7165.2971600709
 21
4331.853705608
 31
0.0
  0
LINE
  5
31A
330
1F
100
AcDbEntity
  8
0
  6
Continuous
 62
     7
370
    25
100
AcDbLine
 10
7137.2971600709
 20
4331.353705608
 30
0.0
 11
7138.7971600709
 21
4329.853705608
 31
0.0
  0
LINE
  5
31B
330
1F
100
AcDbEntity
  8
0
  6
Continuous
 62
     7
370
    25
100
AcDbLine
 10
7163.7971600709
 20
4329.853705608
 30
0.0
 11
7165.2971600709
 21
4331.353705608
 31
0.0
  0
LINE
  5
31C
330
1F
100
AcDbEntity
  8
0
  6
Continuous
 62
     7
370
    25
100
AcDbLine
 10
5937.2971600709
 20
4331.853705608
 30
0.0
 11
5937.2971600709
 21
4331.353705608
 31
0.0
  0
LINE
  5
31D
330
1F
100
AcDbEntity
  8
0
  6
Continuous
 62
     7
370
    25
100
AcDbLine
 10
5965.2971600709
 20
4331.353705608
 30
0.0
 11
5965.2971600709
 21
4331.853705608
 31
0.0
  0
LINE
  5
31E
330
1F
100
AcDbEntity
  8
0
  6
Continuous
 62
     7
370
    25
100
AcDbLine
 10
5937.2971600709
 20
4331.353705608
 30
0.0
 11
5938.7971600709
 21
4329.853705608
 31
0.0
  0
LINE
  5
31F
330
1F
100
AcDbEntity
  8
0
  6
Continuous
 62
     7
370
    25
100
AcDbLine
 10
5963.7971600709
 20
4329.853705608
 30
0.0
 11
5965.2971600709
 21
4331.353705608
 31
0.0
  0
LINE
  5
320
330
1F
100
AcDbEntity
  8
0
  6
Continuous
 62
     7
370
    25
100
AcDbLine
 10
7061.2971600709
 20
4329.353705608
 30
0.0
 11
7061.2971600709
 21
4331.853705608
 31
0.0
  0
LINE
  5
321
330
1F
100
AcDbEntity
  8
0
  6
Continuous
 62
     7
370
    25
100
AcDbLine
 10
7001.2971600709
 20
4331.853705608
 30
0.0
 11
7001.2971600709
 21
4329.353705608
 31
0.0
  0
LINE
  5
322
330
1F
100
AcDbEntity
  8
0
  6
Continuous
 62
     7
370
    25
100
AcDbLine
 10
7001.2971600709
 20
4329.353705608
 30
0.0
 11
7001.7971600709
 21
4328.8537056081
 31
0.0
  0
LINE
  5
323
330
1F
100
AcDbEntity
  8
0
  6
Continuous
 62
     7
370
    25
100
AcDbLine
 10
7060.7971600709
 20
4328.8537056081
 30
0.0
 11
7061.2971600709
 21
4329.353705608
 31
0.0
  0
LINE
  5
324
330
1F
100
AcDbEntity
  8
0
  6
Continuous
 62
     7
370
    25
100
AcDbLine
 10
6461.2971600709
 20
4329.353705608
 30
0.0
 11
6461.2971600709
 21
4331.853705608
 31
0.0
  0
LINE
  5
325
330
1F
100
AcDbEntity
  8
0
  6
Continuous
 62
     7
370
    25
100
AcDbLine
 10
6401.2971600709
 20
4331.853705608
 30
0.0
 11
6401.2971600709
 21
4329.353705608
 31
0.0
  0
LINE
  5
326
330
1F
100
AcDbEntity
  8
0
  6
Continuous
 62
     7
370
    25
100
AcDbLine
 10
6401.2971600709
 20
4329.353705608
 30
0.0
 11
6401.7971600709
 21
4328.8537056081
 31
0.0
  0
LINE
  5
327
330
1F
100
AcDbEntity
  8
0
  6
Continuous
 62
     7
370
    25
100
AcDbLine
 10
6460.7971600709
 20
4328.8537056081
 30
0.0
 11
6461.2971600709
 21
4329.353705608
 31
0.0
  0
LINE
  5
328
330
1F
100
AcDbEntity
  8
0
  6
Continuous
 62
     7
370
    25
100
AcDbLine
 10
5861.2971600709
 20
4329.353705608
 30
0.0
 11
5861.2971600709
 21
4331.853705608
 31
0.0
  0
LINE
  5
329
330
1F
100
AcDbEntity
  8
0
  6
Continuous
 62
     7
370
    25
100
AcDbLine
 10
5801.2971600709
 20
4331.853705608
 30
0.0
 11
5801.2971600709
 21
4329.353705608
 31
0.0
  0
LINE
  5
32A
330
1F
100
AcDbEntity
  8
0
  6
Continuous
 62
     7
370
    25
100
AcDbLine
 10
5801.2971600709
 20
4329.353705608
 30
0.0
 11
5801.7971600709
 21
4328.8537056081
 31
0.0
  0
LINE
  5
32B
330
1F
100
AcDbEntity
  8
0
  6
Continuous
 62
     7
370
    25
100
AcDbLine
 10
5860.7971600709
 20
4328.8537056081
 30
0.0
 11
5861.2971600709
 21
4329.353705608
 31
0.0
  0
LINE
  5
32C
330
1F
100
AcDbEntity
  8
0
  6
Continuous
 62
     7
370
    25
100
AcDbLine
 10
6417.2971600709
 20
4328.8537056081
 30
0.0
 11
6417.2971600709
 21
4163.853705608
 31
0.0
  0
LINE
  5
32D
330
1F
100
AcDbEntity
  8
0
  6
Continuous
 62
     7
370
    25
100
AcDbLine
 10
6445.2971600709
 20
4163.853705608
 30
0.0
 11
6445.2971600709
 21
4328.8537056081
 31
0.0
  0
LINE
  5
32E
330
1F
100
AcDbEntity
  8
0
  6
Continuous
 62
     7
370
    25
100
AcDbLine
 10
6417.2971600709
 20
4163.853705608
 30
0.0
 11
6418.2971600709
 21
4162.853705608
 31
0.0
  0
LINE
  5
32F
330
1F
100
AcDbEntity
  8
0
  6
Continuous
 62
     7
370
    25
100
AcDbLine
 10
6444.2971600709
 20
4162.853705608
 30
0.0
 11
6445.2971600709
 21
4163.853705608
 31
0.0
  0
LINE
  5
330
330
1F
100
AcDbEntity
  8
0
  6
Continuous
 62
     7
370
    25
100
AcDbLine
 10
7017.2971600709
 20
4328.8537056081
 30
0.0
 11
7017.2971600709
 21
4163.853705608
 31
0.0
  0
LINE
  5
331
330
1F
100
AcDbEntity
  8
0
  6
Continuous
 62
     7
370
    25
100
AcDbLine
 10
7045.2971600709
 20
4163.853705608
 30
0.0
 11
7045.2971600709
 21
4328.8537056081
 31
0.0
  0
LINE
  5
332
330
1F
100
AcDbEntity
  8
0
  6
Continuous
 62
     7
370
    25
100
AcDbLine
 10
7017.2971600709
 20
4163.853705608
 30
0.0
 11
7018.2971600709
 21
4162.853705608
 31
0.0
  0
LINE
  5
333
330
1F
100
AcDbEntity
  8
0
  6
Continuous
 62
     7
370
    25
100
AcDbLine
 10
7044.2971600709
 20
4162.853705608
 30
0.0
 11
7045.2971600709
 21
4163.853705608
 31
0.0
  0
LINE
  5
334
330
1F
100
AcDbEntity
  8
0
  6
Continuous
 62
     7
370
    25
100
AcDbLine
 10
5817.2971600709
 20
4328.8537056081
 30
0.0
 11
5817.2971600709
 21
4163.853705608
 31
0.0
  0
LINE
  5
335
330
1F
100
AcDbEntity
  8
0
  6
Continuous
 62
     7
370
    25
100
AcDbLine
 10
5845.2971600709
 20
4163.853705608
 30
0.0
 11
5845.2971600709
 21
4328.8537056081
 31
0.0
  0
LINE
  5
336
330
1F
100
AcDbEntity
  8
0
  6
Continuous
 62
     7
370
    25
100
AcDbLine
 10
5817.2971600709
 20
4163.853705608
 30
0.0
 11
5818.2971600709
 21
4162.853705608
 31
0.0
  0
LINE
  5
337
330
1F
100
AcDbEntity
  8
0
  6
Continuous
 62
     7
370
    25
100
AcDbLine
 10
5844.2971600709
 20
4162.853705608
 30
0.0
 11
5845.2971600709
 21
4163.853705608
 31
0.0
  0
ARC
  5
338
330
1F
100
AcDbEntity
  8
0
  6
Continuous
 62
     7
370
    25
100
AcDbCircle
 10
5633.7971600709
 20
4139.353705608
 30
0.0
 40
5.250000000000314
100
AcDbArc
 50
347.0441398029
 51
150.6177183995
  0
LINE
  5
339
330
1F
100
AcDbEntity
  8
0
  6
Continuous
 62
     7
370
    25
100
AcDbLine
 10
5638.9135112121
 20
4138.1766537827
 30
0.0
 11
5629.2224907827
 21
4141.9295357468
 31
0.0
  0
ARC
  5
33A
330
1F
100
AcDbEntity
  8
0
  6
Continuous
 62
     7
370
    25
100
AcDbCircle
 10
5633.7971600709
 20
4139.353705608
 30
0.0
 40
5.250000000000412
100
AcDbArc
 50
167.044139803
 51
330.6177183995
  0
LINE
  5
33B
330
1F
100
AcDbEntity
  8
0
  6
Continuous
 62
     7
370
    25
100
AcDbLine
 10
5628.6808089297
 20
4140.5307574334
 30
0.0
 11
5638.3718293591
 21
4136.7778754693
 31
0.0
  0
ARC
  5
33C
330
1F
100
AcDbEntity
  8
0
  6
Continuous
 62
     7
370
    25
100
AcDbCircle
 10
5633.7971600709
 20
4139.353705608
 30
0.0
 40
5.249999999999173
100
AcDbArc
 50
150.6177183995
 51
167.044139803
  0
ARC
  5
33D
330
1F
100
AcDbEntity
  8
0
  6
Continuous
 62
     7
370
    25
100
AcDbCircle
 10
5633.7971600709
 20
4139.353705608
 30
0.0
 40
5.250000000000412
100
AcDbArc
 50
330.6177183995
 51
347.0441398029
  0
CIRCLE
  5
33E
330
1F
100
AcDbEntity
  8
0
  6
Continuous
 62
     7
370
    25
100
AcDbCircle
 10
5633.7971600709
 20
4139.353705608
 30
0.0
 40
24.4999999999998
  0
CIRCLE
  5
33F
330
1F
100
AcDbEntity
  8
0
  6
Continuous
 62
     7
370
    25
100
AcDbCircle
 10
5633.7971600709
 20
4139.353705608
 30
0.0
 40
34.99999999999979
  0
CIRCLE
  5
340
330
1F
100
AcDbEntity
  8
0
  6
Continuous
 62
     7
370
    25
100
AcDbCircle
 10
5633.7971600709
 20
4139.353705608
 30
0.0
 40
22.49999999999882
  0
CIRCLE
  5
341
330
1F
100
AcDbEntity
  8
0
  6
Continuous
 62
     7
370
    25
100
AcDbCircle
 10
5633.7971600709
 20
4139.353705608
 30
0.0
 40
21.49999999999959
  0
CIRCLE
  5
342
330
1F
100
AcDbEntity
  8
0
  6
Continuous
 62
     7
370
    25
100
AcDbCircle
 10
5633.7971600709
 20
4139.353705608
 30
0.0
 40
19.55298992456213
  0
CIRCLE
  5
343
330
1F
100
AcDbEntity
  8
0
  6
Continuous
 62
     7
370
    25
100
AcDbCircle
 10
5633.7971600709
 20
4139.353705608
 30
0.0
 40
6.182050807567862
  0
ARC
  5
344
330
1F
100
AcDbEntity
  8
0
  6
Continuous
 62
     7
370
    25
100
AcDbCircle
 10
5633.7971600709
 20
4139.353705608
 30
0.0
 40
19.50000000000005
100
AcDbArc
 50
110.4734666804
 51
136.5740765598
  0
ARC
  5
345
330
1F
100
AcDbEntity
  8
0
  6
Continuous
 62
     7
370
    25
100
AcDbCircle
 10
5622.5400723444
 20
4150.0086563784
 30
0.0
 40
4.000000000000129
100
AcDbArc
 50
136.5740765598
 51
316.5740765598
  0
ARC
  5
346
330
1F
100
AcDbEntity
  8
0
  6
Continuous
 62
     7
370
    25
100
AcDbCircle
 10
5633.7971600709
 20
4139.353705608
 30
0.0
 40
11.49999999999997
100
AcDbArc
 50
110.4734666804
 51
136.5740765598
  0
ARC
  5
347
330
1F
100
AcDbEntity
  8
0
  6
Continuous
 62
     7
370
    25
100
AcDbCircle
 10
5628.3756696328
 20
4153.8746367569
 30
0.0
 40
4.000000000000732
100
AcDbArc
 50
290.4734666804
 51
110.4734666804
  0
ARC
  5
348
330
1F
100
AcDbEntity
  8
0
  6
Continuous
 62
     7
370
    25
100
AcDbCircle
 10
5633.7971600709
 20
4139.353705608
 30
0.0
 40
19.50000000000064
100
AcDbArc
 50
200.4734666804
 51
226.5740765598
  0
ARC
  5
349
330
1F
100
AcDbEntity
  8
0
  6
Continuous
 62
     7
370
    25
100
AcDbCircle
 10
5623.1422093006
 20
4128.0966178815
 30
0.0
 40
4.000000000000129
100
AcDbArc
 50
226.5740765598
 51
46.5740765598
  0
ARC
  5
34A
330
1F
100
AcDbEntity
  8
0
  6
Continuous
 62
     7
370
    25
100
AcDbCircle
 10
5633.7971600709
 20
4139.353705608
 30
0.0
 40
11.50000000000041
100
AcDbArc
 50
200.4734666804
 51
226.5740765598
  0
ARC
  5
34B
330
1F
100
AcDbEntity
  8
0
  6
Continuous
 62
     7
370
    25
100
AcDbCircle
 10
5619.2762289221
 20
4133.93221517
 30
0.0
 40
4.000000000000198
100
AcDbArc
 50
20.4734666804
 51
200.4734666804
  0
ARC
  5
34C
330
1F
100
AcDbEntity
  8
0
  6
Continuous
 62
     7
370
    25
100
AcDbCircle
 10
5633.7971600709
 20
4139.353705608
 30
0.0
 40
19.50000000000154
100
AcDbArc
 50
290.4734666804
 51
316.5740765598
  0
ARC
  5
34D
330
1F
100
AcDbEntity
  8
0
  6
Continuous
 62
     7
370
    25
100
AcDbCircle
 10
5645.0542477974
 20
4128.6987548377
 30
0.0
 40
4.000000000000129
100
AcDbArc
 50
316.5740765598
 51
136.5740765598
  0
ARC
  5
34E
330
1F
100
AcDbEntity
  8
0
  6
Continuous
 62
     7
370
    25
100
AcDbCircle
 10
5633.7971600709
 20
4139.353705608
 30
0.0
 40
11.50000000000114
100
AcDbArc
 50
290.4734666804
 51
316.5740765598
  0
ARC
  5
34F
330
1F
100
AcDbEntity
  8
0
  6
Continuous
 62
     7
370
    25
100
AcDbCircle
 10
5639.218650509
 20
4124.8327744592
 30
0.0
 40
4.00000000000105
100
AcDbArc
 50
110.4734666804
 51
290.4734666804
  0
ARC
  5
350
330
1F
100
AcDbEntity
  8
0
  6
Continuous
 62
     7
370
    25
100
AcDbCircle
 10
5633.7971600709
 20
4139.353705608
 30
0.0
 40
19.50000000000005
100
AcDbArc
 50
20.4734666804
 51
46.5740765598
  0
ARC
  5
351
330
1F
100
AcDbEntity
  8
0
  6
Continuous
 62
     7
370
    25
100
AcDbCircle
 10
5644.4521108412
 20
4150.6107933346
 30
0.0
 40
4.000000000000129
100
AcDbArc
 50
46.5740765598
 51
226.5740765598
  0
ARC
  5
352
330
1F
100
AcDbEntity
  8
0
  6
Continuous
 62
     7
370
    25
100
AcDbCircle
 10
5633.7971600709
 20
4139.353705608
 30
0.0
 40
11.50000000000083
100
AcDbArc
 50
20.4734666804
 51
46.5740765598
  0
ARC
  5
353
330
1F
100
AcDbEntity
  8
0
  6
Continuous
 62
     7
370
    25
100
AcDbCircle
 10
5648.3180912198
 20
4144.7751960461
 30
0.0
 40
4.000000000000198
100
AcDbArc
 50
200.4734666804
 51
20.4734666804
  0
CIRCLE
  5
354
330
1F
100
AcDbEntity
  8
0
  6
Continuous
 62
     7
370
    25
100
AcDbCircle
 10
5633.7971600709
 20
4139.353705608
 30
0.0
 40
5.682050807567996
  0
LINE
  5
355
330
1F
100
AcDbEntity
  8
0
  6
Continuous
 62
     7
370
    25
100
AcDbLine
 10
5643.5519686145
 20
4391.8537056081
 30
0.0
 11
5613.7971600709
 21
4391.8537056081
 31
0.0
  0
LINE
  5
356
330
1F
100
AcDbEntity
  8
0
  6
Continuous
 62
     7
370
    25
100
AcDbLine
 10
5653.7971600709
 20
4391.8537056081
 30
0.0
 11
5643.5519686145
 21
4391.8537056081
 31
0.0
  0
LINE
  5
357
330
1F
100
AcDbEntity
  8
0
  6
Continuous
 62
     7
370
    25
100
AcDbLine
 10
5647.9792110076
 20
4130.0514086625
 30
0.0
 11
5648.4337237704
 21
4130.8386478603
 31
0.0
  0
LINE
  5
358
330
1F
100
AcDbEntity
  8
0
  6
Continuous
 62
     7
370
    25
100
AcDbLine
 10
5643.7641237475
 20
4132.4849904268
 30
0.0
 11
5647.9792110076
 21
4130.0514086625
 31
0.0
  0
LINE
  5
359
330
1F
100
AcDbEntity
  8
0
  6
Continuous
 62
     7
370
    25
100
AcDbLine
 10
5619.6151091342
 20
4130.0514086625
 30
0.0
 11
5624.3554935442
 21
4132.7882708777
 31
0.0
  0
LINE
  5
35A
330
1F
100
AcDbEntity
  8
0
  6
Continuous
 62
     7
370
    25
100
AcDbLine
 10
5618.6501091342
 20
4131.7228376918
 30
0.0
 11
5619.6151091342
 21
4130.0514086625
 31
0.0
  0
LINE
  5
35B
330
1F
100
AcDbEntity
  8
0
  6
Continuous
 62
     7
370
    25
100
AcDbLine
 10
5623.3904935442
 20
4134.459699907
 30
0.0
 11
5618.6501091342
 21
4131.7228376918
 31
0.0
  0
ARC
  5
35C
330
1F
100
AcDbEntity
  8
0
  6
Continuous
 62
     7
370
    25
100
AcDbCircle
 10
5633.7971600709
 20
4139.353705608
 30
0.0
 40
14.50000000000024
100
AcDbArc
 50
213.815953349
 51
241.4174831576
  0
ARC
  5
35D
330
1F
100
AcDbEntity
  8
0
  6
Continuous
 62
     7
370
    25
100
AcDbCircle
 10
5633.7971600709
 20
4139.353705608
 30
0.0
 40
14.50000000000074
100
AcDbArc
 50
275.6300600638
 51
326.184046651
  0
ARC
  5
35E
330
1F
100
AcDbEntity
  8
0
  6
Continuous
 62
     7
370
    25
100
AcDbCircle
 10
5633.7971600709
 20
4139.353705608
 30
0.0
 40
14.49999999999995
100
AcDbArc
 50
95.6300600683
 51
151.4174831789
  0
ARC
  5
35F
330
1F
100
AcDbEntity
  8
0
  6
Continuous
 62
     7
370
    25
100
AcDbCircle
 10
5633.7971600709
 20
4139.353705608
 30
0.0
 40
14.4999999999997
100
AcDbArc
 50
185.6300600638
 51
206.184046651
  0
ARC
  5
360
330
1F
100
AcDbEntity
  8
0
  6
Continuous
 62
     7
370
    25
100
AcDbCircle
 10
5633.7971600709
 20
4139.353705608
 30
0.0
 40
14.49999999999975
100
AcDbArc
 50
5.6300600638
 51
61.4174831996
  0
LINE
  5
361
330
1F
100
AcDbEntity
  8
0
  6
Continuous
 62
     7
370
    25
100
AcDbLine
 10
7334.6471600709
 20
3901.7537056081
 30
0.0
 11
5527.9471600709
 21
3901.7537056081
 31
0.0
  0
LINE
  5
362
330
1F
100
AcDbEntity
  8
0
  6
Continuous
 62
     7
370
    25
100
AcDbLine
 10
5527.9471600709
 20
3901.7537056081
 30
0.0
 11
5527.9471600709
 21
3901.853705608
 31
0.0
  0
LINE
  5
363
330
1F
100
AcDbEntity
  8
0
  6
Continuous
 62
     7
370
    25
100
AcDbLine
 10
7334.6471600709
 20
3901.7537056081
 30
0.0
 11
7334.6471600709
 21
3901.853705608
 31
0.0
  0
LWPOLYLINE
  5
364
330
1F
100
AcDbEntity
  8
0
  6
Continuous
 62
     7
370
    25
100
AcDbPolyline
 90
        3
 70
   128
 43
0.0
 10
5527.381474646
 20
3901.853705608
 10
5527.6252610396
 20
3901.7854098954
 10
5527.9471600709
 20
3901.7537056081
  0
LWPOLYLINE
  5
365
330
1F
100
AcDbEntity
  8
0
  6
Continuous
 62
     7
370
    25
100
AcDbPolyline
 90
        3
 70
   128
 43
0.0
 10
7334.6471600709
 20
3901.7537056081
 10
7334.9690591022
 20
3901.7854098954
 10
7335.2128454958
 20
3901.853705608
  0
LINE
  5
366
330
1F
100
AcDbEntity
  8
0
  6
Continuous
 62
     7
370
    25
100
AcDbLine
 10
7381.2971600709
 20
4381.853705608
 30
0.0
 11
7379.2971600709
 21
4381.853705608
 31
0.0
  0
LINE
  5
367
330
1F
100
AcDbEntity
  8
0
  6
Continuous
 62
     7
370
    25
100
AcDbLine
 10
7381.2971600709
 20
4381.853705608
 30
0.0
 11
7381.2971600709
 21
4379.1962998882
 31
0.0
  0
LINE
  5
368
330
1F
100
AcDbEntity
  8
0
  6
Continuous
 62
     7
370
    25
100
AcDbLine
 10
7381.2971600709
 20
4379.1962998882
 30
0.0
 11
7379.2971600709
 21
4379.1962998882
 31
0.0
  0
LINE
  5
369
330
1F
100
AcDbEntity
  8
0
  6
Continuous
 62
     7
370
    25
100
AcDbLine
 10
7379.2971600709
 20
4381.853705608
 30
0.0
 11
7379.2971600709
 21
4379.1962998882
 31
0.0
  0
LINE
  5
36A
330
1F
100
AcDbEntity
  8
0
  6
Continuous
 62
     7
370
    25
100
AcDbLine
 10
7381.2971600709
 20
4333.5962998882
 30
0.0
 11
7379.2971600709
 21
4333.5962998882
 31
0.0
  0
LINE
  5
36B
330
1F
100
AcDbEntity
  8
0
  6
Continuous
 62
     7
370
    25
100
AcDbLine
 10
7379.2971600709
 20
4379.1962998882
 30
0.0
 11
7379.2971600709
 21
4333.5962998882
 31
0.0
  0
LINE
  5
36C
330
1F
100
AcDbEntity
  8
0
  6
Continuous
 62
     7
370
    25
100
AcDbLine
 10
7381.2971600709
 20
4379.1962998882
 30
0.0
 11
7381.2971600709
 21
4333.5962998882
 31
0.0
  0
LINE
  5
36D
330
1F
100
AcDbEntity
  8
0
  6
Continuous
 62
     7
370
    25
100
AcDbLine
 10
7381.2971600709
 20
4331.853705608
 30
0.0
 11
7379.2971600709
 21
4331.853705608
 31
0.0
  0
LINE
  5
36E
330
1F
100
AcDbEntity
  8
0
  6
Continuous
 62
     7
370
    25
100
AcDbLine
 10
7379.2971600709
 20
4333.5962998882
 30
0.0
 11
7379.2971600709
 21
4331.853705608
 31
0.0
  0
LINE
  5
36F
330
1F
100
AcDbEntity
  8
0
  6
Continuous
 62
     7
370
    25
100
AcDbLine
 10
7381.2971600709
 20
4333.5962998882
 30
0.0
 11
7381.2971600709
 21
4331.853705608
 31
0.0
  0
LINE
  5
370
330
1F
100
AcDbEntity
  8
0
  6
Continuous
 62
     7
370
    25
100
AcDbLine
 10
7381.2971600709
 20
3904.053705608
 30
0.0
 11
7379.2971600709
 21
3904.053705608
 31
0.0
  0
LINE
  5
371
330
1F
100
AcDbEntity
  8
0
  6
Continuous
 62
     7
370
    25
100
AcDbLine
 10
7379.2971600709
 20
4331.853705608
 30
0.0
 11
7379.2971600709
 21
3904.053705608
 31
0.0
  0
LINE
  5
372
330
1F
100
AcDbEntity
  8
0
  6
Continuous
 62
     7
370
    25
100
AcDbLine
 10
7381.2971600709
 20
4331.853705608
 30
0.0
 11
7381.2971600709
 21
3904.053705608
 31
0.0
  0
LINE
  5
373
330
1F
100
AcDbEntity
  8
0
  6
Continuous
 62
     7
370
    25
100
AcDbLine
 10
7381.2971600709
 20
3901.853705608
 30
0.0
 11
7379.2971600709
 21
3901.853705608
 31
0.0
  0
LINE
  5
374
330
1F
100
AcDbEntity
  8
0
  6
Continuous
 62
     7
370
    25
100
AcDbLine
 10
7379.2971600709
 20
3904.053705608
 30
0.0
 11
7379.2971600709
 21
3901.853705608
 31
0.0
  0
LINE
  5
375
330
1F
100
AcDbEntity
  8
0
  6
Continuous
 62
     7
370
    25
100
AcDbLine
 10
7381.2971600709
 20
3904.053705608
 30
0.0
 11
7381.2971600709
 21
3901.853705608
 31
0.0
  0
LWPOLYLINE
  5
376
330
1F
100
AcDbEntity
  8
0
  6
Continuous
 62
     7
370
    25
100
AcDbPolyline
 90
        3
 70
   128
 43
0.0
 10
7378.9781850385
 20
3901.853705608
 10
7378.8019400692
 20
3901.8132712388
 10
7378.1971600709
 20
3901.753705608
  0
LINE
  5
377
330
1F
100
AcDbEntity
  8
0
  6
Continuous
 62
     7
370
    25
100
AcDbLine
 10
7378.1971600709
 20
3901.753705608
 30
0.0
 11
7339.3971600709
 21
3901.7537056081
 31
0.0
  0
LWPOLYLINE
  5
378
330
1F
100
AcDbEntity
  8
0
  6
Continuous
 62
     7
370
    25
100
AcDbPolyline
 90
        3
 70
   128
 43
0.0
 10
7338.6161351034
 20
3901.853705608
 10
7338.7923800727
 20
3901.8132712388
 10
7339.3971600709
 20
3901.7537056081
  0
LINE
  5
379
330
1F
100
AcDbEntity
  8
0
  6
Continuous
 62
     7
370
    25
100
AcDbLine
 10
5481.2971600709
 20
4379.1962998882
 30
0.0
 11
5483.2971600709
 21
4379.1962998882
 31
0.0
  0
LINE
  5
37A
330
1F
100
AcDbEntity
  8
0
  6
Continuous
 62
     7
370
    25
100
AcDbLine
 10
5481.2971600709
 20
4381.853705608
 30
0.0
 11
5481.2971600709
 21
4379.1962998882
 31
0.0
  0
LINE
  5
37B
330
1F
100
AcDbEntity
  8
0
  6
Continuous
 62
     7
370
    25
100
AcDbLine
 10
5481.2971600709
 20
4381.853705608
 30
0.0
 11
5483.2971600709
 21
4381.853705608
 31
0.0
  0
LINE
  5
37C
330
1F
100
AcDbEntity
  8
0
  6
Continuous
 62
     7
370
    25
100
AcDbLine
 10
5483.2971600709
 20
4381.853705608
 30
0.0
 11
5483.2971600709
 21
4379.1962998882
 31
0.0
  0
LINE
  5
37D
330
1F
100
AcDbEntity
  8
0
  6
Continuous
 62
     7
370
    25
100
AcDbLine
 10
5481.2971600709
 20
4333.5962998882
 30
0.0
 11
5483.2971600709
 21
4333.5962998882
 31
0.0
  0
LINE
  5
37E
330
1F
100
AcDbEntity
  8
0
  6
Continuous
 62
     7
370
    25
100
AcDbLine
 10
5481.2971600709
 20
4379.1962998882
 30
0.0
 11
5481.2971600709
 21
4333.5962998882
 31
0.0
  0
LINE
  5
37F
330
1F
100
AcDbEntity
  8
0
  6
Continuous
 62
     7
370
    25
100
AcDbLine
 10
5483.2971600709
 20
4379.1962998882
 30
0.0
 11
5483.2971600709
 21
4333.5962998882
 31
0.0
  0
LINE
  5
380
330
1F
100
AcDbEntity
  8
0
  6
Continuous
 62
     7
370
    25
100
AcDbLine
 10
5481.2971600709
 20
4331.853705608
 30
0.0
 11
5483.2971600709
 21
4331.853705608
 31
0.0
  0
LINE
  5
381
330
1F
100
AcDbEntity
  8
0
  6
Continuous
 62
     7
370
    25
100
AcDbLine
 10
5481.2971600709
 20
4333.5962998882
 30
0.0
 11
5481.2971600709
 21
4331.853705608
 31
0.0
  0
LINE
  5
382
330
1F
100
AcDbEntity
  8
0
  6
Continuous
 62
     7
370
    25
100
AcDbLine
 10
5483.2971600709
 20
4333.5962998882
 30
0.0
 11
5483.2971600709
 21
4331.853705608
 31
0.0
  0
LINE
  5
383
330
1F
100
AcDbEntity
  8
0
  6
Continuous
 62
     7
370
    25
100
AcDbLine
 10
5481.2971600709
 20
3904.053705608
 30
0.0
 11
5483.2971600709
 21
3904.053705608
 31
0.0
  0
LINE
  5
384
330
1F
100
AcDbEntity
  8
0
  6
Continuous
 62
     7
370
    25
100
AcDbLine
 10
5481.2971600709
 20
4331.853705608
 30
0.0
 11
5481.2971600709
 21
3904.053705608
 31
0.0
  0
LINE
  5
385
330
1F
100
AcDbEntity
  8
0
  6
Continuous
 62
     7
370
    25
100
AcDbLine
 10
5483.2971600709
 20
4331.853705608
 30
0.0
 11
5483.2971600709
 21
3904.053705608
 31
0.0
  0
LINE
  5
386
330
1F
100
AcDbEntity
  8
0
  6
Continuous
 62
     7
370
    25
100
AcDbLine
 10
5481.2971600709
 20
3901.853705608
 30
0.0
 11
5483.2971600709
 21
3901.853705608
 31
0.0
  0
LINE
  5
387
330
1F
100
AcDbEntity
  8
0
  6
Continuous
 62
     7
370
    25
100
AcDbLine
 10
5481.2971600709
 20
3904.053705608
 30
0.0
 11
5481.2971600709
 21
3901.853705608
 31
0.0
  0
LINE
  5
388
330
1F
100
AcDbEntity
  8
0
  6
Continuous
 62
     7
370
    25
100
AcDbLine
 10
5483.2971600709
 20
3904.053705608
 30
0.0
 11
5483.2971600709
 21
3901.853705608
 31
0.0
  0
LWPOLYLINE
  5
389
330
1F
100
AcDbEntity
  8
0
  6
Continuous
 62
     7
370
    25
100
AcDbPolyline
 90
        3
 70
   128
 43
0.0
 10
5483.6161351033
 20
3901.853705608
 10
5483.7923800727
 20
3901.8132712388
 10
5484.3971600709
 20
3901.753705608
  0
LINE
  5
38A
330
1F
100
AcDbEntity
  8
0
  6
Continuous
 62
     7
370
    25
100
AcDbLine
 10
5484.3971600709
 20
3901.753705608
 30
0.0
 11
5523.1971600709
 21
3901.7537056081
 31
0.0
  0
LWPOLYLINE
  5
38B
330
1F
100
AcDbEntity
  8
0
  6
Continuous
 62
     7
370
    25
100
AcDbPolyline
 90
        3
 70
   128
 43
0.0
 10
5523.9781850384
 20
3901.853705608
 10
5523.8019400692
 20
3901.8132712388
 10
5523.1971600709
 20
3901.7537056081
  0
LINE
  5
38C
330
1F
100
AcDbEntity
  8
0
  6
Continuous
 62
     7
370
    25
100
AcDbLine
 10
7379.2971600709
 20
4381.853705608
 30
0.0
 11
5483.2971600709
 21
4381.853705608
 31
0.0
  0
LINE
  5
38D
330
1F
100
AcDbEntity
  8
0
  6
Continuous
 62
     7
370
    25
100
AcDbLine
 10
5483.2971600709
 20
4379.1962998882
 30
0.0
 11
7379.2971600709
 21
4379.1962998882
 31
0.0
  0
LINE
  5
38E
330
1F
100
AcDbEntity
  8
0
  6
Continuous
 62
     7
370
    25
100
AcDbLine
 10
7379.2971600709
 20
4333.5962998882
 30
0.0
 11
5483.2971600709
 21
4333.5962998882
 31
0.0
  0
LINE
  5
38F
330
1F
100
AcDbEntity
  8
0
  6
Continuous
 62
     7
370
    25
100
AcDbLine
 10
5483.2971600709
 20
4331.853705608
 30
0.0
 11
7379.2971600709
 21
4331.853705608
 31
0.0
  0
LINE
  5
390
330
1F
100
AcDbEntity
  8
0
  6
Continuous
 62
     7
370
    25
100
AcDbLine
 10
7379.2971600709
 20
3946.853705608
 30
0.0
 11
5483.2971600709
 21
3946.853705608
 31
0.0
  0
LINE
  5
391
330
1F
100
AcDbEntity
  8
0
  6
Continuous
 62
     7
370
    25
100
AcDbLine
 10
5483.2971600709
 20
3944.653705608
 30
0.0
 11
7379.2971600709
 21
3944.653705608
 31
0.0
  0
LINE
  5
392
330
1F
100
AcDbEntity
  8
0
  6
Continuous
 62
     7
370
    25
100
AcDbLine
 10
7379.2971600709
 20
3904.053705608
 30
0.0
 11
5483.2971600709
 21
3904.053705608
 31
0.0
  0
LINE
  5
393
330
1F
100
AcDbEntity
  8
0
  6
Continuous
 62
     7
370
    25
100
AcDbLine
 10
5483.2971600709
 20
3904.053705608
 30
0.0
 11
5483.2971600709
 21
3944.653705608
 31
0.0
  0
LINE
  5
394
330
1F
100
AcDbEntity
  8
0
  6
Continuous
 62
     7
370
    25
100
AcDbLine
 10
7379.2971600709
 20
3904.053705608
 30
0.0
 11
7379.2971600709
 21
3944.653705608
 31
0.0
  0
LINE
  5
395
330
1F
100
AcDbEntity
  8
0
  6
Continuous
 62
     7
370
    25
100
AcDbLine
 10
5483.2971600709
 20
3901.853705608
 30
0.0
 11
7379.2971600709
 21
3901.853705608
 31
0.0
  0
LINE
  5
396
330
1F
100
AcDbEntity
  8
0
  6
Continuous
 62
     7
370
    25
100
AcDbLine
 10
7379.2971600709
 20
3947.196094673
 30
0.0
 11
5483.2971600709
 21
3947.196094673
 31
0.0
  0
LINE
  5
397
330
1F
100
AcDbEntity
  8
0
  6
Continuous
 62
     7
370
    25
100
AcDbLine
 10
5483.2971600709
 20
4072.5711527268
 30
0.0
 11
7379.2971600709
 21
4072.5711527268
 31
0.0
  0
LINE
  5
398
330
1F
100
AcDbEntity
  8
0
  6
Continuous
 62
     7
370
    25
100
AcDbLine
 10
7379.2971600709
 20
4073.2287636619
 30
0.0
 11
5483.2971600709
 21
4073.2287636619
 31
0.0
  0
LWPOLYLINE
  5
399
330
1F
100
AcDbEntity
  8
0
  6
Continuous
 62
     7
370
    25
100
AcDbPolyline
 90
       37
 70
   128
 43
0.0
 10
5603.2971600709
 20
4345.1854662951
 10
5605.3809382029
 20
4345.3637894144
 10
5607.4014017908
 20
4345.8933405145
 10
5609.2971600709
 20
4346.7580294533
 10
5611.0106113871
 20
4347.9315830948
 10
5612.4896933883
 20
4349.3783436056
 10
5613.6894649163
 20
4351.0543518995
 10
5614.5734715203
 20
4352.9086833128
 10
5615.1148531071
 20
4354.8849949236
 10
5615.2971600709
 20
4356.9232375039
 10
5615.1148531071
 20
4358.9614800842
 10
5614.5734715203
 20
4360.9377916951
 10
5613.6894649163
 20
4362.7921231083
 10
5612.4896933883
 20
4364.4681314023
 10
5611.0106113871
 20
4365.914891913
 10
5609.2971600709
 20
4367.0884455546
 10
5607.4014017908
 20
4367.9531344933
 10
5605.3809382029
 20
4368.4826855934
 10
5603.2971600709
 20
4368.6610087127
 10
5601.2133819389
 20
4368.4826855934
 10
5599.192918351
 20
4367.9531344933
 10
5597.2971600709
 20
4367.0884455546
 10
5595.5837087547
 20
4365.914891913
 10
5594.1046267535
 20
4364.4681314023
 10
5592.9048552255
 20
4362.7921231083
 10
5592.0208486215
 20
4360.9377916951
 10
5591.4794670348
 20
4358.9614800842
 10
5591.2971600709
 20
4356.9232375039
 10
5591.4794670348
 20
4354.8849949236
 10
5592.0208486215
 20
4352.9086833128
 10
5592.9048552255
 20
4351.0543518995
 10
5594.1046267535
 20
4349.3783436056
 10
5595.5837087547
 20
4347.9315830948
 10
5597.2971600709
 20
4346.7580294533
 10
5599.192918351
 20
4345.8933405145
 10
5601.2133819389
 20
4345.3637894144
 10
5603.2971600709
 20
4345.1854662951
  0
LINE
  5
39A
330
1F
100
AcDbEntity
  8
0
  6
Continuous
 62
     7
370
    25
100
AcDbLine
 10
6537.2971600709
 20
4331.353705608
 30
0.0
 11
6565.2971600709
 21
4331.353705608
 31
0.0
  0
LINE
  5
39B
330
1F
100
AcDbEntity
  8
0
  6
Continuous
 62
     7
370
    25
100
AcDbLine
 10
6563.7971600709
 20
4329.853705608
 30
0.0
 11
6538.7971600709
 21
4329.853705608
 31
0.0
  0
LINE
  5
39C
330
1F
100
AcDbEntity
  8
0
  6
Continuous
 62
     7
370
    25
100
AcDbLine
 10
7137.2971600709
 20
4331.353705608
 30
0.0
 11
7165.2971600709
 21
4331.353705608
 31
0.0
  0
LINE
  5
39D
330
1F
100
AcDbEntity
  8
0
  6
Continuous
 62
     7
370
    25
100
AcDbLine
 10
7163.7971600709
 20
4329.853705608
 30
0.0
 11
7138.7971600709
 21
4329.853705608
 31
0.0
  0
LINE
  5
39E
330
1F
100
AcDbEntity
  8
0
  6
Continuous
 62
     7
370
    25
100
AcDbLine
 10
5937.2971600709
 20
4331.353705608
 30
0.0
 11
5965.2971600709
 21
4331.353705608
 31
0.0
  0
LINE
  5
39F
330
1F
100
AcDbEntity
  8
0
  6
Continuous
 62
     7
370
    25
100
AcDbLine
 10
5963.7971600709
 20
4329.853705608
 30
0.0
 11
5938.7971600709
 21
4329.853705608
 31
0.0
  0
LINE
  5
3A0
330
1F
100
AcDbEntity
  8
0
  6
Continuous
 62
     7
370
    25
100
AcDbLine
 10
7001.2971600709
 20
4329.353705608
 30
0.0
 11
7061.2971600709
 21
4329.353705608
 31
0.0
  0
LINE
  5
3A1
330
1F
100
AcDbEntity
  8
0
  6
Continuous
 62
     7
370
    25
100
AcDbLine
 10
7060.7971600709
 20
4328.8537056081
 30
0.0
 11
7001.7971600709
 21
4328.8537056081
 31
0.0
  0
LINE
  5
3A2
330
1F
100
AcDbEntity
  8
0
  6
Continuous
 62
     7
370
    25
100
AcDbLine
 10
6401.2971600709
 20
4329.353705608
 30
0.0
 11
6461.2971600709
 21
4329.353705608
 31
0.0
  0
LINE
  5
3A3
330
1F
100
AcDbEntity
  8
0
  6
Continuous
 62
     7
370
    25
100
AcDbLine
 10
6460.7971600709
 20
4328.8537056081
 30
0.0
 11
6401.7971600709
 21
4328.8537056081
 31
0.0
  0
LINE
  5
3A4
330
1F
100
AcDbEntity
  8
0
  6
Continuous
 62
     7
370
    25
100
AcDbLine
 10
5801.2971600709
 20
4329.353705608
 30
0.0
 11
5861.2971600709
 21
4329.353705608
 31
0.0
  0
LINE
  5
3A5
330
1F
100
AcDbEntity
  8
0
  6
Continuous
 62
     7
370
    25
100
AcDbLine
 10
5860.7971600709
 20
4328.8537056081
 30
0.0
 11
5801.7971600709
 21
4328.8537056081
 31
0.0
  0
LINE
  5
3A6
330
1F
100
AcDbEntity
  8
0
  6
Continuous
 62
     7
370
    25
100
AcDbLine
 10
5803.6188323382
 20
4329.353705608
 30
0.0
 11
5861.2971600709
 21
4329.353705608
 31
0.0
  0
LINE
  5
3A7
330
1F
100
AcDbEntity
  8
0
  6
Continuous
 62
     7
370
    25
100
AcDbLine
 10
5801.2971600709
 20
4329.353705608
 30
0.0
 11
5803.6188323382
 21
4329.353705608
 31
0.0
  0
LINE
  5
3A8
330
1F
100
AcDbEntity
  8
0
  6
Continuous
 62
     7
370
    25
100
AcDbLine
 10
5804.0801378004
 20
4328.8537056081
 30
0.0
 11
5801.7971600709
 21
4328.8537056081
 31
0.0
  0
LINE
  5
3A9
330
1F
100
AcDbEntity
  8
0
  6
Continuous
 62
     7
370
    25
100
AcDbLine
 10
5860.7971600709
 20
4328.8537056081
 30
0.0
 11
5804.0801378004
 21
4328.8537056081
 31
0.0
  0
LINE
  5
3AA
330
1F
100
AcDbEntity
  8
0
  6
Continuous
 62
     7
370
    25
100
AcDbLine
 10
6404.0801378004
 20
4328.8537056081
 30
0.0
 11
6401.7971600709
 21
4328.8537056081
 31
0.0
  0
LINE
  5
3AB
330
1F
100
AcDbEntity
  8
0
  6
Continuous
 62
     7
370
    25
100
AcDbLine
 10
6460.7971600709
 20
4328.8537056081
 30
0.0
 11
6404.0801378004
 21
4328.8537056081
 31
0.0
  0
LINE
  5
3AC
330
1F
100
AcDbEntity
  8
0
  6
Continuous
 62
     7
370
    25
100
AcDbLine
 10
6403.6188323382
 20
4329.353705608
 30
0.0
 11
6461.2971600709
 21
4329.353705608
 31
0.0
  0
LINE
  5
3AD
330
1F
100
AcDbEntity
  8
0
  6
Continuous
 62
     7
370
    25
100
AcDbLine
 10
6401.2971600709
 20
4329.353705608
 30
0.0
 11
6403.6188323382
 21
4329.353705608
 31
0.0
  0
LINE
  5
3AE
330
1F
100
AcDbEntity
  8
0
  6
Continuous
 62
     7
370
    25
100
AcDbLine
 10
7003.6188323382
 20
4329.353705608
 30
0.0
 11
7061.2971600709
 21
4329.353705608
 31
0.0
  0
LINE
  5
3AF
330
1F
100
AcDbEntity
  8
0
  6
Continuous
 62
     7
370
    25
100
AcDbLine
 10
7001.2971600709
 20
4329.353705608
 30
0.0
 11
7003.6188323382
 21
4329.353705608
 31
0.0
  0
LINE
  5
3B0
330
1F
100
AcDbEntity
  8
0
  6
Continuous
 62
     7
370
    25
100
AcDbLine
 10
7004.0801378004
 20
4328.8537056081
 30
0.0
 11
7001.7971600709
 21
4328.8537056081
 31
0.0
  0
LINE
  5
3B1
330
1F
100
AcDbEntity
  8
0
  6
Continuous
 62
     7
370
    25
100
AcDbLine
 10
7060.7971600709
 20
4328.8537056081
 30
0.0
 11
7004.0801378004
 21
4328.8537056081
 31
0.0
  0
LINE
  5
3B2
330
1F
100
AcDbEntity
  8
0
  6
Continuous
 62
     7
370
    25
100
AcDbLine
 10
6417.2971600709
 20
4163.853705608
 30
0.0
 11
6445.2971600709
 21
4163.853705608
 31
0.0
  0
LINE
  5
3B3
330
1F
100
AcDbEntity
  8
0
  6
Continuous
 62
     7
370
    25
100
AcDbLine
 10
6444.2971600709
 20
4162.853705608
 30
0.0
 11
6418.2971600709
 21
4162.853705608
 31
0.0
  0
LINE
  5
3B4
330
1F
100
AcDbEntity
  8
0
  6
Continuous
 62
     7
370
    25
100
AcDbLine
 10
7017.2971600709
 20
4163.853705608
 30
0.0
 11
7045.2971600709
 21
4163.853705608
 31
0.0
  0
LINE
  5
3B5
330
1F
100
AcDbEntity
  8
0
  6
Continuous
 62
     7
370
    25
100
AcDbLine
 10
7044.2971600709
 20
4162.853705608
 30
0.0
 11
7018.2971600709
 21
4162.853705608
 31
0.0
  0
LINE
  5
3B6
330
1F
100
AcDbEntity
  8
0
  6
Continuous
 62
     7
370
    25
100
AcDbLine
 10
5817.2971600709
 20
4163.853705608
 30
0.0
 11
5845.2971600709
 21
4163.853705608
 31
0.0
  0
LINE
  5
3B7
330
1F
100
AcDbEntity
  8
0
  6
Continuous
 62
     7
370
    25
100
AcDbLine
 10
5844.2971600709
 20
4162.853705608
 30
0.0
 11
5818.2971600709
 21
4162.853705608
 31
0.0
  0
LINE
  5
3B8
330
1F
100
AcDbEntity
  8
0
  6
Continuous
 62
     8
370
    25
100
AcDbLine
 10
7378.1971600709
 20
3901.853705608
 30
0.0
 11
7378.1971600709
 21
3901.753705608
 31
0.0
  0
LINE
  5
3B9
330
1F
100
AcDbEntity
  8
0
  6
Continuous
 62
     8
370
    25
100
AcDbLine
 10
7339.3971600709
 20
3901.853705608
 30
0.0
 11
7339.3971600709
 21
3901.7537056081
 31
0.0
  0
LINE
  5
3BA
330
1F
100
AcDbEntity
  8
0
  6
Continuous
 62
     8
370
    25
100
AcDbLine
 10
5484.3971600709
 20
3901.853705608
 30
0.0
 11
5484.3971600709
 21
3901.753705608
 31
0.0
  0
LINE
  5
3BB
330
1F
100
AcDbEntity
  8
0
  6
Continuous
 62
     8
370
    25
100
AcDbLine
 10
5523.1971600709
 20
3901.853705608
 30
0.0
 11
5523.1971600709
 21
3901.7537056081
 31
0.0
  0
LINE
  5
3BC
330
1F
100
AcDbEntity
  8
0
  6
Continuous
 62
     8
370
    25
100
AcDbLine
 10
5483.2971600709
 20
4331.5113165431
 30
0.0
 11
5801.2971600709
 21
4331.5113165431
 31
0.0
  0
LINE
  5
3BD
330
1F
100
AcDbEntity
  8
0
  6
Continuous
 62
     8
370
    25
100
AcDbLine
 10
5861.2971600709
 20
4331.5113165431
 30
0.0
 11
5937.2971600709
 21
4331.5113165431
 31
0.0
  0
LINE
  5
3BE
330
1F
100
AcDbEntity
  8
0
  6
Continuous
 62
     8
370
    25
100
AcDbLine
 10
5965.2971600709
 20
4331.5113165431
 30
0.0
 11
6401.2971600709
 21
4331.5113165431
 31
0.0
  0
LINE
  5
3BF
330
1F
100
AcDbEntity
  8
0
  6
Continuous
 62
     8
370
    25
100
AcDbLine
 10
6461.2971600709
 20
4331.5113165431
 30
0.0
 11
6537.2971600709
 21
4331.5113165431
 31
0.0
  0
LINE
  5
3C0
330
1F
100
AcDbEntity
  8
0
  6
Continuous
 62
     8
370
    25
100
AcDbLine
 10
6565.2971600709
 20
4331.5113165431
 30
0.0
 11
7001.2971600709
 21
4331.5113165431
 31
0.0
  0
LINE
  5
3C1
330
1F
100
AcDbEntity
  8
0
  6
Continuous
 62
     8
370
    25
100
AcDbLine
 10
7061.2971600709
 20
4331.5113165431
 30
0.0
 11
7137.2971600709
 21
4331.5113165431
 31
0.0
  0
LINE
  5
3C2
330
1F
100
AcDbEntity
  8
0
  6
Continuous
 62
     8
370
    25
100
AcDbLine
 10
7165.2971600709
 20
4331.5113165431
 30
0.0
 11
7379.2971600709
 21
4331.5113165431
 31
0.0
  0
LINE
  5
3C3
330
1F
100
AcDbEntity
  8
0
  6
Continuous
 62
     8
370
    25
100
AcDbLine
 10
7379.2971600709
 20
4206.1362584893
 30
0.0
 11
7045.2971600709
 21
4206.1362584893
 31
0.0
  0
LINE
  5
3C4
330
1F
100
AcDbEntity
  8
0
  6
Continuous
 62
     8
370
    25
100
AcDbLine
 10
7017.2971600709
 20
4206.1362584893
 30
0.0
 11
6445.2971600709
 21
4206.1362584893
 31
0.0
  0
LINE
  5
3C5
330
1F
100
AcDbEntity
  8
0
  6
Continuous
 62
     8
370
    25
100
AcDbLine
 10
6417.2971600709
 20
4206.1362584893
 30
0.0
 11
5845.2971600709
 21
4206.1362584893
 31
0.0
  0
LINE
  5
3C6
330
1F
100
AcDbEntity
  8
0
  6
Continuous
 62
     8
370
    25
100
AcDbLine
 10
5817.2971600709
 20
4206.1362584893
 30
0.0
 11
5483.2971600709
 21
4206.1362584893
 31
0.0
  0
LINE
  5
3C7
330
1F
100
AcDbEntity
  8
0
  6
Continuous
 62
     8
370
    25
100
AcDbLine
 10
5483.2971600709
 20
4205.4786475542
 30
0.0
 11
5817.2971600709
 21
4205.4786475542
 31
0.0
  0
LINE
  5
3C8
330
1F
100
AcDbEntity
  8
0
  6
Continuous
 62
     8
370
    25
100
AcDbLine
 10
5845.2971600709
 20
4205.4786475542
 30
0.0
 11
6417.2971600709
 21
4205.4786475542
 31
0.0
  0
LINE
  5
3C9
330
1F
100
AcDbEntity
  8
0
  6
Continuous
 62
     8
370
    25
100
AcDbLine
 10
6445.2971600709
 20
4205.4786475542
 30
0.0
 11
7017.2971600709
 21
4205.4786475542
 31
0.0
  0
LINE
  5
3CA
330
1F
100
AcDbEntity
  8
0
  6
Continuous
 62
     8
370
    25
100
AcDbLine
 10
7045.2971600709
 20
4205.4786475542
 30
0.0
 11
7379.2971600709
 21
4205.4786475542
 31
0.0
  0
ENDSEC
  0
SECTION
  2
OBJECTS
  0
DICTIONARY
  5
C
330
0
100
AcDbDictionary
281
     1
  3
ACAD_GROUP
350
D
  3
ACAD_LAYOUT
350
1A
  3
ACAD_MLINESTYLE
350
17
  3
ACAD_PLOTSETTINGS
350
19
  3
ACAD_PLOTSTYLENAME
350
E
  3
ACAD_SCALELIST
350
47
  3
DWGPROPS
350
3CB
  0
DICTIONARY
  5
D
102
{ACAD_REACTORS
330
C
102
}
330
C
100
AcDbDictionary
281
     1
  0
DICTIONARY
  5
1A
102
{ACAD_REACTORS
330
C
102
}
330
C
100
AcDbDictionary
281
     1
  3
Layout1
350
1E
  3
Layout2
350
26
  3
Model
350
22
  0
DICTIONARY
  5
17
102
{ACAD_REACTORS
330
C
102
}
330
C
100
AcDbDictionary
281
     1
  3
Standard
350
18
  0
DICTIONARY
  5
19
102
{ACAD_REACTORS
330
C
102
}
330
C
100
AcDbDictionary
281
     1
  0
ACDBDICTIONARYWDFLT
  5
E
102
{ACAD_REACTORS
330
C
102
}
330
C
100
AcDbDictionary
281
     1
  3
Normal
350
F
100
AcDbDictionaryWithDefault
340
F
  0
DICTIONARY
  5
47
102
{ACAD_REACTORS
330
C
102
}
330
C
100
AcDbDictionary
281
     1
  3
A0
350
48
  3
A1
350
49
  3
A2
350
4A
  3
A3
350
4B
  3
A4
350
4C
  3
A5
350
4D
  3
A6
350
4E
  3
A7
350
4F
  3
A8
350
50
  3
A9
350
51
  3
B0
350
52
  3
B1
350
53
  3
B2
350
54
  3
B3
350
55
  3
B4
350
56
  3
B5
350
57
  3
B6
350
58
  3
B7
350
59
  3
B8
350
5A
  3
B9
350
5B
  3
C0
350
5C
  3
C1
350
5D
  3
C2
350
5E
  3
C3
350
5F
  3
C4
350
60
  3
C5
350
61
  3
C6
350
62
  3
C7
350
63
  3
C8
350
64
  3
C9
350
65
  3
D0
350
66
  3
D1
350
67
  3
D2
350
68
  0
XRECORD
  5
3CB
102
{ACAD_REACTORS
330
C
102
}
330
C
100
AcDbXrecord
280
     1
  1
DWGPROPS COOKIE
  2

  3

  4

  6

  7

  8
radek.stransky
  9

300
=
301
=
302
=
303
=
304
=
305
=
306
=
307
=
308
=
309
=
 40
0.0
 41
2459838.494718113
 42
2459838.494718472
  1

 90
        0
  0
LAYOUT
  5
1E
102
{ACAD_REACTORS
330
1A
102
}
330
1A
100
AcDbPlotSettings
  1

  2
none_device
  4

  6

 40
0.0
 41
0.0
 42
0.0
 43
0.0
 44
0.0
 45
0.0
 46
0.0
 47
0.0
 48
0.0
 49
0.0
140
0.0
141
0.0
142
1.0
143
1.0
 70
   688
 72
     1
 73
     0
 74
     5
  7

 75
    16
147
1.0
148
0.0
149
0.0
100
AcDbLayout
  1
Layout1
 70
     1
 71
     1
 10
0.0
 20
0.0
 11
420.0
 21
297.0
 12
0.0
 22
0.0
 32
0.0
 14
1.0000000000E+20
 24
1.0000000000E+20
 34
1.0000000000E+20
 15
-1.0000000000E+20
 25
-1.0000000000E+20
 35
-1.0000000000E+20
146
0.0
 13
0.0
 23
0.0
 33
0.0
 16
1.0
 26
0.0
 36
0.0
 17
0.0
 27
1.0
 37
0.0
 76
     0
330
1B
  0
LAYOUT
  5
26
102
{ACAD_REACTORS
330
1A
102
}
330
1A
100
AcDbPlotSettings
  1

  2
none_device
  4

  6

 40
0.0
 41
0.0
 42
0.0
 43
0.0
 44
0.0
 45
0.0
 46
0.0
 47
0.0
 48
0.0
 49
0.0
140
0.0
141
0.0
142
1.0
143
1.0
 70
   688
 72
     1
 73
     0
 74
     5
  7

 75
    16
147
1.0
148
0.0
149
0.0
100
AcDbLayout
  1
Layout2
 70
     1
 71
     2
 10
0.0
 20
0.0
 11
0.0
 21
0.0
 12
0.0
 22
0.0
 32
0.0
 14
0.0
 24
0.0
 34
0.0
 15
0.0
 25
0.0
 35
0.0
146
0.0
 13
0.0
 23
0.0
 33
0.0
 16
1.0
 26
0.0
 36
0.0
 17
0.0
 27
1.0
 37
0.0
 76
     0
330
23
  0
LAYOUT
  5
22
102
{ACAD_REACTORS
330
1A
102
}
330
1A
100
AcDbPlotSettings
  1

  2
none_device
  4
Letter_(8.50_x_11.00_Inches)
  6

 40
6.35
 41
6.35
 42
6.35000508
 43
6.35000508
 44
215.9
 45
279.4
 46
0.0
 47
0.0
 48
0.0
 49
0.0
140
0.0
141
0.0
142
1.0
143
1.0
 70
  1712
 72
     1
 73
     0
 74
     0
  7

 75
     0
147
1.0
148
0.0
149
0.0
100
AcDbLayout
  1
Model
 70
     1
 71
     0
 10
0.0
 20
0.0
 11
20000.0
 21
10000.0
 12
0.0
 22
0.0
 32
0.0
 14
0.0
 24
0.0
 34
0.0
 15
20000.0
 25
10000.0
 35
0.0
146
0.0
 13
0.0
 23
0.0
 33
0.0
 16
1.0
 26
0.0
 36
0.0
 17
0.0
 27
1.0
 37
0.0
 76
     0
330
1F
331
29
  0
MLINESTYLE
  5
18
102
{ACAD_REACTORS
330
17
102
}
330
17
100
AcDbMlineStyle
  2
Standard
 70
     0
  3

 62
   256
 51
90.0
 52
90.0
 71
     2
 49
0.5
 62
   256
  6
BYLAYER
 49
-0.5
 62
   256
  6
BYLAYER
  0
ACDBPLACEHOLDER
  5
F
102
{ACAD_REACTORS
330
E
102
}
330
E
  0
SCALE
  5
48
102
{ACAD_REACTORS
330
47
102
}
330
47
100
AcDbScale
 70
     0
300
1:1
140
1.0
141
1.0
290
     1
  0
SCALE
  5
49
102
{ACAD_REACTORS
330
47
102
}
330
47
100
AcDbScale
 70
     0
300
1:2
140
1.0
141
2.0
290
     0
  0
SCALE
  5
4A
102
{ACAD_REACTORS
330
47
102
}
330
47
100
AcDbScale
 70
     0
300
1:4
140
1.0
141
4.0
290
     0
  0
SCALE
  5
4B
102
{ACAD_REACTORS
330
47
102
}
330
47
100
AcDbScale
 70
     0
300
1:5
140
1.0
141
5.0
290
     0
  0
SCALE
  5
4C
102
{ACAD_REACTORS
330
47
102
}
330
47
100
AcDbScale
 70
     0
300
1:8
140
1.0
141
8.0
290
     0
  0
SCALE
  5
4D
102
{ACAD_REACTORS
330
47
102
}
330
47
100
AcDbScale
 70
     0
300
1:10
140
1.0
141
10.0
290
     0
  0
SCALE
  5
4E
102
{ACAD_REACTORS
330
47
102
}
330
47
100
AcDbScale
 70
     0
300
1:16
140
1.0
141
16.0
290
     0
  0
SCALE
  5
4F
102
{ACAD_REACTORS
330
47
102
}
330
47
100
AcDbScale
 70
     0
300
1:20
140
1.0
141
20.0
290
     0
  0
SCALE
  5
50
102
{ACAD_REACTORS
330
47
102
}
330
47
100
AcDbScale
 70
     0
300
1:30
140
1.0
141
30.0
290
     0
  0
SCALE
  5
51
102
{ACAD_REACTORS
330
47
102
}
330
47
100
AcDbScale
 70
     0
300
1:40
140
1.0
141
40.0
290
     0
  0
SCALE
  5
52
102
{ACAD_REACTORS
330
47
102
}
330
47
100
AcDbScale
 70
     0
300
1:50
140
1.0
141
50.0
290
     0
  0
SCALE
  5
53
102
{ACAD_REACTORS
330
47
102
}
330
47
100
AcDbScale
 70
     0
300
1:100
140
1.0
141
100.0
290
     0
  0
SCALE
  5
54
102
{ACAD_REACTORS
330
47
102
}
330
47
100
AcDbScale
 70
     0
300
2:1
140
2.0
141
1.0
290
     0
  0
SCALE
  5
55
102
{ACAD_REACTORS
330
47
102
}
330
47
100
AcDbScale
 70
     0
300
4:1
140
4.0
141
1.0
290
     0
  0
SCALE
  5
56
102
{ACAD_REACTORS
330
47
102
}
330
47
100
AcDbScale
 70
     0
300
8:1
140
8.0
141
1.0
290
     0
  0
SCALE
  5
57
102
{ACAD_REACTORS
330
47
102
}
330
47
100
AcDbScale
 70
     0
300
10:1
140
10.0
141
1.0
290
     0
  0
SCALE
  5
58
102
{ACAD_REACTORS
330
47
102
}
330
47
100
AcDbScale
 70
     0
300
100:1
140
100.0
141
1.0
290
     0
  0
SCALE
  5
59
102
{ACAD_REACTORS
330
47
102
}
330
47
100
AcDbScale
 70
     0
300
1/128" = 1'-0"
140
0.0078125
141
12.0
290
     0
  0
SCALE
  5
5A
102
{ACAD_REACTORS
330
47
102
}
330
47
100
AcDbScale
 70
     0
300
1/64" = 1'-0"
140
0.015625
141
12.0
290
     0
  0
SCALE
  5
5B
102
{ACAD_REACTORS
330
47
102
}
330
47
100
AcDbScale
 70
     0
300
1/32" = 1'-0"
140
0.03125
141
12.0
290
     0
  0
SCALE
  5
5C
102
{ACAD_REACTORS
330
47
102
}
330
47
100
AcDbScale
 70
     0
300
1/16" = 1'-0"
140
0.0625
141
12.0
290
     0
  0
SCALE
  5
5D
102
{ACAD_REACTORS
330
47
102
}
330
47
100
AcDbScale
 70
     0
300
3/32" = 1'-0"
140
0.09375
141
12.0
290
     0
  0
SCALE
  5
5E
102
{ACAD_REACTORS
330
47
102
}
330
47
100
AcDbScale
 70
     0
300
1/8" = 1'-0"
140
0.125
141
12.0
290
     0
  0
SCALE
  5
5F
102
{ACAD_REACTORS
330
47
102
}
330
47
100
AcDbScale
 70
     0
300
3/16" = 1'-0"
140
0.1875
141
12.0
290
     0
  0
SCALE
  5
60
102
{ACAD_REACTORS
330
47
102
}
330
47
100
AcDbScale
 70
     0
300
1/4" = 1'-0"
140
0.25
141
12.0
290
     0
  0
SCALE
  5
61
102
{ACAD_REACTORS
330
47
102
}
330
47
100
AcDbScale
 70
     0
300
3/8" = 1'-0"
140
0.375
141
12.0
290
     0
  0
SCALE
  5
62
102
{ACAD_REACTORS
330
47
102
}
330
47
100
AcDbScale
 70
     0
300
1/2" = 1'-0"
140
0.5
141
12.0
290
     0
  0
SCALE
  5
63
102
{ACAD_REACTORS
330
47
102
}
330
47
100
AcDbScale
 70
     0
300
3/4" = 1'-0"
140
0.75
141
12.0
290
     0
  0
SCALE
  5
64
102
{ACAD_REACTORS
330
47
102
}
330
47
100
AcDbScale
 70
     0
300
1" = 1'-0"
140
1.0
141
12.0
290
     0
  0
SCALE
  5
65
102
{ACAD_REACTORS
330
47
102
}
330
47
100
AcDbScale
 70
     0
300
1-1/2" = 1'-0"
140
1.5
141
12.0
290
     0
  0
SCALE
  5
66
102
{ACAD_REACTORS
330
47
102
}
330
47
100
AcDbScale
 70
     0
300
3" = 1'-0"
140
3.0
141
12.0
290
     0
  0
SCALE
  5
67
102
{ACAD_REACTORS
330
47
102
}
330
47
100
AcDbScale
 70
     0
300
6" = 1'-0"
140
6.0
141
12.0
290
     0
  0
SCALE
  5
68
102
{ACAD_REACTORS
330
47
102
}
330
47
100
AcDbScale
 70
     0
300
1'-0" = 1'-0"
140
12.0
141
12.0
290
     0
  0
ENDSEC
  0
EOF
