  0
SECTION
  2
HEADER
  9
$ACADVER
  1
AC1015
  9
$ACADMAINTVER
 70
     6
  9
$DWGCODEPAGE
  3
ANSI_1250
  9
$INSBASE
 10
0.0
 20
0.0
 30
0.0
  9
$EXTMIN
 10
0.0
 20
0.0
 30
0.0
  9
$EXTMAX
 10
20000.0
 20
10000.0
 30
0.0
  9
$LIMMIN
 10
0.0
 20
0.0
  9
$LIMMAX
 10
20000.0
 20
10000.0
  9
$ORTHOMODE
 70
     0
  9
$REGENMODE
 70
     1
  9
$FILLMODE
 70
     1
  9
$QTEXTMODE
 70
     0
  9
$MIRRTEXT
 70
     1
  9
$LTSCALE
 40
1.0
  9
$ATTMODE
 70
     1
  9
$TEXTSIZE
 40
2.0
  9
$TRACEWID
 40
1.0
  9
$TEXTSTYLE
  7
Standard
  9
$CLAYER
  8
0
  9
$CELTYPE
  6
ByLayer
  9
$CECOLOR
 62
   256
  9
$CELTSCALE
 40
1.0
  9
$DISPSILH
 70
     0
  9
$DIMSCALE
 40
1.0
  9
$DIMASZ
 40
2.0
  9
$DIMEXO
 40
1.0
  9
$DIMDLI
 40
3.75
  9
$DIMRND
 40
0.0
  9
$DIMDLE
 40
0.0
  9
$DIMEXE
 40
1.0
  9
$DIMTP
 40
0.0
  9
$DIMTM
 40
0.0
  9
$DIMTXT
 40
2.0
  9
$DIMCEN
 40
2.5
  9
$DIMTSZ
 40
0.0
  9
$DIMTOL
 70
     0
  9
$DIMLIM
 70
     0
  9
$DIMTIH
 70
     1
  9
$DIMTOH
 70
     1
  9
$DIMSE1
 70
     0
  9
$DIMSE2
 70
     0
  9
$DIMTAD
 70
     1
  9
$DIMZIN
 70
     0
  9
$DIMBLK
  1

  9
$DIMASO
 70
     1
  9
$DIMSHO
 70
     1
  9
$DIMPOST
  1

  9
$DIMAPOST
  1

  9
$DIMALT
 70
     0
  9
$DIMALTD
 70
     3
  9
$DIMALTF
 40
0.0393700787
  9
$DIMLFAC
 40
1.0
  9
$DIMTOFL
 70
     1
  9
$DIMTVP
 40
0.0
  9
$DIMTIX
 70
     0
  9
$DIMSOXD
 70
     0
  9
$DIMSAH
 70
     0
  9
$DIMBLK1
  1

  9
$DIMBLK2
  1

  9
$DIMSTYLE
  2
ISO-25
  9
$DIMCLRD
 70
     0
  9
$DIMCLRE
 70
     0
  9
$DIMCLRT
 70
     0
  9
$DIMTFAC
 40
1.0
  9
$DIMGAP
 40
1.524
  9
$DIMJUST
 70
     0
  9
$DIMSD1
 70
     0
  9
$DIMSD2
 70
     0
  9
$DIMTOLJ
 70
     0
  9
$DIMTZIN
 70
     0
  9
$DIMALTZ
 70
     0
  9
$DIMALTTZ
 70
     0
  9
$DIMUPT
 70
     0
  9
$DIMDEC
 70
     2
  9
$DIMTDEC
 70
     0
  9
$DIMALTU
 70
     2
  9
$DIMALTTD
 70
     3
  9
$DIMTXSTY
  7
Standard
  9
$DIMAUNIT
 70
     0
  9
$DIMADEC
 70
     2
  9
$DIMALTRND
 40
0.0
  9
$DIMAZIN
 70
     0
  9
$DIMDSEP
 70
    44
  9
$DIMATFIT
 70
     3
  9
$DIMFRAC
 70
     0
  9
$DIMLDRBLK
  1

  9
$DIMLUNIT
 70
     2
  9
$DIMLWD
 70
    -2
  9
$DIMLWE
 70
    -2
  9
$DIMTMOVE
 70
     0
  9
$LUNITS
 70
     2
  9
$LUPREC
 70
     3
  9
$SKETCHINC
 40
1.0
  9
$FILLETRAD
 40
10.0
  9
$AUNITS
 70
     0
  9
$AUPREC
 70
     2
  9
$MENU
  1
.
  9
$ELEVATION
 40
0.0
  9
$PELEVATION
 40
0.0
  9
$THICKNESS
 40
0.0
  9
$LIMCHECK
 70
     0
  9
$CHAMFERA
 40
0.0
  9
$CHAMFERB
 40
0.0
  9
$CHAMFERC
 40
0.0
  9
$CHAMFERD
 40
0.0
  9
$SKPOLY
 70
     0
  9
$TDCREATE
 40
2459835.439093993
  9
$TDUCREATE
 40
2459835.35576066
  9
$TDUPDATE
 40
2459835.439094699
  9
$TDUUPDATE
 40
2459835.355761366
  9
$TDINDWG
 40
0.0000000116
  9
$TDUSRTIMER
 40
0.0000000116
  9
$USRTIMER
 70
     1
  9
$ANGBASE
 50
0.0
  9
$ANGDIR
 70
     0
  9
$PDMODE
 70
     0
  9
$PDSIZE
 40
-1.0
  9
$PLINEWID
 40
0.0
  9
$SPLFRAME
 70
     0
  9
$SPLINETYPE
 70
     6
  9
$SPLINESEGS
 70
     8
  9
$HANDSEED
  5
1B2
  9
$SURFTAB1
 70
     6
  9
$SURFTAB2
 70
     6
  9
$SURFTYPE
 70
     6
  9
$SURFU
 70
     6
  9
$SURFV
 70
     6
  9
$UCSBASE
  2

  9
$UCSNAME
  2

  9
$UCSORG
 10
0.0
 20
0.0
 30
0.0
  9
$UCSXDIR
 10
1.0
 20
0.0
 30
0.0
  9
$UCSYDIR
 10
0.0
 20
1.0
 30
0.0
  9
$UCSORTHOREF
  2

  9
$UCSORTHOVIEW
 70
     0
  9
$UCSORGTOP
 10
0.0
 20
0.0
 30
0.0
  9
$UCSORGBOTTOM
 10
0.0
 20
0.0
 30
0.0
  9
$UCSORGLEFT
 10
0.0
 20
0.0
 30
0.0
  9
$UCSORGRIGHT
 10
0.0
 20
0.0
 30
0.0
  9
$UCSORGFRONT
 10
0.0
 20
0.0
 30
0.0
  9
$UCSORGBACK
 10
0.0
 20
0.0
 30
0.0
  9
$PUCSBASE
  2

  9
$PUCSNAME
  2

  9
$PUCSORG
 10
0.0
 20
0.0
 30
0.0
  9
$PUCSXDIR
 10
1.0
 20
0.0
 30
0.0
  9
$PUCSYDIR
 10
0.0
 20
1.0
 30
0.0
  9
$PUCSORTHOREF
  2

  9
$PUCSORTHOVIEW
 70
     0
  9
$PUCSORGTOP
 10
0.0
 20
0.0
 30
0.0
  9
$PUCSORGBOTTOM
 10
0.0
 20
0.0
 30
0.0
  9
$PUCSORGLEFT
 10
0.0
 20
0.0
 30
0.0
  9
$PUCSORGRIGHT
 10
0.0
 20
0.0
 30
0.0
  9
$PUCSORGFRONT
 10
0.0
 20
0.0
 30
0.0
  9
$PUCSORGBACK
 10
0.0
 20
0.0
 30
0.0
  9
$USERI1
 70
     0
  9
$USERI2
 70
     0
  9
$USERI3
 70
     0
  9
$USERI4
 70
     0
  9
$USERI5
 70
     0
  9
$USERR1
 40
0.0
  9
$USERR2
 40
0.0
  9
$USERR3
 40
0.0
  9
$USERR4
 40
0.0
  9
$USERR5
 40
0.0
  9
$WORLDVIEW
 70
     1
  9
$SHADEDGE
 70
     3
  9
$SHADEDIF
 70
    70
  9
$TILEMODE
 70
     1
  9
$MAXACTVP
 70
    64
  9
$PINSBASE
 10
0.0
 20
0.0
 30
0.0
  9
$PLIMCHECK
 70
     0
  9
$PEXTMIN
 10
1.0000000000E+20
 20
1.0000000000E+20
 30
1.0000000000E+20
  9
$PEXTMAX
 10
-1.0000000000E+20
 20
-1.0000000000E+20
 30
-1.0000000000E+20
  9
$PLIMMIN
 10
0.0
 20
0.0
  9
$PLIMMAX
 10
420.0
 20
297.0
  9
$UNITMODE
 70
     0
  9
$VISRETAIN
 70
     1
  9
$PLINEGEN
 70
     0
  9
$PSLTSCALE
 70
     1
  9
$TREEDEPTH
 70
  3020
  9
$CMLSTYLE
  2
Standard
  9
$CMLJUST
 70
     0
  9
$CMLSCALE
 40
20.0
  9
$PROXYGRAPHICS
 70
     1
  9
$MEASUREMENT
 70
     1
  9
$CELWEIGHT
370
    -1
  9
$ENDCAPS
280
     0
  9
$JOINSTYLE
280
     0
  9
$LWDISPLAY
290
     1
  9
$INSUNITS
 70
     4
  9
$HYPERLINKBASE
  1

  9
$STYLESHEET
  1

  9
$XEDIT
290
     1
  9
$CEPSNTYPE
380
     0
  9
$PSTYLEMODE
290
     1
  9
$FINGERPRINTGUID
  2
{1c6eb534-39ab-4e68-afed-25571f07b593}
  9
$VERSIONGUID
  2
{FAEB1C32-E019-11D5-929B-00C0DF256EC4}
  9
$EXTNAMES
290
     1
  9
$PSVPSCALE
 40
0.0
  9
$OLESTARTUP
290
     0
  0
ENDSEC
  0
SECTION
  2
CLASSES
  0
CLASS
  1
ACDBDICTIONARYWDFLT
  2
AcDbDictionaryWithDefault
  3
ObjectDBX Classes
 90
        0
280
     0
281
     0
  0
CLASS
  1
VISUALSTYLE
  2
AcDbVisualStyle
  3
ObjectDBX Classes
 90
     4095
280
     0
281
     0
  0
CLASS
  1
MATERIAL
  2
AcDbMaterial
  3
ObjectDBX Classes
 90
     1153
280
     0
281
     0
  0
CLASS
  1
SCALE
  2
AcDbScale
  3
ObjectDBX Classes
 90
     1153
280
     0
281
     0
  0
CLASS
  1
TABLESTYLE
  2
AcDbTableStyle
  3
ObjectDBX Classes
 90
     4095
280
     0
281
     0
  0
CLASS
  1
MLEADERSTYLE
  2
AcDbMLeaderStyle
  3
ACDB_MLEADERSTYLE_CLASS
 90
     4095
280
     0
281
     0
  0
CLASS
  1
SUN
  2
AcDbSun
  3
SCENEOE
 90
     1153
280
     0
281
     0
  0
CLASS
  1
ACDBPLACEHOLDER
  2
AcDbPlaceHolder
  3
ObjectDBX Classes
 90
        0
280
     0
281
     0
  0
CLASS
  1
LAYOUT
  2
AcDbLayout
  3
ObjectDBX Classes
 90
        0
280
     0
281
     0
  0
ENDSEC
  0
SECTION
  2
TABLES
  0
TABLE
  2
VPORT
  5
8
330
0
100
AcDbSymbolTable
 70
     1
  0
VPORT
  5
29
330
8
100
AcDbSymbolTableRecord
100
AcDbViewportTableRecord
  2
*Active
 70
     0
 10
0.0
 20
0.0
 11
1.0
 21
1.0
 12
10000.0
 22
5000.0
 13
0.0
 23
0.0
 14
10.0
 24
10.0
 15
10.0
 25
10.0
 16
0.0
 26
0.0
 36
1.0
 17
0.0
 27
0.0
 37
0.0
 40
10000.0
 41
2.0
 42
50.0
 43
0.0
 44
0.0
 50
0.0
 51
0.0
 71
     0
 72
  2000
 73
     1
 74
     3
 75
     0
 76
     0
 77
     0
 78
     0
281
     0
 65
     1
110
0.0
120
0.0
130
0.0
111
1.0
121
0.0
131
0.0
112
0.0
122
1.0
132
0.0
 79
     0
146
0.0
  0
ENDTAB
  0
TABLE
  2
LTYPE
  5
5
330
0
100
AcDbSymbolTable
 70
     6
  0
LTYPE
  5
14
330
5
100
AcDbSymbolTableRecord
100
AcDbLinetypeTableRecord
  2
ByBlock
 70
     0
  3

 72
    65
 73
     0
 40
0.0
  0
LTYPE
  5
15
330
5
100
AcDbSymbolTableRecord
100
AcDbLinetypeTableRecord
  2
ByLayer
 70
     0
  3

 72
    65
 73
     0
 40
0.0
  0
LTYPE
  5
16
330
5
100
AcDbSymbolTableRecord
100
AcDbLinetypeTableRecord
  2
Continuous
 70
     0
  3
Solid line
 72
    65
 73
     0
 40
0.0
  0
LTYPE
  5
6E
330
5
100
AcDbSymbolTableRecord
100
AcDbLinetypeTableRecord
  2
HIDDEN
 70
     0
  3
Hidden __ __ __ __ __ __ __ __ __ __ __ __ __ __
 72
    65
 73
     2
 40
1.905
 49
1.27
 74
     0
 49
-0.635
 74
     0
  0
LTYPE
  5
6F
330
5
100
AcDbSymbolTableRecord
100
AcDbLinetypeTableRecord
  2
PHANTOM
 70
     0
  3
Phantom ______  __  __  ______  __  __  ______
 72
    65
 73
     6
 40
12.7
 49
6.35
 74
     0
 49
-1.27
 74
     0
 49
1.27
 74
     0
 49
-1.27
 74
     0
 49
1.27
 74
     0
 49
-1.27
 74
     0
  0
LTYPE
  5
70
330
5
100
AcDbSymbolTableRecord
100
AcDbLinetypeTableRecord
  2
CENTER
 70
     0
  3
Center ____ _ ____ _ ____ _ ____ _ ____ _ ____
 72
    65
 73
     4
 40
10.16
 49
6.35
 74
     0
 49
-1.27
 74
     0
 49
1.27
 74
     0
 49
-1.27
 74
     0
  0
LTYPE
  5
71
330
5
100
AcDbSymbolTableRecord
100
AcDbLinetypeTableRecord
  2
CENTERX2
 70
     0
  3
Center (2x) ________  __  ________  __  _____
 72
    65
 73
     4
 40
20.32
 49
12.7
 74
     0
 49
-2.54
 74
     0
 49
2.54
 74
     0
 49
-2.54
 74
     0
  0
LTYPE
  5
72
330
5
100
AcDbSymbolTableRecord
100
AcDbLinetypeTableRecord
  2
DOT2
 70
     0
  3
Dot (.5x) ........................................
 72
    65
 73
     2
 40
0.635
 49
0.0
 74
     0
 49
-0.635
 74
     0
  0
ENDTAB
  0
TABLE
  2
LAYER
  5
2
330
0
100
AcDbSymbolTable
 70
    13
  0
LAYER
  5
10
330
2
100
AcDbSymbolTableRecord
100
AcDbLayerTableRecord
  2
0
 70
     0
 62
     7
  6
Continuous
370
    -3
390
F
  0
LAYER
  5
73
330
2
100
AcDbSymbolTableRecord
100
AcDbLayerTableRecord
  2
FORMAT
 70
     0
 62
     7
  6
Continuous
370
    -3
390
F
  0
LAYER
  5
74
330
2
100
AcDbSymbolTableRecord
100
AcDbLayerTableRecord
  2
OSA
 70
     0
 62
     7
  6
CENTER
370
    -3
390
F
  0
LAYER
  5
75
330
2
100
AcDbSymbolTableRecord
100
AcDbLayerTableRecord
  2
0_35
 70
     0
 62
     7
  6
Continuous
370
    35
390
F
  0
LAYER
  5
76
330
2
100
AcDbSymbolTableRecord
100
AcDbLayerTableRecord
  2
0_5
 70
     0
 62
     7
  6
Continuous
370
    50
390
F
  0
LAYER
  5
77
330
2
100
AcDbSymbolTableRecord
100
AcDbLayerTableRecord
  2
0_25
 70
     0
 62
     7
  6
Continuous
370
    25
390
F
  0
LAYER
  5
78
330
2
100
AcDbSymbolTableRecord
100
AcDbLayerTableRecord
  2
0_18
 70
     0
 62
     7
  6
Continuous
370
    -3
390
F
  0
LAYER
  5
79
330
2
100
AcDbSymbolTableRecord
100
AcDbLayerTableRecord
  2
SLD-0
 70
     0
 62
   179
  6
Continuous
370
    -3
390
F
  0
LAYER
  5
7A
330
2
100
AcDbSymbolTableRecord
100
AcDbLayerTableRecord
  2
KOTY
 70
     0
 62
     7
  6
Continuous
370
    -3
390
F
  0
LAYER
  5
7B
330
2
100
AcDbSymbolTableRecord
100
AcDbLayerTableRecord
  2
SILNA
 70
     0
 62
   179
  6
Continuous
370
    -3
390
F
  0
LAYER
  5
7C
330
2
100
AcDbSymbolTableRecord
100
AcDbLayerTableRecord
  2
0_18_1
 70
     0
 62
   179
  6
Continuous
370
    -3
390
F
  0
LAYER
  5
7D
330
2
100
AcDbSymbolTableRecord
100
AcDbLayerTableRecord
  2
0_35_1
 70
     0
 62
   179
  6
Continuous
370
    35
390
F
  0
LAYER
  5
7E
330
2
100
AcDbSymbolTableRecord
100
AcDbLayerTableRecord
  2
0_5_1
 70
     0
 62
   179
  6
Continuous
370
    50
390
F
  0
ENDTAB
  0
TABLE
  2
STYLE
  5
3
330
0
100
AcDbSymbolTable
 70
     1
  0
STYLE
  5
11
330
3
100
AcDbSymbolTableRecord
100
AcDbTextStyleTableRecord
  2
Standard
 70
     0
 40
0.0
 41
1.0
 50
0.0
 71
     0
 42
2.0
  3
txt
  4

  0
ENDTAB
  0
TABLE
  2
VIEW
  5
6
330
0
100
AcDbSymbolTable
 70
     0
  0
ENDTAB
  0
TABLE
  2
UCS
  5
7
330
0
100
AcDbSymbolTable
 70
     0
  0
ENDTAB
  0
TABLE
  2
APPID
  5
9
330
0
100
AcDbSymbolTable
 70
     1
  0
APPID
  5
12
330
9
100
AcDbSymbolTableRecord
100
AcDbRegAppTableRecord
  2
ACAD
 70
     0
  0
ENDTAB
  0
TABLE
  2
DIMSTYLE
  5
A
330
0
100
AcDbSymbolTable
 70
     1
100
AcDbDimStyleTable
  0
DIMSTYLE
105
27
330
A
100
AcDbSymbolTableRecord
100
AcDbDimStyleTableRecord
  2
ISO-25
 70
     0
 41
2.5
 42
0.625
 43
3.75
 44
1.25
 73
     0
 74
     0
 77
     1
 78
     8
140
2.5
141
2.5
143
0.0393700787
147
0.625
171
     3
172
     1
178
     0
271
     2
272
     2
274
     3
278
    44
283
     0
284
     8
340
11
  0
ENDTAB
  0
TABLE
  2
BLOCK_RECORD
  5
1
330
0
100
AcDbSymbolTable
 70
     1
  0
BLOCK_RECORD
  5
1F
330
1
100
AcDbSymbolTableRecord
100
AcDbBlockTableRecord
  2
*Model_Space
340
22
  0
BLOCK_RECORD
  5
1B
330
1
100
AcDbSymbolTableRecord
100
AcDbBlockTableRecord
  2
*Paper_Space
340
1E
  0
BLOCK_RECORD
  5
23
330
1
100
AcDbSymbolTableRecord
100
AcDbBlockTableRecord
  2
*Paper_Space0
340
26
  0
ENDTAB
  0
ENDSEC
  0
SECTION
  2
BLOCKS
  0
BLOCK
  5
20
330
1F
100
AcDbEntity
  8
0
100
AcDbBlockBegin
  2
*Model_Space
 70
     0
 10
0.0
 20
0.0
 30
0.0
  3
*Model_Space
  1

  0
ENDBLK
  5
21
330
1F
100
AcDbEntity
  8
0
100
AcDbBlockEnd
  0
BLOCK
  5
1C
330
1B
100
AcDbEntity
 67
     1
  8
0
100
AcDbBlockBegin
  2
*Paper_Space
 70
     0
 10
0.0
 20
0.0
 30
0.0
  3
*Paper_Space
  1

  0
ENDBLK
  5
1D
330
1B
100
AcDbEntity
 67
     1
  8
0
100
AcDbBlockEnd
  0
BLOCK
  5
24
330
23
100
AcDbEntity
  8
0
100
AcDbBlockBegin
  2
*Paper_Space0
 70
     0
 10
0.0
 20
0.0
 30
0.0
  3
*Paper_Space0
  1

  0
ENDBLK
  5
25
330
23
100
AcDbEntity
  8
0
100
AcDbBlockEnd
  0
ENDSEC
  0
SECTION
  2
ENTITIES
  0
LWPOLYLINE
  5
7F
330
1F
100
AcDbEntity
  8
0
  6
Continuous
 62
     7
370
    25
100
AcDbPolyline
 90
        8
 70
   128
 43
0.0
 10
6387.6287424774
 20
5053.8548825897
 10
6387.714998033
 20
5022.8049238454
 10
6387.7763171932
 20
4991.729074023
 10
6387.8123781445
 20
4960.6387001282
 10
6387.8229613898
 20
4929.5109874208
 10
6387.8079874715
 20
4898.3839282187
 10
6387.743461239
 20
4854.4410460049
 10
6387.6287424774
 20
4810.5146518529
  0
ARC
  5
80
330
1F
100
AcDbEntity
  8
0
  6
Continuous
 62
     7
370
    25
100
AcDbCircle
 10
6387.7255200096
 20
4848.2097662114
 30
0.0
 40
37.69523859042275
100
AcDbArc
 50
266.9592640806
 51
269.8529005134
  0
LWPOLYLINE
  5
81
330
1F
100
AcDbEntity
  8
0
  6
Continuous
 62
     7
370
    25
100
AcDbPolyline
 90
        8
 70
   128
 43
0.0
 10
6385.7259404752
 20
4810.5675997744
 10
6385.8406797212
 20
4854.4534699299
 10
6385.9052859043
 20
4898.3986593274
 10
6385.9202660555
 20
4929.4817764608
 10
6385.9097246314
 20
4960.5655529255
 10
6385.8736455187
 20
4991.672775527
 10
6385.8122444264
 20
5022.7654599478
 10
6385.7259404752
 20
5053.8019346682
  0
ARC
  5
82
330
1F
100
AcDbEntity
  8
0
  6
Continuous
 62
     7
370
    25
100
AcDbCircle
 10
6387.7255200089
 20
5016.159768255
 30
0.0
 40
37.69523856665387
100
AcDbArc
 50
90.1470994854
 51
93.0407359202
  0
LINE
  5
83
330
1F
100
AcDbEntity
  8
0
  6
Continuous
 62
     7
370
    25
100
AcDbLine
 10
6460.652164696
 20
5058.2853873216
 30
0.0
 11
6460.652164696
 21
4806.084147121
 31
0.0
  0
LWPOLYLINE
  5
84
330
1F
100
AcDbEntity
  8
0
  6
Continuous
 62
     7
370
    25
100
AcDbPolyline
 90
        3
 70
   128
 43
0.0
 10
6387.6287424774
 20
4810.5146518529
 10
6406.4916134569
 20
4809.3702377168
 10
6460.652164696
 20
4806.084147121
  0
LWPOLYLINE
  5
85
330
1F
100
AcDbEntity
  8
0
  6
Continuous
 62
     7
370
    25
100
AcDbPolyline
 90
        3
 70
   128
 43
0.0
 10
6460.652164696
 20
5058.2853873216
 10
6440.6985353098
 20
5057.0747105636
 10
6387.6287424774
 20
5053.8548825897
  0
LWPOLYLINE
  5
86
330
1F
100
AcDbEntity
  8
0
  6
Continuous
 62
     7
370
    25
100
AcDbPolyline
 90
        8
 70
   128
 43
0.0
 10
6535.5783889167
 20
4810.5675997744
 10
6535.4636496707
 20
4854.4534699299
 10
6535.3990434877
 20
4898.3986593274
 10
6535.3840633365
 20
4929.4817764608
 10
6535.3946047606
 20
4960.5655529255
 10
6535.4306838733
 20
4991.672775527
 10
6535.4920849656
 20
5022.7654599478
 10
6535.5783889167
 20
5053.8019346682
  0
ARC
  5
87
330
1F
100
AcDbEntity
  8
0
  6
Continuous
 62
     7
370
    25
100
AcDbCircle
 10
6533.5788093823
 20
4848.2097662114
 30
0.0
 40
37.69523859043365
100
AcDbArc
 50
270.1470994866
 51
273.0407359194
  0
LWPOLYLINE
  5
88
330
1F
100
AcDbEntity
  8
0
  6
Continuous
 62
     7
370
    25
100
AcDbPolyline
 90
        8
 70
   128
 43
0.0
 10
6533.6755869146
 20
5053.8548825897
 10
6533.5893313589
 20
5022.8049238454
 10
6533.5280121988
 20
4991.729074023
 10
6533.4919512475
 20
4960.6387001282
 10
6533.4813680021
 20
4929.5109874208
 10
6533.4963419205
 20
4898.3839282187
 10
6533.560868153
 20
4854.4410460049
 10
6533.6755869146
 20
4810.5146518529
  0
ARC
  5
89
330
1F
100
AcDbEntity
  8
0
  6
Continuous
 62
     7
370
    25
100
AcDbCircle
 10
6533.5788093832
 20
5016.1597682585
 30
0.0
 40
37.69523856310749
100
AcDbArc
 50
86.9592640797
 51
89.8529005147
  0
LWPOLYLINE
  5
8A
330
1F
100
AcDbEntity
  8
0
  6
Continuous
 62
     7
370
    25
100
AcDbPolyline
 90
        3
 70
   128
 43
0.0
 10
6533.6755869146
 20
4810.5146518529
 10
6514.8127159351
 20
4809.3702377168
 10
6460.652164696
 20
4806.084147121
  0
LWPOLYLINE
  5
8B
330
1F
100
AcDbEntity
  8
0
  6
Continuous
 62
     7
370
    25
100
AcDbPolyline
 90
        3
 70
   128
 43
0.0
 10
6460.652164696
 20
5058.2853873216
 10
6480.6057940821
 20
5057.0747105636
 10
6533.6755869146
 20
5053.8548825897
  0
ARC
  5
8C
330
1F
100
AcDbEntity
  8
0
  6
Continuous
 62
     7
370
    25
100
AcDbCircle
 10
6542.7828599285
 20
5057.3466578189
 30
0.0
 40
2.590840318791351
100
AcDbArc
 50
359.8084704138
 51
89.1627400361
  0
LWPOLYLINE
  5
8D
330
1F
100
AcDbEntity
  8
0
  6
Continuous
 62
     7
370
    25
100
AcDbPolyline
 90
       10
 70
   128
 43
0.0
 10
6545.3736857717
 20
5057.3379971172
 10
6545.2836978588
 20
5026.3048060415
 10
6545.2192008751
 20
4995.2446490541
 10
6545.1802061252
 20
4964.1689682615
 10
6545.1667152195
 20
4933.0547594201
 10
6545.1787771516
 20
4901.9403361284
 10
6545.2051677205
 20
4878.2049146964
 10
6545.2464341593
 20
4854.4772428764
 10
6545.3026136412
 20
4830.747091247
 10
6545.3736857717
 20
4807.0315373254
  0
ARC
  5
8E
330
1F
100
AcDbEntity
  8
0
  6
Continuous
 62
     7
370
    25
100
AcDbCircle
 10
6542.7828638751
 20
4807.0228727474
 30
0.0
 40
2.590836385196372
100
AcDbArc
 50
270.8371739481
 51
0.1916156019
  0
LINE
  5
8F
330
1F
100
AcDbEntity
  8
0
  6
Continuous
 62
     7
370
    25
100
AcDbLine
 10
6542.8207183832
 20
4804.4323129216
 30
0.0
 11
6542.7484508935
 21
4804.4312543804
 31
0.0
  0
ARC
  5
90
330
1F
100
AcDbEntity
  8
0
  6
Continuous
 62
     7
370
    25
100
AcDbCircle
 10
6542.1062973917
 20
4810.9380558725
 30
0.0
 40
6.538411640323283
100
AcDbArc
 50
183.2480279359
 51
275.6362453391
  0
ARC
  5
91
330
1F
100
AcDbEntity
  8
0
  6
Continuous
 62
     7
370
    25
100
AcDbCircle
 10
6542.1080915789
 20
5053.4293821377
 30
0.0
 40
6.540322029043329
100
AcDbArc
 50
84.3812001802
 51
176.7345265433
  0
LINE
  5
92
330
1F
100
AcDbEntity
  8
0
  6
Continuous
 62
     7
370
    25
100
AcDbLine
 10
6542.7484508937
 20
5059.9382800622
 30
0.0
 11
6542.8207183832
 21
5059.937221521
 31
0.0
  0
ARC
  5
93
330
1F
100
AcDbEntity
  8
0
  6
Continuous
 62
     7
370
    25
100
AcDbCircle
 10
6379.1962378131
 20
5053.4293821377
 30
0.0
 40
6.540322029042474
100
AcDbArc
 50
3.2654734568
 51
95.6187998198
  0
ARC
  5
94
330
1F
100
AcDbEntity
  8
0
  6
Continuous
 62
     7
370
    25
100
AcDbCircle
 10
6379.1980320003
 20
4810.9380558725
 30
0.0
 40
6.538411640322378
100
AcDbArc
 50
264.3637546609
 51
356.7519720641
  0
LINE
  5
95
330
1F
100
AcDbEntity
  8
0
  6
Continuous
 62
     7
370
    25
100
AcDbLine
 10
6378.4836110088
 20
4804.4323129216
 30
0.0
 11
6378.5558784985
 21
4804.4312543804
 31
0.0
  0
ARC
  5
96
330
1F
100
AcDbEntity
  8
0
  6
Continuous
 62
     7
370
    25
100
AcDbCircle
 10
6378.5214655169
 20
4807.0228727474
 30
0.0
 40
2.590836385198398
100
AcDbArc
 50
179.8083843981
 51
269.1628260518
  0
LWPOLYLINE
  5
97
330
1F
100
AcDbEntity
  8
0
  6
Continuous
 62
     7
370
    25
100
AcDbPolyline
 90
       10
 70
   128
 43
0.0
 10
6375.9306436203
 20
5057.3379971172
 10
6376.0206315332
 20
5026.3048060415
 10
6376.0851285169
 20
4995.2446490541
 10
6376.1241232668
 20
4964.1689682615
 10
6376.1376141725
 20
4933.0547594201
 10
6376.1255522404
 20
4901.9403361284
 10
6376.0991616715
 20
4878.2049146964
 10
6376.0578952327
 20
4854.4772428764
 10
6376.0017157508
 20
4830.747091247
 10
6375.9306436203
 20
4807.0315373254
  0
ARC
  5
98
330
1F
100
AcDbEntity
  8
0
  6
Continuous
 62
     7
370
    25
100
AcDbCircle
 10
6378.5214694634
 20
5057.3466578189
 30
0.0
 40
2.590840318793323
100
AcDbArc
 50
90.8372599639
 51
180.1915295861
  0
LINE
  5
99
330
1F
100
AcDbEntity
  8
0
  6
Continuous
 62
     7
370
    25
100
AcDbLine
 10
6378.5558784983
 20
5059.9382800622
 30
0.0
 11
6378.4836110088
 21
5059.937221521
 31
0.0
  0
ELLIPSE
  5
9A
330
1F
100
AcDbEntity
  8
0
  6
Continuous
 62
     7
370
    25
100
AcDbEllipse
 10
27589.0658413969
 20
3386.2943531036
 30
0.0
 11
44043.6792006893
 21
-2724.102686167445
 31
0.0
210
0.0
220
0.0
230
1.0
 40
0.0026719616
 41
2.071587702962463
 42
2.073369856197647
  0
LWPOLYLINE
  5
9B
330
1F
100
AcDbEntity
  8
0
  6
Continuous
 62
     7
370
    25
100
AcDbPolyline
 90
        9
 70
   128
 43
0.0
 10
6387.6287424774
 20
4810.5146518529
 10
6387.3089011253
 20
4807.9774363058
 10
6386.6840404868
 20
4806.1293523318
 10
6386.0497417672
 20
4804.9469403344
 10
6385.3061788187
 20
4803.9453216369
 10
6384.1153006939
 20
4802.8412714291
 10
6382.8178634871
 20
4802.0913244727
 10
6381.610500605
 20
4801.7080834161
 10
6380.377941946
 20
4801.5777880807
  0
LINE
  5
9C
330
1F
100
AcDbEntity
  8
0
  6
Continuous
 62
     7
370
    25
100
AcDbLine
 10
6460.652164696
 20
4806.084147121
 30
0.0
 11
6460.652164696
 21
4797.7613449526
 31
0.0
  0
LWPOLYLINE
  5
9D
330
1F
100
AcDbEntity
  8
0
  6
Continuous
 62
     7
370
    25
100
AcDbPolyline
 90
        4
 70
   128
 43
0.0
 10
6460.652164696
 20
4797.7613449526
 10
6460.5961057121
 20
4797.7655994168
 10
6458.4264374832
 20
4797.9305921372
 10
6454.152164696
 20
4798.2575394911
  0
ARC
  5
9E
330
1F
100
AcDbEntity
  8
0
  6
Continuous
 62
     7
370
    25
100
AcDbCircle
 10
6453.8540300333
 20
4784.9546109464
 30
0.0
 40
13.3062689038862
100
AcDbArc
 50
88.7161474373
 51
110.452160232
  0
LWPOLYLINE
  5
9F
330
1F
100
AcDbEntity
  8
0
  6
Continuous
 62
     7
370
    25
100
AcDbPolyline
 90
        4
 70
   128
 43
0.0
 10
6467.152164696
 20
4798.2575394911
 10
6466.5976543156
 20
4798.2149793481
 10
6464.3795798276
 20
4798.0451685082
 10
6460.652164696
 20
4797.7613449526
  0
LWPOLYLINE
  5
A0
330
1F
100
AcDbEntity
  8
0
  6
Continuous
 62
     7
370
    25
100
AcDbPolyline
 90
        9
 70
   128
 43
0.0
 10
6533.6755869146
 20
4810.5146518529
 10
6533.9954282667
 20
4807.9774363058
 10
6534.6202889052
 20
4806.1293523318
 10
6535.2545876248
 20
4804.9469403344
 10
6535.9981505733
 20
4803.9453216369
 10
6537.1890286981
 20
4802.8412714291
 10
6538.4864659049
 20
4802.0913244727
 10
6539.693828787
 20
4801.7080834161
 10
6540.926387446
 20
4801.5777880807
  0
ELLIPSE
  5
A1
330
1F
100
AcDbEntity
  8
0
  6
Continuous
 62
     7
370
    25
100
AcDbEllipse
 10
-14667.7615120049
 20
3386.2943531036
 30
0.0
 11
44043.67920068929
 21
2724.102686167446
 31
0.0
210
0.0
220
0.0
230
1.0
 40
0.0026719616
 41
1.068222797392133
 42
1.070004950627341
  0
ARC
  5
A2
330
1F
100
AcDbEntity
  8
0
  6
Continuous
 62
     7
370
    25
100
AcDbCircle
 10
6467.7202991058
 20
4786.5536346508
 30
0.0
 40
11.71768600102058
100
AcDbArc
 50
68.0526051265
 51
92.7790872042
  0
LINE
  5
A3
330
1F
100
AcDbEntity
  8
0
  6
Continuous
 62
     7
370
    25
100
AcDbLine
 10
6460.652164696
 20
5067.6386660058
 30
0.0
 11
6460.652164696
 21
5058.2853873216
 31
0.0
  0
LWPOLYLINE
  5
A4
330
1F
100
AcDbEntity
  8
0
  6
Continuous
 62
     7
370
    25
100
AcDbPolyline
 90
        9
 70
   128
 43
0.0
 10
6380.3779419458
 20
5062.7917463619
 10
6381.5811995118
 20
5062.6674984609
 10
6382.7609654756
 20
5062.3025146883
 10
6384.0702102039
 20
5061.5612373619
 10
6385.2733129035
 20
5060.4618116774
 10
6386.0238910835
 20
5059.4630818351
 10
6386.6653236544
 20
5058.2817131256
 10
6387.3454510936
 20
5056.2344946659
 10
6387.6287424774
 20
5053.8548825897
  0
ELLIPSE
  5
A5
330
1F
100
AcDbEntity
  8
0
  6
Continuous
 62
     7
370
    25
100
AcDbEllipse
 10
27589.0658413932
 20
6478.0751813388
 30
0.0
 11
44043.67920067583
 21
2724.102686166616
 31
0.0
210
0.0
220
0.0
230
1.0
 40
0.0026719616
 41
4.20981545098306
 42
4.211893854908682
  0
LWPOLYLINE
  5
A6
330
1F
100
AcDbEntity
  8
0
  6
Continuous
 62
     7
370
    25
100
AcDbPolyline
 90
        9
 70
   128
 43
0.0
 10
6540.9263874461
 20
5062.7917463619
 10
6539.7231298802
 20
5062.6674984609
 10
6538.5433639164
 20
5062.3025146883
 10
6537.2341191881
 20
5061.5612373619
 10
6536.0310164885
 20
5060.4618116774
 10
6535.2804383085
 20
5059.4630818351
 10
6534.6390057376
 20
5058.2817131256
 10
6533.9588782984
 20
5056.2344946659
 10
6533.6755869146
 20
5053.8548825897
  0
ELLIPSE
  5
A7
330
1F
100
AcDbEntity
  8
0
  6
Continuous
 62
     7
370
    25
100
AcDbEllipse
 10
-14667.7615120013
 20
6478.0751813388
 30
0.0
 11
44043.67920068012
 21
-2724.102686166879
 31
0.0
210
0.0
220
0.0
230
1.0
 40
0.0026719616
 41
5.212884105863073
 42
5.214962509788676
  0
ARC
  5
A8
330
1F
100
AcDbEntity
  8
0
  6
Continuous
 62
     7
370
    25
100
AcDbCircle
 10
6381.2305895758
 20
5060.2388265513
 30
0.0
 40
2.691543709499017
100
AcDbArc
 50
108.46876241
 51
186.4112029108
  0
ARC
  5
A9
330
1F
100
AcDbEntity
  8
0
  6
Continuous
 62
     7
370
    25
100
AcDbCircle
 10
6540.0737398162
 20
5060.2388265513
 30
0.0
 40
2.691543709499291
100
AcDbArc
 50
353.5887970892
 51
71.53123759
  0
ARC
  5
AA
330
1F
100
AcDbEntity
  8
0
  6
Continuous
 62
     7
370
    25
100
AcDbCircle
 10
6381.230589576
 20
4804.1307078913
 30
0.0
 40
2.691543709500458
100
AcDbArc
 50
173.5887970892
 51
251.5312375899
  0
ARC
  5
AB
330
1F
100
AcDbEntity
  8
0
  6
Continuous
 62
     7
370
    25
100
AcDbCircle
 10
6540.073739816
 20
4804.1307078913
 30
0.0
 40
2.691543709497005
100
AcDbArc
 50
288.46876241
 51
6.4112029108
  0
ARC
  5
AC
330
1F
100
AcDbEntity
  8
0
  6
Continuous
 62
     7
370
    25
100
AcDbCircle
 10
6375.865201467
 20
4810.2597560162
 30
0.0
 40
3.228881941412343
100
AcDbArc
 50
253.3910274133
 51
271.1613357216
  0
LWPOLYLINE
  5
AD
330
1F
100
AcDbEntity
  8
0
  6
Continuous
 62
     7
370
    25
100
AcDbPolyline
 90
       10
 70
   128
 43
0.0
 10
6374.9422628953
 20
4807.1655900568
 10
6375.0132587012
 20
4830.8421053354
 10
6375.069387172
 20
4854.5331886327
 10
6375.1106669434
 20
4878.2490728772
 10
6375.1370620781
 20
4901.9727096955
 10
6375.1491179047
 20
4933.0231969221
 10
6375.1356856056
 20
4964.0734778752
 10
6375.0967121443
 20
4995.1465165052
 10
6375.032200393
 20
5026.204024115
 10
6374.9422628953
 20
5057.2039443858
  0
ARC
  5
AE
330
1F
100
AcDbEntity
  8
0
  6
Continuous
 62
     7
370
    25
100
AcDbCircle
 10
6375.865201467
 20
5054.1097784263
 30
0.0
 40
3.228881941473331
100
AcDbArc
 50
88.8386642786
 51
106.6089725865
  0
LWPOLYLINE
  5
AF
330
1F
100
AcDbEntity
  8
0
  6
Continuous
 62
     7
370
    25
100
AcDbPolyline
 90
       10
 70
   128
 43
0.0
 10
6546.3620664967
 20
4807.1655900568
 10
6546.2910706908
 20
4830.8421053354
 10
6546.23494222
 20
4854.5331886327
 10
6546.1936624486
 20
4878.2490728772
 10
6546.1672673139
 20
4901.9727096955
 10
6546.1552114873
 20
4933.0231969221
 10
6546.1686437864
 20
4964.0734778752
 10
6546.2076172477
 20
4995.1465165052
 10
6546.272128999
 20
5026.204024115
 10
6546.3620664967
 20
5057.2039443858
  0
ARC
  5
B0
330
1F
100
AcDbEntity
  8
0
  6
Continuous
 62
     7
370
    25
100
AcDbCircle
 10
6545.439127925
 20
4810.2597560163
 30
0.0
 40
3.228881941472209
100
AcDbArc
 50
268.8386642786
 51
286.6089725866
  0
ARC
  5
B1
330
1F
100
AcDbEntity
  8
0
  6
Continuous
 62
     7
370
    25
100
AcDbCircle
 10
6545.439127925
 20
5054.1097784263
 30
0.0
 40
3.228881941473682
100
AcDbArc
 50
73.3910274135
 51
91.1613357215
  0
ELLIPSE
  5
B2
330
1F
100
AcDbEntity
  8
0
  6
Continuous
 62
     7
370
    25
100
AcDbEllipse
 10
6454.152164696
 20
4797.0773726064
 30
0.0
 11
4.99997354513289
 21
-0.3109529574776389
 31
0.0
210
0.0
220
0.0
230
1.0
 40
0.052306724
 41
3.000054056403215
 42
4.715641972228218
  0
ELLIPSE
  5
B3
330
1F
100
AcDbEntity
  8
0
  6
Continuous
 62
     7
370
    25
100
AcDbEllipse
 10
6454.152164696
 20
4798.0806689903
 30
0.0
 11
4.999973545132889
 21
-0.3109529574767294
 31
0.0
210
0.0
220
0.0
230
1.0
 40
0.052306724
 41
4.103952942537568
 42
4.715641972228208
  0
LINE
  5
B4
330
1F
100
AcDbEntity
  8
0
  6
Continuous
 62
     7
370
    25
100
AcDbLine
 10
6454.152164696
 20
4796.8148302281
 30
0.0
 11
6454.152164696
 21
4797.8181266121
 31
0.0
  0
ELLIPSE
  5
B5
330
1F
100
AcDbEntity
  8
0
  6
Continuous
 62
     7
370
    25
100
AcDbEllipse
 10
6467.152164696
 20
4797.0773726064
 30
0.0
 11
4.999973545132889
 21
0.3109529574767294
 31
0.0
210
0.0
220
0.0
230
1.0
 40
0.052306724
 41
4.709135988541172
 42
6.424723904369784
  0
LINE
  5
B6
330
1F
100
AcDbEntity
  8
0
  6
Continuous
 62
     7
370
    25
100
AcDbLine
 10
6467.152164696
 20
4796.8148302281
 30
0.0
 11
6467.152164696
 21
4797.8181266121
 31
0.0
  0
ELLIPSE
  5
B7
330
1F
100
AcDbEntity
  8
0
  6
Continuous
 62
     7
370
    25
100
AcDbEllipse
 10
6467.152164696
 20
4798.0806689903
 30
0.0
 11
4.999973545132889
 21
0.3109529574758199
 31
0.0
210
0.0
220
0.0
230
1.0
 40
0.052306724
 41
4.709135988541182
 42
5.316015728536784
  0
LINE
  5
B8
330
1F
100
AcDbEntity
  8
0
  6
Continuous
 62
     7
370
    25
100
AcDbLine
 10
6546.3620664967
 20
5057.2039443858
 30
0.0
 11
6550.652164696
 21
5057.2039443858
 31
0.0
  0
LINE
  5
B9
330
1F
100
AcDbEntity
  8
0
  6
Continuous
 62
     7
370
    25
100
AcDbLine
 10
6550.652164696
 20
5057.2039443858
 30
0.0
 11
6550.652164696
 21
4807.1655900568
 31
0.0
  0
LINE
  5
BA
330
1F
100
AcDbEntity
  8
0
  6
Continuous
 62
     7
370
    25
100
AcDbLine
 10
6546.3620664967
 20
4807.1655900568
 30
0.0
 11
6550.652164696
 21
4807.1655900568
 31
0.0
  0
LINE
  5
BB
330
1F
100
AcDbEntity
  8
0
  6
Continuous
 62
     7
370
    25
100
AcDbLine
 10
6370.652164696
 20
5057.2039443858
 30
0.0
 11
6370.652164696
 21
4807.1655900568
 31
0.0
  0
LINE
  5
BC
330
1F
100
AcDbEntity
  8
0
  6
Continuous
 62
     7
370
    25
100
AcDbLine
 10
6374.9422628953
 20
5057.2039443858
 30
0.0
 11
6370.652164696
 21
5057.2039443858
 31
0.0
  0
LINE
  5
BD
330
1F
100
AcDbEntity
  8
0
  6
Continuous
 62
     7
370
    25
100
AcDbLine
 10
6374.9422628953
 20
4807.1655900568
 30
0.0
 11
6370.652164696
 21
4807.1655900568
 31
0.0
  0
LINE
  5
BE
330
1F
100
AcDbEntity
  8
0
  6
Continuous
 62
     7
370
    25
100
AcDbLine
 10
6460.652164696
 20
5072.1847672213
 30
0.0
 11
6380.0331529628
 21
5067.1847672213
 31
0.0
  0
LINE
  5
BF
330
1F
100
AcDbEntity
  8
0
  6
Continuous
 62
     7
370
    25
100
AcDbLine
 10
6460.652164696
 20
5067.6386660058
 30
0.0
 11
6460.652164696
 21
5072.1847672213
 31
0.0
  0
LINE
  5
C0
330
1F
100
AcDbEntity
  8
0
  6
Continuous
 62
     7
370
    25
100
AcDbLine
 10
6380.3056744619
 20
5062.7906844348
 30
0.0
 11
6380.3779419458
 21
5062.7917463619
 31
0.0
  0
LINE
  5
C1
330
1F
100
AcDbEntity
  8
0
  6
Continuous
 62
     7
370
    25
100
AcDbLine
 10
6380.3056744619
 20
5062.7906844348
 30
0.0
 11
6380.0331529628
 21
5067.1847672213
 31
0.0
  0
LINE
  5
C2
330
1F
100
AcDbEntity
  8
0
  6
Continuous
 62
     7
370
    25
100
AcDbLine
 10
6540.9986549301
 20
5062.7906844348
 30
0.0
 11
6540.9263874461
 21
5062.7917463619
 31
0.0
  0
LINE
  5
C3
330
1F
100
AcDbEntity
  8
0
  6
Continuous
 62
     7
370
    25
100
AcDbLine
 10
6460.652164696
 20
5072.1847672213
 30
0.0
 11
6541.2711764291
 21
5067.1847672213
 31
0.0
  0
LINE
  5
C4
330
1F
100
AcDbEntity
  8
0
  6
Continuous
 62
     7
370
    25
100
AcDbLine
 10
6540.9986549301
 20
5062.7906844348
 30
0.0
 11
6541.2711764291
 21
5067.1847672213
 31
0.0
  0
ARC
  5
C5
330
1F
100
AcDbEntity
  8
0
  6
Continuous
 62
     7
370
    25
100
AcDbCircle
 10
6380.5265480462
 20
5057.2107648989
 30
0.0
 40
5.58428931618172
100
AcDbArc
 50
92.2667926816
 51
180.0699796685
  0
ARC
  5
C6
330
1F
100
AcDbEntity
  8
0
  6
Continuous
 62
     7
370
    25
100
AcDbCircle
 10
6381.1583210137
 20
5060.237765664
 30
0.0
 40
2.691542381677213
100
AcDbArc
 50
108.4687476531
 51
186.4111558313
  0
ARC
  5
C7
330
1F
100
AcDbEntity
  8
0
  6
Continuous
 62
     7
370
    25
100
AcDbCircle
 10
6540.7780940361
 20
4807.1584693531
 30
0.0
 40
5.583977000825233
100
AcDbArc
 50
272.2637085851
 51
0.0730637651
  0
ARC
  5
C8
330
1F
100
AcDbEntity
  8
0
  6
Continuous
 62
     7
370
    25
100
AcDbCircle
 10
6540.1460083783
 20
4804.1317687786
 30
0.0
 40
2.691542381676853
100
AcDbArc
 50
288.4687476531
 51
6.4111558313
  0
ARC
  5
C9
330
1F
100
AcDbEntity
  8
0
  6
Continuous
 62
     7
370
    25
100
AcDbCircle
 10
6540.7777813458
 20
5057.2107648989
 30
0.0
 40
5.584289316179419
100
AcDbArc
 50
359.9300203314
 51
87.7332073184
  0
ARC
  5
CA
330
1F
100
AcDbEntity
  8
0
  6
Continuous
 62
     7
370
    25
100
AcDbCircle
 10
6540.1460083783
 20
5060.237765664
 30
0.0
 40
2.691542381675702
100
AcDbArc
 50
353.5888441687
 51
71.5312523469
  0
ARC
  5
CB
330
1F
100
AcDbEntity
  8
0
  6
Continuous
 62
     7
370
    25
100
AcDbCircle
 10
6380.5262353559
 20
4807.1584693531
 30
0.0
 40
5.58397700082693
100
AcDbArc
 50
179.9269362349
 51
267.7362914149
  0
ARC
  5
CC
330
1F
100
AcDbEntity
  8
0
  6
Continuous
 62
     7
370
    25
100
AcDbCircle
 10
6381.1583210137
 20
4804.1317687786
 30
0.0
 40
2.691542381678116
100
AcDbArc
 50
173.5888441687
 51
251.5312523468
  0
LINE
  5
CD
330
1F
100
AcDbEntity
  8
0
  6
Continuous
 62
     7
370
    25
100
AcDbLine
 10
6460.652164696
 20
4796.4116995112
 30
0.0
 11
6460.652164696
 21
4796.0966486573
 31
0.0
  0
ELLIPSE
  5
CE
330
1F
100
AcDbEntity
  8
0
  6
Continuous
 62
     7
370
    25
100
AcDbEllipse
 10
6460.652164696
 20
4795.3615299982
 30
0.0
 11
13.99992592637318
 21
-0.8706682809361154
 31
0.0
210
0.0
220
0.0
230
1.0
 40
0.052306724
 41
1.574049318638417
 42
4.715641972228211
  0
LINE
  5
CF
330
1F
100
AcDbEntity
  8
0
  6
Continuous
 62
     7
370
    25
100
AcDbLine
 10
6460.652164696
 20
4794.626411339
 30
0.0
 11
6460.652164696
 21
4792.1847672213
 31
0.0
  0
LINE
  5
D0
330
1F
100
AcDbEntity
  8
0
  6
Continuous
 62
     7
370
    25
100
AcDbLine
 10
6380.0331529628
 20
4797.1847672213
 30
0.0
 11
6460.652164696
 21
4792.1847672213
 31
0.0
  0
LINE
  5
D1
330
1F
100
AcDbEntity
  8
0
  6
Continuous
 62
     7
370
    25
100
AcDbLine
 10
6380.3056744619
 20
4801.5788500078
 30
0.0
 11
6380.0331529628
 21
4797.1847672213
 31
0.0
  0
LINE
  5
D2
330
1F
100
AcDbEntity
  8
0
  6
Continuous
 62
     7
370
    25
100
AcDbLine
 10
6380.377941946
 20
4801.5777880807
 30
0.0
 11
6380.3056744619
 21
4801.5788500078
 31
0.0
  0
LINE
  5
D3
330
1F
100
AcDbEntity
  8
0
  6
Continuous
 62
     7
370
    25
100
AcDbLine
 10
6460.652164696
 20
4796.4116995112
 30
0.0
 11
6454.152164696
 21
4796.8148302281
 31
0.0
  0
LINE
  5
D4
330
1F
100
AcDbEntity
  8
0
  6
Continuous
 62
     7
370
    25
100
AcDbLine
 10
6448.652164696
 20
4794.2417204362
 30
0.0
 11
6448.652164696
 21
4793.9791780579
 31
0.0
  0
LINE
  5
D5
330
1F
100
AcDbEntity
  8
0
  6
Continuous
 62
     7
370
    25
100
AcDbLine
 10
6440.652164696
 20
4794.7378813186
 30
0.0
 11
6448.652164696
 21
4794.2417204362
 31
0.0
  0
LINE
  5
D6
330
1F
100
AcDbEntity
  8
0
  6
Continuous
 62
     7
370
    25
100
AcDbLine
 10
6440.652164696
 20
4794.4753389403
 30
0.0
 11
6440.652164696
 21
4794.7378813186
 31
0.0
  0
LINE
  5
D7
330
1F
100
AcDbEntity
  8
0
  6
Continuous
 62
     7
370
    25
100
AcDbLine
 10
6448.652164696
 20
4793.9791780579
 30
0.0
 11
6440.652164696
 21
4794.4753389403
 31
0.0
  0
LINE
  5
D8
330
1F
100
AcDbEntity
  8
0
  6
Continuous
 62
     7
370
    25
100
AcDbLine
 10
6416.652164696
 20
4796.9089741492
 30
0.0
 11
6416.652164696
 21
4796.646431771
 31
0.0
  0
LINE
  5
D9
330
1F
100
AcDbEntity
  8
0
  6
Continuous
 62
     7
370
    25
100
AcDbLine
 10
6408.652164696
 20
4797.4051350316
 30
0.0
 11
6416.652164696
 21
4796.9089741492
 31
0.0
  0
LINE
  5
DA
330
1F
100
AcDbEntity
  8
0
  6
Continuous
 62
     7
370
    25
100
AcDbLine
 10
6408.652164696
 20
4797.1425926534
 30
0.0
 11
6408.652164696
 21
4797.4051350316
 31
0.0
  0
LINE
  5
DB
330
1F
100
AcDbEntity
  8
0
  6
Continuous
 62
     7
370
    25
100
AcDbLine
 10
6416.652164696
 20
4796.646431771
 30
0.0
 11
6408.652164696
 21
4797.1425926534
 31
0.0
  0
LINE
  5
DC
330
1F
100
AcDbEntity
  8
0
  6
Continuous
 62
     7
370
    25
100
AcDbLine
 10
6432.652164696
 20
4796.5992625679
 30
0.0
 11
6432.652164696
 21
4796.3367201896
 31
0.0
  0
LINE
  5
DD
330
1F
100
AcDbEntity
  8
0
  6
Continuous
 62
     7
370
    25
100
AcDbLine
 10
6424.652164696
 20
4797.0954234503
 30
0.0
 11
6432.652164696
 21
4796.5992625679
 31
0.0
  0
LINE
  5
DE
330
1F
100
AcDbEntity
  8
0
  6
Continuous
 62
     7
370
    25
100
AcDbLine
 10
6424.652164696
 20
4796.832881072
 30
0.0
 11
6424.652164696
 21
4797.0954234503
 31
0.0
  0
LINE
  5
DF
330
1F
100
AcDbEntity
  8
0
  6
Continuous
 62
     7
370
    25
100
AcDbLine
 10
6432.652164696
 20
4796.3367201896
 30
0.0
 11
6424.652164696
 21
4796.832881072
 31
0.0
  0
LINE
  5
E0
330
1F
100
AcDbEntity
  8
0
  6
Continuous
 62
     7
370
    25
100
AcDbLine
 10
6416.652164696
 20
4797.5915843327
 30
0.0
 11
6416.652164696
 21
4797.3290419544
 31
0.0
  0
LINE
  5
E1
330
1F
100
AcDbEntity
  8
0
  6
Continuous
 62
     7
370
    25
100
AcDbLine
 10
6408.652164696
 20
4798.0877452151
 30
0.0
 11
6416.652164696
 21
4797.5915843327
 31
0.0
  0
LINE
  5
E2
330
1F
100
AcDbEntity
  8
0
  6
Continuous
 62
     7
370
    25
100
AcDbLine
 10
6408.652164696
 20
4797.8252028368
 30
0.0
 11
6408.652164696
 21
4798.0877452151
 31
0.0
  0
LINE
  5
E3
330
1F
100
AcDbEntity
  8
0
  6
Continuous
 62
     7
370
    25
100
AcDbLine
 10
6416.652164696
 20
4797.3290419544
 30
0.0
 11
6408.652164696
 21
4797.8252028368
 31
0.0
  0
LINE
  5
E4
330
1F
100
AcDbEntity
  8
0
  6
Continuous
 62
     7
370
    25
100
AcDbLine
 10
6448.652164696
 20
4794.9243306196
 30
0.0
 11
6448.652164696
 21
4794.6617882414
 31
0.0
  0
LINE
  5
E5
330
1F
100
AcDbEntity
  8
0
  6
Continuous
 62
     7
370
    25
100
AcDbLine
 10
6440.652164696
 20
4795.420491502
 30
0.0
 11
6448.652164696
 21
4794.9243306196
 31
0.0
  0
LINE
  5
E6
330
1F
100
AcDbEntity
  8
0
  6
Continuous
 62
     7
370
    25
100
AcDbLine
 10
6440.652164696
 20
4795.1579491238
 30
0.0
 11
6440.652164696
 21
4795.420491502
 31
0.0
  0
LINE
  5
E7
330
1F
100
AcDbEntity
  8
0
  6
Continuous
 62
     7
370
    25
100
AcDbLine
 10
6448.652164696
 20
4794.6617882414
 30
0.0
 11
6440.652164696
 21
4795.1579491238
 31
0.0
  0
LINE
  5
E8
330
1F
100
AcDbEntity
  8
0
  6
Continuous
 62
     7
370
    25
100
AcDbLine
 10
6432.652164696
 20
4795.234042201
 30
0.0
 11
6432.652164696
 21
4794.9714998227
 31
0.0
  0
LINE
  5
E9
330
1F
100
AcDbEntity
  8
0
  6
Continuous
 62
     7
370
    25
100
AcDbLine
 10
6424.652164696
 20
4795.7302030834
 30
0.0
 11
6432.652164696
 21
4795.234042201
 31
0.0
  0
LINE
  5
EA
330
1F
100
AcDbEntity
  8
0
  6
Continuous
 62
     7
370
    25
100
AcDbLine
 10
6424.652164696
 20
4795.4676607051
 30
0.0
 11
6424.652164696
 21
4795.7302030834
 31
0.0
  0
LINE
  5
EB
330
1F
100
AcDbEntity
  8
0
  6
Continuous
 62
     7
370
    25
100
AcDbLine
 10
6432.652164696
 20
4794.9714998227
 30
0.0
 11
6424.652164696
 21
4795.4676607051
 31
0.0
  0
LINE
  5
EC
330
1F
100
AcDbEntity
  8
0
  6
Continuous
 62
     7
370
    25
100
AcDbLine
 10
6416.652164696
 20
4796.2263639658
 30
0.0
 11
6416.652164696
 21
4795.9638215875
 31
0.0
  0
LINE
  5
ED
330
1F
100
AcDbEntity
  8
0
  6
Continuous
 62
     7
370
    25
100
AcDbLine
 10
6408.652164696
 20
4796.7225248482
 30
0.0
 11
6416.652164696
 21
4796.2263639658
 31
0.0
  0
LINE
  5
EE
330
1F
100
AcDbEntity
  8
0
  6
Continuous
 62
     7
370
    25
100
AcDbLine
 10
6408.652164696
 20
4796.4599824699
 30
0.0
 11
6408.652164696
 21
4796.7225248482
 31
0.0
  0
LINE
  5
EF
330
1F
100
AcDbEntity
  8
0
  6
Continuous
 62
     7
370
    25
100
AcDbLine
 10
6416.652164696
 20
4795.9638215875
 30
0.0
 11
6408.652164696
 21
4796.4599824699
 31
0.0
  0
LINE
  5
F0
330
1F
100
AcDbEntity
  8
0
  6
Continuous
 62
     7
370
    25
100
AcDbLine
 10
6432.652164696
 20
4795.9166523844
 30
0.0
 11
6432.652164696
 21
4795.6541100062
 31
0.0
  0
LINE
  5
F1
330
1F
100
AcDbEntity
  8
0
  6
Continuous
 62
     7
370
    25
100
AcDbLine
 10
6424.652164696
 20
4796.4128132668
 30
0.0
 11
6432.652164696
 21
4795.9166523844
 31
0.0
  0
LINE
  5
F2
330
1F
100
AcDbEntity
  8
0
  6
Continuous
 62
     7
370
    25
100
AcDbLine
 10
6424.652164696
 20
4796.1502708886
 30
0.0
 11
6424.652164696
 21
4796.4128132668
 31
0.0
  0
LINE
  5
F3
330
1F
100
AcDbEntity
  8
0
  6
Continuous
 62
     7
370
    25
100
AcDbLine
 10
6432.652164696
 20
4795.6541100062
 30
0.0
 11
6424.652164696
 21
4796.1502708886
 31
0.0
  0
LWPOLYLINE
  5
F4
330
1F
100
AcDbEntity
  8
0
  6
Continuous
 62
     7
370
    25
100
AcDbPolyline
 90
       17
 70
   128
 43
0.0
 10
6397.3650581593
 20
4796.9361321624
 10
6398.2591459731
 20
4796.9180209225
 10
6399.357311854
 20
4796.8664444749
 10
6400.4923700016
 20
4796.7892548662
 10
6401.4915181024
 20
4796.6982035147
 10
6402.2026449151
 20
4796.6071521631
 10
6402.5174878291
 20
4796.5299625544
 10
6402.3881148646
 20
4796.4783861068
 10
6401.8342218828
 20
4796.460274867
 10
6400.9401340691
 20
4796.4783861068
 10
6399.8419681882
 20
4796.5299625544
 10
6398.7069100405
 20
4796.6071521631
 10
6397.7077619398
 20
4796.6982035147
 10
6396.996635127
 20
4796.7892548662
 10
6396.6817922131
 20
4796.8664444749
 10
6396.8111651775
 20
4796.9180209225
 10
6397.3650581593
 20
4796.9361321624
  0
LINE
  5
F5
330
1F
100
AcDbEntity
  8
0
  6
Continuous
 62
     7
370
    25
100
AcDbLine
 10
6496.652164696
 20
4796.4128132668
 30
0.0
 11
6488.652164696
 21
4795.9166523844
 31
0.0
  0
LINE
  5
F6
330
1F
100
AcDbEntity
  8
0
  6
Continuous
 62
     7
370
    25
100
AcDbLine
 10
6488.652164696
 20
4795.9166523844
 30
0.0
 11
6488.652164696
 21
4795.6541100062
 31
0.0
  0
LINE
  5
F7
330
1F
100
AcDbEntity
  8
0
  6
Continuous
 62
     7
370
    25
100
AcDbLine
 10
6488.652164696
 20
4795.6541100062
 30
0.0
 11
6496.652164696
 21
4796.1502708886
 31
0.0
  0
LINE
  5
F8
330
1F
100
AcDbEntity
  8
0
  6
Continuous
 62
     7
370
    25
100
AcDbLine
 10
6496.652164696
 20
4796.1502708886
 30
0.0
 11
6496.652164696
 21
4796.4128132668
 31
0.0
  0
LINE
  5
F9
330
1F
100
AcDbEntity
  8
0
  6
Continuous
 62
     7
370
    25
100
AcDbLine
 10
6496.652164696
 20
4795.7302030834
 30
0.0
 11
6488.652164696
 21
4795.234042201
 31
0.0
  0
LINE
  5
FA
330
1F
100
AcDbEntity
  8
0
  6
Continuous
 62
     7
370
    25
100
AcDbLine
 10
6488.652164696
 20
4795.234042201
 30
0.0
 11
6488.652164696
 21
4794.9714998227
 31
0.0
  0
LINE
  5
FB
330
1F
100
AcDbEntity
  8
0
  6
Continuous
 62
     7
370
    25
100
AcDbLine
 10
6488.652164696
 20
4794.9714998227
 30
0.0
 11
6496.652164696
 21
4795.4676607051
 31
0.0
  0
LINE
  5
FC
330
1F
100
AcDbEntity
  8
0
  6
Continuous
 62
     7
370
    25
100
AcDbLine
 10
6496.652164696
 20
4795.4676607051
 30
0.0
 11
6496.652164696
 21
4795.7302030834
 31
0.0
  0
LINE
  5
FD
330
1F
100
AcDbEntity
  8
0
  6
Continuous
 62
     7
370
    25
100
AcDbLine
 10
6512.652164696
 20
4798.0877452151
 30
0.0
 11
6504.652164696
 21
4797.5915843327
 31
0.0
  0
LINE
  5
FE
330
1F
100
AcDbEntity
  8
0
  6
Continuous
 62
     7
370
    25
100
AcDbLine
 10
6504.652164696
 20
4797.5915843327
 30
0.0
 11
6504.652164696
 21
4797.3290419544
 31
0.0
  0
LINE
  5
FF
330
1F
100
AcDbEntity
  8
0
  6
Continuous
 62
     7
370
    25
100
AcDbLine
 10
6504.652164696
 20
4797.3290419544
 30
0.0
 11
6512.652164696
 21
4797.8252028368
 31
0.0
  0
LINE
  5
100
330
1F
100
AcDbEntity
  8
0
  6
Continuous
 62
     7
370
    25
100
AcDbLine
 10
6512.652164696
 20
4797.8252028368
 30
0.0
 11
6512.652164696
 21
4798.0877452151
 31
0.0
  0
LINE
  5
101
330
1F
100
AcDbEntity
  8
0
  6
Continuous
 62
     7
370
    25
100
AcDbLine
 10
6512.652164696
 20
4797.4051350316
 30
0.0
 11
6504.652164696
 21
4796.9089741492
 31
0.0
  0
LINE
  5
102
330
1F
100
AcDbEntity
  8
0
  6
Continuous
 62
     7
370
    25
100
AcDbLine
 10
6504.652164696
 20
4796.9089741492
 30
0.0
 11
6504.652164696
 21
4796.646431771
 31
0.0
  0
LINE
  5
103
330
1F
100
AcDbEntity
  8
0
  6
Continuous
 62
     7
370
    25
100
AcDbLine
 10
6504.652164696
 20
4796.646431771
 30
0.0
 11
6512.652164696
 21
4797.1425926534
 31
0.0
  0
LINE
  5
104
330
1F
100
AcDbEntity
  8
0
  6
Continuous
 62
     7
370
    25
100
AcDbLine
 10
6512.652164696
 20
4797.1425926534
 30
0.0
 11
6512.652164696
 21
4797.4051350316
 31
0.0
  0
LINE
  5
105
330
1F
100
AcDbEntity
  8
0
  6
Continuous
 62
     7
370
    25
100
AcDbLine
 10
6495.652164696
 20
4794.3554710818
 30
0.0
 11
6495.652164696
 21
4794.5655049844
 31
0.0
  0
LINE
  5
106
330
1F
100
AcDbEntity
  8
0
  6
Continuous
 62
     7
370
    25
100
AcDbLine
 10
6495.652164696
 20
4794.3554710818
 30
0.0
 11
6460.652164696
 21
4792.1847672213
 31
0.0
  0
ELLIPSE
  5
107
330
1F
100
AcDbEntity
  8
0
  6
Continuous
 62
     7
370
    25
100
AcDbEllipse
 10
6460.652164696
 20
4795.3615299982
 30
0.0
 11
13.99992592637318
 21
0.8706682809361154
 31
0.0
210
0.0
220
0.0
230
1.0
 40
0.052306724
 41
4.709135988541171
 42
7.850728642130964
  0
LINE
  5
108
330
1F
100
AcDbEntity
  8
0
  6
Continuous
 62
     7
370
    25
100
AcDbLine
 10
6467.152164696
 20
4796.8148302281
 30
0.0
 11
6460.652164696
 21
4796.4116995112
 31
0.0
  0
LINE
  5
109
330
1F
100
AcDbEntity
  8
0
  6
Continuous
 62
     7
370
    25
100
AcDbLine
 10
6540.926387446
 20
4801.5777880807
 30
0.0
 11
6540.9986549301
 21
4801.5788500078
 31
0.0
  0
LINE
  5
10A
330
1F
100
AcDbEntity
  8
0
  6
Continuous
 62
     7
370
    25
100
AcDbLine
 10
6540.9986549301
 20
4801.5788500078
 30
0.0
 11
6541.2711764291
 21
4797.1847672213
 31
0.0
  0
LINE
  5
10B
330
1F
100
AcDbEntity
  8
0
  6
Continuous
 62
     7
370
    25
100
AcDbLine
 10
6541.2711764291
 20
4797.1847672213
 30
0.0
 11
6503.652164696
 21
4794.8516319642
 31
0.0
  0
LINE
  5
10C
330
1F
100
AcDbEntity
  8
0
  6
Continuous
 62
     7
370
    25
100
AcDbLine
 10
6503.652164696
 20
4795.0616658668
 30
0.0
 11
6503.652164696
 21
4794.8516319642
 31
0.0
  0
ELLIPSE
  5
10D
330
1F
100
AcDbEntity
  8
0
  6
Continuous
 62
     7
370
    25
100
AcDbEllipse
 10
6499.652164696
 20
4794.8135854256
 30
0.0
 11
3.999978836107402
 21
0.2487623659808377
 31
0.0
210
0.0
220
0.0
230
1.0
 40
0.052306724
 41
6.279932315335895
 42
9.421524968934618
  0
LINE
  5
10E
330
1F
100
AcDbEntity
  8
0
  6
Continuous
 62
     7
370
    25
100
AcDbLine
 10
6480.652164696
 20
4794.7378813186
 30
0.0
 11
6472.652164696
 21
4794.2417204362
 31
0.0
  0
LINE
  5
10F
330
1F
100
AcDbEntity
  8
0
  6
Continuous
 62
     7
370
    25
100
AcDbLine
 10
6472.652164696
 20
4794.2417204362
 30
0.0
 11
6472.652164696
 21
4793.9791780579
 31
0.0
  0
LINE
  5
110
330
1F
100
AcDbEntity
  8
0
  6
Continuous
 62
     7
370
    25
100
AcDbLine
 10
6472.652164696
 20
4793.9791780579
 30
0.0
 11
6480.652164696
 21
4794.4753389403
 31
0.0
  0
LINE
  5
111
330
1F
100
AcDbEntity
  8
0
  6
Continuous
 62
     7
370
    25
100
AcDbLine
 10
6480.652164696
 20
4794.4753389403
 30
0.0
 11
6480.652164696
 21
4794.7378813186
 31
0.0
  0
LINE
  5
112
330
1F
100
AcDbEntity
  8
0
  6
Continuous
 62
     7
370
    25
100
AcDbLine
 10
6496.652164696
 20
4797.0954234503
 30
0.0
 11
6488.652164696
 21
4796.5992625679
 31
0.0
  0
LINE
  5
113
330
1F
100
AcDbEntity
  8
0
  6
Continuous
 62
     7
370
    25
100
AcDbLine
 10
6488.652164696
 20
4796.5992625679
 30
0.0
 11
6488.652164696
 21
4796.3367201896
 31
0.0
  0
LINE
  5
114
330
1F
100
AcDbEntity
  8
0
  6
Continuous
 62
     7
370
    25
100
AcDbLine
 10
6488.652164696
 20
4796.3367201896
 30
0.0
 11
6496.652164696
 21
4796.832881072
 31
0.0
  0
LINE
  5
115
330
1F
100
AcDbEntity
  8
0
  6
Continuous
 62
     7
370
    25
100
AcDbLine
 10
6496.652164696
 20
4796.832881072
 30
0.0
 11
6496.652164696
 21
4797.0954234503
 31
0.0
  0
LINE
  5
116
330
1F
100
AcDbEntity
  8
0
  6
Continuous
 62
     7
370
    25
100
AcDbLine
 10
6480.652164696
 20
4795.420491502
 30
0.0
 11
6472.652164696
 21
4794.9243306196
 31
0.0
  0
LINE
  5
117
330
1F
100
AcDbEntity
  8
0
  6
Continuous
 62
     7
370
    25
100
AcDbLine
 10
6472.652164696
 20
4794.9243306196
 30
0.0
 11
6472.652164696
 21
4794.6617882414
 31
0.0
  0
LINE
  5
118
330
1F
100
AcDbEntity
  8
0
  6
Continuous
 62
     7
370
    25
100
AcDbLine
 10
6472.652164696
 20
4794.6617882414
 30
0.0
 11
6480.652164696
 21
4795.1579491238
 31
0.0
  0
LINE
  5
119
330
1F
100
AcDbEntity
  8
0
  6
Continuous
 62
     7
370
    25
100
AcDbLine
 10
6480.652164696
 20
4795.1579491238
 30
0.0
 11
6480.652164696
 21
4795.420491502
 31
0.0
  0
LINE
  5
11A
330
1F
100
AcDbEntity
  8
0
  6
Continuous
 62
     7
370
    25
100
AcDbLine
 10
6512.652164696
 20
4796.7225248482
 30
0.0
 11
6504.652164696
 21
4796.2263639658
 31
0.0
  0
LINE
  5
11B
330
1F
100
AcDbEntity
  8
0
  6
Continuous
 62
     7
370
    25
100
AcDbLine
 10
6504.652164696
 20
4796.2263639658
 30
0.0
 11
6504.652164696
 21
4795.9638215875
 31
0.0
  0
LINE
  5
11C
330
1F
100
AcDbEntity
  8
0
  6
Continuous
 62
     7
370
    25
100
AcDbLine
 10
6504.652164696
 20
4795.9638215875
 30
0.0
 11
6512.652164696
 21
4796.4599824699
 31
0.0
  0
LINE
  5
11D
330
1F
100
AcDbEntity
  8
0
  6
Continuous
 62
     7
370
    25
100
AcDbLine
 10
6512.652164696
 20
4796.4599824699
 30
0.0
 11
6512.652164696
 21
4796.7225248482
 31
0.0
  0
LWPOLYLINE
  5
11E
330
1F
100
AcDbEntity
  8
0
  6
Continuous
 62
     7
370
    25
100
AcDbPolyline
 90
       17
 70
   128
 43
0.0
 10
6523.9392712326
 20
4796.9361321624
 10
6524.4931642145
 20
4796.9180209225
 10
6524.6225371789
 20
4796.8664444749
 10
6524.307694265
 20
4796.7892548662
 10
6523.5965674522
 20
4796.6982035147
 10
6522.5974193515
 20
4796.6071521631
 10
6521.4623612038
 20
4796.5299625544
 10
6520.3641953229
 20
4796.4783861068
 10
6519.4701075092
 20
4796.460274867
 10
6518.9162145274
 20
4796.4783861068
 10
6518.7868415629
 20
4796.5299625544
 10
6519.1016844769
 20
4796.6071521631
 10
6519.8128112896
 20
4796.6982035147
 10
6520.8119593904
 20
4796.7892548662
 10
6521.947017538
 20
4796.8664444749
 10
6523.0451834189
 20
4796.9180209225
 10
6523.9392712326
 20
4796.9361321624
  0
ARC
  5
11F
330
1F
100
AcDbEntity
  8
0
  6
Continuous
 62
     7
370
    25
100
AcDbCircle
 10
6380.652164696
 20
4807.1655900568
 30
0.0
 40
10.00000000000024
100
AcDbArc
 50
180.0
 51
266.4510551086
  0
ARC
  5
120
330
1F
100
AcDbEntity
  8
0
  6
Continuous
 62
     7
370
    25
100
AcDbCircle
 10
6540.652164696
 20
4807.1655900568
 30
0.0
 40
10.00000000000018
100
AcDbArc
 50
273.5489448913
 51
0.0
  0
ARC
  5
121
330
1F
100
AcDbEntity
  8
0
  6
Continuous
 62
     7
370
    25
100
AcDbCircle
 10
6540.652164696
 20
5057.2039443858
 30
0.0
 40
9.999999999999272
100
AcDbArc
 50
0.0
 51
86.4510551087
  0
ARC
  5
122
330
1F
100
AcDbEntity
  8
0
  6
Continuous
 62
     7
370
    25
100
AcDbCircle
 10
6380.652164696
 20
5057.2039443858
 30
0.0
 40
10.0
100
AcDbArc
 50
93.5489448914
 51
180.0
  0
LINE
  5
123
330
1F
100
AcDbEntity
  8
0
  6
Continuous
 62
     7
370
    25
100
AcDbLine
 10
6467.152164696
 20
4797.8181266121
 30
0.0
 11
6460.652164696
 21
4797.4149958951
 31
0.0
  0
LINE
  5
124
330
1F
100
AcDbEntity
  8
0
  6
Continuous
 62
     7
370
    25
100
AcDbLine
 10
6460.652164696
 20
4797.4149958951
 30
0.0
 11
6454.152164696
 21
4797.8181266121
 31
0.0
  0
ELLIPSE
  5
125
330
1F
100
AcDbEntity
  8
0
  6
Continuous
 62
     7
370
    25
100
AcDbEllipse
 10
6460.652164696
 20
4796.3648263821
 30
0.0
 11
13.99992592637318
 21
0.8706682809361154
 31
0.0
210
0.0
220
0.0
230
1.0
 40
0.052306724
 41
4.709135988541167
 42
5.528885432463159
  0
ELLIPSE
  5
126
330
1F
100
AcDbEntity
  8
0
  6
Continuous
 62
     7
370
    25
100
AcDbEllipse
 10
6460.652164696
 20
4796.3648263821
 30
0.0
 11
13.99992592637318
 21
-0.8706682809352059
 31
0.0
210
0.0
220
0.0
230
1.0
 40
0.052306724
 41
3.895892528305837
 42
4.715641972228211
  0
LINE
  5
127
330
1F
100
AcDbEntity
  8
0
  6
Continuous
 62
     7
370
    25
100
AcDbLine
 10
6617.9058551195
 20
4799.4016991321
 30
0.0
 11
6619.5854069867
 21
4799.4199992052
 31
0.0
  0
LWPOLYLINE
  5
128
330
1F
100
AcDbEntity
  8
0
  6
Continuous
 62
     7
370
    25
100
AcDbPolyline
 90
        3
 70
   128
 43
0.0
 10
6619.5854069867
 20
4805.350688028
 10
6619.495888393
 20
4805.33149624
 10
6618.6402936019
 20
4805.3565794932
  0
LINE
  5
129
330
1F
100
AcDbEntity
  8
0
  6
Continuous
 62
     7
370
    25
100
AcDbLine
 10
6619.5854069867
 20
5057.2039443858
 30
0.0
 11
6619.5854069867
 21
4807.1655900568
 31
0.0
  0
LINE
  5
12A
330
1F
100
AcDbEntity
  8
0
  6
Continuous
 62
     7
370
    25
100
AcDbLine
 10
6701.4453571307
 20
5057.2039443858
 30
0.0
 11
6619.5854069867
 21
5057.2039443858
 31
0.0
  0
LWPOLYLINE
  5
12B
330
1F
100
AcDbEntity
  8
0
  6
Continuous
 62
     7
370
    25
100
AcDbPolyline
 90
       10
 70
   128
 43
0.0
 10
6701.4453571307
 20
4807.1655900568
 10
6702.800037808
 20
4830.8421053354
 10
6703.8710328305
 20
4854.5331886327
 10
6704.658697792
 20
4878.2490728772
 10
6705.1623469649
 20
4901.9727096955
 10
6705.392385841
 20
4933.0231969221
 10
6705.1360823044
 20
4964.0734778752
 10
6704.3924243622
 20
4995.1465165052
 10
6703.1614668176
 20
5026.204024115
 10
6701.4453571307
 20
5057.2039443858
  0
LINE
  5
12C
330
1F
100
AcDbEntity
  8
0
  6
Continuous
 62
     7
370
    25
100
AcDbLine
 10
6701.4453571307
 20
4807.1655900568
 30
0.0
 11
6619.5854069867
 21
4807.1655900568
 31
0.0
  0
LINE
  5
12D
330
1F
100
AcDbEntity
  8
0
  6
Continuous
 62
     7
370
    25
100
AcDbLine
 10
6619.5854069867
 20
5067.1847672213
 30
0.0
 11
6619.5854069867
 21
5057.2039443858
 31
0.0
  0
LINE
  5
12E
330
1F
100
AcDbEntity
  8
0
  6
Continuous
 62
     7
370
    25
100
AcDbLine
 10
6703.5905993926
 20
5062.7906844348
 30
0.0
 11
6619.5854069867
 21
5067.1847672213
 31
0.0
  0
LWPOLYLINE
  5
12F
330
1F
100
AcDbEntity
  8
0
  6
Continuous
 62
     7
370
    25
100
AcDbPolyline
 90
        6
 70
   128
 43
0.0
 10
6701.4453571307
 20
5057.2039443858
 10
6701.4844142465
 20
5058.6366861913
 10
6701.6738473586
 20
5059.9244872842
 10
6702.0826349305
 20
5061.2524292927
 10
6702.7835120586
 20
5062.3633550057
 10
6703.5905993926
 20
5062.7906844348
  0
LWPOLYLINE
  5
130
330
1F
100
AcDbEntity
  8
0
  6
Continuous
 62
     7
370
    25
100
AcDbPolyline
 90
        6
 70
   128
 43
0.0
 10
6703.5905993926
 20
4801.5788500078
 10
6702.7835120586
 20
4802.0061794369
 10
6702.0826349305
 20
4803.1171051499
 10
6701.6738473586
 20
4804.4450471584
 10
6701.4844142465
 20
4805.7328482513
 10
6701.4453571307
 20
4807.1655900568
  0
LINE
  5
131
330
1F
100
AcDbEntity
  8
0
  6
Continuous
 62
     7
370
    25
100
AcDbLine
 10
6703.5905993926
 20
4801.5788500078
 30
0.0
 11
6619.5854069867
 21
4797.1847672213
 31
0.0
  0
LINE
  5
132
330
1F
100
AcDbEntity
  8
0
  6
Continuous
 62
     7
370
    25
100
AcDbLine
 10
6619.5854069867
 20
4807.1655900568
 30
0.0
 11
6619.5854069867
 21
4797.1847672213
 31
0.0
  0
LWPOLYLINE
  5
133
330
1F
100
AcDbEntity
  8
0
  6
Continuous
 62
     7
370
    25
100
AcDbPolyline
 90
       10
 70
   128
 43
0.0
 10
6703.5136451928
 20
5057.3379971172
 10
6705.2315551599
 20
5026.3048060415
 10
6706.4628286998
 20
4995.2446490541
 10
6707.2072529288
 20
4964.1689682615
 10
6707.4647991673
 20
4933.0547594201
 10
6707.2345325484
 20
4901.9403361284
 10
6706.7307269177
 20
4878.2049146964
 10
6705.9429345622
 20
4854.4772428764
 10
6704.8704447526
 20
4830.747091247
 10
6703.5136451928
 20
4807.0315373254
  0
LWPOLYLINE
  5
134
330
1F
100
AcDbEntity
  8
0
  6
Continuous
 62
     7
370
    25
100
AcDbPolyline
 90
        9
 70
   128
 43
0.0
 10
6703.5136451928
 20
4807.0315373254
 10
6703.3065831783
 20
4807.0453219134
 10
6703.0800821203
 20
4807.0602648893
 10
6702.8363236113
 20
4807.0762223267
 10
6702.5776554627
 20
4807.0930405281
 10
6702.3065690908
 20
4807.1105575055
 10
6702.025675521
 20
4807.1286045405
 10
6701.7376802386
 20
4807.1470078093
 10
6701.4453571307
 20
4807.1655900568
  0
LWPOLYLINE
  5
135
330
1F
100
AcDbEntity
  8
0
  6
Continuous
 62
     7
370
    25
100
AcDbPolyline
 90
        9
 70
   128
 43
0.0
 10
6703.5136451928
 20
5057.3379971172
 10
6703.3065831783
 20
5057.3242125292
 10
6703.0800821203
 20
5057.3092695533
 10
6702.8363236113
 20
5057.2933121159
 10
6702.5776554627
 20
5057.2764939145
 10
6702.3065690908
 20
5057.2589769371
 10
6702.025675521
 20
5057.2409299021
 10
6701.7376802386
 20
5057.2225266333
 10
6701.4453571307
 20
5057.2039443858
  0
ARC
  5
136
330
1F
100
AcDbEntity
  8
0
  6
Continuous
 62
     7
370
    25
100
AcDbCircle
 10
6705.8119337786
 20
4806.7435070812
 30
0.0
 40
2.316266790559068
100
AcDbArc
 50
172.8567177928
 51
266.2073805707
  0
ARC
  5
137
330
1F
100
AcDbEntity
  8
0
  6
Continuous
 62
     7
370
    25
100
AcDbCircle
 10
6702.8970875263
 20
4804.2576871581
 30
0.0
 40
2.767151457115135
100
AcDbArc
 50
284.5143825938
 51
3.618151113
  0
ARC
  5
138
330
1F
100
AcDbEntity
  8
0
  6
Continuous
 62
     7
370
    25
100
AcDbCircle
 10
6705.8332384452
 20
5057.6084451252
 30
0.0
 40
2.335306185866425
100
AcDbArc
 50
94.2856487328
 51
186.6502529037
  0
ARC
  5
139
330
1F
100
AcDbEntity
  8
0
  6
Continuous
 62
     7
370
    25
100
AcDbCircle
 10
6702.8970875263
 20
5060.1118472845
 30
0.0
 40
2.767151457112462
100
AcDbArc
 50
356.381848887
 51
75.4856174062
  0
ARC
  5
13A
330
1F
100
AcDbEntity
  8
0
  6
Continuous
 62
     7
370
    25
100
AcDbCircle
 10
6705.9929421482
 20
5053.3628013663
 30
0.0
 40
6.580982168174754
100
AcDbArc
 50
3.8260541066
 51
92.3433703701
  0
LWPOLYLINE
  5
13B
330
1F
100
AcDbEntity
  8
0
  6
Continuous
 62
     7
370
    25
100
AcDbPolyline
 90
        8
 70
   128
 43
0.0
 10
6712.5592568102
 20
4810.5675997744
 10
6714.7569759053
 20
4854.4534699299
 10
6715.9870170021
 20
4898.3986593274
 10
6716.27157283
 20
4929.4817764608
 10
6716.0713320307
 20
4960.5655529255
 10
6715.3853789681
 20
4991.672775527
 10
6714.2139079419
 20
5022.7654599478
 10
6712.5592568102
 20
5053.8019346682
  0
ARC
  5
13C
330
1F
100
AcDbEntity
  8
0
  6
Continuous
 62
     7
370
    25
100
AcDbCircle
 10
6705.9940411167
 20
4811.0055089131
 30
0.0
 40
6.579804063657331
100
AcDbArc
 50
267.6466321497
 51
356.1839433751
  0
LINE
  5
13D
330
1F
100
AcDbEntity
  8
0
  6
Continuous
 62
     7
370
    25
100
AcDbLine
 10
6705.6587234598
 20
4804.4323129216
 30
0.0
 11
6705.7238581142
 21
4804.4312543804
 31
0.0
  0
LINE
  5
13E
330
1F
100
AcDbEntity
  8
0
  6
Continuous
 62
     7
370
    25
100
AcDbLine
 10
6705.7238581141
 20
5059.9382800622
 30
0.0
 11
6705.6587234598
 21
5059.937221521
 31
0.0
  0
ARC
  5
13F
330
1F
100
AcDbEntity
  8
0
  6
Continuous
 62
     7
370
    25
100
AcDbCircle
 10
6703.7776336264
 20
5053.2229696379
 30
0.0
 40
9.569553153223474
100
AcDbArc
 50
3.7862070151
 51
90.7298702904
  0
ARC
  5
140
330
1F
100
AcDbEntity
  8
0
  6
Continuous
 62
     7
370
    25
100
AcDbCircle
 10
6710.1676835899
 20
5094.0305203188
 30
0.0
 40
40.29961198214454
100
AcDbArc
 50
273.4022067062
 51
274.4953586492
  0
ARC
  5
141
330
1F
100
AcDbEntity
  8
0
  6
Continuous
 62
     7
370
    25
100
AcDbCircle
 10
6702.9622212892
 20
5060.1129083066
 30
0.0
 40
2.76715250325178
100
AcDbArc
 50
356.381798786
 51
75.4856085057
  0
ARC
  5
142
330
1F
100
AcDbEntity
  8
0
  6
Continuous
 62
     7
370
    25
100
AcDbCircle
 10
6703.7787753064
 20
4811.1453293946
 30
0.0
 40
9.5683324564057
100
AcDbArc
 50
269.2631995794
 51
356.2207231162
  0
ARC
  5
143
330
1F
100
AcDbEntity
  8
0
  6
Continuous
 62
     7
370
    25
100
AcDbCircle
 10
6702.9622212894
 20
4804.2566261361
 30
0.0
 40
2.767152503251722
100
AcDbArc
 50
284.5143914943
 51
3.618201214
  0
ARC
  5
144
330
1F
100
AcDbEntity
  8
0
  6
Continuous
 62
     7
370
    25
100
AcDbCircle
 10
6710.167683592
 20
4770.3390141592
 30
0.0
 40
40.29961194669625
100
AcDbArc
 50
85.5046413499
 51
86.5977932938
  0
LINE
  5
145
330
1F
100
AcDbEntity
  8
0
  6
Continuous
 62
     7
370
    25
100
AcDbLine
 10
6703.655733834
 20
4801.5777880807
 30
0.0
 11
6703.5905993926
 21
4801.5788500078
 31
0.0
  0
LINE
  5
146
330
1F
100
AcDbEntity
  8
0
  6
Continuous
 62
     7
370
    25
100
AcDbLine
 10
6703.5905993926
 20
5062.7906844348
 30
0.0
 11
6703.6557338338
 21
5062.7917463619
 31
0.0
  0
ARC
  5
147
330
1F
100
AcDbEntity
  8
0
  6
Continuous
 62
     7
370
    25
100
AcDbCircle
 10
6705.6343860644
 20
5057.6614844408
 30
0.0
 40
9.99121948874728
100
AcDbArc
 50
3.5801710423
 51
86.9623993169
  0
LWPOLYLINE
  5
148
330
1F
100
AcDbEntity
  8
0
  6
Continuous
 62
     7
370
    25
100
AcDbPolyline
 90
        3
 70
   128
 43
0.0
 10
6715.6061066816
 20
5058.2853873216
 10
6714.9840647009
 20
5057.0747105636
 10
6713.3263002126
 20
5053.8548825897
  0
ELLIPSE
  5
149
330
1F
100
AcDbEntity
  8
0
  6
Continuous
 62
     7
370
    25
100
AcDbEllipse
 10
4800.7577561546
 20
6478.0751813388
 30
0.0
 11
143.0374564066406
 21
2724.083200566772
 31
0.0
210
0.0
220
0.0
230
1.0
 40
0.8258900094
 41
4.209980711874675
 42
4.212059115800306
  0
ELLIPSE
  5
14A
330
1F
100
AcDbEntity
  8
0
  6
Continuous
 62
     7
370
    25
100
AcDbEllipse
 10
4800.7577561546
 20
3386.2943531036
 30
0.0
 11
-143.037456406666
 21
2724.083200567235
 31
0.0
210
0.0
220
0.0
230
1.0
 40
0.8258900094
 41
5.213015095659518
 42
5.214797248894725
  0
LWPOLYLINE
  5
14B
330
1F
100
AcDbEntity
  8
0
  6
Continuous
 62
     7
370
    25
100
AcDbPolyline
 90
        3
 70
   128
 43
0.0
 10
6713.3263002126
 20
4810.5146518529
 10
6713.9160856765
 20
4809.3702377168
 10
6715.6061066816
 20
4806.084147121
  0
ARC
  5
14C
330
1F
100
AcDbEntity
  8
0
  6
Continuous
 62
     7
370
    25
100
AcDbCircle
 10
6705.6316360902
 20
4806.7080326968
 30
0.0
 40
9.99396301727588
100
AcDbArc
 50
296.4646850969
 51
356.4209124659
  0
LINE
  5
14D
330
1F
100
AcDbEntity
  8
0
  6
Continuous
 62
     7
370
    25
100
AcDbLine
 10
6710.0854069867
 20
4797.7613449526
 30
0.0
 11
6710.0854069867
 21
4798.2575394911
 31
0.0
  0
ARC
  5
14E
330
1F
100
AcDbEntity
  8
0
  6
Continuous
 62
     7
370
    25
100
AcDbCircle
 10
6705.2184889968
 20
4811.8091197385
 30
0.0
 40
14.39903531224724
100
AcDbArc
 50
272.3417750737
 51
289.7552562827
  0
LINE
  5
14F
330
1F
100
AcDbEntity
  8
0
  6
Continuous
 62
     7
370
    25
100
AcDbLine
 10
6700.0854069867
 20
4796.4116995112
 30
0.0
 11
6694.0854069867
 21
4796.0966486573
 31
0.0
  0
ELLIPSE
  5
150
330
1F
100
AcDbEntity
  8
0
  6
Continuous
 62
     7
370
    25
100
AcDbEllipse
 10
6680.0854069867
 20
4795.3615299982
 30
0.0
 11
13.99992560290957
 21
0.7379454207202798
 31
0.0
210
0.0
220
0.0
230
1.0
 40
0.0618489275
 41
6.279925220488748
 42
9.421517874078322
  0
LINE
  5
151
330
1F
100
AcDbEntity
  8
0
  6
Continuous
 62
     7
370
    25
100
AcDbLine
 10
6666.0854069867
 20
4794.626411339
 30
0.0
 11
6619.5854069867
 21
4792.1847672213
 31
0.0
  0
ELLIPSE
  5
152
330
1F
100
AcDbEntity
  8
0
  6
Continuous
 62
     7
370
    25
100
AcDbEllipse
 10
6705.0854069867
 20
4797.0773726064
 30
0.0
 11
4.999973429609781
 21
0.2635519359710088
 31
0.0
210
0.0
220
0.0
230
1.0
 40
0.0618489275
 41
1.422744651071181
 42
3.138332566899703
  0
LINE
  5
153
330
1F
100
AcDbEntity
  8
0
  6
Continuous
 62
     7
370
    25
100
AcDbLine
 10
6700.0854069867
 20
4796.4116995112
 30
0.0
 11
6700.0854069867
 21
4796.8148302281
 31
0.0
  0
LINE
  5
154
330
1F
100
AcDbEntity
  8
0
  6
Continuous
 62
     7
370
    25
100
AcDbLine
 10
6644.5854069867
 20
4794.2417204362
 30
0.0
 11
6639.5854069867
 21
4793.9791780579
 31
0.0
  0
LINE
  5
155
330
1F
100
AcDbEntity
  8
0
  6
Continuous
 62
     7
370
    25
100
AcDbLine
 10
6644.5854069867
 20
4794.7378813186
 30
0.0
 11
6644.5854069867
 21
4794.2417204362
 31
0.0
  0
LINE
  5
156
330
1F
100
AcDbEntity
  8
0
  6
Continuous
 62
     7
370
    25
100
AcDbLine
 10
6639.5854069867
 20
4794.4753389403
 30
0.0
 11
6644.5854069867
 21
4794.7378813186
 31
0.0
  0
LINE
  5
157
330
1F
100
AcDbEntity
  8
0
  6
Continuous
 62
     7
370
    25
100
AcDbLine
 10
6639.5854069867
 20
4793.9791780579
 30
0.0
 11
6639.5854069867
 21
4794.4753389403
 31
0.0
  0
LINE
  5
158
330
1F
100
AcDbEntity
  8
0
  6
Continuous
 62
     7
370
    25
100
AcDbLine
 10
6657.5854069867
 20
4796.9089741492
 30
0.0
 11
6652.5854069867
 21
4796.646431771
 31
0.0
  0
LINE
  5
159
330
1F
100
AcDbEntity
  8
0
  6
Continuous
 62
     7
370
    25
100
AcDbLine
 10
6657.5854069867
 20
4797.4051350316
 30
0.0
 11
6657.5854069867
 21
4796.9089741492
 31
0.0
  0
LINE
  5
15A
330
1F
100
AcDbEntity
  8
0
  6
Continuous
 62
     7
370
    25
100
AcDbLine
 10
6652.5854069867
 20
4797.1425926534
 30
0.0
 11
6657.5854069867
 21
4797.4051350316
 31
0.0
  0
LINE
  5
15B
330
1F
100
AcDbEntity
  8
0
  6
Continuous
 62
     7
370
    25
100
AcDbLine
 10
6652.5854069867
 20
4796.646431771
 30
0.0
 11
6652.5854069867
 21
4797.1425926534
 31
0.0
  0
LINE
  5
15C
330
1F
100
AcDbEntity
  8
0
  6
Continuous
 62
     7
370
    25
100
AcDbLine
 10
6670.5854069867
 20
4796.5992625679
 30
0.0
 11
6665.5854069867
 21
4796.3367201896
 31
0.0
  0
LINE
  5
15D
330
1F
100
AcDbEntity
  8
0
  6
Continuous
 62
     7
370
    25
100
AcDbLine
 10
6670.5854069867
 20
4797.0954234503
 30
0.0
 11
6670.5854069867
 21
4796.5992625679
 31
0.0
  0
LINE
  5
15E
330
1F
100
AcDbEntity
  8
0
  6
Continuous
 62
     7
370
    25
100
AcDbLine
 10
6665.5854069867
 20
4796.832881072
 30
0.0
 11
6670.5854069867
 21
4797.0954234503
 31
0.0
  0
LINE
  5
15F
330
1F
100
AcDbEntity
  8
0
  6
Continuous
 62
     7
370
    25
100
AcDbLine
 10
6665.5854069867
 20
4796.3367201896
 30
0.0
 11
6665.5854069867
 21
4796.832881072
 31
0.0
  0
LINE
  5
160
330
1F
100
AcDbEntity
  8
0
  6
Continuous
 62
     7
370
    25
100
AcDbLine
 10
6670.5854069867
 20
4797.5915843327
 30
0.0
 11
6665.5854069867
 21
4797.3290419544
 31
0.0
  0
LINE
  5
161
330
1F
100
AcDbEntity
  8
0
  6
Continuous
 62
     7
370
    25
100
AcDbLine
 10
6670.5854069867
 20
4798.0877452151
 30
0.0
 11
6670.5854069867
 21
4797.5915843327
 31
0.0
  0
LINE
  5
162
330
1F
100
AcDbEntity
  8
0
  6
Continuous
 62
     7
370
    25
100
AcDbLine
 10
6665.5854069867
 20
4797.8252028368
 30
0.0
 11
6670.5854069867
 21
4798.0877452151
 31
0.0
  0
LINE
  5
163
330
1F
100
AcDbEntity
  8
0
  6
Continuous
 62
     7
370
    25
100
AcDbLine
 10
6665.5854069867
 20
4797.3290419544
 30
0.0
 11
6665.5854069867
 21
4797.8252028368
 31
0.0
  0
LINE
  5
164
330
1F
100
AcDbEntity
  8
0
  6
Continuous
 62
     7
370
    25
100
AcDbLine
 10
6657.5854069867
 20
4794.9243306196
 30
0.0
 11
6652.5854069867
 21
4794.6617882414
 31
0.0
  0
LINE
  5
165
330
1F
100
AcDbEntity
  8
0
  6
Continuous
 62
     7
370
    25
100
AcDbLine
 10
6657.5854069867
 20
4795.420491502
 30
0.0
 11
6657.5854069867
 21
4794.9243306196
 31
0.0
  0
LINE
  5
166
330
1F
100
AcDbEntity
  8
0
  6
Continuous
 62
     7
370
    25
100
AcDbLine
 10
6652.5854069867
 20
4795.1579491238
 30
0.0
 11
6657.5854069867
 21
4795.420491502
 31
0.0
  0
LINE
  5
167
330
1F
100
AcDbEntity
  8
0
  6
Continuous
 62
     7
370
    25
100
AcDbLine
 10
6652.5854069867
 20
4794.6617882414
 30
0.0
 11
6652.5854069867
 21
4795.1579491238
 31
0.0
  0
LINE
  5
168
330
1F
100
AcDbEntity
  8
0
  6
Continuous
 62
     7
370
    25
100
AcDbLine
 10
6644.5854069867
 20
4795.234042201
 30
0.0
 11
6639.5854069867
 21
4794.9714998227
 31
0.0
  0
LINE
  5
169
330
1F
100
AcDbEntity
  8
0
  6
Continuous
 62
     7
370
    25
100
AcDbLine
 10
6644.5854069867
 20
4795.7302030834
 30
0.0
 11
6644.5854069867
 21
4795.234042201
 31
0.0
  0
LINE
  5
16A
330
1F
100
AcDbEntity
  8
0
  6
Continuous
 62
     7
370
    25
100
AcDbLine
 10
6639.5854069867
 20
4795.4676607051
 30
0.0
 11
6644.5854069867
 21
4795.7302030834
 31
0.0
  0
LINE
  5
16B
330
1F
100
AcDbEntity
  8
0
  6
Continuous
 62
     7
370
    25
100
AcDbLine
 10
6639.5854069867
 20
4794.9714998227
 30
0.0
 11
6639.5854069867
 21
4795.4676607051
 31
0.0
  0
LINE
  5
16C
330
1F
100
AcDbEntity
  8
0
  6
Continuous
 62
     7
370
    25
100
AcDbLine
 10
6644.5854069867
 20
4796.2263639658
 30
0.0
 11
6639.5854069867
 21
4795.9638215875
 31
0.0
  0
LINE
  5
16D
330
1F
100
AcDbEntity
  8
0
  6
Continuous
 62
     7
370
    25
100
AcDbLine
 10
6644.5854069867
 20
4796.7225248482
 30
0.0
 11
6644.5854069867
 21
4796.2263639658
 31
0.0
  0
LINE
  5
16E
330
1F
100
AcDbEntity
  8
0
  6
Continuous
 62
     7
370
    25
100
AcDbLine
 10
6639.5854069867
 20
4796.4599824699
 30
0.0
 11
6644.5854069867
 21
4796.7225248482
 31
0.0
  0
LINE
  5
16F
330
1F
100
AcDbEntity
  8
0
  6
Continuous
 62
     7
370
    25
100
AcDbLine
 10
6639.5854069867
 20
4795.9638215875
 30
0.0
 11
6639.5854069867
 21
4796.4599824699
 31
0.0
  0
LINE
  5
170
330
1F
100
AcDbEntity
  8
0
  6
Continuous
 62
     7
370
    25
100
AcDbLine
 10
6657.5854069867
 20
4795.9166523844
 30
0.0
 11
6652.5854069867
 21
4795.6541100062
 31
0.0
  0
LINE
  5
171
330
1F
100
AcDbEntity
  8
0
  6
Continuous
 62
     7
370
    25
100
AcDbLine
 10
6657.5854069867
 20
4796.4128132668
 30
0.0
 11
6657.5854069867
 21
4795.9166523844
 31
0.0
  0
LINE
  5
172
330
1F
100
AcDbEntity
  8
0
  6
Continuous
 62
     7
370
    25
100
AcDbLine
 10
6652.5854069867
 20
4796.1502708886
 30
0.0
 11
6657.5854069867
 21
4796.4128132668
 31
0.0
  0
LINE
  5
173
330
1F
100
AcDbEntity
  8
0
  6
Continuous
 62
     7
370
    25
100
AcDbLine
 10
6652.5854069867
 20
4795.6541100062
 30
0.0
 11
6652.5854069867
 21
4796.1502708886
 31
0.0
  0
LWPOLYLINE
  5
174
330
1F
100
AcDbEntity
  8
0
  6
Continuous
 62
     7
370
    25
100
AcDbPolyline
 90
       17
 70
   128
 43
0.0
 10
6635.3217543635
 20
4796.9361321624
 10
6636.0328811763
 20
4796.9180209225
 10
6636.3477240903
 20
4796.8664444749
 10
6636.2183511258
 20
4796.7892548662
 10
6635.664458144
 20
4796.6982035147
 10
6634.7703703303
 20
4796.6071521631
 10
6633.6722044494
 20
4796.5299625544
 10
6632.5371463017
 20
4796.4783861068
 10
6631.537998201
 20
4796.460274867
 10
6630.8268713882
 20
4796.4783861068
 10
6630.5120284743
 20
4796.5299625544
 10
6630.6414014387
 20
4796.6071521631
 10
6631.1952944205
 20
4796.6982035147
 10
6632.0893822342
 20
4796.7892548662
 10
6633.1875481152
 20
4796.8664444749
 10
6634.3226062628
 20
4796.9180209225
 10
6635.3217543635
 20
4796.9361321624
  0
LINE
  5
175
330
1F
100
AcDbEntity
  8
0
  6
Continuous
 62
     7
370
    25
100
AcDbLine
 10
6619.5854069867
 20
4797.1847672213
 30
0.0
 11
6619.5854069867
 21
4792.1847672213
 31
0.0
  0
LINE
  5
176
330
1F
100
AcDbEntity
  8
0
  6
Continuous
 62
     7
370
    25
100
AcDbLine
 10
6706.1638337864
 20
5067.6386660058
 30
0.0
 11
6619.5854069867
 21
5072.1847672213
 31
0.0
  0
LINE
  5
177
330
1F
100
AcDbEntity
  8
0
  6
Continuous
 62
     7
370
    25
100
AcDbLine
 10
6619.5854069867
 20
5072.1847672213
 30
0.0
 11
6619.5854069867
 21
5067.1847672213
 31
0.0
  0
LWPOLYLINE
  5
178
330
1F
100
AcDbEntity
  8
0
  6
Continuous
 62
     7
370
    25
100
AcDbPolyline
 90
        8
 70
   128
 43
0.0
 10
6713.3263002126
 20
5053.8548825897
 10
6714.9817051182
 20
5022.8049238454
 10
6716.1528038271
 20
4991.729074023
 10
6716.8391109833
 20
4960.6387001282
 10
6717.0403507521
 20
4929.5109874208
 10
6716.7556238651
 20
4898.3839282187
 10
6715.5258579924
 20
4854.4410460049
 10
6713.3263002126
 20
4810.5146518529
  0
ARC
  5
179
330
1F
100
AcDbEntity
  8
0
  6
Continuous
 62
     7
370
    25
100
AcDbCircle
 10
4719.5854069867
 20
4932.1847672213
 30
0.0
 40
1999.999999999999
100
AcDbArc
 50
356.3850855473
 51
3.6149144527
  0
LWPOLYLINE
  5
17A
330
1F
100
AcDbEntity
  8
0
  6
Continuous
 62
     7
370
    25
100
AcDbPolyline
 90
       12
 70
   128
 43
0.0
 10
6618.6386294966
 20
4805.3567446227
 10
6618.5881888263
 20
4805.3292443721
 10
6618.4641830424
 20
4805.0789554428
 10
6618.3231964134
 20
4804.5887760023
 10
6618.1777562202
 20
4803.9022606451
 10
6618.040785462
 20
4803.0804092735
 10
6617.9244545919
 20
4802.1962469883
 10
6617.8391001182
 20
4801.3283354887
 10
6617.7923061603
 20
4800.5537925203
 10
6617.788230567
 20
4799.9414396248
 10
6617.8272354724
 20
4799.5456870442
 10
6617.9058551196
 20
4799.4016991321
  0
LINE
  5
17B
330
1F
100
AcDbEntity
  8
0
  6
Continuous
 62
     7
370
    25
100
AcDbLine
 10
6535.325053686
 20
4632.3451150756
 30
0.0
 11
6545.2254033189
 21
4641.259428438
 31
0.0
  0
LINE
  5
17C
330
1F
100
AcDbEntity
  8
0
  6
Continuous
 62
     7
370
    25
100
AcDbLine
 10
6376.0789260731
 20
4641.259428438
 30
0.0
 11
6385.979275706
 21
4632.3451150756
 31
0.0
  0
LINE
  5
17D
330
1F
100
AcDbEntity
  8
0
  6
Continuous
 62
     7
370
    25
100
AcDbLine
 10
6387.8213876597
 20
4631.6294756823
 30
0.0
 11
6460.652164696
 21
4629.0861689055
 31
0.0
  0
LINE
  5
17E
330
1F
100
AcDbEntity
  8
0
  6
Continuous
 62
     7
370
    25
100
AcDbLine
 10
6460.652164696
 20
4629.0861689055
 30
0.0
 11
6533.4829417323
 21
4631.6294756823
 31
0.0
  0
ARC
  5
17F
330
1F
100
AcDbEntity
  8
0
  6
Continuous
 62
     7
370
    25
100
AcDbCircle
 10
6543.1593130669
 20
4643.436010617
 30
0.0
 40
2.999999999999705
100
AcDbArc
 50
312.0945075173
 51
357.0000000169
  0
ARC
  5
180
330
1F
100
AcDbEntity
  8
0
  6
Continuous
 62
     7
370
    25
100
AcDbCircle
 10
6378.1450163251
 20
4643.436010617
 30
0.0
 40
2.999999999999596
100
AcDbArc
 50
182.9999999831
 51
227.8997893202
  0
ARC
  5
181
330
1F
100
AcDbEntity
  8
0
  6
Continuous
 62
     7
370
    25
100
AcDbCircle
 10
6387.8459646322
 20
4634.4767533967
 30
0.0
 40
2.831234182500353
100
AcDbArc
 50
226.9360082659
 51
269.5092333911
  0
ARC
  5
182
330
1F
100
AcDbEntity
  8
0
  6
Continuous
 62
     7
370
    25
100
AcDbCircle
 10
6533.5416425939
 20
4634.2932595361
 30
0.0
 40
2.642849799963769
100
AcDbArc
 50
268.7062749222
 51
314.5155680031
  0
LINE
  5
183
330
1F
100
AcDbEntity
  8
0
  6
Continuous
 62
     7
370
    25
100
AcDbLine
 10
6496.6058538549
 20
4730.7255984126
 30
0.0
 11
6496.3928738109
 21
4729.0861689055
 31
0.0
  0
LINE
  5
184
330
1F
100
AcDbEntity
  8
0
  6
Continuous
 62
     7
370
    25
100
AcDbLine
 10
6502.4435960974
 20
4729.0861689055
 30
0.0
 11
6502.5700826031
 21
4730.07140465
 31
0.0
  0
LINE
  5
185
330
1F
100
AcDbEntity
  8
0
  6
Continuous
 62
     7
370
    25
100
AcDbLine
 10
6460.652164696
 20
4729.0861689056
 30
0.0
 11
6380.0331529628
 21
4729.0861689056
 31
0.0
  0
LINE
  5
186
330
1F
100
AcDbEntity
  8
0
  6
Continuous
 62
     7
370
    25
100
AcDbLine
 10
6460.652164696
 20
4642.5077421059
 30
0.0
 11
6460.652164696
 21
4729.0861689056
 31
0.0
  0
ELLIPSE
  5
187
330
1F
100
AcDbEntity
  8
0
  6
Continuous
 62
     7
370
    25
100
AcDbEllipse
 10
27589.0658413932
 20
6547.9138197377
 30
0.0
 11
44043.67919291615
 21
-143.4116492777403
 31
0.0
210
0.0
220
0.0
230
1.0
 40
0.051080412
 41
4.210147035991941
 42
4.212225439917573
  0
LINE
  5
188
330
1F
100
AcDbEntity
  8
0
  6
Continuous
 62
     7
370
    25
100
AcDbLine
 10
6380.3056744619
 20
4645.0809764997
 30
0.0
 11
6380.3779419458
 21
4645.0158420585
 31
0.0
  0
LINE
  5
189
330
1F
100
AcDbEntity
  8
0
  6
Continuous
 62
     7
370
    25
100
AcDbLine
 10
6380.3056744619
 20
4645.0809764997
 30
0.0
 11
6380.0331529628
 21
4729.0861689056
 31
0.0
  0
LINE
  5
18A
330
1F
100
AcDbEntity
  8
0
  6
Continuous
 62
     7
370
    25
100
AcDbLine
 10
6540.9986549301
 20
4645.0809764997
 30
0.0
 11
6540.9263874461
 21
4645.0158420585
 31
0.0
  0
ELLIPSE
  5
18B
330
1F
100
AcDbEntity
  8
0
  6
Continuous
 62
     7
370
    25
100
AcDbEllipse
 10
-14667.7615120013
 20
6547.9138197377
 30
0.0
 11
44043.67919291615
 21
143.4116492777393
 31
0.0
210
0.0
220
0.0
230
1.0
 40
0.051080412
 41
5.212552520851935
 42
5.214630924777564
  0
LINE
  5
18C
330
1F
100
AcDbEntity
  8
0
  6
Continuous
 62
     7
370
    25
100
AcDbLine
 10
6540.9986549301
 20
4645.0809764997
 30
0.0
 11
6541.2711764291
 21
4729.0861689056
 31
0.0
  0
LINE
  5
18D
330
1F
100
AcDbEntity
  8
0
  6
Continuous
 62
     7
370
    25
100
AcDbLine
 10
6460.652164696
 20
4729.0861689056
 30
0.0
 11
6541.2711764291
 21
4729.0861689056
 31
0.0
  0
LINE
  5
18E
330
1F
100
AcDbEntity
  8
0
  6
Continuous
 62
     7
370
    25
100
AcDbLine
 10
6460.652164696
 20
4642.5077421059
 30
0.0
 11
6460.652164696
 21
4633.0654692107
 31
0.0
  0
LWPOLYLINE
  5
18F
330
1F
100
AcDbEntity
  8
0
  6
Continuous
 62
     7
370
    25
100
AcDbPolyline
 90
        3
 70
   128
 43
0.0
 10
6460.652164696
 20
4633.0654692107
 10
6440.6985353098
 20
4633.6875111914
 10
6387.6287424774
 20
4635.3452756797
  0
ARC
  5
190
330
1F
100
AcDbEntity
  8
0
  6
Continuous
 62
     7
370
    25
100
AcDbCircle
 10
6221.3991201051
 20
4518.2631102004
 30
0.0
 40
203.3236848656995
100
AcDbArc
 50
35.1585669733
 51
38.5651169426
  0
ARC
  5
191
330
1F
100
AcDbEntity
  8
0
  6
Continuous
 62
     7
370
    25
100
AcDbCircle
 10
6699.9052092877
 20
4518.2631101998
 30
0.0
 40
203.3236848667212
100
AcDbArc
 50
141.4348830574
 51
144.8414330267
  0
LWPOLYLINE
  5
192
330
1F
100
AcDbEntity
  8
0
  6
Continuous
 62
     7
370
    25
100
AcDbPolyline
 90
        3
 70
   128
 43
0.0
 10
6460.652164696
 20
4633.0654692107
 10
6480.6057940821
 20
4633.6875111914
 10
6533.6755869146
 20
4635.3452756797
  0
ARC
  5
193
330
1F
100
AcDbEntity
  8
0
  6
Continuous
 62
     7
370
    25
100
AcDbCircle
 10
6569.2622866793
 20
4582.1951347281
 30
0.0
 40
68.94535499205783
100
AcDbArc
 50
109.3993418793
 51
114.2012233035
  0
LINE
  5
194
330
1F
100
AcDbEntity
  8
0
  6
Continuous
 62
     7
370
    25
100
AcDbLine
 10
6546.3620664967
 20
4647.2262187616
 30
0.0
 11
6550.652164696
 21
4729.0861689056
 31
0.0
  0
LINE
  5
195
330
1F
100
AcDbEntity
  8
0
  6
Continuous
 62
     7
370
    25
100
AcDbLine
 10
6541.2711764291
 20
4729.0861689056
 30
0.0
 11
6550.652164696
 21
4729.0861689056
 31
0.0
  0
ARC
  5
196
330
1F
100
AcDbEntity
  8
0
  6
Continuous
 62
     7
370
    25
100
AcDbCircle
 10
6352.0420427128
 20
4582.1951347283
 30
0.0
 40
68.94535499186291
100
AcDbArc
 50
65.7987766965
 51
70.6006581207
  0
LINE
  5
197
330
1F
100
AcDbEntity
  8
0
  6
Continuous
 62
     7
370
    25
100
AcDbLine
 10
6374.9422628953
 20
4647.2262187616
 30
0.0
 11
6370.652164696
 21
4729.0861689056
 31
0.0
  0
LINE
  5
198
330
1F
100
AcDbEntity
  8
0
  6
Continuous
 62
     7
370
    25
100
AcDbLine
 10
6380.0331529628
 20
4729.0861689056
 30
0.0
 11
6370.652164696
 21
4729.0861689056
 31
0.0
  0
ARC
  5
199
330
1F
100
AcDbEntity
  8
0
  6
Continuous
 62
     7
370
    25
100
AcDbCircle
 10
6387.7323093289
 20
4638.3458526034
 30
0.0
 40
3.002363730080517
100
AcDbArc
 50
228.0668498658
 51
268.0231839097
  0
ARC
  5
19A
330
1F
100
AcDbEntity
  8
0
  6
Continuous
 62
     7
370
    25
100
AcDbCircle
 10
6320.3792861417
 20
4574.7445264833
 30
0.0
 40
89.64480576720284
100
AcDbArc
 50
43.2014907561
 51
49.536176468
  0
ARC
  5
19B
330
1F
100
AcDbEntity
  8
0
  6
Continuous
 62
     7
370
    25
100
AcDbCircle
 10
6430.8359295855
 20
4598.724532367
 30
0.0
 40
68.47549831579622
100
AcDbArc
 50
137.4660192405
 51
139.772444254
  0
ARC
  5
19C
330
1F
100
AcDbEntity
  8
0
  6
Continuous
 62
     7
370
    25
100
AcDbCircle
 10
6600.9250432501
 20
4574.7445264835
 30
0.0
 40
89.6448057668809
100
AcDbArc
 50
130.463823532
 51
136.7985092439
  0
ARC
  5
19D
330
1F
100
AcDbEntity
  8
0
  6
Continuous
 62
     7
370
    25
100
AcDbCircle
 10
6533.5720200631
 20
4638.3458526034
 30
0.0
 40
3.002363730078556
100
AcDbArc
 50
271.9768160902
 51
311.9331501342
  0
ARC
  5
19E
330
1F
100
AcDbEntity
  8
0
  6
Continuous
 62
     7
370
    25
100
AcDbCircle
 10
6490.4683998061
 20
4598.7245323666
 30
0.0
 40
68.47549831633272
100
AcDbArc
 50
40.227555746
 51
42.5339807595
  0
ARC
  5
19F
330
1F
100
AcDbEntity
  8
0
  6
Continuous
 62
     7
370
    25
100
AcDbCircle
 10
6543.3751674435
 20
4647.3832749643
 30
0.0
 40
2.991025343460088
100
AcDbArc
 50
311.9261079577
 51
356.9900629839
  0
ARC
  5
1A0
330
1F
100
AcDbEntity
  8
0
  6
Continuous
 62
     7
370
    25
100
AcDbCircle
 10
6556.1559047279
 20
4629.7337126141
 30
0.0
 40
18.8192122354893
100
AcDbArc
 50
124.9552716649
 51
135.1206577484
  0
ARC
  5
1A1
330
1F
100
AcDbEntity
  8
0
  6
Continuous
 62
     7
370
    25
100
AcDbCircle
 10
6490.5405217179
 20
4598.7895338588
 30
0.0
 40
68.47569546225138
100
AcDbArc
 50
40.2275621466
 51
42.5339803882
  0
ARC
  5
1A2
330
1F
100
AcDbEntity
  8
0
  6
Continuous
 62
     7
370
    25
100
AcDbCircle
 10
6365.1484246641
 20
4629.7337126141
 30
0.0
 40
18.81921223546024
100
AcDbArc
 50
44.8793422516
 51
55.0447283352
  0
ARC
  5
1A3
330
1F
100
AcDbEntity
  8
0
  6
Continuous
 62
     7
370
    25
100
AcDbCircle
 10
6377.9291619485
 20
4647.3832749643
 30
0.0
 40
2.991025343462812
100
AcDbArc
 50
183.0099370161
 51
228.0738920422
  0
ARC
  5
1A4
330
1F
100
AcDbEntity
  8
0
  6
Continuous
 62
     7
370
    25
100
AcDbCircle
 10
6430.7638076751
 20
4598.7895338579
 30
0.0
 40
68.47569546357984
100
AcDbArc
 50
137.4660196119
 51
139.7724378533
  0
LINE
  5
1A5
330
1F
100
AcDbEntity
  8
0
  6
Continuous
 62
     7
370
    25
100
AcDbLine
 10
6542.7484508937
 20
4642.9477177782
 30
0.0
 11
6542.8207183832
 21
4643.0128524325
 31
0.0
  0
LINE
  5
1A6
330
1F
100
AcDbEntity
  8
0
  6
Continuous
 62
     7
370
    25
100
AcDbLine
 10
6378.5558784983
 20
4642.9477177782
 30
0.0
 11
6378.4836110088
 21
4643.0128524325
 31
0.0
  0
LINE
  5
1A7
330
1F
100
AcDbEntity
  8
0
  6
Continuous
 62
     7
370
    25
100
AcDbLine
 10
6460.652164696
 20
4633.0654692107
 30
0.0
 11
6460.652164696
 21
4629.0861689055
 31
0.0
  0
LINE
  5
1A8
330
1F
100
AcDbEntity
  8
0
  6
Continuous
 62
     7
370
    25
100
AcDbLine
 10
6546.3620664967
 20
4647.2262187616
 30
0.0
 11
6546.1552114873
 21
4643.2791900512
 31
0.0
  0
LINE
  5
1A9
330
1F
100
AcDbEntity
  8
0
  6
Continuous
 62
     7
370
    25
100
AcDbLine
 10
6374.9422628953
 20
4647.2262187616
 30
0.0
 11
6375.1491179047
 21
4643.2791900512
 31
0.0
  0
LWPOLYLINE
  5
1AA
330
1F
100
AcDbEntity
  8
0
  6
Continuous
 62
     7
370
    25
100
AcDbPolyline
 90
       22
 70
   128
 43
0.0
 10
6499.587968229
 20
4730.7657207726
 10
6500.4670449766
 20
4730.6544720843
 10
6501.2680118973
 20
4730.5204792891
 10
6501.9196995654
 20
4730.3756482347
 10
6502.3642026716
 20
4730.2328477961
 10
6502.5620251643
 20
4730.1047664188
 10
6502.4955896469
 20
4730.0027846953
 10
6502.1707992065
 20
4729.9359641492
 10
6501.6165128993
 20
4729.9102420794
 10
6500.881981496
 20
4729.9279040045
 10
6500.0324713352
 20
4729.9873805851
 10
6499.1434651228
 20
4730.0833870659
 10
6498.2939549621
 20
4730.2073928499
 10
6497.5594235587
 20
4730.3483794788
 10
6497.0051372515
 20
4730.4938196721
 10
6496.6803468112
 20
4730.6307904303
 10
6496.6139112937
 20
4730.7471213004
 10
6496.8117337864
 20
4730.8324757741
 10
6497.2562368926
 20
4730.8792697319
 10
6497.9079245607
 20
4730.8833453253
 10
6498.7088914815
 20
4730.8443404199
 10
6499.587968229
 20
4730.7657207726
  0
LWPOLYLINE
  5
1AB
330
1F
100
AcDbEntity
  8
0
  6
Continuous
 62
     8
370
    25
100
AcDbPolyline
 90
        6
 70
   128
 43
0.0
 10
6545.3736857717
 20
4645.1579306995
 10
6545.2836978588
 20
4643.4400207323
 10
6545.2192008751
 20
4642.2087471925
 10
6545.1802061252
 20
4641.4643229634
 10
6545.1667152195
 20
4641.2067767249
 10
6545.1670524743
 20
4641.2132150409
  0
LWPOLYLINE
  5
1AC
330
1F
100
AcDbEntity
  8
0
  6
Continuous
 62
     8
370
    25
100
AcDbPolyline
 90
        5
 70
   128
 43
0.0
 10
6535.3849799792
 20
4632.417415251
 10
6535.3946047606
 20
4632.6002438616
 10
6535.4306838733
 20
4633.2861969242
 10
6535.4920849656
 20
4634.4576679504
 10
6535.5783889167
 20
4636.1123190821
  0
LWPOLYLINE
  5
1AD
330
1F
100
AcDbEntity
  8
0
  6
Continuous
 62
     8
370
    25
100
AcDbPolyline
 90
        5
 70
   128
 43
0.0
 10
6385.9193494128
 20
4632.417415251
 10
6385.9097246314
 20
4632.6002438616
 10
6385.8736455187
 20
4633.2861969242
 10
6385.8122444264
 20
4634.4576679504
 10
6385.7259404752
 20
4636.1123190821
  0
LWPOLYLINE
  5
1AE
330
1F
100
AcDbEntity
  8
0
  6
Continuous
 62
     8
370
    25
100
AcDbPolyline
 90
        6
 70
   128
 43
0.0
 10
6375.9306436203
 20
4645.1579306995
 10
6376.0206315332
 20
4643.4400207323
 10
6376.0851285169
 20
4642.2087471925
 10
6376.1241232668
 20
4641.4643229634
 10
6376.1376141725
 20
4641.2067767249
 10
6376.1372769176
 20
4641.2132150409
  0
LWPOLYLINE
  5
1AF
330
1F
100
AcDbEntity
  8
0
  6
Continuous
 62
     8
370
    25
100
AcDbPolyline
 90
        5
 70
   128
 43
0.0
 10
6387.6287424774
 20
4635.3452756797
 10
6387.714998033
 20
4633.6898707741
 10
6387.7763171932
 20
4632.5187720652
 10
6387.8123781445
 20
4631.832464909
 10
6387.8220523617
 20
4631.6485102557
  0
LWPOLYLINE
  5
1B0
330
1F
100
AcDbEntity
  8
0
  6
Continuous
 62
     8
370
    25
100
AcDbPolyline
 90
        5
 70
   128
 43
0.0
 10
6533.6755869146
 20
4635.3452756797
 10
6533.5893313589
 20
4633.6898707741
 10
6533.5280121988
 20
4632.5187720652
 10
6533.4919512475
 20
4631.832464909
 10
6533.4822770303
 20
4631.6485102557
  0
ENDSEC
  0
SECTION
  2
OBJECTS
  0
DICTIONARY
  5
C
330
0
100
AcDbDictionary
281
     1
  3
ACAD_GROUP
350
D
  3
ACAD_LAYOUT
350
1A
  3
ACAD_MLINESTYLE
350
17
  3
ACAD_PLOTSETTINGS
350
19
  3
ACAD_PLOTSTYLENAME
350
E
  3
ACAD_SCALELIST
350
47
  3
DWGPROPS
350
1B1
  0
DICTIONARY
  5
D
102
{ACAD_REACTORS
330
C
102
}
330
C
100
AcDbDictionary
281
     1
  0
DICTIONARY
  5
1A
102
{ACAD_REACTORS
330
C
102
}
330
C
100
AcDbDictionary
281
     1
  3
Layout1
350
1E
  3
Layout2
350
26
  3
Model
350
22
  0
DICTIONARY
  5
17
102
{ACAD_REACTORS
330
C
102
}
330
C
100
AcDbDictionary
281
     1
  3
Standard
350
18
  0
DICTIONARY
  5
19
102
{ACAD_REACTORS
330
C
102
}
330
C
100
AcDbDictionary
281
     1
  0
ACDBDICTIONARYWDFLT
  5
E
102
{ACAD_REACTORS
330
C
102
}
330
C
100
AcDbDictionary
281
     1
  3
Normal
350
F
100
AcDbDictionaryWithDefault
340
F
  0
DICTIONARY
  5
47
102
{ACAD_REACTORS
330
C
102
}
330
C
100
AcDbDictionary
281
     1
  3
A0
350
48
  3
A1
350
49
  3
A2
350
4A
  3
A3
350
4B
  3
A4
350
4C
  3
A5
350
4D
  3
A6
350
4E
  3
A7
350
4F
  3
A8
350
50
  3
A9
350
51
  3
B0
350
52
  3
B1
350
53
  3
B2
350
54
  3
B3
350
55
  3
B4
350
56
  3
B5
350
57
  3
B6
350
58
  3
B7
350
59
  3
B8
350
5A
  3
B9
350
5B
  3
C0
350
5C
  3
C1
350
5D
  3
C2
350
5E
  3
C3
350
5F
  3
C4
350
60
  3
C5
350
61
  3
C6
350
62
  3
C7
350
63
  3
C8
350
64
  3
C9
350
65
  3
D0
350
66
  3
D1
350
67
  3
D2
350
68
  0
XRECORD
  5
1B1
102
{ACAD_REACTORS
330
C
102
}
330
C
100
AcDbXrecord
280
     1
  1
DWGPROPS COOKIE
  2

  3

  4

  6

  7

  8
radek.stransky
  9

300
=
301
=
302
=
303
=
304
=
305
=
306
=
307
=
308
=
309
=
 40
0.0
 41
2459835.35576066
 42
2459835.355761366
  1

 90
        0
  0
LAYOUT
  5
1E
102
{ACAD_REACTORS
330
1A
102
}
330
1A
100
AcDbPlotSettings
  1

  2
none_device
  4

  6

 40
0.0
 41
0.0
 42
0.0
 43
0.0
 44
0.0
 45
0.0
 46
0.0
 47
0.0
 48
0.0
 49
0.0
140
0.0
141
0.0
142
1.0
143
1.0
 70
   688
 72
     1
 73
     0
 74
     5
  7

 75
    16
147
1.0
148
0.0
149
0.0
100
AcDbLayout
  1
Layout1
 70
     1
 71
     1
 10
0.0
 20
0.0
 11
420.0
 21
297.0
 12
0.0
 22
0.0
 32
0.0
 14
1.0000000000E+20
 24
1.0000000000E+20
 34
1.0000000000E+20
 15
-1.0000000000E+20
 25
-1.0000000000E+20
 35
-1.0000000000E+20
146
0.0
 13
0.0
 23
0.0
 33
0.0
 16
1.0
 26
0.0
 36
0.0
 17
0.0
 27
1.0
 37
0.0
 76
     0
330
1B
  0
LAYOUT
  5
26
102
{ACAD_REACTORS
330
1A
102
}
330
1A
100
AcDbPlotSettings
  1

  2
none_device
  4

  6

 40
0.0
 41
0.0
 42
0.0
 43
0.0
 44
0.0
 45
0.0
 46
0.0
 47
0.0
 48
0.0
 49
0.0
140
0.0
141
0.0
142
1.0
143
1.0
 70
   688
 72
     1
 73
     0
 74
     5
  7

 75
    16
147
1.0
148
0.0
149
0.0
100
AcDbLayout
  1
Layout2
 70
     1
 71
     2
 10
0.0
 20
0.0
 11
0.0
 21
0.0
 12
0.0
 22
0.0
 32
0.0
 14
0.0
 24
0.0
 34
0.0
 15
0.0
 25
0.0
 35
0.0
146
0.0
 13
0.0
 23
0.0
 33
0.0
 16
1.0
 26
0.0
 36
0.0
 17
0.0
 27
1.0
 37
0.0
 76
     0
330
23
  0
LAYOUT
  5
22
102
{ACAD_REACTORS
330
1A
102
}
330
1A
100
AcDbPlotSettings
  1

  2
none_device
  4
Letter_(8.50_x_11.00_Inches)
  6

 40
6.35
 41
6.35
 42
6.35000508
 43
6.35000508
 44
215.9
 45
279.4
 46
0.0
 47
0.0
 48
0.0
 49
0.0
140
0.0
141
0.0
142
1.0
143
1.0
 70
  1712
 72
     1
 73
     0
 74
     0
  7

 75
     0
147
1.0
148
0.0
149
0.0
100
AcDbLayout
  1
Model
 70
     1
 71
     0
 10
0.0
 20
0.0
 11
20000.0
 21
10000.0
 12
0.0
 22
0.0
 32
0.0
 14
0.0
 24
0.0
 34
0.0
 15
20000.0
 25
10000.0
 35
0.0
146
0.0
 13
0.0
 23
0.0
 33
0.0
 16
1.0
 26
0.0
 36
0.0
 17
0.0
 27
1.0
 37
0.0
 76
     0
330
1F
331
29
  0
MLINESTYLE
  5
18
102
{ACAD_REACTORS
330
17
102
}
330
17
100
AcDbMlineStyle
  2
Standard
 70
     0
  3

 62
   256
 51
90.0
 52
90.0
 71
     2
 49
0.5
 62
   256
  6
BYLAYER
 49
-0.5
 62
   256
  6
BYLAYER
  0
ACDBPLACEHOLDER
  5
F
102
{ACAD_REACTORS
330
E
102
}
330
E
  0
SCALE
  5
48
102
{ACAD_REACTORS
330
47
102
}
330
47
100
AcDbScale
 70
     0
300
1:1
140
1.0
141
1.0
290
     1
  0
SCALE
  5
49
102
{ACAD_REACTORS
330
47
102
}
330
47
100
AcDbScale
 70
     0
300
1:2
140
1.0
141
2.0
290
     0
  0
SCALE
  5
4A
102
{ACAD_REACTORS
330
47
102
}
330
47
100
AcDbScale
 70
     0
300
1:4
140
1.0
141
4.0
290
     0
  0
SCALE
  5
4B
102
{ACAD_REACTORS
330
47
102
}
330
47
100
AcDbScale
 70
     0
300
1:5
140
1.0
141
5.0
290
     0
  0
SCALE
  5
4C
102
{ACAD_REACTORS
330
47
102
}
330
47
100
AcDbScale
 70
     0
300
1:8
140
1.0
141
8.0
290
     0
  0
SCALE
  5
4D
102
{ACAD_REACTORS
330
47
102
}
330
47
100
AcDbScale
 70
     0
300
1:10
140
1.0
141
10.0
290
     0
  0
SCALE
  5
4E
102
{ACAD_REACTORS
330
47
102
}
330
47
100
AcDbScale
 70
     0
300
1:16
140
1.0
141
16.0
290
     0
  0
SCALE
  5
4F
102
{ACAD_REACTORS
330
47
102
}
330
47
100
AcDbScale
 70
     0
300
1:20
140
1.0
141
20.0
290
     0
  0
SCALE
  5
50
102
{ACAD_REACTORS
330
47
102
}
330
47
100
AcDbScale
 70
     0
300
1:30
140
1.0
141
30.0
290
     0
  0
SCALE
  5
51
102
{ACAD_REACTORS
330
47
102
}
330
47
100
AcDbScale
 70
     0
300
1:40
140
1.0
141
40.0
290
     0
  0
SCALE
  5
52
102
{ACAD_REACTORS
330
47
102
}
330
47
100
AcDbScale
 70
     0
300
1:50
140
1.0
141
50.0
290
     0
  0
SCALE
  5
53
102
{ACAD_REACTORS
330
47
102
}
330
47
100
AcDbScale
 70
     0
300
1:100
140
1.0
141
100.0
290
     0
  0
SCALE
  5
54
102
{ACAD_REACTORS
330
47
102
}
330
47
100
AcDbScale
 70
     0
300
2:1
140
2.0
141
1.0
290
     0
  0
SCALE
  5
55
102
{ACAD_REACTORS
330
47
102
}
330
47
100
AcDbScale
 70
     0
300
4:1
140
4.0
141
1.0
290
     0
  0
SCALE
  5
56
102
{ACAD_REACTORS
330
47
102
}
330
47
100
AcDbScale
 70
     0
300
8:1
140
8.0
141
1.0
290
     0
  0
SCALE
  5
57
102
{ACAD_REACTORS
330
47
102
}
330
47
100
AcDbScale
 70
     0
300
10:1
140
10.0
141
1.0
290
     0
  0
SCALE
  5
58
102
{ACAD_REACTORS
330
47
102
}
330
47
100
AcDbScale
 70
     0
300
100:1
140
100.0
141
1.0
290
     0
  0
SCALE
  5
59
102
{ACAD_REACTORS
330
47
102
}
330
47
100
AcDbScale
 70
     0
300
1/128" = 1'-0"
140
0.0078125
141
12.0
290
     0
  0
SCALE
  5
5A
102
{ACAD_REACTORS
330
47
102
}
330
47
100
AcDbScale
 70
     0
300
1/64" = 1'-0"
140
0.015625
141
12.0
290
     0
  0
SCALE
  5
5B
102
{ACAD_REACTORS
330
47
102
}
330
47
100
AcDbScale
 70
     0
300
1/32" = 1'-0"
140
0.03125
141
12.0
290
     0
  0
SCALE
  5
5C
102
{ACAD_REACTORS
330
47
102
}
330
47
100
AcDbScale
 70
     0
300
1/16" = 1'-0"
140
0.0625
141
12.0
290
     0
  0
SCALE
  5
5D
102
{ACAD_REACTORS
330
47
102
}
330
47
100
AcDbScale
 70
     0
300
3/32" = 1'-0"
140
0.09375
141
12.0
290
     0
  0
SCALE
  5
5E
102
{ACAD_REACTORS
330
47
102
}
330
47
100
AcDbScale
 70
     0
300
1/8" = 1'-0"
140
0.125
141
12.0
290
     0
  0
SCALE
  5
5F
102
{ACAD_REACTORS
330
47
102
}
330
47
100
AcDbScale
 70
     0
300
3/16" = 1'-0"
140
0.1875
141
12.0
290
     0
  0
SCALE
  5
60
102
{ACAD_REACTORS
330
47
102
}
330
47
100
AcDbScale
 70
     0
300
1/4" = 1'-0"
140
0.25
141
12.0
290
     0
  0
SCALE
  5
61
102
{ACAD_REACTORS
330
47
102
}
330
47
100
AcDbScale
 70
     0
300
3/8" = 1'-0"
140
0.375
141
12.0
290
     0
  0
SCALE
  5
62
102
{ACAD_REACTORS
330
47
102
}
330
47
100
AcDbScale
 70
     0
300
1/2" = 1'-0"
140
0.5
141
12.0
290
     0
  0
SCALE
  5
63
102
{ACAD_REACTORS
330
47
102
}
330
47
100
AcDbScale
 70
     0
300
3/4" = 1'-0"
140
0.75
141
12.0
290
     0
  0
SCALE
  5
64
102
{ACAD_REACTORS
330
47
102
}
330
47
100
AcDbScale
 70
     0
300
1" = 1'-0"
140
1.0
141
12.0
290
     0
  0
SCALE
  5
65
102
{ACAD_REACTORS
330
47
102
}
330
47
100
AcDbScale
 70
     0
300
1-1/2" = 1'-0"
140
1.5
141
12.0
290
     0
  0
SCALE
  5
66
102
{ACAD_REACTORS
330
47
102
}
330
47
100
AcDbScale
 70
     0
300
3" = 1'-0"
140
3.0
141
12.0
290
     0
  0
SCALE
  5
67
102
{ACAD_REACTORS
330
47
102
}
330
47
100
AcDbScale
 70
     0
300
6" = 1'-0"
140
6.0
141
12.0
290
     0
  0
SCALE
  5
68
102
{ACAD_REACTORS
330
47
102
}
330
47
100
AcDbScale
 70
     0
300
1'-0" = 1'-0"
140
12.0
141
12.0
290
     0
  0
ENDSEC
  0
EOF
