  0
SECTION
  2
HEADER
  9
$ACADVER
  1
AC1015
  9
$ACADMAINTVER
 70
     6
  9
$DWGCODEPAGE
  3
ANSI_1250
  9
$INSBASE
 10
0.0
 20
0.0
 30
0.0
  9
$EXTMIN
 10
0.0
 20
0.0
 30
0.0
  9
$EXTMAX
 10
20000.0
 20
10000.0
 30
0.0
  9
$LIMMIN
 10
0.0
 20
0.0
  9
$LIMMAX
 10
20000.0
 20
10000.0
  9
$ORTHOMODE
 70
     0
  9
$REGENMODE
 70
     1
  9
$FILLMODE
 70
     1
  9
$QTEXTMODE
 70
     0
  9
$MIRRTEXT
 70
     1
  9
$LTSCALE
 40
1.0
  9
$ATTMODE
 70
     1
  9
$TEXTSIZE
 40
2.0
  9
$TRACEWID
 40
1.0
  9
$TEXTSTYLE
  7
Standard
  9
$CLAYER
  8
0
  9
$CELTYPE
  6
ByLayer
  9
$CECOLOR
 62
   256
  9
$CELTSCALE
 40
1.0
  9
$DISPSILH
 70
     0
  9
$DIMSCALE
 40
1.0
  9
$DIMASZ
 40
2.0
  9
$DIMEXO
 40
1.0
  9
$DIMDLI
 40
3.75
  9
$DIMRND
 40
0.0
  9
$DIMDLE
 40
0.0
  9
$DIMEXE
 40
1.0
  9
$DIMTP
 40
0.0
  9
$DIMTM
 40
0.0
  9
$DIMTXT
 40
2.0
  9
$DIMCEN
 40
2.5
  9
$DIMTSZ
 40
0.0
  9
$DIMTOL
 70
     0
  9
$DIMLIM
 70
     0
  9
$DIMTIH
 70
     1
  9
$DIMTOH
 70
     1
  9
$DIMSE1
 70
     0
  9
$DIMSE2
 70
     0
  9
$DIMTAD
 70
     1
  9
$DIMZIN
 70
     0
  9
$DIMBLK
  1

  9
$DIMASO
 70
     1
  9
$DIMSHO
 70
     1
  9
$DIMPOST
  1

  9
$DIMAPOST
  1

  9
$DIMALT
 70
     0
  9
$DIMALTD
 70
     3
  9
$DIMALTF
 40
0.0393700787
  9
$DIMLFAC
 40
1.0
  9
$DIMTOFL
 70
     1
  9
$DIMTVP
 40
0.0
  9
$DIMTIX
 70
     0
  9
$DIMSOXD
 70
     0
  9
$DIMSAH
 70
     0
  9
$DIMBLK1
  1

  9
$DIMBLK2
  1

  9
$DIMSTYLE
  2
ISO-25
  9
$DIMCLRD
 70
     0
  9
$DIMCLRE
 70
     0
  9
$DIMCLRT
 70
     0
  9
$DIMTFAC
 40
1.0
  9
$DIMGAP
 40
1.524
  9
$DIMJUST
 70
     0
  9
$DIMSD1
 70
     0
  9
$DIMSD2
 70
     0
  9
$DIMTOLJ
 70
     0
  9
$DIMTZIN
 70
     0
  9
$DIMALTZ
 70
     0
  9
$DIMALTTZ
 70
     0
  9
$DIMUPT
 70
     0
  9
$DIMDEC
 70
     2
  9
$DIMTDEC
 70
     0
  9
$DIMALTU
 70
     2
  9
$DIMALTTD
 70
     3
  9
$DIMTXSTY
  7
Standard
  9
$DIMAUNIT
 70
     0
  9
$DIMADEC
 70
     2
  9
$DIMALTRND
 40
0.0
  9
$DIMAZIN
 70
     0
  9
$DIMDSEP
 70
    44
  9
$DIMATFIT
 70
     3
  9
$DIMFRAC
 70
     0
  9
$DIMLDRBLK
  1

  9
$DIMLUNIT
 70
     2
  9
$DIMLWD
 70
    -2
  9
$DIMLWE
 70
    -2
  9
$DIMTMOVE
 70
     0
  9
$LUNITS
 70
     2
  9
$LUPREC
 70
     3
  9
$SKETCHINC
 40
1.0
  9
$FILLETRAD
 40
10.0
  9
$AUNITS
 70
     0
  9
$AUPREC
 70
     2
  9
$MENU
  1
.
  9
$ELEVATION
 40
0.0
  9
$PELEVATION
 40
0.0
  9
$THICKNESS
 40
0.0
  9
$LIMCHECK
 70
     0
  9
$CHAMFERA
 40
0.0
  9
$CHAMFERB
 40
0.0
  9
$CHAMFERC
 40
0.0
  9
$CHAMFERD
 40
0.0
  9
$SKPOLY
 70
     0
  9
$TDCREATE
 40
2459744.593442546
  9
$TDUCREATE
 40
2459744.510109213
  9
$TDUPDATE
 40
2459744.593442998
  9
$TDUUPDATE
 40
2459744.510109664
  9
$TDINDWG
 40
0.0000000116
  9
$TDUSRTIMER
 40
0.0000000116
  9
$USRTIMER
 70
     1
  9
$ANGBASE
 50
0.0
  9
$ANGDIR
 70
     0
  9
$PDMODE
 70
     0
  9
$PDSIZE
 40
-1.0
  9
$PLINEWID
 40
0.0
  9
$SPLFRAME
 70
     0
  9
$SPLINETYPE
 70
     6
  9
$SPLINESEGS
 70
     8
  9
$HANDSEED
  5
2E4
  9
$SURFTAB1
 70
     6
  9
$SURFTAB2
 70
     6
  9
$SURFTYPE
 70
     6
  9
$SURFU
 70
     6
  9
$SURFV
 70
     6
  9
$UCSBASE
  2

  9
$UCSNAME
  2

  9
$UCSORG
 10
0.0
 20
0.0
 30
0.0
  9
$UCSXDIR
 10
1.0
 20
0.0
 30
0.0
  9
$UCSYDIR
 10
0.0
 20
1.0
 30
0.0
  9
$UCSORTHOREF
  2

  9
$UCSORTHOVIEW
 70
     0
  9
$UCSORGTOP
 10
0.0
 20
0.0
 30
0.0
  9
$UCSORGBOTTOM
 10
0.0
 20
0.0
 30
0.0
  9
$UCSORGLEFT
 10
0.0
 20
0.0
 30
0.0
  9
$UCSORGRIGHT
 10
0.0
 20
0.0
 30
0.0
  9
$UCSORGFRONT
 10
0.0
 20
0.0
 30
0.0
  9
$UCSORGBACK
 10
0.0
 20
0.0
 30
0.0
  9
$PUCSBASE
  2

  9
$PUCSNAME
  2

  9
$PUCSORG
 10
0.0
 20
0.0
 30
0.0
  9
$PUCSXDIR
 10
1.0
 20
0.0
 30
0.0
  9
$PUCSYDIR
 10
0.0
 20
1.0
 30
0.0
  9
$PUCSORTHOREF
  2

  9
$PUCSORTHOVIEW
 70
     0
  9
$PUCSORGTOP
 10
0.0
 20
0.0
 30
0.0
  9
$PUCSORGBOTTOM
 10
0.0
 20
0.0
 30
0.0
  9
$PUCSORGLEFT
 10
0.0
 20
0.0
 30
0.0
  9
$PUCSORGRIGHT
 10
0.0
 20
0.0
 30
0.0
  9
$PUCSORGFRONT
 10
0.0
 20
0.0
 30
0.0
  9
$PUCSORGBACK
 10
0.0
 20
0.0
 30
0.0
  9
$USERI1
 70
     0
  9
$USERI2
 70
     0
  9
$USERI3
 70
     0
  9
$USERI4
 70
     0
  9
$USERI5
 70
     0
  9
$USERR1
 40
0.0
  9
$USERR2
 40
0.0
  9
$USERR3
 40
0.0
  9
$USERR4
 40
0.0
  9
$USERR5
 40
0.0
  9
$WORLDVIEW
 70
     1
  9
$SHADEDGE
 70
     3
  9
$SHADEDIF
 70
    70
  9
$TILEMODE
 70
     1
  9
$MAXACTVP
 70
    64
  9
$PINSBASE
 10
0.0
 20
0.0
 30
0.0
  9
$PLIMCHECK
 70
     0
  9
$PEXTMIN
 10
1.0000000000E+20
 20
1.0000000000E+20
 30
1.0000000000E+20
  9
$PEXTMAX
 10
-1.0000000000E+20
 20
-1.0000000000E+20
 30
-1.0000000000E+20
  9
$PLIMMIN
 10
0.0
 20
0.0
  9
$PLIMMAX
 10
420.0
 20
297.0
  9
$UNITMODE
 70
     0
  9
$VISRETAIN
 70
     1
  9
$PLINEGEN
 70
     0
  9
$PSLTSCALE
 70
     1
  9
$TREEDEPTH
 70
  3020
  9
$CMLSTYLE
  2
Standard
  9
$CMLJUST
 70
     0
  9
$CMLSCALE
 40
20.0
  9
$PROXYGRAPHICS
 70
     1
  9
$MEASUREMENT
 70
     1
  9
$CELWEIGHT
370
    -1
  9
$ENDCAPS
280
     0
  9
$JOINSTYLE
280
     0
  9
$LWDISPLAY
290
     1
  9
$INSUNITS
 70
     4
  9
$HYPERLINKBASE
  1

  9
$STYLESHEET
  1

  9
$XEDIT
290
     1
  9
$CEPSNTYPE
380
     0
  9
$PSTYLEMODE
290
     1
  9
$FINGERPRINTGUID
  2
{e566817c-f626-4466-842f-6c4efcc2e674}
  9
$VERSIONGUID
  2
{FAEB1C32-E019-11D5-929B-00C0DF256EC4}
  9
$EXTNAMES
290
     1
  9
$PSVPSCALE
 40
0.0
  9
$OLESTARTUP
290
     0
  0
ENDSEC
  0
SECTION
  2
CLASSES
  0
CLASS
  1
ACDBDICTIONARYWDFLT
  2
AcDbDictionaryWithDefault
  3
ObjectDBX Classes
 90
        0
280
     0
281
     0
  0
CLASS
  1
VISUALSTYLE
  2
AcDbVisualStyle
  3
ObjectDBX Classes
 90
     4095
280
     0
281
     0
  0
CLASS
  1
MATERIAL
  2
AcDbMaterial
  3
ObjectDBX Classes
 90
     1153
280
     0
281
     0
  0
CLASS
  1
SCALE
  2
AcDbScale
  3
ObjectDBX Classes
 90
     1153
280
     0
281
     0
  0
CLASS
  1
TABLESTYLE
  2
AcDbTableStyle
  3
ObjectDBX Classes
 90
     4095
280
     0
281
     0
  0
CLASS
  1
MLEADERSTYLE
  2
AcDbMLeaderStyle
  3
ACDB_MLEADERSTYLE_CLASS
 90
     4095
280
     0
281
     0
  0
CLASS
  1
SUN
  2
AcDbSun
  3
SCENEOE
 90
     1153
280
     0
281
     0
  0
CLASS
  1
ACDBPLACEHOLDER
  2
AcDbPlaceHolder
  3
ObjectDBX Classes
 90
        0
280
     0
281
     0
  0
CLASS
  1
LAYOUT
  2
AcDbLayout
  3
ObjectDBX Classes
 90
        0
280
     0
281
     0
  0
ENDSEC
  0
SECTION
  2
TABLES
  0
TABLE
  2
VPORT
  5
8
330
0
100
AcDbSymbolTable
 70
     1
  0
VPORT
  5
29
330
8
100
AcDbSymbolTableRecord
100
AcDbViewportTableRecord
  2
*Active
 70
     0
 10
0.0
 20
0.0
 11
1.0
 21
1.0
 12
10000.0
 22
5000.0
 13
0.0
 23
0.0
 14
10.0
 24
10.0
 15
10.0
 25
10.0
 16
0.0
 26
0.0
 36
1.0
 17
0.0
 27
0.0
 37
0.0
 40
10000.0
 41
2.0
 42
50.0
 43
0.0
 44
0.0
 50
0.0
 51
0.0
 71
     0
 72
  2000
 73
     1
 74
     3
 75
     0
 76
     0
 77
     0
 78
     0
281
     0
 65
     1
110
0.0
120
0.0
130
0.0
111
1.0
121
0.0
131
0.0
112
0.0
122
1.0
132
0.0
 79
     0
146
0.0
  0
ENDTAB
  0
TABLE
  2
LTYPE
  5
5
330
0
100
AcDbSymbolTable
 70
     6
  0
LTYPE
  5
14
330
5
100
AcDbSymbolTableRecord
100
AcDbLinetypeTableRecord
  2
ByBlock
 70
     0
  3

 72
    65
 73
     0
 40
0.0
  0
LTYPE
  5
15
330
5
100
AcDbSymbolTableRecord
100
AcDbLinetypeTableRecord
  2
ByLayer
 70
     0
  3

 72
    65
 73
     0
 40
0.0
  0
LTYPE
  5
16
330
5
100
AcDbSymbolTableRecord
100
AcDbLinetypeTableRecord
  2
Continuous
 70
     0
  3
Solid line
 72
    65
 73
     0
 40
0.0
  0
LTYPE
  5
6E
330
5
100
AcDbSymbolTableRecord
100
AcDbLinetypeTableRecord
  2
HIDDEN
 70
     0
  3
Hidden __ __ __ __ __ __ __ __ __ __ __ __ __ __
 72
    65
 73
     2
 40
1.905
 49
1.27
 74
     0
 49
-0.635
 74
     0
  0
LTYPE
  5
6F
330
5
100
AcDbSymbolTableRecord
100
AcDbLinetypeTableRecord
  2
PHANTOM
 70
     0
  3
Phantom ______  __  __  ______  __  __  ______
 72
    65
 73
     6
 40
12.7
 49
6.35
 74
     0
 49
-1.27
 74
     0
 49
1.27
 74
     0
 49
-1.27
 74
     0
 49
1.27
 74
     0
 49
-1.27
 74
     0
  0
LTYPE
  5
70
330
5
100
AcDbSymbolTableRecord
100
AcDbLinetypeTableRecord
  2
CENTER
 70
     0
  3
Center ____ _ ____ _ ____ _ ____ _ ____ _ ____
 72
    65
 73
     4
 40
10.16
 49
6.35
 74
     0
 49
-1.27
 74
     0
 49
1.27
 74
     0
 49
-1.27
 74
     0
  0
LTYPE
  5
71
330
5
100
AcDbSymbolTableRecord
100
AcDbLinetypeTableRecord
  2
CENTERX2
 70
     0
  3
Center (2x) ________  __  ________  __  _____
 72
    65
 73
     4
 40
20.32
 49
12.7
 74
     0
 49
-2.54
 74
     0
 49
2.54
 74
     0
 49
-2.54
 74
     0
  0
LTYPE
  5
72
330
5
100
AcDbSymbolTableRecord
100
AcDbLinetypeTableRecord
  2
DOT2
 70
     0
  3
Dot (.5x) ........................................
 72
    65
 73
     2
 40
0.635
 49
0.0
 74
     0
 49
-0.635
 74
     0
  0
ENDTAB
  0
TABLE
  2
LAYER
  5
2
330
0
100
AcDbSymbolTable
 70
    13
  0
LAYER
  5
10
330
2
100
AcDbSymbolTableRecord
100
AcDbLayerTableRecord
  2
0
 70
     0
 62
     7
  6
Continuous
370
    -3
390
F
  0
LAYER
  5
73
330
2
100
AcDbSymbolTableRecord
100
AcDbLayerTableRecord
  2
FORMAT
 70
     0
 62
     7
  6
Continuous
370
    -3
390
F
  0
LAYER
  5
74
330
2
100
AcDbSymbolTableRecord
100
AcDbLayerTableRecord
  2
OSA
 70
     0
 62
     7
  6
CENTER
370
    -3
390
F
  0
LAYER
  5
75
330
2
100
AcDbSymbolTableRecord
100
AcDbLayerTableRecord
  2
0_35
 70
     0
 62
     7
  6
Continuous
370
    35
390
F
  0
LAYER
  5
76
330
2
100
AcDbSymbolTableRecord
100
AcDbLayerTableRecord
  2
0_5
 70
     0
 62
     7
  6
Continuous
370
    50
390
F
  0
LAYER
  5
77
330
2
100
AcDbSymbolTableRecord
100
AcDbLayerTableRecord
  2
0_25
 70
     0
 62
     7
  6
Continuous
370
    25
390
F
  0
LAYER
  5
78
330
2
100
AcDbSymbolTableRecord
100
AcDbLayerTableRecord
  2
0_18
 70
     0
 62
     7
  6
Continuous
370
    -3
390
F
  0
LAYER
  5
79
330
2
100
AcDbSymbolTableRecord
100
AcDbLayerTableRecord
  2
SLD-0
 70
     0
 62
   179
  6
Continuous
370
    -3
390
F
  0
LAYER
  5
7A
330
2
100
AcDbSymbolTableRecord
100
AcDbLayerTableRecord
  2
KOTY
 70
     0
 62
     7
  6
Continuous
370
    -3
390
F
  0
LAYER
  5
7B
330
2
100
AcDbSymbolTableRecord
100
AcDbLayerTableRecord
  2
SILNA
 70
     0
 62
   179
  6
Continuous
370
    -3
390
F
  0
LAYER
  5
7C
330
2
100
AcDbSymbolTableRecord
100
AcDbLayerTableRecord
  2
0_18_1
 70
     0
 62
   179
  6
Continuous
370
    -3
390
F
  0
LAYER
  5
7D
330
2
100
AcDbSymbolTableRecord
100
AcDbLayerTableRecord
  2
0_35_1
 70
     0
 62
   179
  6
Continuous
370
    35
390
F
  0
LAYER
  5
7E
330
2
100
AcDbSymbolTableRecord
100
AcDbLayerTableRecord
  2
0_5_1
 70
     0
 62
   179
  6
Continuous
370
    50
390
F
  0
ENDTAB
  0
TABLE
  2
STYLE
  5
3
330
0
100
AcDbSymbolTable
 70
     1
  0
STYLE
  5
11
330
3
100
AcDbSymbolTableRecord
100
AcDbTextStyleTableRecord
  2
Standard
 70
     0
 40
0.0
 41
1.0
 50
0.0
 71
     0
 42
2.0
  3
txt
  4

  0
ENDTAB
  0
TABLE
  2
VIEW
  5
6
330
0
100
AcDbSymbolTable
 70
     0
  0
ENDTAB
  0
TABLE
  2
UCS
  5
7
330
0
100
AcDbSymbolTable
 70
     0
  0
ENDTAB
  0
TABLE
  2
APPID
  5
9
330
0
100
AcDbSymbolTable
 70
     1
  0
APPID
  5
12
330
9
100
AcDbSymbolTableRecord
100
AcDbRegAppTableRecord
  2
ACAD
 70
     0
  0
ENDTAB
  0
TABLE
  2
DIMSTYLE
  5
A
330
0
100
AcDbSymbolTable
 70
     1
100
AcDbDimStyleTable
  0
DIMSTYLE
105
27
330
A
100
AcDbSymbolTableRecord
100
AcDbDimStyleTableRecord
  2
ISO-25
 70
     0
 41
2.5
 42
0.625
 43
3.75
 44
1.25
 73
     0
 74
     0
 77
     1
 78
     8
140
2.5
141
2.5
143
0.0393700787
147
0.625
171
     3
172
     1
178
     0
271
     2
272
     2
274
     3
278
    44
283
     0
284
     8
340
11
  0
ENDTAB
  0
TABLE
  2
BLOCK_RECORD
  5
1
330
0
100
AcDbSymbolTable
 70
     1
  0
BLOCK_RECORD
  5
1F
330
1
100
AcDbSymbolTableRecord
100
AcDbBlockTableRecord
  2
*Model_Space
340
22
  0
BLOCK_RECORD
  5
1B
330
1
100
AcDbSymbolTableRecord
100
AcDbBlockTableRecord
  2
*Paper_Space
340
1E
  0
BLOCK_RECORD
  5
23
330
1
100
AcDbSymbolTableRecord
100
AcDbBlockTableRecord
  2
*Paper_Space0
340
26
  0
ENDTAB
  0
ENDSEC
  0
SECTION
  2
BLOCKS
  0
BLOCK
  5
20
330
1F
100
AcDbEntity
  8
0
100
AcDbBlockBegin
  2
*Model_Space
 70
     0
 10
0.0
 20
0.0
 30
0.0
  3
*Model_Space
  1

  0
ENDBLK
  5
21
330
1F
100
AcDbEntity
  8
0
100
AcDbBlockEnd
  0
BLOCK
  5
1C
330
1B
100
AcDbEntity
 67
     1
  8
0
100
AcDbBlockBegin
  2
*Paper_Space
 70
     0
 10
0.0
 20
0.0
 30
0.0
  3
*Paper_Space
  1

  0
ENDBLK
  5
1D
330
1B
100
AcDbEntity
 67
     1
  8
0
100
AcDbBlockEnd
  0
BLOCK
  5
24
330
23
100
AcDbEntity
  8
0
100
AcDbBlockBegin
  2
*Paper_Space0
 70
     0
 10
0.0
 20
0.0
 30
0.0
  3
*Paper_Space0
  1

  0
ENDBLK
  5
25
330
23
100
AcDbEntity
  8
0
100
AcDbBlockEnd
  0
ENDSEC
  0
SECTION
  2
ENTITIES
  0
ARC
  5
7F
330
1F
100
AcDbEntity
  8
0
  6
Continuous
 62
     7
370
    25
100
AcDbCircle
 10
6274.0187553361
 20
4942.0898337204
 30
0.0
 40
19.99999999999998
100
AcDbArc
 50
75.5224878141
 51
104.4775121859
  0
LINE
  5
80
330
1F
100
AcDbEntity
  8
0
  6
Continuous
 62
     7
370
    25
100
AcDbLine
 10
6279.0187553361
 20
4957.4647562381
 30
0.0
 11
6279.0187553361
 21
4961.4547504514
 31
0.0
  0
LINE
  5
81
330
1F
100
AcDbEntity
  8
0
  6
Continuous
 62
     7
370
    25
100
AcDbLine
 10
6269.0187553361
 20
4961.4547504514
 30
0.0
 11
6269.0187553361
 21
4957.4730340159
 31
0.0
  0
LINE
  5
82
330
1F
100
AcDbEntity
  8
0
  6
Continuous
 62
     7
370
    25
100
AcDbLine
 10
6259.1187553361
 20
5633.1697669994
 30
0.0
 11
6259.1187553361
 21
5605.8899667802
 31
0.0
  0
LINE
  5
83
330
1F
100
AcDbEntity
  8
0
  6
Continuous
 62
     7
370
    25
100
AcDbLine
 10
6288.9187553361
 20
5605.8899667802
 30
0.0
 11
6288.9187553361
 21
5633.1697669994
 31
0.0
  0
LINE
  5
84
330
1F
100
AcDbEntity
  8
0
  6
Continuous
 62
     7
370
    25
100
AcDbLine
 10
6259.1187553361
 20
5649.1912369695
 30
0.0
 11
6259.1187553361
 21
5633.6027797013
 31
0.0
  0
LINE
  5
85
330
1F
100
AcDbEntity
  8
0
  6
Continuous
 62
     7
370
    25
100
AcDbLine
 10
6288.9187553361
 20
5633.6027797013
 30
0.0
 11
6288.9187553361
 21
5649.1912369695
 31
0.0
  0
ARC
  5
86
330
1F
100
AcDbEntity
  8
0
  6
Continuous
 62
     7
370
    25
100
AcDbCircle
 10
6179.4294696218
 20
4690.9898337203
 30
0.0
 40
2.660714285714675
100
AcDbArc
 50
180.0
 51
249.9840403971
  0
ARC
  5
87
330
1F
100
AcDbEntity
  8
0
  6
Continuous
 62
     7
370
    25
100
AcDbCircle
 10
6183.6080410504
 20
4690.9898337203
 30
0.0
 40
2.660714285714419
100
AcDbArc
 50
290.0159596029
 51
0.0
  0
ARC
  5
88
330
1F
100
AcDbEntity
  8
0
  6
Continuous
 62
     7
370
    25
100
AcDbCircle
 10
6326.9294696218
 20
4690.9898337203
 30
0.0
 40
2.660714285714675
100
AcDbArc
 50
180.0
 51
249.9840403971
  0
ARC
  5
89
330
1F
100
AcDbEntity
  8
0
  6
Continuous
 62
     7
370
    25
100
AcDbCircle
 10
6331.1080410504
 20
4690.9898337203
 30
0.0
 40
2.660714285714419
100
AcDbArc
 50
290.0159596029
 51
0.0
  0
ARC
  5
8A
330
1F
100
AcDbEntity
  8
0
  6
Continuous
 62
     7
370
    25
100
AcDbCircle
 10
6216.9294696218
 20
4690.9898337203
 30
0.0
 40
2.660714285714419
100
AcDbArc
 50
180.0
 51
249.9840403971
  0
ARC
  5
8B
330
1F
100
AcDbEntity
  8
0
  6
Continuous
 62
     7
370
    25
100
AcDbCircle
 10
6221.1080410504
 20
4690.9898337203
 30
0.0
 40
2.660714285714675
100
AcDbArc
 50
290.0159596029
 51
0.0
  0
ARC
  5
8C
330
1F
100
AcDbEntity
  8
0
  6
Continuous
 62
     7
370
    25
100
AcDbCircle
 10
6364.4294696218
 20
4690.9898337203
 30
0.0
 40
2.660714285715274
100
AcDbArc
 50
180.0
 51
249.9840403971
  0
ARC
  5
8D
330
1F
100
AcDbEntity
  8
0
  6
Continuous
 62
     7
370
    25
100
AcDbCircle
 10
6368.6080410504
 20
4690.9898337203
 30
0.0
 40
2.660714285714962
100
AcDbArc
 50
290.0159596029
 51
0.0
  0
LINE
  5
8E
330
1F
100
AcDbEntity
  8
0
  6
Continuous
 62
     7
370
    25
100
AcDbLine
 10
6165.5066203725
 20
5738.9090754651
 30
0.0
 11
6165.5066274747
 21
5738.109068363
 31
0.0
  0
LINE
  5
8F
330
1F
100
AcDbEntity
  8
0
  6
Continuous
 62
     7
370
    25
100
AcDbLine
 10
6382.5308902996
 20
5738.9090754651
 30
0.0
 11
6165.5066203725
 21
5738.9090754651
 31
0.0
  0
LINE
  5
90
330
1F
100
AcDbEntity
  8
0
  6
Continuous
 62
     7
370
    25
100
AcDbLine
 10
6384.0379970808
 20
4694.5898337204
 30
0.0
 11
6384.0379970808
 21
5737.4019686839
 31
0.0
  0
LINE
  5
91
330
1F
100
AcDbEntity
  8
0
  6
Continuous
 62
     7
370
    25
100
AcDbLine
 10
6384.0379970808
 20
5737.4019686839
 30
0.0
 11
6383.2379899787
 21
5737.4019615818
 31
0.0
  0
LINE
  5
92
330
1F
100
AcDbEntity
  8
0
  6
Continuous
 62
     7
370
    25
100
AcDbLine
 10
6163.9995135914
 20
5737.4019686839
 30
0.0
 11
6163.9995135914
 21
4694.5898337204
 31
0.0
  0
LINE
  5
93
330
1F
100
AcDbEntity
  8
0
  6
Continuous
 62
     7
370
    25
100
AcDbLine
 10
6382.5308831975
 20
5738.109068363
 30
0.0
 11
6382.5308902996
 21
5738.9090754651
 31
0.0
  0
LINE
  5
94
330
1F
100
AcDbEntity
  8
0
  6
Continuous
 62
     7
370
    25
100
AcDbLine
 10
6164.7995206935
 20
5737.4019615818
 30
0.0
 11
6163.9995135914
 21
5737.4019686839
 31
0.0
  0
LINE
  5
95
330
1F
100
AcDbEntity
  8
0
  6
Continuous
 62
     7
370
    25
100
AcDbLine
 10
6256.686383218
 20
4932.7745794831
 30
0.0
 11
6261.5700902789
 21
4916.5440710085
 31
0.0
  0
LINE
  5
96
330
1F
100
AcDbEntity
  8
0
  6
Continuous
 62
     7
370
    25
100
AcDbLine
 10
6261.5700902789
 20
4916.5440710085
 30
0.0
 11
6259.6549110393
 21
4915.9677998221
 31
0.0
  0
LINE
  5
97
330
1F
100
AcDbEntity
  8
0
  6
Continuous
 62
     7
370
    25
100
AcDbLine
 10
6259.6549110393
 20
4915.9677998221
 30
0.0
 11
6254.7712039784
 21
4932.1983082966
 31
0.0
  0
LINE
  5
98
330
1F
100
AcDbEntity
  8
0
  6
Continuous
 62
     7
370
    25
100
AcDbLine
 10
6254.7712039784
 20
4932.1983082966
 30
0.0
 11
6256.686383218
 21
4932.7745794831
 31
0.0
  0
ARC
  5
99
330
1F
100
AcDbEntity
  8
0
  6
Continuous
 62
     7
370
    25
100
AcDbCircle
 10
6274.0187553361
 20
4937.9898337204
 30
0.0
 40
18.10000000000035
100
AcDbArc
 50
343.253630417
 51
196.746369583
  0
LINE
  5
9A
330
1F
100
AcDbEntity
  8
0
  6
Continuous
 62
     7
370
    25
100
AcDbLine
 10
6286.4674203933
 20
4916.5440710085
 30
0.0
 11
6291.3511274542
 21
4932.7745794831
 31
0.0
  0
ARC
  5
9B
330
1F
100
AcDbEntity
  8
0
  6
Continuous
 62
     7
370
    25
100
AcDbCircle
 10
6274.0187553361
 20
4920.2898337204
 30
0.0
 40
13.00000000000046
100
AcDbArc
 50
196.746369583
 51
343.253630417
  0
ARC
  5
9C
330
1F
100
AcDbEntity
  8
0
  6
Continuous
 62
     7
370
    25
100
AcDbCircle
 10
6274.0187553361
 20
4937.9898337204
 30
0.0
 40
20.10000000000046
100
AcDbArc
 50
343.253630417
 51
196.746369583
  0
LINE
  5
9D
330
1F
100
AcDbEntity
  8
0
  6
Continuous
 62
     7
370
    25
100
AcDbLine
 10
6293.2663066938
 20
4932.1983082966
 30
0.0
 11
6291.3511274542
 21
4932.7745794831
 31
0.0
  0
LINE
  5
9E
330
1F
100
AcDbEntity
  8
0
  6
Continuous
 62
     7
370
    25
100
AcDbLine
 10
6286.4674203933
 20
4916.5440710085
 30
0.0
 11
6288.3825996329
 21
4915.9677998221
 31
0.0
  0
ARC
  5
9F
330
1F
100
AcDbEntity
  8
0
  6
Continuous
 62
     7
370
    25
100
AcDbCircle
 10
6274.0187553361
 20
4920.2898337204
 30
0.0
 40
15.00000000000057
100
AcDbArc
 50
196.746369583
 51
343.253630417
  0
LINE
  5
A0
330
1F
100
AcDbEntity
  8
0
  6
Continuous
 62
     7
370
    25
100
AcDbLine
 10
6293.2663066938
 20
4932.1983082966
 30
0.0
 11
6288.3825996329
 21
4915.9677998221
 31
0.0
  0
LINE
  5
A1
330
1F
100
AcDbEntity
  8
0
  6
Continuous
 62
     7
370
    25
100
AcDbLine
 10
6279.0187553361
 20
4961.4547504514
 30
0.0
 11
6269.0187553361
 21
4961.4547504514
 31
0.0
  0
LWPOLYLINE
  5
A2
330
1F
100
AcDbEntity
  8
0
  6
Continuous
 62
     7
370
    25
100
AcDbPolyline
 90
       26
 70
   128
 43
0.0
 10
6268.3687553361
 20
5604.4031719504
 10
6268.5462604757
 20
5603.7006230191
 10
6269.0676225939
 20
5603.042217821
 10
6269.9000825912
 20
5602.4693263761
 10
6270.9913339445
 20
5602.0179455608
 10
6272.2728093179
 20
5601.7164372918
 10
6273.6639889008
 20
5601.5837464426
 10
6275.0774597635
 20
5601.6282104671
 10
6276.4244083334
 20
5601.8470355272
 10
6277.6202008782
 20
5602.2264720395
 10
6278.5897013543
 20
5602.7426786127
 10
6279.2719924814
 20
5603.363220089
 10
6279.6242033985
 20
5604.0491055656
 10
6279.6242033985
 20
5604.7572383352
 10
6279.2719924814
 20
5605.4431238117
 10
6278.5897013543
 20
5606.0636652881
 10
6277.6202008782
 20
5606.5798718612
 10
6276.4244083334
 20
5606.9593083736
 10
6275.0774597635
 20
5607.1781334337
 10
6273.6639889008
 20
5607.2225974582
 10
6272.2728093179
 20
5607.0899066089
 10
6270.9913339445
 20
5606.7883983399
 10
6269.9000825912
 20
5606.3370175246
 10
6269.0676225939
 20
5605.7641260797
 10
6268.5462604757
 20
5605.1057208816
 10
6268.3687553361
 20
5604.4031719504
  0
LWPOLYLINE
  5
A3
330
1F
100
AcDbEntity
  8
0
  6
Continuous
 62
     7
370
    25
100
AcDbPolyline
 90
       41
 70
   128
 43
0.0
 10
6274.0187553361
 20
5613.3399667802
 10
6276.3496288652
 20
5613.2482449177
 10
6278.6231085523
 20
5612.9753378266
 10
6280.7832137822
 20
5612.5279653854
 10
6282.7767555953
 20
5611.9171433883
 10
6284.5546463758
 20
5611.1579123001
 10
6286.0731085523
 20
5610.2689669098
 10
6287.2947525465
 20
5609.2721960033
 10
6288.1894974289
 20
5608.1921433883
 10
6288.735311611
 20
5607.0554035448
 10
6288.9187553361
 20
5605.8899667802
 10
6288.735311611
 20
5604.7245300157
 10
6288.1894974289
 20
5603.5877901721
 10
6287.2947525465
 20
5602.5077375572
 10
6286.0731085523
 20
5601.5109666507
 10
6284.5546463758
 20
5600.6220212604
 10
6282.7767555953
 20
5599.8627901721
 10
6280.7832137822
 20
5599.251968175
 10
6278.6231085523
 20
5598.8045957338
 10
6276.3496288652
 20
5598.5316886428
 10
6274.0187553361
 20
5598.4399667802
 10
6271.687881807
 20
5598.5316886428
 10
6269.4144021199
 20
5598.8045957338
 10
6267.25429689
 20
5599.251968175
 10
6265.2607550769
 20
5599.8627901721
 10
6263.4828642964
 20
5600.6220212604
 10
6261.9644021199
 20
5601.5109666507
 10
6260.7427581257
 20
5602.5077375572
 10
6259.8480132433
 20
5603.5877901721
 10
6259.3021990612
 20
5604.7245300157
 10
6259.1187553361
 20
5605.8899667802
 10
6259.3021990612
 20
5607.0554035448
 10
6259.8480132433
 20
5608.1921433883
 10
6260.7427581257
 20
5609.2721960033
 10
6261.9644021199
 20
5610.2689669098
 10
6263.4828642964
 20
5611.1579123001
 10
6265.2607550769
 20
5611.9171433883
 10
6267.25429689
 20
5612.5279653854
 10
6269.4144021199
 20
5612.9753378266
 10
6271.687881807
 20
5613.2482449177
 10
6274.0187553361
 20
5613.3399667802
  0
LWPOLYLINE
  5
A4
330
1F
100
AcDbEntity
  8
0
  6
Continuous
 62
     7
370
    25
100
AcDbPolyline
 90
       21
 70
   128
 43
0.0
 10
6259.1187553361
 20
5633.1697669994
 10
6259.3021990612
 20
5634.335203764
 10
6259.8480132433
 20
5635.4719436075
 10
6260.7427581257
 20
5636.5519962225
 10
6261.9644021199
 20
5637.548767129
 10
6263.4828642964
 20
5638.4377125193
 10
6265.2607550769
 20
5639.1969436075
 10
6267.25429689
 20
5639.8077656047
 10
6269.4144021199
 20
5640.2551380458
 10
6271.687881807
 20
5640.5280451369
 10
6274.0187553361
 20
5640.6197669994
 10
6276.3496288652
 20
5640.5280451369
 10
6278.6231085523
 20
5640.2551380458
 10
6280.7832137822
 20
5639.8077656047
 10
6282.7767555953
 20
5639.1969436075
 10
6284.5546463758
 20
5638.4377125193
 10
6286.0731085523
 20
5637.548767129
 10
6287.2947525465
 20
5636.5519962225
 10
6288.1894974289
 20
5635.4719436075
 10
6288.735311611
 20
5634.335203764
 10
6288.9187553361
 20
5633.1697669994
  0
ARC
  5
A5
330
1F
100
AcDbEntity
  8
0
  6
Continuous
 62
     7
370
    25
100
AcDbCircle
 10
6274.0187553361
 20
5649.1912369695
 30
0.0
 40
14.89999999999964
100
AcDbArc
 50
90.0
 51
180.0
  0
ARC
  5
A6
330
1F
100
AcDbEntity
  8
0
  6
Continuous
 62
     7
370
    25
100
AcDbCircle
 10
6274.0187553361
 20
5649.1912369695
 30
0.0
 40
14.90000000000055
100
AcDbArc
 50
0.0
 51
90.0
  0
LWPOLYLINE
  5
A7
330
1F
100
AcDbEntity
  8
0
  6
Continuous
 62
     7
370
    25
100
AcDbPolyline
 90
       23
 70
   128
 43
0.0
 10
6259.1250486114
 20
5633.3862733506
 10
6259.1187553361
 20
5633.6027797013
 10
6259.3021990612
 20
5634.7682164659
 10
6259.8480132433
 20
5635.9049563094
 10
6260.7427581257
 20
5636.9850089244
 10
6261.9644021199
 20
5637.9817798309
 10
6263.4828642964
 20
5638.8707252212
 10
6265.2607550769
 20
5639.6299563094
 10
6267.25429689
 20
5640.2407783065
 10
6269.4144021199
 20
5640.6881507477
 10
6271.687881807
 20
5640.9610578388
 10
6274.0187553361
 20
5641.0527797013
 10
6276.3496288652
 20
5640.9610578388
 10
6278.6231085523
 20
5640.6881507477
 10
6280.7832137822
 20
5640.2407783065
 10
6282.7767555953
 20
5639.6299563094
 10
6284.5546463758
 20
5638.8707252212
 10
6286.0731085523
 20
5637.9817798309
 10
6287.2947525465
 20
5636.9850089244
 10
6288.1894974289
 20
5635.9049563094
 10
6288.735311611
 20
5634.7682164659
 10
6288.9187553361
 20
5633.6027797013
 10
6288.9124620608
 20
5633.3862733506
  0
LINE
  5
A8
330
1F
100
AcDbEntity
  8
0
  6
Continuous
 62
     7
370
    25
100
AcDbLine
 10
6178.5187553361
 20
4688.4898337203
 30
0.0
 11
6184.5187553361
 21
4688.4898337203
 31
0.0
  0
LINE
  5
A9
330
1F
100
AcDbEntity
  8
0
  6
Continuous
 62
     7
370
    25
100
AcDbLine
 10
6326.0187553361
 20
4688.4898337203
 30
0.0
 11
6332.0187553361
 21
4688.4898337203
 31
0.0
  0
LINE
  5
AA
330
1F
100
AcDbEntity
  8
0
  6
Continuous
 62
     7
370
    25
100
AcDbLine
 10
6216.0187553361
 20
4688.4898337203
 30
0.0
 11
6222.0187553361
 21
4688.4898337203
 31
0.0
  0
LINE
  5
AB
330
1F
100
AcDbEntity
  8
0
  6
Continuous
 62
     7
370
    25
100
AcDbLine
 10
6363.5187553361
 20
4688.4898337203
 30
0.0
 11
6369.5187553361
 21
4688.4898337203
 31
0.0
  0
LINE
  5
AC
330
1F
100
AcDbEntity
  8
0
  6
Continuous
 62
     7
370
    25
100
AcDbLine
 10
6349.0187553361
 20
5703.1827269392
 30
0.0
 11
6349.0187553361
 21
5704.5969405016
 31
0.0
  0
LINE
  5
AD
330
1F
100
AcDbEntity
  8
0
  6
Continuous
 62
     7
370
    25
100
AcDbLine
 10
6199.0187553361
 20
5703.1827269392
 30
0.0
 11
6199.0187553361
 21
5704.5969405016
 31
0.0
  0
LINE
  5
AE
330
1F
100
AcDbEntity
  8
0
  6
Continuous
 62
     7
370
    25
100
AcDbLine
 10
6338.3988948244
 20
4690.9898337203
 30
0.0
 11
6338.3988948244
 21
4692.9898337203
 31
0.0
  0
LINE
  5
AF
330
1F
100
AcDbEntity
  8
0
  6
Continuous
 62
     7
370
    25
100
AcDbLine
 10
6344.8424287986
 20
4692.9898337203
 30
0.0
 11
6344.8424287986
 21
4690.9898337203
 31
0.0
  0
LINE
  5
B0
330
1F
100
AcDbEntity
  8
0
  6
Continuous
 62
     7
370
    25
100
AcDbLine
 10
6344.8424287986
 20
4690.9898337203
 30
0.0
 11
6338.3988948244
 21
4690.9898337203
 31
0.0
  0
LINE
  5
B1
330
1F
100
AcDbEntity
  8
0
  6
Continuous
 62
     7
370
    25
100
AcDbLine
 10
6203.1950818736
 20
4690.9898337203
 30
0.0
 11
6203.1950818736
 21
4692.9898337203
 31
0.0
  0
LINE
  5
B2
330
1F
100
AcDbEntity
  8
0
  6
Continuous
 62
     7
370
    25
100
AcDbLine
 10
6209.6386158478
 20
4692.9898337203
 30
0.0
 11
6209.6386158478
 21
4690.9898337203
 31
0.0
  0
LINE
  5
B3
330
1F
100
AcDbEntity
  8
0
  6
Continuous
 62
     7
370
    25
100
AcDbLine
 10
6209.6386158478
 20
4690.9898337203
 30
0.0
 11
6203.1950818736
 21
4690.9898337203
 31
0.0
  0
LINE
  5
B4
330
1F
100
AcDbEntity
  8
0
  6
Continuous
 62
     7
370
    25
100
AcDbLine
 10
6209.6386158478
 20
4690.9898337203
 30
0.0
 11
6338.3988948244
 21
4690.9898337203
 31
0.0
  0
LINE
  5
B5
330
1F
100
AcDbEntity
  8
0
  6
Continuous
 62
     7
370
    25
100
AcDbLine
 10
6174.5752213619
 20
4692.9898337203
 30
0.0
 11
6174.5752213619
 21
4690.9898337203
 31
0.0
  0
LINE
  5
B6
330
1F
100
AcDbEntity
  8
0
  6
Continuous
 62
     7
370
    25
100
AcDbLine
 10
6174.5752213619
 20
4690.9898337203
 30
0.0
 11
6203.1950818736
 21
4690.9898337203
 31
0.0
  0
LINE
  5
B7
330
1F
100
AcDbEntity
  8
0
  6
Continuous
 62
     7
370
    25
100
AcDbLine
 10
6373.4622893103
 20
4690.9898337203
 30
0.0
 11
6373.4622893103
 21
4692.9898337203
 31
0.0
  0
LINE
  5
B8
330
1F
100
AcDbEntity
  8
0
  6
Continuous
 62
     7
370
    25
100
AcDbLine
 10
6344.8424287986
 20
4690.9898337203
 30
0.0
 11
6373.4622893103
 21
4690.9898337203
 31
0.0
  0
LINE
  5
B9
330
1F
100
AcDbEntity
  8
0
  6
Continuous
 62
     7
370
    25
100
AcDbLine
 10
6174.0187553361
 20
4690.9898337203
 30
0.0
 11
6174.0187553361
 21
4692.9898337203
 31
0.0
  0
LINE
  5
BA
330
1F
100
AcDbEntity
  8
0
  6
Continuous
 62
     7
370
    25
100
AcDbLine
 10
6174.5752213619
 20
4690.9898337203
 30
0.0
 11
6174.0187553361
 21
4690.9898337203
 31
0.0
  0
LINE
  5
BB
330
1F
100
AcDbEntity
  8
0
  6
Continuous
 62
     7
370
    25
100
AcDbLine
 10
6374.0187553361
 20
4692.9898337203
 30
0.0
 11
6374.0187553361
 21
4690.9898337203
 31
0.0
  0
LINE
  5
BC
330
1F
100
AcDbEntity
  8
0
  6
Continuous
 62
     7
370
    25
100
AcDbLine
 10
6374.0187553361
 20
4690.9898337203
 30
0.0
 11
6373.4622893103
 21
4690.9898337203
 31
0.0
  0
CIRCLE
  5
BD
330
1F
100
AcDbEntity
  8
0
  6
Continuous
 62
     7
370
    25
100
AcDbCircle
 10
6274.0187553361
 20
4832.9898337204
 30
0.0
 40
12.5
  0
CIRCLE
  5
BE
330
1F
100
AcDbEntity
  8
0
  6
Continuous
 62
     7
370
    25
100
AcDbCircle
 10
6274.0187553361
 20
4832.9898337204
 30
0.0
 40
14.0
  0
ARC
  5
BF
330
1F
100
AcDbEntity
  8
0
  6
Continuous
 62
     7
370
    25
100
AcDbCircle
 10
6274.0187553361
 20
4937.9898337204
 30
0.0
 40
28.5000000000005
100
AcDbArc
 50
296.7987192895
 51
106.2141828437
  0
ARC
  5
C0
330
1F
100
AcDbEntity
  8
0
  6
Continuous
 62
     7
370
    25
100
AcDbCircle
 10
6274.0187553361
 20
4937.9898337204
 30
0.0
 40
28.5000000000005
100
AcDbArc
 50
106.2141828437
 51
243.2012807105
  0
LINE
  5
C1
330
1F
100
AcDbEntity
  8
0
  6
Continuous
 62
     7
370
    25
100
AcDbLine
 10
6267.4568783948
 20
4960.5551117157
 30
0.0
 11
6269.0187553361
 21
4960.9517587268
 31
0.0
  0
ARC
  5
C2
330
1F
100
AcDbEntity
  8
0
  6
Continuous
 62
     7
370
    25
100
AcDbCircle
 10
6274.0187553361
 20
4937.9898337204
 30
0.0
 40
23.50000000000075
100
AcDbArc
 50
312.0486413007
 51
77.7155061437
  0
ARC
  5
C3
330
1F
100
AcDbEntity
  8
0
  6
Continuous
 62
     7
370
    25
100
AcDbCircle
 10
6274.0187553361
 20
4937.9898337204
 30
0.0
 40
23.50000000000023
100
AcDbArc
 50
106.2141828437
 51
227.9513586993
  0
ARC
  5
C4
330
1F
100
AcDbEntity
  8
0
  6
Continuous
 62
     7
370
    25
100
AcDbCircle
 10
6274.0187553361
 20
4937.9898337204
 30
0.0
 40
23.25000000000038
100
AcDbArc
 50
102.4186815058
 51
226.9188702219
  0
ARC
  5
C5
330
1F
100
AcDbEntity
  8
0
  6
Continuous
 62
     7
370
    25
100
AcDbCircle
 10
6274.0187553361
 20
4937.9898337204
 30
0.0
 40
23.25000000000058
100
AcDbArc
 50
313.0811297781
 51
77.5813184942
  0
CIRCLE
  5
C6
330
1F
100
AcDbEntity
  8
0
  6
Continuous
 62
     7
370
    25
100
AcDbCircle
 10
6274.0187553361
 20
5042.9898337204
 30
0.0
 40
14.89999999999964
  0
CIRCLE
  5
C7
330
1F
100
AcDbEntity
  8
0
  6
Continuous
 62
     7
370
    25
100
AcDbCircle
 10
6274.0187553361
 20
5142.9898337203
 30
0.0
 40
11.24999999999909
  0
LINE
  5
C8
330
1F
100
AcDbEntity
  8
0
  6
Continuous
 62
     7
370
    25
100
AcDbLine
 10
6203.717352087
 20
4694.5898337204
 30
0.0
 11
6203.717352087
 21
5699.1912369695
 31
0.0
  0
LINE
  5
C9
330
1F
100
AcDbEntity
  8
0
  6
Continuous
 62
     7
370
    25
100
AcDbLine
 10
6202.2445443215
 20
4694.5898337204
 30
0.0
 11
6203.717352087
 21
4694.5898337204
 31
0.0
  0
LINE
  5
CA
330
1F
100
AcDbEntity
  8
0
  6
Continuous
 62
     7
370
    25
100
AcDbLine
 10
6202.2445443215
 20
4694.5898337204
 30
0.0
 11
6202.2445443215
 21
5699.2205340711
 31
0.0
  0
LINE
  5
CB
330
1F
100
AcDbEntity
  8
0
  6
Continuous
 62
     7
370
    25
100
AcDbLine
 10
6203.717352087
 20
5699.1912369695
 30
0.0
 11
6202.2445443215
 21
5699.2205340711
 31
0.0
  0
LINE
  5
CC
330
1F
100
AcDbEntity
  8
0
  6
Continuous
 62
     7
370
    25
100
AcDbLine
 10
6345.056562468
 20
5699.220534071
 30
0.0
 11
6344.3201585852
 21
5699.1912369695
 31
0.0
  0
LINE
  5
CD
330
1F
100
AcDbEntity
  8
0
  6
Continuous
 62
     7
370
    25
100
AcDbLine
 10
6345.7929663507
 20
5699.220534071
 30
0.0
 11
6345.056562468
 21
5699.220534071
 31
0.0
  0
LINE
  5
CE
330
1F
100
AcDbEntity
  8
0
  6
Continuous
 62
     7
370
    25
100
AcDbLine
 10
6345.7929663507
 20
5699.220534071
 30
0.0
 11
6344.3201585852
 21
5699.1912369695
 31
0.0
  0
LINE
  5
CF
330
1F
100
AcDbEntity
  8
0
  6
Continuous
 62
     7
370
    25
100
AcDbLine
 10
6203.717352087
 20
5699.1912369695
 30
0.0
 11
6202.9809482042
 21
5699.2205340711
 31
0.0
  0
LINE
  5
D0
330
1F
100
AcDbEntity
  8
0
  6
Continuous
 62
     7
370
    25
100
AcDbLine
 10
6202.2445443215
 20
5699.2205340711
 30
0.0
 11
6202.9809482042
 21
5699.2205340711
 31
0.0
  0
LINE
  5
D1
330
1F
100
AcDbEntity
  8
0
  6
Continuous
 62
     7
370
    25
100
AcDbLine
 10
6344.3201585852
 20
5699.1912369695
 30
0.0
 11
6344.3494556867
 21
5699.9276408522
 31
0.0
  0
LINE
  5
D2
330
1F
100
AcDbEntity
  8
0
  6
Continuous
 62
     7
370
    25
100
AcDbLine
 10
6344.3201585852
 20
5699.1912369695
 30
0.0
 11
6344.3494556867
 21
5700.664044735
 31
0.0
  0
LINE
  5
D3
330
1F
100
AcDbEntity
  8
0
  6
Continuous
 62
     7
370
    25
100
AcDbLine
 10
6344.3494556867
 20
5700.664044735
 30
0.0
 11
6344.3494556867
 21
5699.9276408522
 31
0.0
  0
LINE
  5
D4
330
1F
100
AcDbEntity
  8
0
  6
Continuous
 62
     7
370
    25
100
AcDbLine
 10
6203.6880549854
 20
5699.9276408522
 30
0.0
 11
6203.717352087
 21
5699.1912369695
 31
0.0
  0
LINE
  5
D5
330
1F
100
AcDbEntity
  8
0
  6
Continuous
 62
     7
370
    25
100
AcDbLine
 10
6203.6880549854
 20
5700.664044735
 30
0.0
 11
6203.6880549854
 21
5699.9276408522
 31
0.0
  0
LINE
  5
D6
330
1F
100
AcDbEntity
  8
0
  6
Continuous
 62
     7
370
    25
100
AcDbLine
 10
6203.6880549854
 20
5700.664044735
 30
0.0
 11
6203.717352087
 21
5699.1912369695
 31
0.0
  0
LINE
  5
D7
330
1F
100
AcDbEntity
  8
0
  6
Continuous
 62
     7
370
    25
100
AcDbLine
 10
6344.3201585852
 20
5699.1912369695
 30
0.0
 11
6344.3201585852
 21
4694.5898337204
 31
0.0
  0
LINE
  5
D8
330
1F
100
AcDbEntity
  8
0
  6
Continuous
 62
     7
370
    25
100
AcDbLine
 10
6345.7929663507
 20
5699.220534071
 30
0.0
 11
6345.7929663507
 21
4694.5898337204
 31
0.0
  0
LINE
  5
D9
330
1F
100
AcDbEntity
  8
0
  6
Continuous
 62
     7
370
    25
100
AcDbLine
 10
6344.3201585852
 20
4694.5898337204
 30
0.0
 11
6345.7929663507
 21
4694.5898337204
 31
0.0
  0
LINE
  5
DA
330
1F
100
AcDbEntity
  8
0
  6
Continuous
 62
     7
370
    25
100
AcDbLine
 10
6204.246860536
 20
4692.9898337204
 30
0.0
 11
6343.7906501362
 21
4692.9898337204
 31
0.0
  0
ARC
  5
DB
330
1F
100
AcDbEntity
  8
0
  6
Continuous
 62
     7
370
    25
100
AcDbCircle
 10
6206.8748420911
 20
4694.7471637428
 30
0.0
 40
3.161407259712895
100
AcDbArc
 50
182.8525496923
 51
213.7706279469
  0
LINE
  5
DC
330
1F
100
AcDbEntity
  8
0
  6
Continuous
 62
     7
370
    25
100
AcDbLine
 10
6203.717352087
 20
4694.5898337204
 30
0.0
 11
6344.3201585852
 21
4694.5898337204
 31
0.0
  0
ARC
  5
DD
330
1F
100
AcDbEntity
  8
0
  6
Continuous
 62
     7
370
    25
100
AcDbCircle
 10
6341.1626685812
 20
4694.7471637428
 30
0.0
 40
3.161407259678349
100
AcDbArc
 50
326.2293720529
 51
357.1474503079
  0
LINE
  5
DE
330
1F
100
AcDbEntity
  8
0
  6
Continuous
 62
     7
370
    25
100
AcDbLine
 10
6203.717352087
 20
5699.1912369695
 30
0.0
 11
6344.3201585852
 21
5699.1912369695
 31
0.0
  0
CIRCLE
  5
DF
330
1F
100
AcDbEntity
  8
0
  6
Continuous
 62
     7
370
    25
100
AcDbCircle
 10
6274.0187553361
 20
5142.9898337204
 30
0.0
 40
11.34999999999764
  0
CIRCLE
  5
E0
330
1F
100
AcDbEntity
  8
0
  6
Continuous
 62
     7
370
    25
100
AcDbCircle
 10
6274.0187553361
 20
5042.9898337204
 30
0.0
 40
15.10000000000036
  0
LINE
  5
E1
330
1F
100
AcDbEntity
  8
0
  6
Continuous
 62
     7
370
    25
100
AcDbLine
 10
6203.6880549854
 20
5700.664044735
 30
0.0
 11
6344.3494556867
 21
5700.664044735
 31
0.0
  0
ARC
  5
E2
330
1F
100
AcDbEntity
  8
0
  6
Continuous
 62
     7
370
    25
100
AcDbCircle
 10
6344.4205128732
 20
4694.3749204492
 30
0.0
 40
1.389178268646092
100
AcDbArc
 50
274.3985413903
 51
8.8997062935
  0
LINE
  5
E3
330
1F
100
AcDbEntity
  8
0
  6
Continuous
 62
     7
370
    25
100
AcDbLine
 10
6344.527054019
 20
4693.7898337204
 30
0.0
 11
6344.527054019
 21
4692.9898337204
 31
0.0
  0
ARC
  5
E4
330
1F
100
AcDbEntity
  8
0
  6
Continuous
 62
     7
370
    25
100
AcDbCircle
 10
6344.4487618483
 20
4694.4168911761
 30
0.0
 40
0.6319261957316891
100
AcDbArc
 50
277.1169181862
 51
15.8830818139
  0
LINE
  5
E5
330
1F
100
AcDbEntity
  8
0
  6
Continuous
 62
     7
370
    25
100
AcDbLine
 10
6383.9108048464
 20
5737.3383725667
 30
0.0
 11
6383.9108048464
 21
4694.5898337204
 31
0.0
  0
LINE
  5
E6
330
1F
100
AcDbEntity
  8
0
  6
Continuous
 62
     7
370
    25
100
AcDbLine
 10
6345.7929663507
 20
4694.5898337204
 30
0.0
 11
6383.9108048464
 21
4694.5898337204
 31
0.0
  0
LINE
  5
E7
330
1F
100
AcDbEntity
  8
0
  6
Continuous
 62
     7
370
    25
100
AcDbLine
 10
6383.9108048464
 20
5737.3383725667
 30
0.0
 11
6345.7929663507
 21
5699.220534071
 31
0.0
  0
ARC
  5
E8
330
1F
100
AcDbEntity
  8
0
  6
Continuous
 62
     7
370
    25
100
AcDbCircle
 10
6382.2604493553
 20
4694.6403526362
 30
0.0
 40
1.651128525489653
100
AcDbArc
 50
271.5569923623
 51
358.2466704285
  0
LINE
  5
E9
330
1F
100
AcDbEntity
  8
0
  6
Continuous
 62
     7
370
    25
100
AcDbLine
 10
6344.527054019
 20
4692.9898337204
 30
0.0
 11
6382.3053126617
 21
4692.9898337204
 31
0.0
  0
LINE
  5
EA
330
1F
100
AcDbEntity
  8
0
  6
Continuous
 62
     7
370
    25
100
AcDbLine
 10
6165.5702164898
 20
5738.7818832306
 30
0.0
 11
6203.6880549854
 21
5700.664044735
 31
0.0
  0
LINE
  5
EB
330
1F
100
AcDbEntity
  8
0
  6
Continuous
 62
     7
370
    25
100
AcDbLine
 10
6165.5702164898
 20
5738.7818832306
 30
0.0
 11
6382.4672941824
 21
5738.7818832306
 31
0.0
  0
LINE
  5
EC
330
1F
100
AcDbEntity
  8
0
  6
Continuous
 62
     7
370
    25
100
AcDbLine
 10
6344.3494556867
 20
5700.664044735
 30
0.0
 11
6382.4672941824
 21
5738.7818832306
 31
0.0
  0
LINE
  5
ED
330
1F
100
AcDbEntity
  8
0
  6
Continuous
 62
     7
370
    25
100
AcDbLine
 10
6344.3494556867
 20
5699.9276408522
 30
0.0
 11
6382.4672941824
 21
5738.0454793479
 31
0.0
  0
LINE
  5
EE
330
1F
100
AcDbEntity
  8
0
  6
Continuous
 62
     7
370
    25
100
AcDbLine
 10
6382.4672941824
 20
5738.7818832306
 30
0.0
 11
6382.4672941824
 21
5738.0454793479
 31
0.0
  0
ARC
  5
EF
330
1F
100
AcDbEntity
  8
0
  6
Continuous
 62
     7
370
    25
100
AcDbCircle
 10
6203.616997799
 20
4694.3749204492
 30
0.0
 40
1.389178268650552
100
AcDbArc
 50
171.1002937067
 51
265.6014586095
  0
LINE
  5
F0
330
1F
100
AcDbEntity
  8
0
  6
Continuous
 62
     7
370
    25
100
AcDbLine
 10
6165.7321980105
 20
4692.9898337204
 30
0.0
 11
6203.5104566532
 21
4692.9898337204
 31
0.0
  0
ARC
  5
F1
330
1F
100
AcDbEntity
  8
0
  6
Continuous
 62
     7
370
    25
100
AcDbCircle
 10
6165.7770613169
 20
4694.6403526362
 30
0.0
 40
1.651128525493373
100
AcDbArc
 50
181.7533295715
 51
268.4430076377
  0
LINE
  5
F2
330
1F
100
AcDbEntity
  8
0
  6
Continuous
 62
     7
370
    25
100
AcDbLine
 10
6164.1267058258
 20
4694.5898337204
 30
0.0
 11
6202.2445443215
 21
4694.5898337204
 31
0.0
  0
ARC
  5
F3
330
1F
100
AcDbEntity
  8
0
  6
Continuous
 62
     7
370
    25
100
AcDbCircle
 10
6203.5887488239
 20
4694.4168911761
 30
0.0
 40
0.6319261957314402
100
AcDbArc
 50
164.1169181862
 51
262.8830818137
  0
LINE
  5
F4
330
1F
100
AcDbEntity
  8
0
  6
Continuous
 62
     7
370
    25
100
AcDbLine
 10
6203.5104566532
 20
4693.7898337204
 30
0.0
 11
6203.5104566532
 21
4692.9898337204
 31
0.0
  0
LINE
  5
F5
330
1F
100
AcDbEntity
  8
0
  6
Continuous
 62
     7
370
    25
100
AcDbLine
 10
6202.9809482042
 20
5699.2205340711
 30
0.0
 11
6164.8631097086
 21
5737.3383725667
 31
0.0
  0
LINE
  5
F6
330
1F
100
AcDbEntity
  8
0
  6
Continuous
 62
     7
370
    25
100
AcDbLine
 10
6202.2445443215
 20
5699.2205340711
 30
0.0
 11
6164.1267058258
 21
5737.3383725667
 31
0.0
  0
LINE
  5
F7
330
1F
100
AcDbEntity
  8
0
  6
Continuous
 62
     7
370
    25
100
AcDbLine
 10
6164.1267058258
 20
5737.3383725667
 30
0.0
 11
6164.8631097086
 21
5737.3383725667
 31
0.0
  0
LINE
  5
F8
330
1F
100
AcDbEntity
  8
0
  6
Continuous
 62
     7
370
    25
100
AcDbLine
 10
6164.1267058258
 20
4694.5898337204
 30
0.0
 11
6164.1267058258
 21
5737.3383725667
 31
0.0
  0
LINE
  5
F9
330
1F
100
AcDbEntity
  8
0
  6
Continuous
 62
     7
370
    25
100
AcDbLine
 10
6165.5702164898
 20
5738.0454793479
 30
0.0
 11
6203.6880549854
 21
5699.9276408522
 31
0.0
  0
LINE
  5
FA
330
1F
100
AcDbEntity
  8
0
  6
Continuous
 62
     7
370
    25
100
AcDbLine
 10
6165.5702164898
 20
5738.7818832306
 30
0.0
 11
6165.5702164898
 21
5738.0454793479
 31
0.0
  0
LINE
  5
FB
330
1F
100
AcDbEntity
  8
0
  6
Continuous
 62
     7
370
    25
100
AcDbLine
 10
6383.1744009636
 20
5737.3383725667
 30
0.0
 11
6345.056562468
 21
5699.220534071
 31
0.0
  0
LINE
  5
FC
330
1F
100
AcDbEntity
  8
0
  6
Continuous
 62
     7
370
    25
100
AcDbLine
 10
6383.9108048464
 20
5737.3383725667
 30
0.0
 11
6383.1744009636
 21
5737.3383725667
 31
0.0
  0
LINE
  5
FD
330
1F
100
AcDbEntity
  8
0
  6
Continuous
 62
     7
370
    25
100
AcDbLine
 10
6344.1399118344
 20
4693.7898337204
 30
0.0
 11
6344.527054019
 21
4693.7898337204
 31
0.0
  0
LINE
  5
FE
330
1F
100
AcDbEntity
  8
0
  6
Continuous
 62
     7
370
    25
100
AcDbLine
 10
6343.7906501362
 20
4692.9898337204
 30
0.0
 11
6344.527054019
 21
4692.9898337204
 31
0.0
  0
LINE
  5
FF
330
1F
100
AcDbEntity
  8
0
  6
Continuous
 62
     7
370
    25
100
AcDbLine
 10
6203.5104566532
 20
4692.9898337204
 30
0.0
 11
6204.246860536
 21
4692.9898337204
 31
0.0
  0
LINE
  5
100
330
1F
100
AcDbEntity
  8
0
  6
Continuous
 62
     7
370
    25
100
AcDbLine
 10
6203.5104566532
 20
4693.7898337204
 30
0.0
 11
6203.8975988378
 21
4693.7898337204
 31
0.0
  0
LINE
  5
101
330
1F
100
AcDbEntity
  8
0
  6
Continuous
 62
     7
370
    25
100
AcDbLine
 10
6165.5702164898
 20
5738.0454793479
 30
0.0
 11
6165.506627647
 21
5738.1090681907
 31
0.0
  0
LINE
  5
102
330
1F
100
AcDbEntity
  8
0
  6
Continuous
 62
     7
370
    25
100
AcDbLine
 10
6165.5702164898
 20
5738.7818832306
 30
0.0
 11
6165.5066207224
 21
5738.9090747654
 31
0.0
  0
LINE
  5
103
330
1F
100
AcDbEntity
  8
0
  6
Continuous
 62
     7
370
    25
100
AcDbLine
 10
6382.5308902996
 20
5738.9090754651
 30
0.0
 11
6382.4672941824
 21
5738.7818832306
 31
0.0
  0
LINE
  5
104
330
1F
100
AcDbEntity
  8
0
  6
Continuous
 62
     7
370
    25
100
AcDbLine
 10
6383.9108048464
 20
5737.3383725667
 30
0.0
 11
6384.0379970808
 21
5737.4019686839
 31
0.0
  0
LINE
  5
105
330
1F
100
AcDbEntity
  8
0
  6
Continuous
 62
     7
370
    25
100
AcDbLine
 10
6384.0379970808
 20
4694.5898337204
 30
0.0
 11
6383.9108048464
 21
4694.5898337204
 31
0.0
  0
LINE
  5
106
330
1F
100
AcDbEntity
  8
0
  6
Continuous
 62
     7
370
    25
100
AcDbLine
 10
6383.1744009636
 20
5737.3383725667
 30
0.0
 11
6383.2379898064
 21
5737.4019614095
 31
0.0
  0
LINE
  5
107
330
1F
100
AcDbEntity
  8
0
  6
Continuous
 62
     7
370
    25
100
AcDbLine
 10
6163.9995135914
 20
5737.4019686839
 30
0.0
 11
6164.1267058258
 21
5737.3383725667
 31
0.0
  0
LINE
  5
108
330
1F
100
AcDbEntity
  8
0
  6
Continuous
 62
     7
370
    25
100
AcDbLine
 10
6164.1267058258
 20
4694.5898337204
 30
0.0
 11
6163.9995135914
 21
4694.5898337204
 31
0.0
  0
LINE
  5
109
330
1F
100
AcDbEntity
  8
0
  6
Continuous
 62
     7
370
    25
100
AcDbLine
 10
6382.5308886874
 20
5738.1090738528
 30
0.0
 11
6382.4672941824
 21
5738.0454793479
 31
0.0
  0
LINE
  5
10A
330
1F
100
AcDbEntity
  8
0
  6
Continuous
 62
     7
370
    25
100
AcDbLine
 10
6164.7995152036
 20
5737.4019670716
 30
0.0
 11
6164.8631097086
 21
5737.3383725667
 31
0.0
  0
ARC
  5
10B
330
1F
100
AcDbEntity
  8
0
  6
Continuous
 62
     7
370
    25
100
AcDbCircle
 10
6274.0187553361
 20
5649.1912369695
 30
0.0
 40
27.49999999999975
100
AcDbArc
 50
302.807496337
 51
237.192503663
  0
LINE
  5
10C
330
1F
100
AcDbEntity
  8
0
  6
Continuous
 62
     8
370
    25
100
AcDbLine
 10
6344.9072842888
 20
4693.9898337203
 30
0.0
 11
6344.190439311
 21
4693.9898337203
 31
0.0
  0
LINE
  5
10D
330
1F
100
AcDbEntity
  8
0
  6
Continuous
 62
     8
370
    25
100
AcDbLine
 10
6203.8470713612
 20
4693.9898337203
 30
0.0
 11
6203.1302263834
 21
4693.9898337203
 31
0.0
  0
ARC
  5
10E
330
1F
100
AcDbEntity
  8
0
  6
Continuous
 62
     8
370
    25
100
AcDbCircle
 10
6274.0187553361
 20
4937.9898337204
 30
0.0
 40
28.30000000000013
100
AcDbArc
 50
297.4312028237
 51
106.2141828437
  0
ARC
  5
10F
330
1F
100
AcDbEntity
  8
0
  6
Continuous
 62
     8
370
    25
100
AcDbCircle
 10
6274.0187553361
 20
4937.9898337204
 30
0.0
 40
28.29999999999971
100
AcDbArc
 50
106.2141828437
 51
242.5687971763
  0
ARC
  5
110
330
1F
100
AcDbEntity
  8
0
  6
Continuous
 62
     8
370
    25
100
AcDbCircle
 10
6274.0187553361
 20
5649.1912369695
 30
0.0
 40
27.00000000000046
100
AcDbArc
 50
303.4941507302
 51
236.5058492698
  0
LINE
  5
111
330
1F
100
AcDbEntity
  8
0
  6
Continuous
 62
     7
370
    25
100
AcDbLine
 10
6688.0475279628
 20
4917.8898337204
 30
0.0
 11
6720.3475279628
 21
4917.8898337204
 31
0.0
  0
LINE
  5
112
330
1F
100
AcDbEntity
  8
0
  6
Continuous
 62
     7
370
    25
100
AcDbLine
 10
6710.5475279628
 20
4958.0898337204
 30
0.0
 11
6688.0475279628
 21
4958.0898337204
 31
0.0
  0
LINE
  5
113
330
1F
100
AcDbEntity
  8
0
  6
Continuous
 62
     7
370
    25
100
AcDbLine
 10
6726.5475279628
 20
4958.0898337204
 30
0.0
 11
6720.4809226428
 21
4958.0898337204
 31
0.0
  0
ARC
  5
114
330
1F
100
AcDbEntity
  8
0
  6
Continuous
 62
     7
370
    25
100
AcDbCircle
 10
6726.5475279628
 20
4956.0898337204
 30
0.0
 40
2.000000000000909
100
AcDbArc
 50
0.0
 51
90.0
  0
ARC
  5
115
330
1F
100
AcDbEntity
  8
0
  6
Continuous
 62
     7
370
    25
100
AcDbCircle
 10
6720.3475279628
 20
4914.8898337204
 30
0.0
 40
3.0
100
AcDbArc
 50
0.0
 51
90.0
  0
ARC
  5
116
330
1F
100
AcDbEntity
  8
0
  6
Continuous
 62
     7
370
    25
100
AcDbCircle
 10
6723.8475279628
 20
4905.7898337204
 30
0.0
 40
0.5
100
AcDbArc
 50
180.0
 51
270.0
  0
LINE
  5
117
330
1F
100
AcDbEntity
  8
0
  6
Continuous
 62
     7
370
    25
100
AcDbLine
 10
6723.8475279628
 20
4905.2898337204
 30
0.0
 11
6726.5475279628
 21
4905.2898337204
 31
0.0
  0
ARC
  5
118
330
1F
100
AcDbEntity
  8
0
  6
Continuous
 62
     7
370
    25
100
AcDbCircle
 10
6726.5475279628
 20
4907.2898337204
 30
0.0
 40
2.000000000000909
100
AcDbArc
 50
270.0
 51
0.0
  0
ARC
  5
119
330
1F
100
AcDbEntity
  8
0
  6
Continuous
 62
     7
370
    25
100
AcDbCircle
 10
6715.5475279628
 20
4942.0898337204
 30
0.0
 40
19.99999999999998
100
AcDbArc
 50
75.5224878141
 51
104.4775121859
  0
LINE
  5
11A
330
1F
100
AcDbEntity
  8
0
  6
Continuous
 62
     7
370
    25
100
AcDbLine
 10
6720.5475279628
 20
4958.0733982893
 30
0.0
 11
6720.5475279628
 21
4961.4547504514
 31
0.0
  0
LINE
  5
11B
330
1F
100
AcDbEntity
  8
0
  6
Continuous
 62
     7
370
    25
100
AcDbLine
 10
6710.5475279628
 20
4961.4547504514
 30
0.0
 11
6710.5475279628
 21
4958.0898337204
 31
0.0
  0
LINE
  5
11C
330
1F
100
AcDbEntity
  8
0
  6
Continuous
 62
     7
370
    25
100
AcDbLine
 10
6687.5475279628
 20
5634.2912369695
 30
0.0
 11
6692.9450089519
 21
5634.2912369695
 31
0.0
  0
LINE
  5
11D
330
1F
100
AcDbEntity
  8
0
  6
Continuous
 62
     7
370
    25
100
AcDbLine
 10
6710.1500469737
 20
5664.0912369695
 30
0.0
 11
6687.5475279628
 21
5664.0912369695
 31
0.0
  0
LINE
  5
11E
330
1F
100
AcDbEntity
  8
0
  6
Continuous
 62
     7
370
    25
100
AcDbLine
 10
6692.9450089519
 20
5634.2912369695
 30
0.0
 11
6697.6437494464
 21
5626.1527797013
 31
0.0
  0
LINE
  5
11F
330
1F
100
AcDbEntity
  8
0
  6
Continuous
 62
     7
370
    25
100
AcDbLine
 10
6723.4513064792
 20
5641.0527797013
 30
0.0
 11
6710.1500469737
 21
5664.0912369695
 31
0.0
  0
LINE
  5
120
330
1F
100
AcDbEntity
  8
0
  6
Continuous
 62
     7
370
    25
100
AcDbLine
 10
6697.8937494464
 20
5625.7197669994
 30
0.0
 11
6713.6437494464
 21
5598.4399667802
 31
0.0
  0
LINE
  5
121
330
1F
100
AcDbEntity
  8
0
  6
Continuous
 62
     7
370
    25
100
AcDbLine
 10
6739.4513064792
 20
5613.3399667802
 30
0.0
 11
6723.7013064792
 21
5640.6197669994
 31
0.0
  0
ARC
  5
122
330
1F
100
AcDbEntity
  8
0
  6
Continuous
 62
     7
370
    25
100
AcDbCircle
 10
6699.2962779628
 20
5653.09051635
 30
0.0
 40
56.5025000000016
100
AcDbArc
 50
305.7389156903
 51
315.2900265433
  0
ARC
  5
123
330
1F
100
AcDbEntity
  8
0
  6
Continuous
 62
     7
370
    25
100
AcDbCircle
 10
6699.2962779628
 20
5653.09051635
 30
0.0
 40
56.50250000000054
100
AcDbArc
 50
284.7099734567
 51
294.2610843097
  0
LINE
  5
124
330
1F
100
AcDbEntity
  8
0
  6
Continuous
 62
     7
370
    25
100
AcDbLine
 10
6679.5475279628
 20
5634.2912369695
 30
0.0
 11
6685.5475279628
 21
5634.2912369695
 31
0.0
  0
LINE
  5
125
330
1F
100
AcDbEntity
  8
0
  6
Continuous
 62
     7
370
    25
100
AcDbLine
 10
6685.5475279628
 20
5664.0912369695
 30
0.0
 11
6679.5475279628
 21
5664.0912369695
 31
0.0
  0
LINE
  5
126
330
1F
100
AcDbEntity
  8
0
  6
Continuous
 62
     7
370
    25
100
AcDbLine
 10
6699.375800254
 20
5627.1527797013
 30
0.0
 11
6699.625800254
 21
5626.7197669994
 31
0.0
  0
LINE
  5
127
330
1F
100
AcDbEntity
  8
0
  6
Continuous
 62
     7
370
    25
100
AcDbLine
 10
6721.9692556716
 20
5639.6197669994
 30
0.0
 11
6721.7192556716
 21
5640.0527797013
 31
0.0
  0
LINE
  5
128
330
1F
100
AcDbEntity
  8
0
  6
Continuous
 62
     7
370
    25
100
AcDbLine
 10
6687.5475279628
 20
5658.6912369695
 30
0.0
 11
6685.5475279628
 21
5658.6912369695
 31
0.0
  0
LINE
  5
129
330
1F
100
AcDbEntity
  8
0
  6
Continuous
 62
     7
370
    25
100
AcDbLine
 10
6685.5475279628
 20
5639.6912369695
 30
0.0
 11
6687.5475279628
 21
5639.6912369695
 31
0.0
  0
ARC
  5
12A
330
1F
100
AcDbEntity
  8
0
  6
Continuous
 62
     7
370
    25
100
AcDbCircle
 10
6597.4582422484
 20
4690.9898337203
 30
0.0
 40
2.660714285714675
100
AcDbArc
 50
180.0
 51
249.9840403971
  0
ARC
  5
12B
330
1F
100
AcDbEntity
  8
0
  6
Continuous
 62
     7
370
    25
100
AcDbCircle
 10
6601.636813677
 20
4690.9898337203
 30
0.0
 40
2.660714285714419
100
AcDbArc
 50
290.0159596029
 51
0.0
  0
ARC
  5
12C
330
1F
100
AcDbEntity
  8
0
  6
Continuous
 62
     7
370
    25
100
AcDbCircle
 10
6662.4582422484
 20
4690.9898337203
 30
0.0
 40
2.660714285714675
100
AcDbArc
 50
180.0
 51
249.9840403971
  0
ARC
  5
12D
330
1F
100
AcDbEntity
  8
0
  6
Continuous
 62
     7
370
    25
100
AcDbCircle
 10
6666.636813677
 20
4690.9898337203
 30
0.0
 40
2.660714285714419
100
AcDbArc
 50
290.0159596029
 51
0.0
  0
LWPOLYLINE
  5
12E
330
1F
100
AcDbEntity
  8
0
  6
Continuous
 62
     7
370
    25
100
AcDbPolyline
 90
        3
 70
   128
 43
0.0
 10
6575.6160080947
 20
4753.0038193393
 10
6575.9224429149
 20
4753.5338000769
 10
6576.2194531798
 20
4754.0473841787
  0
LWPOLYLINE
  5
12F
330
1F
100
AcDbEntity
  8
0
  6
Continuous
 62
     7
370
    25
100
AcDbPolyline
 90
        3
 70
   128
 43
0.0
 10
6577.5698542485
 20
4753.0038193393
 10
6577.876464267
 20
4753.5341089001
 10
6578.1732993847
 20
4754.0473844413
  0
LWPOLYLINE
  5
130
330
1F
100
AcDbEntity
  8
0
  6
Continuous
 62
     7
370
    25
100
AcDbPolyline
 90
        3
 70
   128
 43
0.0
 10
6579.5237004024
 20
4753.0038193393
 10
6579.8304856584
 20
4753.5344208515
 10
6580.1271455975
 20
4754.0473848086
  0
LWPOLYLINE
  5
131
330
1F
100
AcDbEntity
  8
0
  6
Continuous
 62
     7
370
    25
100
AcDbPolyline
 90
        3
 70
   128
 43
0.0
 10
6581.4775465562
 20
4753.0038193393
 10
6581.7845070892
 20
4753.5347359316
 10
6582.0809918181
 20
4754.0473852804
  0
LWPOLYLINE
  5
132
330
1F
100
AcDbEntity
  8
0
  6
Continuous
 62
     7
370
    25
100
AcDbPolyline
 90
        3
 70
   128
 43
0.0
 10
6575.2516055701
 20
4771.9165901489
 10
6574.9455199008
 20
4772.4458672535
 10
6574.6390851303
 20
4772.9758479065
  0
LWPOLYLINE
  5
133
330
1F
100
AcDbEntity
  8
0
  6
Continuous
 62
     7
370
    25
100
AcDbPolyline
 90
        3
 70
   128
 43
0.0
 10
6577.2054517239
 20
4771.9165901489
 10
6576.899541253
 20
4772.4455584291
 10
6576.5929312842
 20
4772.9758479065
  0
LWPOLYLINE
  5
134
330
1F
100
AcDbEntity
  8
0
  6
Continuous
 62
     7
370
    25
100
AcDbPolyline
 90
        3
 70
   128
 43
0.0
 10
6579.1592978777
 20
4771.9165901489
 10
6578.8535626444
 20
4772.4452464766
 10
6578.546777438
 20
4772.9758479065
  0
LWPOLYLINE
  5
135
330
1F
100
AcDbEntity
  8
0
  6
Continuous
 62
     7
370
    25
100
AcDbPolyline
 90
        3
 70
   128
 43
0.0
 10
6581.1131440316
 20
4771.9165901489
 10
6580.8075840752
 20
4772.4449313954
 10
6580.5006235919
 20
4772.9758479065
  0
LINE
  5
136
330
1F
100
AcDbEntity
  8
0
  6
Continuous
 62
     7
370
    25
100
AcDbLine
 10
6573.2977594162
 20
4771.9165901489
 30
0.0
 11
6573.0953056175
 21
4772.2666709951
 31
0.0
  0
LWPOLYLINE
  5
137
330
1F
100
AcDbEntity
  8
0
  6
Continuous
 62
     7
370
    25
100
AcDbPolyline
 90
        3
 70
   128
 43
0.0
 10
6573.6621619408
 20
4753.0038193393
 10
6573.9684216022
 20
4753.5334943813
 10
6574.2746824801
 20
4754.0630772693
  0
LWPOLYLINE
  5
138
330
1F
100
AcDbEntity
  8
0
  6
Continuous
 62
     7
370
    25
100
AcDbPolyline
 90
        3
 70
   128
 43
0.0
 10
6576.6313027775
 20
4754.261324642
 10
6576.9371839817
 20
4753.7413374541
 10
6577.2426993025
 20
4753.2234453074
  0
LWPOLYLINE
  5
139
330
1F
100
AcDbEntity
  8
0
  6
Continuous
 62
     7
370
    25
100
AcDbPolyline
 90
        3
 70
   128
 43
0.0
 10
6578.5851489314
 20
4754.261324642
 10
6578.8912130231
 20
4753.7401521641
 10
6579.1965454564
 20
4753.2234453074
  0
LWPOLYLINE
  5
13A
330
1F
100
AcDbEntity
  8
0
  6
Continuous
 62
     7
370
    25
100
AcDbPolyline
 90
        3
 70
   128
 43
0.0
 10
6580.5389950852
 20
4754.261324642
 10
6580.845242049
 20
4753.7389700326
 10
6581.1503916102
 20
4753.2234453074
  0
LWPOLYLINE
  5
13B
330
1F
100
AcDbEntity
  8
0
  6
Continuous
 62
     7
370
    25
100
AcDbPolyline
 90
        3
 70
   128
 43
0.0
 10
6582.4928412391
 20
4754.261324642
 10
6582.7992710591
 20
4753.7377910598
 10
6583.1042377641
 20
4753.2234453074
  0
LWPOLYLINE
  5
13C
330
1F
100
AcDbEntity
  8
0
  6
Continuous
 62
     7
370
    25
100
AcDbPolyline
 90
        3
 70
   128
 43
0.0
 10
6576.3167842977
 20
4772.9761051863
 10
6576.0107223739
 20
4772.4467695007
 10
6575.7043091263
 20
4771.9169251715
  0
LWPOLYLINE
  5
13D
330
1F
100
AcDbEntity
  8
0
  6
Continuous
 62
     7
370
    25
100
AcDbPolyline
 90
        3
 70
   128
 43
0.0
 10
6578.2706304515
 20
4772.9761051863
 10
6577.9647435684
 20
4772.4470658748
 10
6577.6581552802
 20
4771.9169251715
  0
LWPOLYLINE
  5
13E
330
1F
100
AcDbEntity
  8
0
  6
Continuous
 62
     7
370
    25
100
AcDbPolyline
 90
        3
 70
   128
 43
0.0
 10
6580.2244766054
 20
4772.9761051863
 10
6579.9187647231
 20
4772.4473591236
 10
6579.612001434
 20
4771.9169251715
  0
LWPOLYLINE
  5
13F
330
1F
100
AcDbEntity
  8
0
  6
Continuous
 62
     7
370
    25
100
AcDbPolyline
 90
        3
 70
   128
 43
0.0
 10
6582.1783227592
 20
4772.9761051863
 10
6581.8727858381
 20
4772.4476492474
 10
6581.5658475879
 20
4771.9169251715
  0
LWPOLYLINE
  5
140
330
1F
100
AcDbEntity
  8
0
  6
Continuous
 62
     7
370
    25
100
AcDbPolyline
 90
        3
 70
   128
 43
0.0
 10
6574.3629381439
 20
4772.9761051863
 10
6574.0567011398
 20
4772.4464700006
 10
6573.7504629725
 20
4771.9169251715
  0
LWPOLYLINE
  5
141
330
1F
100
AcDbEntity
  8
0
  6
Continuous
 62
     7
370
    25
100
AcDbPolyline
 90
        3
 70
   128
 43
0.0
 10
6574.6774566237
 20
4754.261324642
 10
6574.9831549248
 20
4753.7425259021
 10
6575.2888531487
 20
4753.2234453074
  0
LINE
  5
142
330
1F
100
AcDbEntity
  8
0
  6
Continuous
 62
     7
370
    25
100
AcDbLine
 10
6583.1708846858
 20
4752.9898337204
 30
0.0
 11
6584.1922831429
 21
4752.9898337204
 31
0.0
  0
LINE
  5
143
330
1F
100
AcDbEntity
  8
0
  6
Continuous
 62
     7
370
    25
100
AcDbLine
 10
6581.2170385319
 20
4752.9898337204
 30
0.0
 11
6581.4614635716
 21
4752.9898337204
 31
0.0
  0
LINE
  5
144
330
1F
100
AcDbEntity
  8
0
  6
Continuous
 62
     7
370
    25
100
AcDbLine
 10
6579.2631923781
 20
4752.9898337204
 30
0.0
 11
6579.5076174177
 21
4752.9898337204
 31
0.0
  0
LINE
  5
145
330
1F
100
AcDbEntity
  8
0
  6
Continuous
 62
     7
370
    25
100
AcDbLine
 10
6577.3093462243
 20
4752.9898337204
 30
0.0
 11
6577.5537712639
 21
4752.9898337204
 31
0.0
  0
LINE
  5
146
330
1F
100
AcDbEntity
  8
0
  6
Continuous
 62
     7
370
    25
100
AcDbLine
 10
6575.3555000704
 20
4752.9898337204
 30
0.0
 11
6575.59992511
 21
4752.9898337204
 31
0.0
  0
LINE
  5
147
330
1F
100
AcDbEntity
  8
0
  6
Continuous
 62
     7
370
    25
100
AcDbLine
 10
6574.6232710774
 20
4772.9898337203
 30
0.0
 11
6574.3789707578
 21
4772.9898337203
 31
0.0
  0
LINE
  5
148
330
1F
100
AcDbEntity
  8
0
  6
Continuous
 62
     7
370
    25
100
AcDbLine
 10
6576.5771172312
 20
4772.9898337203
 30
0.0
 11
6576.3328169116
 21
4772.9898337203
 31
0.0
  0
LINE
  5
149
330
1F
100
AcDbEntity
  8
0
  6
Continuous
 62
     7
370
    25
100
AcDbLine
 10
6578.5309633851
 20
4772.9898337203
 30
0.0
 11
6578.2866630655
 21
4772.9898337203
 31
0.0
  0
LINE
  5
14A
330
1F
100
AcDbEntity
  8
0
  6
Continuous
 62
     7
370
    25
100
AcDbLine
 10
6580.4848095389
 20
4772.9898337203
 30
0.0
 11
6580.2405092193
 21
4772.9898337203
 31
0.0
  0
LINE
  5
14B
330
1F
100
AcDbEntity
  8
0
  6
Continuous
 62
     7
370
    25
100
AcDbLine
 10
6584.1922831429
 20
4772.9898337203
 30
0.0
 11
6582.1943553732
 21
4772.9898337203
 31
0.0
  0
LINE
  5
14C
330
1F
100
AcDbEntity
  8
0
  6
Continuous
 62
     7
370
    25
100
AcDbLine
 10
6584.1922831429
 20
4752.7898337203
 30
0.0
 11
6584.5475279628
 21
4752.7898337203
 31
0.0
  0
LINE
  5
14D
330
1F
100
AcDbEntity
  8
0
  6
Continuous
 62
     7
370
    25
100
AcDbLine
 10
6584.5475279628
 20
4773.1898337204
 30
0.0
 11
6584.1922831429
 21
4773.1898337204
 31
0.0
  0
LINE
  5
14E
330
1F
100
AcDbEntity
  8
0
  6
Continuous
 62
     7
370
    25
100
AcDbLine
 10
6573.0292505786
 20
4772.3268011561
 30
0.0
 11
6572.1922831429
 21
4771.4898337203
 31
0.0
  0
LINE
  5
14F
330
1F
100
AcDbEntity
  8
0
  6
Continuous
 62
     7
370
    25
100
AcDbLine
 10
6573.0052257534
 20
4753.6768911098
 30
0.0
 11
6573.6230993469
 21
4753.0590175163
 31
0.0
  0
LINE
  5
150
330
1F
100
AcDbEntity
  8
0
  6
Continuous
 62
     7
370
    25
100
AcDbLine
 10
6572.1922831429
 20
4754.4898337204
 30
0.0
 11
6572.6347328948
 21
4754.0473839684
 31
0.0
  0
LWPOLYLINE
  5
151
330
1F
100
AcDbEntity
  8
0
  6
Continuous
 62
     7
370
    25
100
AcDbPolyline
 90
        3
 70
   128
 43
0.0
 10
6574.2567062171
 20
4754.0473839684
 10
6574.5011078967
 20
4754.0473854129
 10
6574.7451677556
 20
4754.0473839684
  0
LWPOLYLINE
  5
152
330
1F
100
AcDbEntity
  8
0
  6
Continuous
 62
     7
370
    25
100
AcDbPolyline
 90
        3
 70
   128
 43
0.0
 10
6576.210552371
 20
4754.0473839684
 10
6576.4551250078
 20
4754.0473897469
 10
6576.6990139095
 20
4754.0473839684
  0
LWPOLYLINE
  5
153
330
1F
100
AcDbEntity
  8
0
  6
Continuous
 62
     7
370
    25
100
AcDbPolyline
 90
        3
 70
   128
 43
0.0
 10
6578.1643985248
 20
4754.0473839684
 10
6578.4091421656
 20
4754.0473969712
 10
6578.6528600633
 20
4754.0473839684
  0
LWPOLYLINE
  5
154
330
1F
100
AcDbEntity
  8
0
  6
Continuous
 62
     7
370
    25
100
AcDbPolyline
 90
        3
 70
   128
 43
0.0
 10
6580.1182446787
 20
4754.0473839684
 10
6580.3631593702
 20
4754.0474070865
 10
6580.6067062171
 20
4754.0473839684
  0
LWPOLYLINE
  5
155
330
1F
100
AcDbEntity
  8
0
  6
Continuous
 62
     7
370
    25
100
AcDbPolyline
 90
        3
 70
   128
 43
0.0
 10
6582.0720908325
 20
4754.0473839684
 10
6582.3171766214
 20
4754.0474200936
 10
6582.560552371
 20
4754.0473839684
  0
LWPOLYLINE
  5
156
330
1F
100
AcDbEntity
  8
0
  6
Continuous
 62
     7
370
    25
100
AcDbPolyline
 90
        3
 70
   128
 43
0.0
 10
6576.1810060306
 20
4754.089331633
 10
6576.4254145273
 20
4754.0888350008
 10
6576.6694675691
 20
4754.089331633
  0
LWPOLYLINE
  5
157
330
1F
100
AcDbEntity
  8
0
  6
Continuous
 62
     7
370
    25
100
AcDbPolyline
 90
        3
 70
   128
 43
0.0
 10
6578.1348521844
 20
4754.089331633
 10
6578.3794383748
 20
4754.0883413502
 10
6578.6233137229
 20
4754.089331633
  0
LWPOLYLINE
  5
158
330
1F
100
AcDbEntity
  8
0
  6
Continuous
 62
     7
370
    25
100
AcDbPolyline
 90
        3
 70
   128
 43
0.0
 10
6580.0886983383
 20
4754.089331633
 10
6580.3334621883
 20
4754.0878506808
 10
6580.5771598768
 20
4754.089331633
  0
LWPOLYLINE
  5
159
330
1F
100
AcDbEntity
  8
0
  6
Continuous
 62
     7
370
    25
100
AcDbPolyline
 90
        3
 70
   128
 43
0.0
 10
6582.0425444921
 20
4754.089331633
 10
6582.2874859679
 20
4754.0873629924
 10
6582.5310060306
 20
4754.089331633
  0
LWPOLYLINE
  5
15A
330
1F
100
AcDbEntity
  8
0
  6
Continuous
 62
     7
370
    25
100
AcDbPolyline
 90
        3
 70
   128
 43
0.0
 10
6575.7220917339
 20
4771.9322834722
 10
6575.4780318753
 20
4771.9322820125
 10
6575.242530012
 20
4771.9322834191
  0
LWPOLYLINE
  5
15B
330
1F
100
AcDbEntity
  8
0
  6
Continuous
 62
     7
370
    25
100
AcDbPolyline
 90
        3
 70
   128
 43
0.0
 10
6577.6759378877
 20
4771.9322834722
 10
6577.4320489866
 20
4771.9322776633
 10
6577.1963761565
 20
4771.9322832608
  0
LWPOLYLINE
  5
15C
330
1F
100
AcDbEntity
  8
0
  6
Continuous
 62
     7
370
    25
100
AcDbPolyline
 90
        3
 70
   128
 43
0.0
 10
6579.6297840416
 20
4771.9322834722
 10
6579.3860661447
 20
4771.9322704238
 10
6579.1502223091
 20
4771.9322829977
  0
LWPOLYLINE
  5
15D
330
1F
100
AcDbEntity
  8
0
  6
Continuous
 62
     7
370
    25
100
AcDbPolyline
 90
        3
 70
   128
 43
0.0
 10
6581.5836301954
 20
4771.9322834722
 10
6581.3400833495
 20
4771.9322602932
 10
6581.1040684694
 20
4771.9322826299
  0
LINE
  5
15E
330
1F
100
AcDbEntity
  8
0
  6
Continuous
 62
     7
370
    25
100
AcDbLine
 10
6573.7682455801
 20
4771.9322834722
 30
0.0
 11
6573.2886838756
 21
4771.9322834722
 31
0.0
  0
LINE
  5
15F
330
1F
100
AcDbEntity
  8
0
  6
Continuous
 62
     7
370
    25
100
AcDbLine
 10
6574.2271598768
 20
4754.089331633
 30
0.0
 11
6574.7156214152
 21
4754.089331633
 31
0.0
  0
LINE
  5
160
330
1F
100
AcDbEntity
  8
0
  6
Continuous
 62
     7
370
    25
100
AcDbLine
 10
6677.5475279628
 20
4818.9898337204
 30
0.0
 11
6678.0475279628
 21
4818.9898337204
 31
0.0
  0
LINE
  5
161
330
1F
100
AcDbEntity
  8
0
  6
Continuous
 62
     7
370
    25
100
AcDbLine
 10
6678.0475279628
 20
4846.9898337204
 30
0.0
 11
6677.5475279628
 21
4846.9898337204
 31
0.0
  0
LINE
  5
162
330
1F
100
AcDbEntity
  8
0
  6
Continuous
 62
     7
370
    25
100
AcDbLine
 10
6678.0475279628
 20
4818.9898337204
 30
0.0
 11
6679.5475279628
 21
4820.4898337204
 31
0.0
  0
LINE
  5
163
330
1F
100
AcDbEntity
  8
0
  6
Continuous
 62
     7
370
    25
100
AcDbLine
 10
6679.5475279628
 20
4845.4898337204
 30
0.0
 11
6678.0475279628
 21
4846.9898337204
 31
0.0
  0
LINE
  5
164
330
1F
100
AcDbEntity
  8
0
  6
Continuous
 62
     7
370
    25
100
AcDbLine
 10
6677.7475279628
 20
4909.4898337204
 30
0.0
 11
6680.3475279628
 21
4909.4898337204
 31
0.0
  0
LINE
  5
165
330
1F
100
AcDbEntity
  8
0
  6
Continuous
 62
     7
370
    25
100
AcDbLine
 10
6680.3475279628
 20
4966.4898337204
 30
0.0
 11
6677.7475279628
 21
4966.4898337204
 31
0.0
  0
ARC
  5
166
330
1F
100
AcDbEntity
  8
0
  6
Continuous
 62
     7
370
    25
100
AcDbCircle
 10
6677.7475279628
 20
4909.6898337204
 30
0.0
 40
0.1999999999998181
100
AcDbArc
 50
180.0
 51
270.0
  0
ARC
  5
167
330
1F
100
AcDbEntity
  8
0
  6
Continuous
 62
     7
370
    25
100
AcDbCircle
 10
6677.7475279628
 20
4966.2898337204
 30
0.0
 40
0.1999999999989086
100
AcDbArc
 50
90.0
 51
180.0
  0
ARC
  5
168
330
1F
100
AcDbEntity
  8
0
  6
Continuous
 62
     7
370
    25
100
AcDbCircle
 10
6680.3475279628
 20
4909.6898337204
 30
0.0
 40
0.2000000000007276
100
AcDbArc
 50
270.0
 51
0.0
  0
ARC
  5
169
330
1F
100
AcDbEntity
  8
0
  6
Continuous
 62
     7
370
    25
100
AcDbCircle
 10
6680.3475279628
 20
4966.2898337204
 30
0.0
 40
0.2000000000007276
100
AcDbArc
 50
0.0
 51
90.0
  0
LINE
  5
16A
330
1F
100
AcDbEntity
  8
0
  6
Continuous
 62
     7
370
    25
100
AcDbLine
 10
6680.5475279628
 20
4914.7398337204
 30
0.0
 11
6688.0475279628
 21
4914.7398337204
 31
0.0
  0
LINE
  5
16B
330
1F
100
AcDbEntity
  8
0
  6
Continuous
 62
     7
370
    25
100
AcDbLine
 10
6688.0475279628
 20
4961.2398337204
 30
0.0
 11
6680.5475279628
 21
4961.2398337204
 31
0.0
  0
LINE
  5
16C
330
1F
100
AcDbEntity
  8
0
  6
Continuous
 62
     7
370
    25
100
AcDbLine
 10
6677.9475279628
 20
5057.8898337204
 30
0.0
 11
6677.5475279628
 21
5057.8898337204
 31
0.0
  0
LINE
  5
16D
330
1F
100
AcDbEntity
  8
0
  6
Continuous
 62
     7
370
    25
100
AcDbLine
 10
6677.5475279628
 20
5028.0898337204
 30
0.0
 11
6677.9475279628
 21
5028.0898337204
 31
0.0
  0
ARC
  5
16E
330
1F
100
AcDbEntity
  8
0
  6
Continuous
 62
     7
370
    25
100
AcDbCircle
 10
6584.3475279628
 20
5146.1398337204
 30
0.0
 40
0.2000000000007276
100
AcDbArc
 50
0.0
 51
122.7790806681
  0
ARC
  5
16F
330
1F
100
AcDbEntity
  8
0
  6
Continuous
 62
     7
370
    25
100
AcDbCircle
 10
6584.3475279628
 20
5139.8398337204
 30
0.0
 40
0.2000000000007276
100
AcDbArc
 50
237.2209193319
 51
0.0
  0
ARC
  5
170
330
1F
100
AcDbEntity
  8
0
  6
Continuous
 62
     7
370
    25
100
AcDbCircle
 10
6585.4100279628
 20
5144.4898337204
 30
0.0
 40
2.162500000000995
100
AcDbArc
 50
122.7790806681
 51
180.0
  0
ARC
  5
171
330
1F
100
AcDbEntity
  8
0
  6
Continuous
 62
     7
370
    25
100
AcDbCircle
 10
6585.4100279628
 20
5141.4898337204
 30
0.0
 40
2.162500000000995
100
AcDbArc
 50
180.0
 51
237.2209193319
  0
ARC
  5
172
330
1F
100
AcDbEntity
  8
0
  6
Continuous
 62
     7
370
    25
100
AcDbCircle
 10
6584.3475279628
 20
5046.1398337204
 30
0.0
 40
0.2000000000007276
100
AcDbArc
 50
0.0000000003
 51
122.7790806681
  0
ARC
  5
173
330
1F
100
AcDbEntity
  8
0
  6
Continuous
 62
     7
370
    25
100
AcDbCircle
 10
6584.3475279628
 20
5039.8398337204
 30
0.0
 40
0.2000000000007276
100
AcDbArc
 50
237.2209193318
 51
0.0
  0
ARC
  5
174
330
1F
100
AcDbEntity
  8
0
  6
Continuous
 62
     7
370
    25
100
AcDbCircle
 10
6585.4100279628
 20
5044.4898337204
 30
0.0
 40
2.162500000000364
100
AcDbArc
 50
122.7790806681
 51
180.0
  0
ARC
  5
175
330
1F
100
AcDbEntity
  8
0
  6
Continuous
 62
     7
370
    25
100
AcDbCircle
 10
6585.4100279628
 20
5041.4898337204
 30
0.0
 40
2.162500000000364
100
AcDbArc
 50
180.0
 51
237.2209193319
  0
ARC
  5
176
330
1F
100
AcDbEntity
  8
0
  6
Continuous
 62
     7
370
    25
100
AcDbCircle
 10
6678.0475279628
 20
5676.1912369695
 30
0.0
 40
0.5
100
AcDbArc
 50
90.0
 51
180.0
  0
ARC
  5
177
330
1F
100
AcDbEntity
  8
0
  6
Continuous
 62
     7
370
    25
100
AcDbCircle
 10
6678.0475279628
 20
5622.1912369695
 30
0.0
 40
0.5
100
AcDbArc
 50
180.0
 51
270.0
  0
LINE
  5
178
330
1F
100
AcDbEntity
  8
0
  6
Continuous
 62
     7
370
    25
100
AcDbLine
 10
6678.0475279628
 20
5621.6912369695
 30
0.0
 11
6679.0475279628
 21
5621.6912369695
 31
0.0
  0
LINE
  5
179
330
1F
100
AcDbEntity
  8
0
  6
Continuous
 62
     7
370
    25
100
AcDbLine
 10
6679.0475279628
 20
5676.6912369695
 30
0.0
 11
6678.0475279628
 21
5676.6912369695
 31
0.0
  0
ARC
  5
17A
330
1F
100
AcDbEntity
  8
0
  6
Continuous
 62
     7
370
    25
100
AcDbCircle
 10
6679.0475279628
 20
5676.1912369695
 30
0.0
 40
0.5
100
AcDbArc
 50
0.0
 51
90.0
  0
ARC
  5
17B
330
1F
100
AcDbEntity
  8
0
  6
Continuous
 62
     7
370
    25
100
AcDbCircle
 10
6679.0475279628
 20
5622.1912369695
 30
0.0
 40
0.5
100
AcDbArc
 50
270.0
 51
0.0
  0
LWPOLYLINE
  5
17C
330
1F
100
AcDbEntity
  8
0
  6
Continuous
 62
     7
370
    25
100
AcDbPolyline
 90
        9
 70
   128
 43
0.0
 10
6723.3475279628
 20
4920.6358674697
 10
6723.3571353226
 20
4920.6077612368
 10
6723.3855881965
 20
4920.5807351108
 10
6723.4317931566
 20
4920.5558276903
 10
6723.4939745722
 20
4920.5339961537
 10
6723.5697428463
 20
4920.5160794747
 10
6723.6561862466
 20
4920.5027661811
 10
6723.7499828018
 20
4920.4945678954
 10
6723.8475279628
 20
4920.491799673
  0
LWPOLYLINE
  5
17D
330
1F
100
AcDbEntity
  8
0
  6
Continuous
 62
     7
370
    25
100
AcDbPolyline
 90
        6
 70
   128
 43
0.0
 10
6723.3475279628
 20
4920.6358674697
 10
6723.1203698524
 20
4923.1723860688
 10
6722.5559198251
 20
4925.6770176054
 10
6722.2047426744
 20
4926.8858010729
 10
6720.3569751684
 20
4932.1726959198
 10
6720.3475279628
 20
4932.1983082966
  0
LWPOLYLINE
  5
17E
330
1F
100
AcDbEntity
  8
0
  6
Continuous
 62
     7
370
    25
100
AcDbPolyline
 90
        6
 70
   128
 43
0.0
 10
6720.3475279628
 20
4932.1983082966
 10
6720.3584269348
 20
4932.1736104209
 10
6721.7300517539
 20
4928.9881166011
 10
6722.9239851355
 20
4925.7307192771
 10
6723.5772924492
 20
4923.1662011468
 10
6723.8475279628
 20
4920.491799673
  0
LINE
  5
17F
330
1F
100
AcDbEntity
  8
0
  6
Continuous
 62
     7
370
    25
100
AcDbLine
 10
6723.8475279628
 20
4920.491799673
 30
0.0
 11
6723.8475279628
 21
4915.9677998221
 31
0.0
  0
LINE
  5
180
330
1F
100
AcDbEntity
  8
0
  6
Continuous
 62
     7
370
    25
100
AcDbLine
 10
6720.3475279628
 20
4932.1983082966
 30
0.0
 11
6726.5475279628
 21
4932.1983082966
 31
0.0
  0
LINE
  5
181
330
1F
100
AcDbEntity
  8
0
  6
Continuous
 62
     7
370
    25
100
AcDbLine
 10
6726.5475279628
 20
4915.9677998221
 30
0.0
 11
6726.5475279628
 21
4932.1983082966
 31
0.0
  0
LINE
  5
182
330
1F
100
AcDbEntity
  8
0
  6
Continuous
 62
     7
370
    25
100
AcDbLine
 10
6723.8475279628
 20
4915.9677998221
 30
0.0
 11
6726.5475279628
 21
4915.9677998221
 31
0.0
  0
LWPOLYLINE
  5
183
330
1F
100
AcDbEntity
  8
0
  6
Continuous
 62
     7
370
    25
100
AcDbPolyline
 90
       11
 70
   128
 43
0.0
 10
6710.5475279628
 20
4958.0898337204
 10
6710.8195379687
 20
4958.0239019389
 10
6711.6006108628
 20
4957.8540768369
 10
6712.828932508
 20
4957.646912884
 10
6714.388992397
 20
4957.4924541765
 10
6716.0548974869
 20
4957.464623163
 10
6717.6248639002
 20
4957.5685294021
 10
6718.9815907823
 20
4957.758566291
 10
6719.9920560996
 20
4957.9589055656
 10
6720.5017816445
 20
4958.0785029033
 10
6720.4809226428
 20
4958.0733836259
  0
LINE
  5
184
330
1F
100
AcDbEntity
  8
0
  6
Continuous
 62
     7
370
    25
100
AcDbLine
 10
6728.5475279628
 20
4956.0898337204
 30
0.0
 11
6728.5475279628
 21
4932.7745794831
 31
0.0
  0
LWPOLYLINE
  5
185
330
1F
100
AcDbEntity
  8
0
  6
Continuous
 62
     7
370
    25
100
AcDbPolyline
 90
        9
 70
   128
 43
0.0
 10
6726.5475279628
 20
4932.1983082966
 10
6726.9377086068
 20
4932.2093811859
 10
6727.3128948275
 20
4932.2421743287
 10
6727.6586684288
 20
4932.2954275031
 10
6727.9617415252
 20
4932.3670942193
 10
6728.2104671874
 20
4932.4544203657
 10
6728.3952870278
 20
4932.5540500475
 10
6728.5090985236
 20
4932.6621545517
 10
6728.5475279628
 20
4932.7745794831
  0
LINE
  5
186
330
1F
100
AcDbEntity
  8
0
  6
Continuous
 62
     7
370
    25
100
AcDbLine
 10
6728.5475279628
 20
4932.7745794831
 30
0.0
 11
6728.5475279628
 21
4916.5440710085
 31
0.0
  0
LWPOLYLINE
  5
187
330
1F
100
AcDbEntity
  8
0
  6
Continuous
 62
     7
370
    25
100
AcDbPolyline
 90
        9
 70
   128
 43
0.0
 10
6728.5475279628
 20
4916.5440710085
 10
6728.5090985236
 20
4916.4316460772
 10
6728.3952870278
 20
4916.3235415729
 10
6728.2104671874
 20
4916.2239118912
 10
6727.9617415252
 20
4916.1365857448
 10
6727.6586684288
 20
4916.0649190285
 10
6727.3128948275
 20
4916.0116658542
 10
6726.9377086068
 20
4915.9788727113
 10
6726.5475279628
 20
4915.9677998221
  0
LINE
  5
188
330
1F
100
AcDbEntity
  8
0
  6
Continuous
 62
     7
370
    25
100
AcDbLine
 10
6723.3475279628
 20
4916.1118676187
 30
0.0
 11
6723.3475279628
 21
4920.6358674697
 31
0.0
  0
LWPOLYLINE
  5
189
330
1F
100
AcDbEntity
  8
0
  6
Continuous
 62
     7
370
    25
100
AcDbPolyline
 90
        9
 70
   128
 43
0.0
 10
6723.3475279628
 20
4916.1118676187
 10
6723.3571353226
 20
4916.0837613858
 10
6723.3855881965
 20
4916.0567352598
 10
6723.4317931566
 20
4916.0318278393
 10
6723.4939745722
 20
4916.0099963027
 10
6723.5697428463
 20
4915.9920796237
 10
6723.6561862466
 20
4915.9787663301
 10
6723.7499828018
 20
4915.9705680444
 10
6723.8475279628
 20
4915.9677998221
  0
LINE
  5
18A
330
1F
100
AcDbEntity
  8
0
  6
Continuous
 62
     7
370
    25
100
AcDbLine
 10
6723.3475279628
 20
4905.7898337204
 30
0.0
 11
6723.3475279628
 21
4916.1118676187
 31
0.0
  0
LINE
  5
18B
330
1F
100
AcDbEntity
  8
0
  6
Continuous
 62
     7
370
    25
100
AcDbLine
 10
6728.5475279628
 20
4916.5440710085
 30
0.0
 11
6728.5475279628
 21
4907.2898337204
 31
0.0
  0
LINE
  5
18C
330
1F
100
AcDbEntity
  8
0
  6
Continuous
 62
     7
370
    25
100
AcDbLine
 10
6720.5475279628
 20
4961.4547504514
 30
0.0
 11
6710.5475279628
 21
4961.4547504514
 31
0.0
  0
LINE
  5
18D
330
1F
100
AcDbEntity
  8
0
  6
Continuous
 62
     7
370
    25
100
AcDbLine
 10
6687.5475279628
 20
5649.1912369695
 30
0.0
 11
6687.5475279628
 21
5664.0912369695
 31
0.0
  0
LINE
  5
18E
330
1F
100
AcDbEntity
  8
0
  6
Continuous
 62
     7
370
    25
100
AcDbLine
 10
6687.5475279628
 20
5634.2912369695
 30
0.0
 11
6687.5475279628
 21
5649.1912369695
 31
0.0
  0
LINE
  5
18F
330
1F
100
AcDbEntity
  8
0
  6
Continuous
 62
     7
370
    25
100
AcDbLine
 10
6710.1500469737
 20
5664.0912369695
 30
0.0
 11
6692.9450089519
 21
5634.2912369695
 31
0.0
  0
LINE
  5
190
330
1F
100
AcDbEntity
  8
0
  6
Continuous
 62
     7
370
    25
100
AcDbLine
 10
6710.5475279628
 20
5633.6027797013
 30
0.0
 11
6723.4513064792
 21
5641.0527797013
 31
0.0
  0
LINE
  5
191
330
1F
100
AcDbEntity
  8
0
  6
Continuous
 62
     7
370
    25
100
AcDbLine
 10
6697.6437494464
 20
5626.1527797013
 30
0.0
 11
6710.5475279628
 21
5633.6027797013
 31
0.0
  0
LINE
  5
192
330
1F
100
AcDbEntity
  8
0
  6
Continuous
 62
     7
370
    25
100
AcDbLine
 10
6710.7975279628
 20
5633.1697669994
 30
0.0
 11
6723.7013064792
 21
5640.6197669994
 31
0.0
  0
LINE
  5
193
330
1F
100
AcDbEntity
  8
0
  6
Continuous
 62
     7
370
    25
100
AcDbLine
 10
6697.8937494464
 20
5625.7197669994
 30
0.0
 11
6710.7975279628
 21
5633.1697669994
 31
0.0
  0
LINE
  5
194
330
1F
100
AcDbEntity
  8
0
  6
Continuous
 62
     7
370
    25
100
AcDbLine
 10
6713.6437494464
 20
5598.4399667802
 30
0.0
 11
6739.4513064792
 21
5613.3399667802
 31
0.0
  0
LINE
  5
195
330
1F
100
AcDbEntity
  8
0
  6
Continuous
 62
     7
370
    25
100
AcDbLine
 10
6727.405929358
 20
5604.4031719504
 30
0.0
 11
6722.5128858267
 21
5601.5781719504
 31
0.0
  0
LINE
  5
196
330
1F
100
AcDbEntity
  8
0
  6
Continuous
 62
     7
370
    25
100
AcDbLine
 10
6732.2989728894
 20
5607.2281719504
 30
0.0
 11
6727.405929358
 21
5604.4031719504
 31
0.0
  0
LINE
  5
197
330
1F
100
AcDbEntity
  8
0
  6
Continuous
 62
     7
370
    25
100
AcDbLine
 10
6679.5475279628
 20
5644.0912369695
 30
0.0
 11
6685.5475279628
 21
5644.0912369695
 31
0.0
  0
LINE
  5
198
330
1F
100
AcDbEntity
  8
0
  6
Continuous
 62
     7
370
    25
100
AcDbLine
 10
6685.5475279628
 20
5634.2912369695
 30
0.0
 11
6685.5475279628
 21
5644.0912369695
 31
0.0
  0
LINE
  5
199
330
1F
100
AcDbEntity
  8
0
  6
Continuous
 62
     7
370
    25
100
AcDbLine
 10
6679.5475279628
 20
5654.2912369695
 30
0.0
 11
6685.5475279628
 21
5654.2912369695
 31
0.0
  0
LINE
  5
19A
330
1F
100
AcDbEntity
  8
0
  6
Continuous
 62
     7
370
    25
100
AcDbLine
 10
6685.5475279628
 20
5644.0912369695
 30
0.0
 11
6685.5475279628
 21
5654.2912369695
 31
0.0
  0
LINE
  5
19B
330
1F
100
AcDbEntity
  8
0
  6
Continuous
 62
     7
370
    25
100
AcDbLine
 10
6685.5475279628
 20
5654.2912369695
 30
0.0
 11
6685.5475279628
 21
5664.0912369695
 31
0.0
  0
LINE
  5
19C
330
1F
100
AcDbEntity
  8
0
  6
Continuous
 62
     7
370
    25
100
AcDbLine
 10
6596.5475279627
 20
4688.4898337203
 30
0.0
 11
6602.5475279627
 21
4688.4898337203
 31
0.0
  0
LINE
  5
19D
330
1F
100
AcDbEntity
  8
0
  6
Continuous
 62
     7
370
    25
100
AcDbLine
 10
6661.5475279627
 20
4688.4898337203
 30
0.0
 11
6667.5475279627
 21
4688.4898337203
 31
0.0
  0
LINE
  5
19E
330
1F
100
AcDbEntity
  8
0
  6
Continuous
 62
     7
370
    25
100
AcDbLine
 10
6586.3767189792
 20
5738.075542345
 30
0.0
 11
6586.0475279628
 21
5738.075542345
 31
0.0
  0
LINE
  5
19F
330
1F
100
AcDbEntity
  8
0
  6
Continuous
 62
     7
370
    25
100
AcDbLine
 10
6588.0475279628
 20
5736.7972392542
 30
0.0
 11
6588.0475279628
 21
5737.3716616162
 31
0.0
  0
LINE
  5
1A0
330
1F
100
AcDbEntity
  8
0
  6
Continuous
 62
     7
370
    25
100
AcDbLine
 10
6586.0475279628
 20
5737.4004046551
 30
0.0
 11
6586.0475279628
 21
5738.075542345
 31
0.0
  0
LINE
  5
1A1
330
1F
100
AcDbEntity
  8
0
  6
Continuous
 62
     7
370
    25
100
AcDbLine
 10
6586.5475279627
 20
4693.9898337203
 30
0.0
 11
6584.5475279627
 21
4693.9898337203
 31
0.0
  0
LINE
  5
1A2
330
1F
100
AcDbEntity
  8
0
  6
Continuous
 62
     7
370
    25
100
AcDbLine
 10
6584.5475279627
 20
4693.9898337203
 30
0.0
 11
6584.5475279627
 21
4694.5898337204
 31
0.0
  0
LINE
  5
1A3
330
1F
100
AcDbEntity
  8
0
  6
Continuous
 62
     7
370
    25
100
AcDbLine
 10
6587.5475279627
 20
4692.9898337203
 30
0.0
 11
6587.5475279627
 21
4690.9898337203
 31
0.0
  0
ARC
  5
1A4
330
1F
100
AcDbEntity
  8
0
  6
Continuous
 62
     7
370
    25
100
AcDbCircle
 10
6587.5475279627
 20
4693.9898337203
 30
0.0
 40
3.0
100
AcDbArc
 50
180.0
 51
270.0
  0
LINE
  5
1A5
330
1F
100
AcDbEntity
  8
0
  6
Continuous
 62
     7
370
    25
100
AcDbLine
 10
6598.1233618667
 20
4690.9898337203
 30
0.0
 11
6598.1233618667
 21
4692.9898337203
 31
0.0
  0
LINE
  5
1A6
330
1F
100
AcDbEntity
  8
0
  6
Continuous
 62
     7
370
    25
100
AcDbLine
 10
6587.5475279627
 20
4690.9898337203
 30
0.0
 11
6598.1233618667
 21
4690.9898337203
 31
0.0
  0
LINE
  5
1A7
330
1F
100
AcDbEntity
  8
0
  6
Continuous
 62
     7
370
    25
100
AcDbLine
 10
6600.8584797662
 20
4692.9898337203
 30
0.0
 11
6600.8584797662
 21
4690.9898337203
 31
0.0
  0
LINE
  5
1A8
330
1F
100
AcDbEntity
  8
0
  6
Continuous
 62
     7
370
    25
100
AcDbLine
 10
6600.8584797662
 20
4690.9898337203
 30
0.0
 11
6598.1233618667
 21
4690.9898337203
 31
0.0
  0
LINE
  5
1A9
330
1F
100
AcDbEntity
  8
0
  6
Continuous
 62
     7
370
    25
100
AcDbLine
 10
6668.2826458621
 20
4690.9898337203
 30
0.0
 11
6668.2826458621
 21
4692.9898337203
 31
0.0
  0
LINE
  5
1AA
330
1F
100
AcDbEntity
  8
0
  6
Continuous
 62
     7
370
    25
100
AcDbLine
 10
6600.8584797662
 20
4690.9898337203
 30
0.0
 11
6668.2826458621
 21
4690.9898337203
 31
0.0
  0
LINE
  5
1AB
330
1F
100
AcDbEntity
  8
0
  6
Continuous
 62
     7
370
    25
100
AcDbLine
 10
6672.5475279627
 20
4692.9898337203
 30
0.0
 11
6672.5475279627
 21
4690.9898337203
 31
0.0
  0
LINE
  5
1AC
330
1F
100
AcDbEntity
  8
0
  6
Continuous
 62
     7
370
    25
100
AcDbLine
 10
6672.5475279627
 20
4690.9898337203
 30
0.0
 11
6668.2826458621
 21
4690.9898337203
 31
0.0
  0
LWPOLYLINE
  5
1AD
330
1F
100
AcDbEntity
  8
0
  6
Continuous
 62
     7
370
    25
100
AcDbPolyline
 90
       11
 70
   128
 43
0.0
 10
6573.6630296727
 20
4753.0989478421
 10
6573.6423788108
 20
4753.096280052
 10
6573.5751987651
 20
4754.0638653504
 10
6573.5090340518
 20
4756.0321802493
 10
6573.4412577802
 20
4758.7676900678
 10
6573.3749820471
 20
4761.9447941478
 10
6573.3073882027
 20
4765.1948234219
 10
6573.2408476184
 20
4768.1552296187
 10
6573.1736155949
 20
4770.4800329921
 10
6573.1066564285
 20
4771.9281649621
 10
6573.0437779699
 20
4772.3122737648
  0
LWPOLYLINE
  5
1AE
330
1F
100
AcDbEntity
  8
0
  6
Continuous
 62
     7
370
    25
100
AcDbPolyline
 90
       11
 70
   128
 43
0.0
 10
6573.2981888315
 20
4771.7944317341
 10
6573.343828741
 20
4771.7404089688
 10
6573.4495540677
 20
4770.6405705106
 10
6573.5524190296
 20
4768.7028520467
 10
6573.657601192
 20
4766.1144865347
 10
6573.761063252
 20
4763.1929708138
 10
6573.8654336389
 20
4760.240702692
 10
6573.9697264633
 20
4757.5950423201
 10
6574.073247694
 20
4755.55369635
 10
6574.1783735513
 20
4754.3317977829
 10
6574.2566052426
 20
4754.1377319336
  0
LWPOLYLINE
  5
1AF
330
1F
100
AcDbEntity
  8
0
  6
Continuous
 62
     7
370
    25
100
AcDbPolyline
 90
       11
 70
   128
 43
0.0
 10
6575.2520440078
 20
4771.7944210545
 10
6575.2976748948
 20
4771.7404089688
 10
6575.4034002215
 20
4770.6405705106
 10
6575.5062651834
 20
4768.7028520467
 10
6575.6114473459
 20
4766.1144865347
 10
6575.7149094059
 20
4763.1929708138
 10
6575.8192797927
 20
4760.240702692
 10
6575.9235726171
 20
4757.5950423201
 10
6576.0270938478
 20
4755.55369635
 10
6576.1322197052
 20
4754.3317977829
 10
6576.2103082794
 20
4754.1380869576
  0
LWPOLYLINE
  5
1B0
330
1F
100
AcDbEntity
  8
0
  6
Continuous
 62
     7
370
    25
100
AcDbPolyline
 90
       11
 70
   128
 43
0.0
 10
6577.2058991871
 20
4771.7944103713
 10
6577.2515210486
 20
4771.7404089688
 10
6577.3572463754
 20
4770.6405705106
 10
6577.4601113373
 20
4768.7028520467
 10
6577.5652934997
 20
4766.1144865347
 10
6577.6687555597
 20
4763.1929708138
 10
6577.7731259465
 20
4760.240702692
 10
6577.877418771
 20
4757.5950423201
 10
6577.9809400017
 20
4755.55369635
 10
6578.086065859
 20
4754.3317977829
 10
6578.1641550496
 20
4754.1380854287
  0
LWPOLYLINE
  5
1B1
330
1F
100
AcDbEntity
  8
0
  6
Continuous
 62
     7
370
    25
100
AcDbPolyline
 90
       11
 70
   128
 43
0.0
 10
6579.1597543694
 20
4771.7943996845
 10
6579.2053672025
 20
4771.7404089688
 10
6579.3110925292
 20
4770.6405705106
 10
6579.4139574911
 20
4768.7028520467
 10
6579.5191396536
 20
4766.1144865347
 10
6579.6226017136
 20
4763.1929708138
 10
6579.7269721004
 20
4760.240702692
 10
6579.8312649248
 20
4757.5950423201
 10
6579.9347861555
 20
4755.55369635
 10
6580.0399120129
 20
4754.3317977829
 10
6580.1180020625
 20
4754.1380832978
  0
LWPOLYLINE
  5
1B2
330
1F
100
AcDbEntity
  8
0
  6
Continuous
 62
     7
370
    25
100
AcDbPolyline
 90
       11
 70
   128
 43
0.0
 10
6581.1136095551
 20
4771.7943889938
 10
6581.1592133563
 20
4771.7404089688
 10
6581.2649386831
 20
4770.6405705106
 10
6581.367803645
 20
4768.7028520467
 10
6581.4729858074
 20
4766.1144865347
 10
6581.5764478674
 20
4763.1929708138
 10
6581.6808182542
 20
4760.240702692
 10
6581.7851110787
 20
4757.5950423201
 10
6581.8886323094
 20
4755.55369635
 10
6581.9937581667
 20
4754.3317977829
 10
6582.0718493204
 20
4754.1380805589
  0
LWPOLYLINE
  5
1B3
330
1F
100
AcDbEntity
  8
0
  6
Continuous
 62
     7
370
    25
100
AcDbPolyline
 90
       11
 70
   128
 43
0.0
 10
6574.6400575229
 20
4772.860083273
 10
6574.7130211723
 20
4772.5730553606
 10
6574.8174298889
 20
4771.099635872
 10
6574.9216842957
 20
4768.7246232849
 10
6575.0252356956
 20
4765.7189570043
 10
6575.130332729
 20
4762.3945632883
 10
6575.2332580904
 20
4759.1581694603
 10
6575.3389314902
 20
4756.3224914575
 10
6575.4414690659
 20
4754.2513338043
 10
6575.5456754706
 20
4753.1451338902
 10
6575.59992511
 20
4753.1222322192
  0
LWPOLYLINE
  5
1B4
330
1F
100
AcDbEntity
  8
0
  6
Continuous
 62
     7
370
    25
100
AcDbPolyline
 90
       11
 70
   128
 43
0.0
 10
6576.5939315179
 20
4772.8599737501
 10
6576.6668673261
 20
4772.5730553606
 10
6576.7712760428
 20
4771.099635872
 10
6576.8755304495
 20
4768.7246232849
 10
6576.9790818494
 20
4765.7189570043
 10
6577.0841788828
 20
4762.3945632883
 10
6577.1871042443
 20
4759.1581694603
 10
6577.292777644
 20
4756.3224914575
 10
6577.3953152198
 20
4754.2513338043
 10
6577.4995216245
 20
4753.1451338902
 10
6577.5537712639
 20
4753.1222322192
  0
LWPOLYLINE
  5
1B5
330
1F
100
AcDbEntity
  8
0
  6
Continuous
 62
     7
370
    25
100
AcDbPolyline
 90
       11
 70
   128
 43
0.0
 10
6578.5478055328
 20
4772.859864149
 10
6578.62071348
 20
4772.5730553606
 10
6578.7251221966
 20
4771.099635872
 10
6578.8293766034
 20
4768.7246232849
 10
6578.9329280033
 20
4765.7189570043
 10
6579.0380250367
 20
4762.3945632883
 10
6579.1409503981
 20
4759.1581694603
 10
6579.2466237979
 20
4756.3224914575
 10
6579.3491613736
 20
4754.2513338043
 10
6579.4533677783
 20
4753.1451338902
 10
6579.5076174177
 20
4753.1222322192
  0
LWPOLYLINE
  5
1B6
330
1F
100
AcDbEntity
  8
0
  6
Continuous
 62
     7
370
    25
100
AcDbPolyline
 90
       11
 70
   128
 43
0.0
 10
6580.5016795673
 20
4772.8597544708
 10
6580.5745596338
 20
4772.5730553606
 10
6580.6789683505
 20
4771.099635872
 10
6580.7832227572
 20
4768.7246232849
 10
6580.8867741571
 20
4765.7189570043
 10
6580.9918711905
 20
4762.3945632883
 10
6581.0947965519
 20
4759.1581694603
 10
6581.2004699517
 20
4756.3224914575
 10
6581.3030075275
 20
4754.2513338043
 10
6581.4072139322
 20
4753.1451338902
 10
6581.4614635716
 20
4753.1222322192
  0
LWPOLYLINE
  5
1B7
330
1F
100
AcDbEntity
  8
0
  6
Continuous
 62
     7
370
    25
100
AcDbPolyline
 90
       11
 70
   128
 43
0.0
 10
6574.3789707578
 20
4772.8598447623
 10
6574.4428671841
 20
4772.7752678945
 10
6574.5485925099
 20
4771.5453607336
 10
6574.6514574695
 20
4769.3784843668
 10
6574.7566396315
 20
4766.4840142145
 10
6574.8601016888
 20
4763.2169948732
 10
6574.9644720757
 20
4759.9155861914
 10
6575.0687648969
 20
4756.9570451903
 10
6575.1722861275
 20
4754.6742857865
 10
6575.2774119818
 20
4753.307883051
 10
6575.3555000704
 20
4753.0912647518
  0
LWPOLYLINE
  5
1B8
330
1F
100
AcDbEntity
  8
0
  6
Continuous
 62
     7
370
    25
100
AcDbPolyline
 90
       11
 70
   128
 43
0.0
 10
6576.3328169116
 20
4772.8598447623
 10
6576.396713338
 20
4772.7752678945
 10
6576.5024386637
 20
4771.5453607336
 10
6576.6053036234
 20
4769.3784843668
 10
6576.7104857853
 20
4766.4840142145
 10
6576.8139478426
 20
4763.2169948732
 10
6576.9183182295
 20
4759.9155861914
 10
6577.0226110507
 20
4756.9570451903
 10
6577.1261322813
 20
4754.6742857865
 10
6577.2312581356
 20
4753.307883051
 10
6577.3093462243
 20
4753.0912647518
  0
LWPOLYLINE
  5
1B9
330
1F
100
AcDbEntity
  8
0
  6
Continuous
 62
     7
370
    25
100
AcDbPolyline
 90
       11
 70
   128
 43
0.0
 10
6578.2866630655
 20
4772.8598447623
 10
6578.3505594918
 20
4772.7752678945
 10
6578.4562848175
 20
4771.5453607336
 10
6578.5591497772
 20
4769.3784843668
 10
6578.6643319392
 20
4766.4840142145
 10
6578.7677939964
 20
4763.2169948732
 10
6578.8721643834
 20
4759.9155861914
 10
6578.9764572045
 20
4756.9570451903
 10
6579.0799784351
 20
4754.6742857865
 10
6579.1851042895
 20
4753.307883051
 10
6579.2631923781
 20
4753.0912647518
  0
LWPOLYLINE
  5
1BA
330
1F
100
AcDbEntity
  8
0
  6
Continuous
 62
     7
370
    25
100
AcDbPolyline
 90
       11
 70
   128
 43
0.0
 10
6580.2405092193
 20
4772.8598447623
 10
6580.3044056457
 20
4772.7752678945
 10
6580.4101309714
 20
4771.5453607336
 10
6580.5129959311
 20
4769.3784843668
 10
6580.618178093
 20
4766.4840142145
 10
6580.7216401503
 20
4763.2169948732
 10
6580.8260105372
 20
4759.9155861914
 10
6580.9303033584
 20
4756.9570451903
 10
6581.033824589
 20
4754.6742857865
 10
6581.1389504433
 20
4753.307883051
 10
6581.2170385319
 20
4753.0912647518
  0
LWPOLYLINE
  5
1BB
330
1F
100
AcDbEntity
  8
0
  6
Continuous
 62
     7
370
    25
100
AcDbPolyline
 90
       11
 70
   128
 43
0.0
 10
6582.1943553732
 20
4772.8598447623
 10
6582.2582517995
 20
4772.7752678945
 10
6582.3639771252
 20
4771.5453607336
 10
6582.4668420849
 20
4769.3784843668
 10
6582.5720242468
 20
4766.4840142145
 10
6582.6754863041
 20
4763.2169948732
 10
6582.7798566911
 20
4759.9155861914
 10
6582.8841495122
 20
4756.9570451903
 10
6582.9876707428
 20
4754.6742857865
 10
6583.0927965972
 20
4753.307883051
 10
6583.1708846858
 20
4753.0912647518
  0
LWPOLYLINE
  5
1BC
330
1F
100
AcDbEntity
  8
0
  6
Continuous
 62
     7
370
    25
100
AcDbPolyline
 90
       11
 70
   128
 43
0.0
 10
6573.7683166309
 20
4771.8161328869
 10
6573.8322902637
 20
4771.7404090607
 10
6573.9380155894
 20
4770.640570762
 10
6574.0408805491
 20
4768.7028524592
 10
6574.1460627111
 20
4766.1144870696
 10
6574.2495247683
 20
4763.1929714398
 10
6574.3538951553
 20
4760.2407033151
 10
6574.4581879764
 20
4757.5950428909
 10
6574.561709207
 20
4755.5536967645
 10
6574.6668350614
 20
4754.3317979842
 10
6574.6771312916
 20
4754.2944139494
  0
LWPOLYLINE
  5
1BD
330
1F
100
AcDbEntity
  8
0
  6
Continuous
 62
     7
370
    25
100
AcDbPolyline
 90
       11
 70
   128
 43
0.0
 10
6575.722209766
 20
4771.8160772765
 10
6575.7861364176
 20
4771.7404090607
 10
6575.8918617433
 20
4770.640570762
 10
6575.994726703
 20
4768.7028524592
 10
6576.0999088649
 20
4766.1144870696
 10
6576.2033709222
 20
4763.1929714398
 10
6576.3077413091
 20
4760.2407033151
 10
6576.4120341303
 20
4757.5950428909
 10
6576.5155553609
 20
4755.5536967645
 10
6576.6206812152
 20
4754.3317979842
 10
6576.6310002779
 20
4754.2943310481
  0
LWPOLYLINE
  5
1BE
330
1F
100
AcDbEntity
  8
0
  6
Continuous
 62
     7
370
    25
100
AcDbPolyline
 90
       11
 70
   128
 43
0.0
 10
6577.6761028341
 20
4771.8160217454
 10
6577.7399825714
 20
4771.7404090607
 10
6577.8457078971
 20
4770.640570762
 10
6577.9485728568
 20
4768.7028524592
 10
6578.0537550187
 20
4766.1144870696
 10
6578.157217076
 20
4763.1929714398
 10
6578.261587463
 20
4760.2407033151
 10
6578.3658802841
 20
4757.5950428909
 10
6578.4694015147
 20
4755.5536967645
 10
6578.5745273691
 20
4754.3317979842
 10
6578.5848692306
 20
4754.2942482689
  0
LWPOLYLINE
  5
1BF
330
1F
100
AcDbEntity
  8
0
  6
Continuous
 62
     7
370
    25
100
AcDbPolyline
 90
       11
 70
   128
 43
0.0
 10
6579.6299958366
 20
4771.8159662919
 10
6579.6938287253
 20
4771.7404090607
 10
6579.799554051
 20
4770.640570762
 10
6579.9024190107
 20
4768.7028524592
 10
6580.0076011726
 20
4766.1144870696
 10
6580.1110632299
 20
4763.1929714398
 10
6580.2154336168
 20
4760.2407033151
 10
6580.319726438
 20
4757.5950428909
 10
6580.4232476686
 20
4755.5536967645
 10
6580.5283735229
 20
4754.3317979842
 10
6580.53873815
 20
4754.2941656105
  0
LWPOLYLINE
  5
1C0
330
1F
100
AcDbEntity
  8
0
  6
Continuous
 62
     7
370
    25
100
AcDbPolyline
 90
       11
 70
   128
 43
0.0
 10
6581.5838887751
 20
4771.8159109143
 10
6581.6476748791
 20
4771.7404090607
 10
6581.7534002048
 20
4770.640570762
 10
6581.8562651645
 20
4768.7028524592
 10
6581.9614473264
 20
4766.1144870696
 10
6582.0649093837
 20
4763.1929714398
 10
6582.1692797707
 20
4760.2407033151
 10
6582.2735725918
 20
4757.5950428909
 10
6582.3770938224
 20
4755.5536967645
 10
6582.4822196768
 20
4754.3317979842
 10
6582.4926070366
 20
4754.2940830714
  0
LINE
  5
1C1
330
1F
100
AcDbEntity
  8
0
  6
Continuous
 62
     7
370
    25
100
AcDbLine
 10
6584.1922831429
 20
4762.9898337203
 30
0.0
 11
6584.1922831429
 21
4773.1898337204
 31
0.0
  0
LINE
  5
1C2
330
1F
100
AcDbEntity
  8
0
  6
Continuous
 62
     7
370
    25
100
AcDbLine
 10
6584.1922831429
 20
4752.7898337203
 30
0.0
 11
6584.1922831429
 21
4762.9898337203
 31
0.0
  0
LINE
  5
1C3
330
1F
100
AcDbEntity
  8
0
  6
Continuous
 62
     7
370
    25
100
AcDbLine
 10
6573.0052257534
 20
4753.6768911098
 30
0.0
 11
6572.6347328948
 21
4754.0473839684
 31
0.0
  0
LINE
  5
1C4
330
1F
100
AcDbEntity
  8
0
  6
Continuous
 62
     7
370
    25
100
AcDbLine
 10
6572.1922831429
 20
4754.4898337204
 30
0.0
 11
6572.1922831429
 21
4771.4898337203
 31
0.0
  0
LINE
  5
1C5
330
1F
100
AcDbEntity
  8
0
  6
Continuous
 62
     7
370
    25
100
AcDbLine
 10
6678.0475279628
 20
4818.9898337204
 30
0.0
 11
6678.0475279628
 21
4846.9898337204
 31
0.0
  0
LINE
  5
1C6
330
1F
100
AcDbEntity
  8
0
  6
Continuous
 62
     7
370
    25
100
AcDbLine
 10
6679.5475279628
 20
4845.4898337204
 30
0.0
 11
6679.5475279628
 21
4820.4898337204
 31
0.0
  0
LINE
  5
1C7
330
1F
100
AcDbEntity
  8
0
  6
Continuous
 62
     7
370
    25
100
AcDbLine
 10
6680.5475279628
 20
4965.1641897743
 30
0.0
 11
6680.5475279628
 21
4966.2898337204
 31
0.0
  0
LINE
  5
1C8
330
1F
100
AcDbEntity
  8
0
  6
Continuous
 62
     7
370
    25
100
AcDbLine
 10
6680.5475279628
 20
4909.6898337204
 30
0.0
 11
6680.5475279628
 21
4965.1641897743
 31
0.0
  0
LINE
  5
1C9
330
1F
100
AcDbEntity
  8
0
  6
Continuous
 62
     7
370
    25
100
AcDbLine
 10
6688.0475279628
 20
4914.7398337204
 30
0.0
 11
6688.0475279628
 21
4961.2398337204
 31
0.0
  0
LINE
  5
1CA
330
1F
100
AcDbEntity
  8
0
  6
Continuous
 62
     7
370
    25
100
AcDbLine
 10
6677.9475279628
 20
5057.8898337204
 30
0.0
 11
6677.9475279628
 21
5028.0898337204
 31
0.0
  0
LINE
  5
1CB
330
1F
100
AcDbEntity
  8
0
  6
Continuous
 62
     7
370
    25
100
AcDbLine
 10
6583.2475279628
 20
5142.5053063097
 30
0.0
 11
6583.2475279628
 21
5141.4898337204
 31
0.0
  0
LINE
  5
1CC
330
1F
100
AcDbEntity
  8
0
  6
Continuous
 62
     7
370
    25
100
AcDbLine
 10
6583.2475279628
 20
5144.4898337204
 30
0.0
 11
6583.2475279628
 21
5142.5053063097
 31
0.0
  0
LINE
  5
1CD
330
1F
100
AcDbEntity
  8
0
  6
Continuous
 62
     7
370
    25
100
AcDbLine
 10
6583.2475279628
 20
5042.5053063097
 30
0.0
 11
6583.2475279628
 21
5041.4898337204
 31
0.0
  0
LINE
  5
1CE
330
1F
100
AcDbEntity
  8
0
  6
Continuous
 62
     7
370
    25
100
AcDbLine
 10
6583.2475279628
 20
5044.4898337204
 30
0.0
 11
6583.2475279628
 21
5042.5053063097
 31
0.0
  0
LINE
  5
1CF
330
1F
100
AcDbEntity
  8
0
  6
Continuous
 62
     7
370
    25
100
AcDbLine
 10
6586.7726977684
 20
4694.5898337204
 30
0.0
 11
6586.7726977684
 21
5737.3383725667
 31
0.0
  0
LINE
  5
1D0
330
1F
100
AcDbEntity
  8
0
  6
Continuous
 62
     7
370
    25
100
AcDbLine
 10
6586.7726977684
 20
4694.5898337204
 30
0.0
 11
6584.5475279628
 21
4694.5898337204
 31
0.0
  0
LINE
  5
1D1
330
1F
100
AcDbEntity
  8
0
  6
Continuous
 62
     7
370
    25
100
AcDbLine
 10
6584.5475279628
 20
4694.5898337204
 30
0.0
 11
6584.5475279628
 21
5736.6019686839
 31
0.0
  0
ELLIPSE
  5
1D2
330
1F
100
AcDbEntity
  8
0
  6
Continuous
 62
     7
370
    25
100
AcDbEllipse
 10
6586.1475279628
 20
5736.6019686839
 30
0.0
 11
1.599999999999454
 21
0.0
 31
0.0
210
0.0
220
0.0
230
1.0
 40
0.5
 41
1.169370598836339
 42
3.141592653590958
  0
LINE
  5
1D3
330
1F
100
AcDbEntity
  8
0
  6
Continuous
 62
     7
370
    25
100
AcDbLine
 10
6676.5726977684
 20
4694.5898337204
 30
0.0
 11
6676.5726977684
 21
5699.2205340711
 31
0.0
  0
LINE
  5
1D4
330
1F
100
AcDbEntity
  8
0
  6
Continuous
 62
     7
370
    25
100
AcDbLine
 10
6586.7726977684
 20
4694.5898337204
 30
0.0
 11
6676.5726977684
 21
4694.5898337204
 31
0.0
  0
LINE
  5
1D5
330
1F
100
AcDbEntity
  8
0
  6
Continuous
 62
     7
370
    25
100
AcDbLine
 10
6676.5726977684
 20
5699.2205340711
 30
0.0
 11
6586.7726977684
 21
5737.3383725667
 31
0.0
  0
LWPOLYLINE
  5
1D6
330
1F
100
AcDbEntity
  8
0
  6
Continuous
 62
     7
370
    25
100
AcDbPolyline
 90
        5
 70
   128
 43
0.0
 10
6586.4601128656
 20
4692.9898337204
 10
6586.6212087669
 20
4693.1116264683
 10
6586.7458822231
 20
4693.4584628705
 10
6586.8032557762
 20
4693.9775402286
 10
6586.7726977684
 20
4694.5898337204
  0
LINE
  5
1D7
330
1F
100
AcDbEntity
  8
0
  6
Continuous
 62
     7
370
    25
100
AcDbLine
 10
6586.4601128656
 20
4693.7898337204
 30
0.0
 11
6586.4601128656
 21
4692.9898337204
 31
0.0
  0
ARC
  5
1D8
330
1F
100
AcDbEntity
  8
0
  6
Continuous
 62
     7
370
    25
100
AcDbCircle
 10
6585.5011479905
 20
4694.1898337204
 30
0.0
 40
1.039044576364825
100
AcDbArc
 50
337.3581813446
 51
22.6418186554
  0
LWPOLYLINE
  5
1D9
330
1F
100
AcDbEntity
  8
0
  6
Continuous
 62
     7
370
    25
100
AcDbPolyline
 90
        5
 70
   128
 43
0.0
 10
6676.5726977684
 20
4694.5898337204
 10
6676.4032557762
 20
4693.9775402286
 10
6676.1458822231
 20
4693.4584628705
 10
6675.8212087669
 20
4693.1116264683
 10
6675.4601128656
 20
4692.9898337204
  0
LINE
  5
1DA
330
1F
100
AcDbEntity
  8
0
  6
Continuous
 62
     7
370
    25
100
AcDbLine
 10
6586.4601128656
 20
4692.9898337204
 30
0.0
 11
6675.4601128656
 21
4692.9898337204
 31
0.0
  0
ARC
  5
1DB
330
1F
100
AcDbEntity
  8
0
  6
Continuous
 62
     7
370
    25
100
AcDbCircle
 10
6586.1475279628
 20
5737.3090754651
 30
0.0
 40
0.8000000000001819
100
AcDbArc
 50
67.0
 51
180.0000000001
  0
LINE
  5
1DC
330
1F
100
AcDbEntity
  8
0
  6
Continuous
 62
     7
370
    25
100
AcDbLine
 10
6584.5475279628
 20
5737.3090754651
 30
0.0
 11
6585.3475279628
 21
5737.3090754651
 31
0.0
  0
LINE
  5
1DD
330
1F
100
AcDbEntity
  8
0
  6
Continuous
 62
     7
370
    25
100
AcDbLine
 10
6586.7726977684
 20
5738.7818832306
 30
0.0
 11
6586.4601128656
 21
5738.0454793479
 31
0.0
  0
ARC
  5
1DE
330
1F
100
AcDbEntity
  8
0
  6
Continuous
 62
     7
370
    25
100
AcDbCircle
 10
6586.1475279628
 20
5737.3090754651
 30
0.0
 40
1.599999999999805
100
AcDbArc
 50
67.0
 51
180.0000000001
  0
LINE
  5
1DF
330
1F
100
AcDbEntity
  8
0
  6
Continuous
 62
     7
370
    25
100
AcDbLine
 10
6586.7726977684
 20
5738.7818832306
 30
0.0
 11
6676.5726977684
 21
5700.664044735
 31
0.0
  0
LINE
  5
1E0
330
1F
100
AcDbEntity
  8
0
  6
Continuous
 62
     7
370
    25
100
AcDbLine
 10
6676.5726977684
 20
5700.664044735
 30
0.0
 11
6676.2601128656
 21
5699.9276408522
 31
0.0
  0
LINE
  5
1E1
330
1F
100
AcDbEntity
  8
0
  6
Continuous
 62
     7
370
    25
100
AcDbLine
 10
6586.4601128656
 20
5738.0454793479
 30
0.0
 11
6676.2601128656
 21
5699.9276408522
 31
0.0
  0
LINE
  5
1E2
330
1F
100
AcDbEntity
  8
0
  6
Continuous
 62
     7
370
    25
100
AcDbLine
 10
6585.3475279628
 20
5737.3090754651
 30
0.0
 11
6585.3475279628
 21
5737.294789007
 31
0.0
  0
LINE
  5
1E3
330
1F
100
AcDbEntity
  8
0
  6
Continuous
 62
     7
370
    25
100
AcDbLine
 10
6584.5475279628
 20
5737.3090754651
 30
0.0
 11
6584.5475279628
 21
5736.6019686839
 31
0.0
  0
LINE
  5
1E4
330
1F
100
AcDbEntity
  8
0
  6
Continuous
 62
     7
370
    25
100
AcDbLine
 10
6677.5475279628
 20
4694.5898337204
 30
0.0
 11
6677.5475279628
 21
5699.1912369695
 31
0.0
  0
ELLIPSE
  5
1E5
330
1F
100
AcDbEntity
  8
0
  6
Continuous
 62
     7
370
    25
100
AcDbEllipse
 10
6675.9475279628
 20
5699.1912369695
 30
0.0
 11
1.600000000000364
 21
0.0
 31
0.0
210
0.0
220
0.0
230
1.0
 40
0.0198920065
 41
0.0
 42
1.169370598844555
  0
LINE
  5
1E6
330
1F
100
AcDbEntity
  8
0
  6
Continuous
 62
     7
370
    25
100
AcDbLine
 10
6676.5726977684
 20
4694.5898337204
 30
0.0
 11
6677.5475279628
 21
4694.5898337204
 31
0.0
  0
ARC
  5
1E7
330
1F
100
AcDbEntity
  8
0
  6
Continuous
 62
     7
370
    25
100
AcDbCircle
 10
6675.9475279628
 20
5699.1912369695
 30
0.0
 40
0.8000000000005619
100
AcDbArc
 50
0.0
 51
67.0
  0
ARC
  5
1E8
330
1F
100
AcDbEntity
  8
0
  6
Continuous
 62
     7
370
    25
100
AcDbCircle
 10
6675.9475279628
 20
5699.1912369695
 30
0.0
 40
1.600000000000364
100
AcDbArc
 50
0.0
 51
67.0
  0
LINE
  5
1E9
330
1F
100
AcDbEntity
  8
0
  6
Continuous
 62
     7
370
    25
100
AcDbLine
 10
6675.9475279628
 20
4693.2465684988
 30
0.0
 11
6675.9475279628
 21
4692.9898337204
 31
0.0
  0
ARC
  5
1EA
330
1F
100
AcDbEntity
  8
0
  6
Continuous
 62
     7
370
    25
100
AcDbCircle
 10
6676.0383380061
 20
4694.5578122469
 30
0.0
 40
0.7099125083402468
100
AcDbArc
 50
299.0763116732
 51
2.5852734895
  0
ARC
  5
1EB
330
1F
100
AcDbEntity
  8
0
  6
Continuous
 62
     7
370
    25
100
AcDbCircle
 10
6675.9475279628
 20
4694.5898337204
 30
0.0
 40
1.600000000004911
100
AcDbArc
 50
270.0000000002
 51
359.9999999999
  0
LINE
  5
1EC
330
1F
100
AcDbEntity
  8
0
  6
Continuous
 62
     7
370
    25
100
AcDbLine
 10
6675.4601128656
 20
4692.9898337204
 30
0.0
 11
6675.9475279628
 21
4692.9898337204
 31
0.0
  0
LINE
  5
1ED
330
1F
100
AcDbEntity
  8
0
  6
Continuous
 62
     7
370
    25
100
AcDbLine
 10
6679.5475279628
 20
5676.1912368477
 30
0.0
 11
6679.5475279628
 21
5622.1912369695
 31
0.0
  0
LINE
  5
1EE
330
1F
100
AcDbEntity
  8
0
  6
Continuous
 62
     8
370
    25
100
AcDbLine
 10
6720.3475279628
 20
4917.8898337204
 30
0.0
 11
6720.3475279628
 21
4932.1983082966
 31
0.0
  0
LINE
  5
1EF
330
1F
100
AcDbEntity
  8
0
  6
Continuous
 62
     8
370
    25
100
AcDbLine
 10
6726.5475279628
 20
4932.1983082966
 30
0.0
 11
6726.5475279628
 21
4958.0898337204
 31
0.0
  0
LINE
  5
1F0
330
1F
100
AcDbEntity
  8
0
  6
Continuous
 62
     8
370
    25
100
AcDbLine
 10
6723.8475279628
 20
4915.9677998221
 30
0.0
 11
6723.8475279628
 21
4905.2898337204
 31
0.0
  0
LINE
  5
1F1
330
1F
100
AcDbEntity
  8
0
  6
Continuous
 62
     8
370
    25
100
AcDbLine
 10
6726.5475279628
 20
4905.2898337204
 30
0.0
 11
6726.5475279628
 21
4915.9677998221
 31
0.0
  0
LINE
  5
1F2
330
1F
100
AcDbEntity
  8
0
  6
Continuous
 62
     8
370
    25
100
AcDbLine
 10
6680.3475279628
 20
4965.3562346934
 30
0.0
 11
6680.3475279628
 21
4966.4898337204
 31
0.0
  0
LINE
  5
1F3
330
1F
100
AcDbEntity
  8
0
  6
Continuous
 62
     8
370
    25
100
AcDbLine
 10
6680.3475279628
 20
4909.4898337204
 30
0.0
 11
6680.3475279628
 21
4965.3562346934
 31
0.0
  0
LINE
  5
1F4
330
1F
100
AcDbEntity
  8
0
  6
Continuous
 62
     8
370
    25
100
AcDbLine
 10
6677.7475279628
 20
4965.3562346934
 30
0.0
 11
6677.7475279628
 21
4966.4898337204
 31
0.0
  0
LINE
  5
1F5
330
1F
100
AcDbEntity
  8
0
  6
Continuous
 62
     8
370
    25
100
AcDbLine
 10
6677.7475279628
 20
4909.4898337204
 30
0.0
 11
6677.7475279628
 21
4965.3562346934
 31
0.0
  0
LINE
  5
1F6
330
1F
100
AcDbEntity
  8
0
  6
Continuous
 62
     8
370
    25
100
AcDbLine
 10
6584.239247708
 20
5141.9180097094
 30
0.0
 11
6584.239247708
 21
5139.6716808541
 31
0.0
  0
LINE
  5
1F7
330
1F
100
AcDbEntity
  8
0
  6
Continuous
 62
     8
370
    25
100
AcDbLine
 10
6584.239247708
 20
5146.3079865866
 30
0.0
 11
6584.239247708
 21
5141.9180097094
 31
0.0
  0
LINE
  5
1F8
330
1F
100
AcDbEntity
  8
0
  6
Continuous
 62
     8
370
    25
100
AcDbLine
 10
6584.239247708
 20
5041.9180097094
 30
0.0
 11
6584.239247708
 21
5039.6716808541
 31
0.0
  0
LINE
  5
1F9
330
1F
100
AcDbEntity
  8
0
  6
Continuous
 62
     8
370
    25
100
AcDbLine
 10
6584.239247708
 20
5046.3079865866
 30
0.0
 11
6584.239247708
 21
5041.9180097094
 31
0.0
  0
LINE
  5
1FA
330
1F
100
AcDbEntity
  8
0
  6
Continuous
 62
     8
370
    25
100
AcDbLine
 10
6678.0475279628
 20
5676.6912369695
 30
0.0
 11
6678.0475279628
 21
5621.6912369695
 31
0.0
  0
LINE
  5
1FB
330
1F
100
AcDbEntity
  8
0
  6
Continuous
 62
     8
370
    25
100
AcDbLine
 10
6679.0475279628
 20
5621.6912369695
 30
0.0
 11
6679.0475279628
 21
5676.6912369695
 31
0.0
  0
LINE
  5
1FC
330
1F
100
AcDbEntity
  8
0
  6
Continuous
 62
     7
370
    25
100
AcDbLine
 10
6253.9187553361
 20
4384.8135756559
 30
0.0
 11
6253.9187553361
 21
4346.3135756559
 31
0.0
  0
LINE
  5
1FD
330
1F
100
AcDbEntity
  8
0
  6
Continuous
 62
     7
370
    25
100
AcDbLine
 10
6294.1187553361
 20
4346.3135756559
 30
0.0
 11
6294.1187553361
 21
4384.8135756559
 31
0.0
  0
ARC
  5
1FE
330
1F
100
AcDbEntity
  8
0
  6
Continuous
 62
     7
370
    25
100
AcDbCircle
 10
6292.1187553361
 20
4346.3135756559
 30
0.0
 40
2.0
100
AcDbArc
 50
270.0
 51
0.0
  0
ARC
  5
1FF
330
1F
100
AcDbEntity
  8
0
  6
Continuous
 62
     7
370
    25
100
AcDbCircle
 10
6255.9187553361
 20
4346.3135756559
 30
0.0
 40
2.0
100
AcDbArc
 50
180.0
 51
270.0
  0
LINE
  5
200
330
1F
100
AcDbEntity
  8
0
  6
Continuous
 62
     7
370
    25
100
AcDbLine
 10
6259.1187553361
 20
4385.3135756559
 30
0.0
 11
6259.1187553361
 21
4371.3135756559
 31
0.0
  0
LINE
  5
201
330
1F
100
AcDbEntity
  8
0
  6
Continuous
 62
     7
370
    25
100
AcDbLine
 10
6288.9187553361
 20
4371.3135756559
 30
0.0
 11
6288.9187553361
 21
4385.3135756559
 31
0.0
  0
LINE
  5
202
330
1F
100
AcDbEntity
  8
0
  6
Continuous
 62
     7
370
    25
100
AcDbLine
 10
6259.1187553361
 20
4371.3135756559
 30
0.0
 11
6259.1187553361
 21
4362.3135756559
 31
0.0
  0
LINE
  5
203
330
1F
100
AcDbEntity
  8
0
  6
Continuous
 62
     7
370
    25
100
AcDbLine
 10
6288.9187553361
 20
4362.3135756559
 30
0.0
 11
6288.9187553361
 21
4371.3135756559
 31
0.0
  0
LINE
  5
204
330
1F
100
AcDbEntity
  8
0
  6
Continuous
 62
     7
370
    25
100
AcDbLine
 10
6283.5187553361
 20
4385.3135756559
 30
0.0
 11
6283.5187553361
 21
4387.3135756559
 31
0.0
  0
LINE
  5
205
330
1F
100
AcDbEntity
  8
0
  6
Continuous
 62
     7
370
    25
100
AcDbLine
 10
6264.5187553361
 20
4387.3135756559
 30
0.0
 11
6264.5187553361
 21
4385.3135756559
 31
0.0
  0
LINE
  5
206
330
1F
100
AcDbEntity
  8
0
  6
Continuous
 62
     7
370
    25
100
AcDbLine
 10
6259.1187553361
 20
4362.0635756559
 30
0.0
 11
6259.1187553361
 21
4346.3135756559
 31
0.0
  0
LINE
  5
207
330
1F
100
AcDbEntity
  8
0
  6
Continuous
 62
     7
370
    25
100
AcDbLine
 10
6288.9187553361
 20
4346.3135756559
 30
0.0
 11
6288.9187553361
 21
4362.0635756559
 31
0.0
  0
LINE
  5
208
330
1F
100
AcDbEntity
  8
0
  6
Continuous
 62
     7
370
    25
100
AcDbLine
 10
6208.8187553361
 20
4488.6688204758
 30
0.0
 11
6208.8187553361
 21
4488.3135756559
 31
0.0
  0
LINE
  5
209
330
1F
100
AcDbEntity
  8
0
  6
Continuous
 62
     7
370
    25
100
AcDbLine
 10
6229.2187553361
 20
4488.3135756559
 30
0.0
 11
6229.2187553361
 21
4488.6688204758
 31
0.0
  0
LWPOLYLINE
  5
20A
330
1F
100
AcDbEntity
  8
0
  6
Continuous
 62
     7
370
    25
100
AcDbPolyline
 90
        3
 70
   128
 43
0.0
 10
6209.032932709
 20
4497.7327615362
 10
6209.5629884342
 20
4497.4262466019
 10
6210.0763056437
 20
4497.1293633564
  0
LWPOLYLINE
  5
20B
330
1F
100
AcDbEntity
  8
0
  6
Continuous
 62
     7
370
    25
100
AcDbPolyline
 90
        3
 70
   128
 43
0.0
 10
6209.032932709
 20
4495.7789153824
 10
6209.5633049153
 20
4495.4722167148
 10
6210.0763058228
 20
4495.175517078
  0
LWPOLYLINE
  5
20C
330
1F
100
AcDbEntity
  8
0
  6
Continuous
 62
     7
370
    25
100
AcDbPolyline
 90
        3
 70
   128
 43
0.0
 10
6209.032932709
 20
4493.8250692285
 10
6209.5636245952
 20
4493.518186837
 10
6210.0763061214
 20
4493.2216707868
  0
LWPOLYLINE
  5
20D
330
1F
100
AcDbEntity
  8
0
  6
Continuous
 62
     7
370
    25
100
AcDbPolyline
 90
        3
 70
   128
 43
0.0
 10
6209.032932709
 20
4491.8712230747
 10
6209.5639474737
 20
4491.5641569685
 10
6210.0763065391
 20
4491.2678244831
  0
LWPOLYLINE
  5
20E
330
1F
100
AcDbEntity
  8
0
  6
Continuous
 62
     7
370
    25
100
AcDbPolyline
 90
        3
 70
   128
 43
0.0
 10
6227.9451822965
 20
4498.0970194315
 10
6228.4745171119
 20
4498.4031666879
 10
6229.0045730868
 20
4498.7096817214
  0
LWPOLYLINE
  5
20F
330
1F
100
AcDbEntity
  8
0
  6
Continuous
 62
     7
370
    25
100
AcDbPolyline
 90
        3
 70
   128
 43
0.0
 10
6227.9451822965
 20
4496.1431732777
 10
6228.4742005788
 20
4496.449136801
 10
6229.0045730868
 20
4496.7558355675
  0
LWPOLYLINE
  5
210
330
1F
100
AcDbEntity
  8
0
  6
Continuous
 62
     7
370
    25
100
AcDbPolyline
 90
        3
 70
   128
 43
0.0
 10
6227.9451822965
 20
4494.1893271239
 10
6228.4738808468
 20
4494.4951069233
 10
6229.0045730868
 20
4494.8019894137
  0
LWPOLYLINE
  5
211
330
1F
100
AcDbEntity
  8
0
  6
Continuous
 62
     7
370
    25
100
AcDbPolyline
 90
        3
 70
   128
 43
0.0
 10
6227.9451822965
 20
4492.23548097
 10
6228.4735579162
 20
4492.541077055
 10
6229.0045730868
 20
4492.8481432598
  0
LWPOLYLINE
  5
212
330
1F
100
AcDbEntity
  8
0
  6
Continuous
 62
     7
370
    25
100
AcDbPolyline
 90
        3
 70
   128
 43
0.0
 10
6209.4161203832
 20
4499.4650239027
 10
6209.5626751525
 20
4499.3802764982
 10
6210.0763055842
 20
4499.0832096218
  0
LWPOLYLINE
  5
213
330
1F
100
AcDbEntity
  8
0
  6
Continuous
 62
     7
370
    25
100
AcDbPolyline
 90
        3
 70
   128
 43
0.0
 10
6210.0939767341
 20
4496.6704159699
 10
6209.5640099729
 20
4496.3639039553
 10
6209.034591564
 20
4496.0577590405
  0
LWPOLYLINE
  5
214
330
1F
100
AcDbEntity
  8
0
  6
Continuous
 62
     7
370
    25
100
AcDbPolyline
 90
        3
 70
   128
 43
0.0
 10
6210.0939767341
 20
4494.716569816
 10
6209.5636864792
 20
4494.4098740889
 10
6209.034591564
 20
4494.1039128867
  0
LWPOLYLINE
  5
215
330
1F
100
AcDbEntity
  8
0
  6
Continuous
 62
     7
370
    25
100
AcDbPolyline
 90
        3
 70
   128
 43
0.0
 10
6210.0939767341
 20
4492.7627236622
 10
6209.563366184
 20
4492.455844213
 10
6209.034591564
 20
4492.1500667328
  0
LWPOLYLINE
  5
216
330
1F
100
AcDbEntity
  8
0
  6
Continuous
 62
     7
370
    25
100
AcDbPolyline
 90
        3
 70
   128
 43
0.0
 10
6210.0939767341
 20
4490.8088775084
 10
6209.5630490877
 20
4490.5018143278
 10
6209.034591564
 20
4490.196220579
  0
LWPOLYLINE
  5
217
330
1F
100
AcDbEntity
  8
0
  6
Continuous
 62
     7
370
    25
100
AcDbPolyline
 90
        3
 70
   128
 43
0.0
 10
6229.0029227082
 20
4497.0346800974
 10
6228.4735040756
 20
4497.3408251242
 10
6227.9612050282
 20
4497.637118834
  0
LWPOLYLINE
  5
218
330
1F
100
AcDbEntity
  8
0
  6
Continuous
 62
     7
370
    25
100
AcDbPolyline
 90
        3
 70
   128
 43
0.0
 10
6229.0029227082
 20
4495.0808339436
 10
6228.4738275361
 20
4495.3867952576
 10
6227.9612048482
 20
4495.6832728964
  0
LWPOLYLINE
  5
219
330
1F
100
AcDbEntity
  8
0
  6
Continuous
 62
     7
370
    25
100
AcDbPolyline
 90
        3
 70
   128
 43
0.0
 10
6229.0029227082
 20
4493.1269877897
 10
6228.4741477981
 20
4493.4327653817
 10
6227.9612045478
 20
4493.7294269663
  0
LWPOLYLINE
  5
21A
330
1F
100
AcDbEntity
  8
0
  6
Continuous
 62
     7
370
    25
100
AcDbPolyline
 90
        3
 70
   128
 43
0.0
 10
6229.0029227082
 20
4491.1731416359
 10
6228.4744648612
 20
4491.4787354964
 10
6227.9612041267
 20
4491.7755810441
  0
LWPOLYLINE
  5
21B
330
1F
100
AcDbEntity
  8
0
  6
Continuous
 62
     7
370
    25
100
AcDbPolyline
 90
        3
 70
   128
 43
0.0
 10
6229.0029227082
 20
4498.9885262513
 10
6228.4731774169
 20
4499.2948549813
 10
6227.961205088
 20
4499.590964779
  0
LWPOLYLINE
  5
21C
330
1F
100
AcDbEntity
  8
0
  6
Continuous
 62
     7
370
    25
100
AcDbPolyline
 90
        3
 70
   128
 43
0.0
 10
6210.0939767341
 20
4498.6242621237
 10
6209.5643366648
 20
4498.3179338123
 10
6209.034591564
 20
4498.0116051944
  0
LINE
  5
21D
330
1F
100
AcDbEntity
  8
0
  6
Continuous
 62
     7
370
    25
100
AcDbLine
 10
6209.0187553361
 20
4490.1785972164
 30
0.0
 11
6209.0187553361
 21
4488.6688204758
 31
0.0
  0
LINE
  5
21E
330
1F
100
AcDbEntity
  8
0
  6
Continuous
 62
     7
370
    25
100
AcDbLine
 10
6209.0187553361
 20
4492.1324433703
 30
0.0
 11
6209.0187553361
 21
4491.8877705525
 31
0.0
  0
LINE
  5
21F
330
1F
100
AcDbEntity
  8
0
  6
Continuous
 62
     7
370
    25
100
AcDbLine
 10
6209.0187553361
 20
4494.0862895241
 30
0.0
 11
6209.0187553361
 21
4493.8416167063
 31
0.0
  0
LINE
  5
220
330
1F
100
AcDbEntity
  8
0
  6
Continuous
 62
     7
370
    25
100
AcDbLine
 10
6209.0187553361
 20
4496.040135678
 30
0.0
 11
6209.0187553361
 21
4495.7954628602
 31
0.0
  0
LINE
  5
221
330
1F
100
AcDbEntity
  8
0
  6
Continuous
 62
     7
370
    25
100
AcDbLine
 10
6209.0187553361
 20
4497.9939818318
 30
0.0
 11
6209.0187553361
 21
4497.749309014
 31
0.0
  0
LINE
  5
222
330
1F
100
AcDbEntity
  8
0
  6
Continuous
 62
     7
370
    25
100
AcDbLine
 10
6229.0187553361
 20
4498.7265937164
 30
0.0
 11
6229.0187553361
 21
4498.9705007533
 31
0.0
  0
LINE
  5
223
330
1F
100
AcDbEntity
  8
0
  6
Continuous
 62
     7
370
    25
100
AcDbLine
 10
6229.0187553361
 20
4496.7727475626
 30
0.0
 11
6229.0187553361
 21
4497.0166545995
 31
0.0
  0
LINE
  5
224
330
1F
100
AcDbEntity
  8
0
  6
Continuous
 62
     7
370
    25
100
AcDbLine
 10
6229.0187553361
 20
4494.8189014088
 30
0.0
 11
6229.0187553361
 21
4495.0628084456
 31
0.0
  0
LINE
  5
225
330
1F
100
AcDbEntity
  8
0
  6
Continuous
 62
     7
370
    25
100
AcDbLine
 10
6229.0187553361
 20
4492.8650552549
 30
0.0
 11
6229.0187553361
 21
4493.1089622918
 31
0.0
  0
LINE
  5
226
330
1F
100
AcDbEntity
  8
0
  6
Continuous
 62
     7
370
    25
100
AcDbLine
 10
6229.0187553361
 20
4488.6688204758
 30
0.0
 11
6229.0187553361
 21
4491.1551161379
 31
0.0
  0
LINE
  5
227
330
1F
100
AcDbEntity
  8
0
  6
Continuous
 62
     7
370
    25
100
AcDbLine
 10
6227.9961286396
 20
4500.1914471723
 30
0.0
 11
6227.5187553361
 21
4500.6688204758
 31
0.0
  0
LINE
  5
228
330
1F
100
AcDbEntity
  8
0
  6
Continuous
 62
     7
370
    25
100
AcDbLine
 10
6210.5187553361
 20
4500.6688204758
 30
0.0
 11
6209.4179843963
 21
4499.568049536
 31
0.0
  0
LWPOLYLINE
  5
229
330
1F
100
AcDbEntity
  8
0
  6
Continuous
 62
     7
370
    25
100
AcDbPolyline
 90
        3
 70
   128
 43
0.0
 10
6210.0763055842
 20
4497.1390134615
 10
6210.0763070908
 20
4496.8945985037
 10
6210.0763056437
 20
4496.6601957034
  0
LWPOLYLINE
  5
22A
330
1F
100
AcDbEntity
  8
0
  6
Continuous
 62
     7
370
    25
100
AcDbPolyline
 90
        3
 70
   128
 43
0.0
 10
6210.0763055842
 20
4495.1851673076
 10
6210.0763116329
 20
4494.9405681615
 10
6210.0763058234
 20
4494.7063497663
  0
LWPOLYLINE
  5
22B
330
1F
100
AcDbEntity
  8
0
  6
Continuous
 62
     7
370
    25
100
AcDbPolyline
 90
        3
 70
   128
 43
0.0
 10
6210.0763055842
 20
4493.2313211538
 10
6210.0763192104
 20
4492.9865378194
 10
6210.0763061235
 20
4492.7525038367
  0
LWPOLYLINE
  5
22C
330
1F
100
AcDbEntity
  8
0
  6
Continuous
 62
     7
370
    25
100
AcDbPolyline
 90
        3
 70
   128
 43
0.0
 10
6210.0763055842
 20
4491.2774749999
 10
6210.0763298234
 20
4491.0325074776
 10
6210.0763065443
 20
4490.7986579149
  0
LWPOLYLINE
  5
22D
330
1F
100
AcDbEntity
  8
0
  6
Continuous
 62
     7
370
    25
100
AcDbPolyline
 90
        3
 70
   128
 43
0.0
 10
6227.961205088
 20
4497.6274745497
 10
6227.961203574
 20
4497.8715211305
 10
6227.9612050282
 20
4498.1062863742
  0
LWPOLYLINE
  5
22E
330
1F
100
AcDbEntity
  8
0
  6
Continuous
 62
     7
370
    25
100
AcDbPolyline
 90
        3
 70
   128
 43
0.0
 10
6227.961205088
 20
4495.6736283959
 10
6227.9611990245
 20
4495.9174907882
 10
6227.9612048488
 20
4496.1524400965
  0
LWPOLYLINE
  5
22F
330
1F
100
AcDbEntity
  8
0
  6
Continuous
 62
     7
370
    25
100
AcDbPolyline
 90
        3
 70
   128
 43
0.0
 10
6227.961205088
 20
4493.719782242
 10
6227.9611914396
 20
4493.9634604461
 10
6227.96120455
 20
4494.1985938061
  0
LWPOLYLINE
  5
230
330
1F
100
AcDbEntity
  8
0
  6
Continuous
 62
     7
370
    25
100
AcDbPolyline
 90
        3
 70
   128
 43
0.0
 10
6227.961205088
 20
4491.7659360882
 10
6227.9611808191
 20
4492.0094301044
 10
6227.961204132
 20
4492.2447475032
  0
LINE
  5
231
330
1F
100
AcDbEntity
  8
0
  6
Continuous
 62
     7
370
    25
100
AcDbLine
 10
6227.961205088
 20
4499.5813207036
 30
0.0
 11
6227.961205088
 21
4500.069782242
 31
0.0
  0
LINE
  5
232
330
1F
100
AcDbEntity
  8
0
  6
Continuous
 62
     7
370
    25
100
AcDbLine
 10
6210.0763055842
 20
4499.0928596153
 30
0.0
 11
6210.0763055842
 21
4498.6140416479
 31
0.0
  0
LINE
  5
233
330
1F
100
AcDbEntity
  8
0
  6
Continuous
 62
     7
370
    25
100
AcDbLine
 10
6318.8187553361
 20
4488.6688204758
 30
0.0
 11
6318.8187553361
 21
4488.3135756559
 31
0.0
  0
LINE
  5
234
330
1F
100
AcDbEntity
  8
0
  6
Continuous
 62
     7
370
    25
100
AcDbLine
 10
6339.2187553361
 20
4488.3135756559
 30
0.0
 11
6339.2187553361
 21
4488.6688204758
 31
0.0
  0
LWPOLYLINE
  5
235
330
1F
100
AcDbEntity
  8
0
  6
Continuous
 62
     7
370
    25
100
AcDbPolyline
 90
        3
 70
   128
 43
0.0
 10
6319.032932709
 20
4497.7327615362
 10
6319.5629884343
 20
4497.4262466019
 10
6320.0763056437
 20
4497.1293633564
  0
LWPOLYLINE
  5
236
330
1F
100
AcDbEntity
  8
0
  6
Continuous
 62
     7
370
    25
100
AcDbPolyline
 90
        3
 70
   128
 43
0.0
 10
6319.032932709
 20
4495.7789153824
 10
6319.5633049153
 20
4495.4722167148
 10
6320.0763058228
 20
4495.175517078
  0
LWPOLYLINE
  5
237
330
1F
100
AcDbEntity
  8
0
  6
Continuous
 62
     7
370
    25
100
AcDbPolyline
 90
        3
 70
   128
 43
0.0
 10
6319.032932709
 20
4493.8250692285
 10
6319.5636245952
 20
4493.518186837
 10
6320.0763061214
 20
4493.2216707868
  0
LWPOLYLINE
  5
238
330
1F
100
AcDbEntity
  8
0
  6
Continuous
 62
     7
370
    25
100
AcDbPolyline
 90
        3
 70
   128
 43
0.0
 10
6319.032932709
 20
4491.8712230747
 10
6319.5639474737
 20
4491.5641569685
 10
6320.0763065391
 20
4491.2678244831
  0
LWPOLYLINE
  5
239
330
1F
100
AcDbEntity
  8
0
  6
Continuous
 62
     7
370
    25
100
AcDbPolyline
 90
        3
 70
   128
 43
0.0
 10
6337.9451822965
 20
4498.0970194315
 10
6338.4745171119
 20
4498.4031666879
 10
6339.0045730868
 20
4498.7096817214
  0
LWPOLYLINE
  5
23A
330
1F
100
AcDbEntity
  8
0
  6
Continuous
 62
     7
370
    25
100
AcDbPolyline
 90
        3
 70
   128
 43
0.0
 10
6337.9451822965
 20
4496.1431732777
 10
6338.4742005788
 20
4496.449136801
 10
6339.0045730868
 20
4496.7558355675
  0
LWPOLYLINE
  5
23B
330
1F
100
AcDbEntity
  8
0
  6
Continuous
 62
     7
370
    25
100
AcDbPolyline
 90
        3
 70
   128
 43
0.0
 10
6337.9451822965
 20
4494.1893271239
 10
6338.4738808468
 20
4494.4951069233
 10
6339.0045730868
 20
4494.8019894137
  0
LWPOLYLINE
  5
23C
330
1F
100
AcDbEntity
  8
0
  6
Continuous
 62
     7
370
    25
100
AcDbPolyline
 90
        3
 70
   128
 43
0.0
 10
6337.9451822965
 20
4492.23548097
 10
6338.4735579162
 20
4492.541077055
 10
6339.0045730868
 20
4492.8481432598
  0
LWPOLYLINE
  5
23D
330
1F
100
AcDbEntity
  8
0
  6
Continuous
 62
     7
370
    25
100
AcDbPolyline
 90
        3
 70
   128
 43
0.0
 10
6319.4161203832
 20
4499.4650239027
 10
6319.5626751525
 20
4499.3802764982
 10
6320.0763055842
 20
4499.0832096218
  0
LWPOLYLINE
  5
23E
330
1F
100
AcDbEntity
  8
0
  6
Continuous
 62
     7
370
    25
100
AcDbPolyline
 90
        3
 70
   128
 43
0.0
 10
6320.0939767341
 20
4496.6704159699
 10
6319.5640099729
 20
4496.3639039553
 10
6319.034591564
 20
4496.0577590405
  0
LWPOLYLINE
  5
23F
330
1F
100
AcDbEntity
  8
0
  6
Continuous
 62
     7
370
    25
100
AcDbPolyline
 90
        3
 70
   128
 43
0.0
 10
6320.0939767341
 20
4494.716569816
 10
6319.5636864792
 20
4494.4098740889
 10
6319.034591564
 20
4494.1039128867
  0
LWPOLYLINE
  5
240
330
1F
100
AcDbEntity
  8
0
  6
Continuous
 62
     7
370
    25
100
AcDbPolyline
 90
        3
 70
   128
 43
0.0
 10
6320.0939767341
 20
4492.7627236622
 10
6319.563366184
 20
4492.455844213
 10
6319.034591564
 20
4492.1500667328
  0
LWPOLYLINE
  5
241
330
1F
100
AcDbEntity
  8
0
  6
Continuous
 62
     7
370
    25
100
AcDbPolyline
 90
        3
 70
   128
 43
0.0
 10
6320.0939767341
 20
4490.8088775084
 10
6319.5630490877
 20
4490.5018143278
 10
6319.034591564
 20
4490.196220579
  0
LWPOLYLINE
  5
242
330
1F
100
AcDbEntity
  8
0
  6
Continuous
 62
     7
370
    25
100
AcDbPolyline
 90
        3
 70
   128
 43
0.0
 10
6339.0029227082
 20
4497.0346800974
 10
6338.4735040756
 20
4497.3408251242
 10
6337.9612050282
 20
4497.637118834
  0
LWPOLYLINE
  5
243
330
1F
100
AcDbEntity
  8
0
  6
Continuous
 62
     7
370
    25
100
AcDbPolyline
 90
        3
 70
   128
 43
0.0
 10
6339.0029227082
 20
4495.0808339436
 10
6338.4738275361
 20
4495.3867952576
 10
6337.9612048482
 20
4495.6832728964
  0
LWPOLYLINE
  5
244
330
1F
100
AcDbEntity
  8
0
  6
Continuous
 62
     7
370
    25
100
AcDbPolyline
 90
        3
 70
   128
 43
0.0
 10
6339.0029227082
 20
4493.1269877897
 10
6338.4741477981
 20
4493.4327653817
 10
6337.9612045478
 20
4493.7294269663
  0
LWPOLYLINE
  5
245
330
1F
100
AcDbEntity
  8
0
  6
Continuous
 62
     7
370
    25
100
AcDbPolyline
 90
        3
 70
   128
 43
0.0
 10
6339.0029227082
 20
4491.1731416359
 10
6338.4744648612
 20
4491.4787354964
 10
6337.9612041267
 20
4491.7755810441
  0
LWPOLYLINE
  5
246
330
1F
100
AcDbEntity
  8
0
  6
Continuous
 62
     7
370
    25
100
AcDbPolyline
 90
        3
 70
   128
 43
0.0
 10
6339.0029227082
 20
4498.9885262513
 10
6338.4731774169
 20
4499.2948549813
 10
6337.961205088
 20
4499.590964779
  0
LWPOLYLINE
  5
247
330
1F
100
AcDbEntity
  8
0
  6
Continuous
 62
     7
370
    25
100
AcDbPolyline
 90
        3
 70
   128
 43
0.0
 10
6320.0939767341
 20
4498.6242621237
 10
6319.5643366648
 20
4498.3179338123
 10
6319.034591564
 20
4498.0116051944
  0
LINE
  5
248
330
1F
100
AcDbEntity
  8
0
  6
Continuous
 62
     7
370
    25
100
AcDbLine
 10
6319.0187553361
 20
4490.1785972164
 30
0.0
 11
6319.0187553361
 21
4488.6688204758
 31
0.0
  0
LINE
  5
249
330
1F
100
AcDbEntity
  8
0
  6
Continuous
 62
     7
370
    25
100
AcDbLine
 10
6319.0187553361
 20
4492.1324433703
 30
0.0
 11
6319.0187553361
 21
4491.8877705525
 31
0.0
  0
LINE
  5
24A
330
1F
100
AcDbEntity
  8
0
  6
Continuous
 62
     7
370
    25
100
AcDbLine
 10
6319.0187553361
 20
4494.0862895241
 30
0.0
 11
6319.0187553361
 21
4493.8416167063
 31
0.0
  0
LINE
  5
24B
330
1F
100
AcDbEntity
  8
0
  6
Continuous
 62
     7
370
    25
100
AcDbLine
 10
6319.0187553361
 20
4496.040135678
 30
0.0
 11
6319.0187553361
 21
4495.7954628602
 31
0.0
  0
LINE
  5
24C
330
1F
100
AcDbEntity
  8
0
  6
Continuous
 62
     7
370
    25
100
AcDbLine
 10
6319.0187553361
 20
4497.9939818318
 30
0.0
 11
6319.0187553361
 21
4497.749309014
 31
0.0
  0
LINE
  5
24D
330
1F
100
AcDbEntity
  8
0
  6
Continuous
 62
     7
370
    25
100
AcDbLine
 10
6339.0187553361
 20
4498.7265937164
 30
0.0
 11
6339.0187553361
 21
4498.9705007533
 31
0.0
  0
LINE
  5
24E
330
1F
100
AcDbEntity
  8
0
  6
Continuous
 62
     7
370
    25
100
AcDbLine
 10
6339.0187553361
 20
4496.7727475626
 30
0.0
 11
6339.0187553361
 21
4497.0166545995
 31
0.0
  0
LINE
  5
24F
330
1F
100
AcDbEntity
  8
0
  6
Continuous
 62
     7
370
    25
100
AcDbLine
 10
6339.0187553361
 20
4494.8189014088
 30
0.0
 11
6339.0187553361
 21
4495.0628084456
 31
0.0
  0
LINE
  5
250
330
1F
100
AcDbEntity
  8
0
  6
Continuous
 62
     7
370
    25
100
AcDbLine
 10
6339.0187553361
 20
4492.8650552549
 30
0.0
 11
6339.0187553361
 21
4493.1089622918
 31
0.0
  0
LINE
  5
251
330
1F
100
AcDbEntity
  8
0
  6
Continuous
 62
     7
370
    25
100
AcDbLine
 10
6339.0187553361
 20
4488.6688204758
 30
0.0
 11
6339.0187553361
 21
4491.1551161379
 31
0.0
  0
LINE
  5
252
330
1F
100
AcDbEntity
  8
0
  6
Continuous
 62
     7
370
    25
100
AcDbLine
 10
6337.9961286396
 20
4500.1914471723
 30
0.0
 11
6337.5187553361
 21
4500.6688204758
 31
0.0
  0
LINE
  5
253
330
1F
100
AcDbEntity
  8
0
  6
Continuous
 62
     7
370
    25
100
AcDbLine
 10
6320.5187553361
 20
4500.6688204758
 30
0.0
 11
6319.4179843963
 21
4499.568049536
 31
0.0
  0
LWPOLYLINE
  5
254
330
1F
100
AcDbEntity
  8
0
  6
Continuous
 62
     7
370
    25
100
AcDbPolyline
 90
        3
 70
   128
 43
0.0
 10
6320.0763055842
 20
4497.1390134615
 10
6320.0763070908
 20
4496.8945985037
 10
6320.0763056437
 20
4496.6601957034
  0
LWPOLYLINE
  5
255
330
1F
100
AcDbEntity
  8
0
  6
Continuous
 62
     7
370
    25
100
AcDbPolyline
 90
        3
 70
   128
 43
0.0
 10
6320.0763055842
 20
4495.1851673076
 10
6320.0763116329
 20
4494.9405681615
 10
6320.0763058234
 20
4494.7063497663
  0
LWPOLYLINE
  5
256
330
1F
100
AcDbEntity
  8
0
  6
Continuous
 62
     7
370
    25
100
AcDbPolyline
 90
        3
 70
   128
 43
0.0
 10
6320.0763055842
 20
4493.2313211538
 10
6320.0763192104
 20
4492.9865378194
 10
6320.0763061235
 20
4492.7525038367
  0
LWPOLYLINE
  5
257
330
1F
100
AcDbEntity
  8
0
  6
Continuous
 62
     7
370
    25
100
AcDbPolyline
 90
        3
 70
   128
 43
0.0
 10
6320.0763055842
 20
4491.2774749999
 10
6320.0763298234
 20
4491.0325074776
 10
6320.0763065443
 20
4490.7986579149
  0
LWPOLYLINE
  5
258
330
1F
100
AcDbEntity
  8
0
  6
Continuous
 62
     7
370
    25
100
AcDbPolyline
 90
        3
 70
   128
 43
0.0
 10
6337.961205088
 20
4497.6274745497
 10
6337.961203574
 20
4497.8715211305
 10
6337.9612050282
 20
4498.1062863742
  0
LWPOLYLINE
  5
259
330
1F
100
AcDbEntity
  8
0
  6
Continuous
 62
     7
370
    25
100
AcDbPolyline
 90
        3
 70
   128
 43
0.0
 10
6337.961205088
 20
4495.6736283959
 10
6337.9611990245
 20
4495.9174907882
 10
6337.9612048488
 20
4496.1524400965
  0
LWPOLYLINE
  5
25A
330
1F
100
AcDbEntity
  8
0
  6
Continuous
 62
     7
370
    25
100
AcDbPolyline
 90
        3
 70
   128
 43
0.0
 10
6337.961205088
 20
4493.719782242
 10
6337.9611914396
 20
4493.9634604461
 10
6337.96120455
 20
4494.1985938061
  0
LWPOLYLINE
  5
25B
330
1F
100
AcDbEntity
  8
0
  6
Continuous
 62
     7
370
    25
100
AcDbPolyline
 90
        3
 70
   128
 43
0.0
 10
6337.961205088
 20
4491.7659360882
 10
6337.9611808191
 20
4492.0094301044
 10
6337.961204132
 20
4492.2447475032
  0
LINE
  5
25C
330
1F
100
AcDbEntity
  8
0
  6
Continuous
 62
     7
370
    25
100
AcDbLine
 10
6337.961205088
 20
4499.5813207036
 30
0.0
 11
6337.961205088
 21
4500.069782242
 31
0.0
  0
LINE
  5
25D
330
1F
100
AcDbEntity
  8
0
  6
Continuous
 62
     7
370
    25
100
AcDbLine
 10
6320.0763055842
 20
4499.0928596153
 30
0.0
 11
6320.0763055842
 21
4498.6140416479
 31
0.0
  0
ARC
  5
25E
330
1F
100
AcDbEntity
  8
0
  6
Continuous
 62
     7
370
    25
100
AcDbCircle
 10
6245.7187553361
 20
4392.5135756559
 30
0.0
 40
0.1999999999998181
100
AcDbArc
 50
180.0
 51
270.0
  0
ARC
  5
25F
330
1F
100
AcDbEntity
  8
0
  6
Continuous
 62
     7
370
    25
100
AcDbCircle
 10
6302.3187553361
 20
4392.5135756559
 30
0.0
 40
0.1999999999998181
100
AcDbArc
 50
270.0
 51
0.0
  0
ARC
  5
260
330
1F
100
AcDbEntity
  8
0
  6
Continuous
 62
     7
370
    25
100
AcDbCircle
 10
6245.7187553361
 20
4395.1135756559
 30
0.0
 40
0.1999999999998181
100
AcDbArc
 50
90.0
 51
180.0
  0
ARC
  5
261
330
1F
100
AcDbEntity
  8
0
  6
Continuous
 62
     7
370
    25
100
AcDbCircle
 10
6302.3187553361
 20
4395.1135756559
 30
0.0
 40
0.1999999999998181
100
AcDbArc
 50
0.0
 51
90.0
  0
LINE
  5
262
330
1F
100
AcDbEntity
  8
0
  6
Continuous
 62
     7
370
    25
100
AcDbLine
 10
6245.5187553361
 20
4395.1135756559
 30
0.0
 11
6245.5187553361
 21
4392.5135756559
 31
0.0
  0
LINE
  5
263
330
1F
100
AcDbEntity
  8
0
  6
Continuous
 62
     7
370
    25
100
AcDbLine
 10
6302.5187553361
 20
4392.5135756559
 30
0.0
 11
6302.5187553361
 21
4395.1135756559
 31
0.0
  0
LINE
  5
264
330
1F
100
AcDbEntity
  8
0
  6
Continuous
 62
     7
370
    25
100
AcDbLine
 10
6250.7687553361
 20
4392.3135756559
 30
0.0
 11
6250.7687553361
 21
4384.8135756559
 31
0.0
  0
LINE
  5
265
330
1F
100
AcDbEntity
  8
0
  6
Continuous
 62
     7
370
    25
100
AcDbLine
 10
6297.2687553361
 20
4384.8135756559
 30
0.0
 11
6297.2687553361
 21
4392.3135756559
 31
0.0
  0
ARC
  5
266
330
1F
100
AcDbEntity
  8
0
  6
Continuous
 62
     7
370
    25
100
AcDbCircle
 10
6374.6687553361
 20
4488.5135756559
 30
0.0
 40
0.1999999999998181
100
AcDbArc
 50
270.0
 51
32.7790806679
  0
ARC
  5
267
330
1F
100
AcDbEntity
  8
0
  6
Continuous
 62
     7
370
    25
100
AcDbCircle
 10
6368.3687553361
 20
4488.5135756559
 30
0.0
 40
0.1999999999998181
100
AcDbArc
 50
147.2209193321
 51
270.0
  0
ARC
  5
268
330
1F
100
AcDbEntity
  8
0
  6
Continuous
 62
     7
370
    25
100
AcDbCircle
 10
6373.0187553361
 20
4487.4510756559
 30
0.0
 40
2.162499999999454
100
AcDbArc
 50
32.7790806681
 51
90.0
  0
ARC
  5
269
330
1F
100
AcDbEntity
  8
0
  6
Continuous
 62
     7
370
    25
100
AcDbCircle
 10
6370.0187553361
 20
4487.4510756559
 30
0.0
 40
2.16250000000001
100
AcDbArc
 50
90.0
 51
147.220919332
  0
ARC
  5
26A
330
1F
100
AcDbEntity
  8
0
  6
Continuous
 62
     7
370
    25
100
AcDbCircle
 10
6179.6687553361
 20
4488.5135756559
 30
0.0
 40
0.2000000000007276
100
AcDbArc
 50
270.0
 51
32.7790806679
  0
ARC
  5
26B
330
1F
100
AcDbEntity
  8
0
  6
Continuous
 62
     7
370
    25
100
AcDbCircle
 10
6173.3687553361
 20
4488.5135756559
 30
0.0
 40
0.2000000000007276
100
AcDbArc
 50
147.2209193321
 51
270.0
  0
ARC
  5
26C
330
1F
100
AcDbEntity
  8
0
  6
Continuous
 62
     7
370
    25
100
AcDbCircle
 10
6178.0187553361
 20
4487.4510756559
 30
0.0
 40
2.162500000000503
100
AcDbArc
 50
32.7790806681
 51
90.0
  0
ARC
  5
26D
330
1F
100
AcDbEntity
  8
0
  6
Continuous
 62
     7
370
    25
100
AcDbCircle
 10
6175.0187553361
 20
4487.4510756559
 30
0.0
 40
2.162500000000364
100
AcDbArc
 50
90.0
 51
147.2209193319
  0
LINE
  5
26E
330
1F
100
AcDbEntity
  8
0
  6
Continuous
 62
     7
370
    25
100
AcDbLine
 10
6246.5187553361
 20
4394.8135756559
 30
0.0
 11
6246.5187553361
 21
4393.8135756559
 31
0.0
  0
LINE
  5
26F
330
1F
100
AcDbEntity
  8
0
  6
Continuous
 62
     7
370
    25
100
AcDbLine
 10
6301.5187553361
 20
4393.8135756559
 30
0.0
 11
6301.5187553361
 21
4394.8135756559
 31
0.0
  0
ARC
  5
270
330
1F
100
AcDbEntity
  8
0
  6
Continuous
 62
     7
370
    25
100
AcDbCircle
 10
6301.0187553361
 20
4393.8135756559
 30
0.0
 40
0.5000000000009095
100
AcDbArc
 50
270.0
 51
0.0
  0
ARC
  5
271
330
1F
100
AcDbEntity
  8
0
  6
Continuous
 62
     7
370
    25
100
AcDbCircle
 10
6247.0187553361
 20
4393.8135756559
 30
0.0
 40
0.5000000000009095
100
AcDbArc
 50
180.0
 51
270.0
  0
ARC
  5
272
330
1F
100
AcDbEntity
  8
0
  6
Continuous
 62
     7
370
    25
100
AcDbCircle
 10
6301.0187553361
 20
4394.8135756559
 30
0.0
 40
0.5000000000009095
100
AcDbArc
 50
0.0
 51
90.0
  0
ARC
  5
273
330
1F
100
AcDbEntity
  8
0
  6
Continuous
 62
     7
370
    25
100
AcDbCircle
 10
6247.0187553361
 20
4394.8135756559
 30
0.0
 40
0.5000000000009095
100
AcDbArc
 50
90.0
 51
180.0
  0
LINE
  5
274
330
1F
100
AcDbEntity
  8
0
  6
Continuous
 62
     7
370
    25
100
AcDbLine
 10
6292.1187553361
 20
4344.3135756559
 30
0.0
 11
6288.7386964592
 21
4344.3135756559
 31
0.0
  0
LINE
  5
275
330
1F
100
AcDbEntity
  8
0
  6
Continuous
 62
     7
370
    25
100
AcDbLine
 10
6259.298814213
 20
4344.3135756559
 30
0.0
 11
6255.9187553361
 21
4344.3135756559
 31
0.0
  0
LINE
  5
276
330
1F
100
AcDbEntity
  8
0
  6
Continuous
 62
     7
370
    25
100
AcDbLine
 10
6259.1187553361
 20
4385.3135756559
 30
0.0
 11
6288.9187553361
 21
4385.3135756559
 31
0.0
  0
ELLIPSE
  5
277
330
1F
100
AcDbEntity
  8
0
  6
Continuous
 62
     7
370
    25
100
AcDbEllipse
 10
6274.0187553361
 20
4371.3135756559
 30
0.0
 11
14.90000000000055
 21
0.0
 31
0.0
210
0.0
220
0.0
230
1.0
 40
0.5773502692
 41
3.141592653589793
 42
4.712388980384698
  0
ELLIPSE
  5
278
330
1F
100
AcDbEntity
  8
0
  6
Continuous
 62
     7
370
    25
100
AcDbEllipse
 10
6274.0187553361
 20
4371.3135756559
 30
0.0
 11
14.90000000000055
 21
0.0
 31
0.0
210
0.0
220
0.0
230
1.0
 40
0.5773502692
 41
4.712388980384698
 42
6.283185307179586
  0
LINE
  5
279
330
1F
100
AcDbEntity
  8
0
  6
Continuous
 62
     7
370
    25
100
AcDbLine
 10
6260.0187553361
 20
4393.3135756559
 30
0.0
 11
6260.0187553361
 21
4387.3135756559
 31
0.0
  0
LINE
  5
27A
330
1F
100
AcDbEntity
  8
0
  6
Continuous
 62
     7
370
    25
100
AcDbLine
 10
6288.0187553361
 20
4393.3135756559
 30
0.0
 11
6288.0187553361
 21
4387.3135756559
 31
0.0
  0
LINE
  5
27B
330
1F
100
AcDbEntity
  8
0
  6
Continuous
 62
     7
370
    25
100
AcDbLine
 10
6260.0187553361
 20
4387.3135756559
 30
0.0
 11
6288.0187553361
 21
4387.3135756559
 31
0.0
  0
LWPOLYLINE
  5
27C
330
1F
100
AcDbEntity
  8
0
  6
Continuous
 62
     7
370
    25
100
AcDbPolyline
 90
       21
 70
   128
 43
0.0
 10
6259.1187553361
 20
4362.3135756559
 10
6259.3021990612
 20
4360.2949799667
 10
6259.8480132433
 20
4358.3260888027
 10
6260.7427581257
 20
4356.4553827987
 10
6261.9644021199
 20
4354.7289249451
 10
6263.4828642964
 20
4353.189226364
 10
6265.2607550769
 20
4351.8741995445
 10
6267.25429689
 20
4350.8162248111
 10
6269.4144021199
 20
4350.0413530131
 10
6271.687881807
 20
4349.5686640656
 10
6274.0187553361
 20
4349.4097971395
 10
6276.3496288652
 20
4349.5686640656
 10
6278.6231085523
 20
4350.0413530131
 10
6280.7832137822
 20
4350.8162248111
 10
6282.7767555953
 20
4351.8741995445
 10
6284.5546463758
 20
4353.189226364
 10
6286.0731085523
 20
4354.7289249451
 10
6287.2947525465
 20
4356.4553827987
 10
6288.1894974289
 20
4358.3260888027
 10
6288.735311611
 20
4360.2949799667
 10
6288.9187553361
 20
4362.3135756559
  0
LWPOLYLINE
  5
27D
330
1F
100
AcDbEntity
  8
0
  6
Continuous
 62
     7
370
    25
100
AcDbPolyline
 90
       21
 70
   128
 43
0.0
 10
6259.1187553361
 20
4362.0635756559
 10
6259.3021990612
 20
4360.0449799667
 10
6259.8480132433
 20
4358.0760888027
 10
6260.7427581257
 20
4356.2053827987
 10
6261.9644021199
 20
4354.4789249451
 10
6263.4828642964
 20
4352.939226364
 10
6265.2607550769
 20
4351.6241995445
 10
6267.25429689
 20
4350.5662248111
 10
6269.4144021199
 20
4349.7913530131
 10
6271.687881807
 20
4349.3186640656
 10
6274.0187553361
 20
4349.1597971395
 10
6276.3496288652
 20
4349.3186640656
 10
6278.6231085523
 20
4349.7913530131
 10
6280.7832137822
 20
4350.5662248111
 10
6282.7767555953
 20
4351.6241995445
 10
6284.5546463758
 20
4352.939226364
 10
6286.0731085523
 20
4354.4789249451
 10
6287.2947525465
 20
4356.2053827987
 10
6288.1894974289
 20
4358.0760888027
 10
6288.735311611
 20
4360.0449799667
 10
6288.9187553361
 20
4362.0635756559
  0
LWPOLYLINE
  5
27E
330
1F
100
AcDbEntity
  8
0
  6
Continuous
 62
     7
370
    25
100
AcDbPolyline
 90
       11
 70
   128
 43
0.0
 10
6274.0187553361
 20
4333.4097971395
 10
6276.3496288652
 20
4333.5686640656
 10
6278.6231085523
 20
4334.0413530131
 10
6280.7832137822
 20
4334.8162248111
 10
6282.7767555953
 20
4335.8741995445
 10
6284.5546463758
 20
4337.189226364
 10
6286.0731085523
 20
4338.7289249451
 10
6287.2947525465
 20
4340.4553827987
 10
6288.1894974289
 20
4342.3260888027
 10
6288.735311611
 20
4344.2949799667
 10
6288.9187553361
 20
4346.3135756559
  0
LWPOLYLINE
  5
27F
330
1F
100
AcDbEntity
  8
0
  6
Continuous
 62
     7
370
    25
100
AcDbPolyline
 90
       11
 70
   128
 43
0.0
 10
6259.1187553361
 20
4346.3135756559
 10
6259.3021990612
 20
4344.2949799667
 10
6259.8480132433
 20
4342.3260888027
 10
6260.7427581257
 20
4340.4553827987
 10
6261.9644021199
 20
4338.7289249451
 10
6263.4828642964
 20
4337.189226364
 10
6265.2607550769
 20
4335.8741995445
 10
6267.25429689
 20
4334.8162248111
 10
6269.4144021199
 20
4334.0413530131
 10
6271.687881807
 20
4333.5686640656
 10
6274.0187553361
 20
4333.4097971395
  0
LINE
  5
280
330
1F
100
AcDbEntity
  8
0
  6
Continuous
 62
     7
370
    25
100
AcDbLine
 10
6208.8187553361
 20
4488.6688204758
 30
0.0
 11
6229.2187553361
 21
4488.6688204758
 31
0.0
  0
LWPOLYLINE
  5
281
330
1F
100
AcDbEntity
  8
0
  6
Continuous
 62
     7
370
    25
100
AcDbPolyline
 90
       11
 70
   128
 43
0.0
 10
6209.4782547288
 20
4499.5077792036
 10
6209.6598950568
 20
4499.553715416
 10
6210.9879540837
 20
4499.6202560003
 10
6213.2056167745
 20
4499.6874880238
 10
6216.0629713499
 20
4499.7544471902
 10
6219.2014124321
 20
4499.8211617682
 10
6222.2909471401
 20
4499.8886135483
 10
6224.9489365093
 20
4499.9549516953
 10
6226.9051896983
 20
4500.0226905681
 10
6227.9322082447
 20
4500.0888946116
 10
6227.9319353133
 20
4500.127253846
  0
LWPOLYLINE
  5
282
330
1F
100
AcDbEntity
  8
0
  6
Continuous
 62
     7
370
    25
100
AcDbPolyline
 90
       12
 70
   128
 43
0.0
 10
6227.854238797
 20
4500.0696552589
 10
6227.8915303821
 20
4500.030394852
 10
6227.1164985154
 20
4499.9341565353
 10
6225.406932112
 20
4499.8281669212
 10
6223.0097696458
 20
4499.7257767605
 10
6220.1397488368
 20
4499.6197815124
 10
6217.1762460723
 20
4499.5172748777
 10
6214.3891080351
 20
4499.411549551
 10
6212.1391602049
 20
4499.3086845891
 10
6210.6399754514
 20
4499.2035024267
 10
6210.0786131176
 20
4499.1000403667
 10
6210.1080182769
 20
4499.0929155875
  0
LWPOLYLINE
  5
283
330
1F
100
AcDbEntity
  8
0
  6
Continuous
 62
     7
370
    25
100
AcDbPolyline
 90
       12
 70
   128
 43
0.0
 10
6227.8722067766
 20
4498.0968925
 10
6227.8915303821
 20
4498.0765486982
 10
6227.1164985154
 20
4497.9803103815
 10
6225.406932112
 20
4497.8743207674
 10
6223.0097696458
 20
4497.7719306066
 10
6220.1397488368
 20
4497.6659353586
 10
6217.1762460723
 20
4497.5634287239
 10
6214.3891080351
 20
4497.4577033971
 10
6212.1391602049
 20
4497.3548384353
 10
6210.6399754514
 20
4497.2496562728
 10
6210.0786131176
 20
4497.1461942128
 10
6210.1082801168
 20
4497.1390059906
  0
LWPOLYLINE
  5
284
330
1F
100
AcDbEntity
  8
0
  6
Continuous
 62
     7
370
    25
100
AcDbPolyline
 90
       12
 70
   128
 43
0.0
 10
6227.8722232141
 20
4496.1430290408
 10
6227.8915303821
 20
4496.1227025443
 10
6227.1164985154
 20
4496.0264642277
 10
6225.406932112
 20
4495.9204746135
 10
6223.0097696458
 20
4495.8180844528
 10
6220.1397488368
 20
4495.7120892047
 10
6217.1762460723
 20
4495.60958257
 10
6214.3891080351
 20
4495.5038572433
 10
6212.1391602049
 20
4495.4009922814
 10
6210.6399754514
 20
4495.295810119
 10
6210.0786131176
 20
4495.192348059
 10
6210.1085416655
 20
4495.1850964643
  0
LWPOLYLINE
  5
285
330
1F
100
AcDbEntity
  8
0
  6
Continuous
 62
     7
370
    25
100
AcDbPolyline
 90
       12
 70
   128
 43
0.0
 10
6227.8722396768
 20
4494.1891655551
 10
6227.8915303821
 20
4494.1688563905
 10
6227.1164985154
 20
4494.0726180738
 10
6225.406932112
 20
4493.9666284597
 10
6223.0097696458
 20
4493.8642382989
 10
6220.1397488368
 20
4493.7582430509
 10
6217.1762460723
 20
4493.6557364162
 10
6214.3891080351
 20
4493.5500110895
 10
6212.1391602049
 20
4493.4471461276
 10
6210.6399754514
 20
4493.3419639651
 10
6210.0786131176
 20
4493.2385019051
 10
6210.1088029179
 20
4493.2311870099
  0
LWPOLYLINE
  5
286
330
1F
100
AcDbEntity
  8
0
  6
Continuous
 62
     7
370
    25
100
AcDbPolyline
 90
       12
 70
   128
 43
0.0
 10
6227.8722561651
 20
4492.2353020424
 10
6227.8915303821
 20
4492.2150102366
 10
6227.1164985154
 20
4492.11877192
 10
6225.406932112
 20
4492.0127823058
 10
6223.0097696458
 20
4491.9103921451
 10
6220.1397488368
 20
4491.804396897
 10
6217.1762460723
 20
4491.7018902624
 10
6214.3891080351
 20
4491.5961649356
 10
6212.1391602049
 20
4491.4932999737
 10
6210.6399754514
 20
4491.3881178113
 10
6210.0786131176
 20
4491.2846557513
 10
6210.1090638689
 20
4491.2772776284
  0
LWPOLYLINE
  5
287
330
1F
100
AcDbEntity
  8
0
  6
Continuous
 62
     7
370
    25
100
AcDbPolyline
 90
       11
 70
   128
 43
0.0
 10
6228.8690304889
 20
4498.7095905962
 10
6228.8448432001
 20
4498.6678096259
 10
6227.6970664485
 20
4498.5653124979
 10
6225.5685174846
 20
4498.4595707738
 10
6222.7333118383
 20
4498.3567251486
 10
6219.4633569244
 20
4498.2515155057
 10
6216.161857894
 20
4498.1480824464
 10
6213.1680195651
 20
4498.0436737298
 10
6210.826552418
 20
4497.939419323
 10
6209.3983662535
 20
4497.8358679231
 10
6209.1003202392
 20
4497.749309014
  0
LWPOLYLINE
  5
288
330
1F
100
AcDbEntity
  8
0
  6
Continuous
 62
     7
370
    25
100
AcDbPolyline
 90
       11
 70
   128
 43
0.0
 10
6228.8690111843
 20
4496.7557110956
 10
6228.8448432001
 20
4496.713963472
 10
6227.6970664485
 20
4496.611466344
 10
6225.5685174846
 20
4496.5057246199
 10
6222.7333118383
 20
4496.4028789947
 10
6219.4633569244
 20
4496.2976693519
 10
6216.161857894
 20
4496.1942362926
 10
6213.1680195651
 20
4496.0898275759
 10
6210.826552418
 20
4495.9855731692
 10
6209.3983662535
 20
4495.8820217693
 10
6209.1003202392
 20
4495.7954628602
  0
LWPOLYLINE
  5
289
330
1F
100
AcDbEntity
  8
0
  6
Continuous
 62
     7
370
    25
100
AcDbPolyline
 90
       11
 70
   128
 43
0.0
 10
6228.8689918894
 20
4494.8018316118
 10
6228.8448432001
 20
4494.7601173182
 10
6227.6970664485
 20
4494.6576201902
 10
6225.5685174846
 20
4494.5518784661
 10
6222.7333118383
 20
4494.4490328409
 10
6219.4633569244
 20
4494.343823198
 10
6216.161857894
 20
4494.2403901387
 10
6213.1680195651
 20
4494.1359814221
 10
6210.826552418
 20
4494.0317270153
 10
6209.3983662535
 20
4493.9281756154
 10
6209.1003202392
 20
4493.8416167063
  0
LWPOLYLINE
  5
28A
330
1F
100
AcDbEntity
  8
0
  6
Continuous
 62
     7
370
    25
100
AcDbPolyline
 90
       11
 70
   128
 43
0.0
 10
6228.8689726042
 20
4492.8479521449
 10
6228.8448432001
 20
4492.8062711643
 10
6227.6970664485
 20
4492.7037740363
 10
6225.5685174846
 20
4492.5980323122
 10
6222.7333118383
 20
4492.495186687
 10
6219.4633569244
 20
4492.3899770442
 10
6216.161857894
 20
4492.2865439849
 10
6213.1680195651
 20
4492.1821352682
 10
6210.826552418
 20
4492.0778808615
 10
6209.3983662535
 20
4491.9743294616
 10
6209.1003202392
 20
4491.8877705525
  0
LWPOLYLINE
  5
28B
330
1F
100
AcDbEntity
  8
0
  6
Continuous
 62
     7
370
    25
100
AcDbPolyline
 90
       12
 70
   128
 43
0.0
 10
6228.897768299
 20
4498.9705007533
 10
6228.96376327
 20
4498.9376346293
 10
6228.0741523657
 20
4498.8351180857
 10
6226.1624096714
 20
4498.7291284732
 10
6223.4817545578
 20
4498.626738314
 10
6220.2723199942
 20
4498.5207430674
 10
6216.9583480893
 20
4498.4182364346
 10
6213.8415980538
 20
4498.3125111088
 10
6211.3255672507
 20
4498.2096461492
 10
6209.6490860423
 20
4498.1044639872
 10
6209.0213357785
 20
4498.0010019299
 10
6209.0537352991
 20
4497.9939818318
  0
LWPOLYLINE
  5
28C
330
1F
100
AcDbEntity
  8
0
  6
Continuous
 62
     7
370
    25
100
AcDbPolyline
 90
       12
 70
   128
 43
0.0
 10
6228.897768299
 20
4497.0166545995
 10
6228.96376327
 20
4496.9837884754
 10
6228.0741523657
 20
4496.8812719319
 10
6226.1624096714
 20
4496.7752823194
 10
6223.4817545578
 20
4496.6728921602
 10
6220.2723199942
 20
4496.5668969136
 10
6216.9583480893
 20
4496.4643902807
 10
6213.8415980538
 20
4496.358664955
 10
6211.3255672507
 20
4496.2557999953
 10
6209.6490860423
 20
4496.1506178334
 10
6209.0213357785
 20
4496.0471557761
 10
6209.0537352991
 20
4496.040135678
  0
LWPOLYLINE
  5
28D
330
1F
100
AcDbEntity
  8
0
  6
Continuous
 62
     7
370
    25
100
AcDbPolyline
 90
       12
 70
   128
 43
0.0
 10
6228.897768299
 20
4495.0628084456
 10
6228.96376327
 20
4495.0299423216
 10
6228.0741523657
 20
4494.927425778
 10
6226.1624096714
 20
4494.8214361655
 10
6223.4817545578
 20
4494.7190460063
 10
6220.2723199942
 20
4494.6130507597
 10
6216.9583480893
 20
4494.5105441269
 10
6213.8415980538
 20
4494.4048188012
 10
6211.3255672507
 20
4494.3019538415
 10
6209.6490860423
 20
4494.1967716795
 10
6209.0213357785
 20
4494.0933096223
 10
6209.0537352991
 20
4494.0862895241
  0
LWPOLYLINE
  5
28E
330
1F
100
AcDbEntity
  8
0
  6
Continuous
 62
     7
370
    25
100
AcDbPolyline
 90
       12
 70
   128
 43
0.0
 10
6228.897768299
 20
4493.1089622918
 10
6228.96376327
 20
4493.0760961677
 10
6228.0741523657
 20
4492.9735796242
 10
6226.1624096714
 20
4492.8675900117
 10
6223.4817545578
 20
4492.7651998525
 10
6220.2723199942
 20
4492.6592046059
 10
6216.9583480893
 20
4492.556697973
 10
6213.8415980538
 20
4492.4509726473
 10
6211.3255672507
 20
4492.3481076876
 10
6209.6490860423
 20
4492.2429255257
 10
6209.0213357785
 20
4492.1394634684
 10
6209.0537352991
 20
4492.1324433703
  0
LWPOLYLINE
  5
28F
330
1F
100
AcDbEntity
  8
0
  6
Continuous
 62
     7
370
    25
100
AcDbPolyline
 90
       12
 70
   128
 43
0.0
 10
6228.897768299
 20
4491.1551161379
 10
6228.96376327
 20
4491.1222500139
 10
6228.0741523657
 20
4491.0197334703
 10
6226.1624096714
 20
4490.9137438578
 10
6223.4817545578
 20
4490.8113536987
 10
6220.2723199942
 20
4490.705358452
 10
6216.9583480893
 20
4490.6028518192
 10
6213.8415980538
 20
4490.4971264935
 10
6211.3255672507
 20
4490.3942615338
 10
6209.6490860423
 20
4490.2890793718
 10
6209.0213357785
 20
4490.1856173146
 10
6209.0537352991
 20
4490.1785972164
  0
LWPOLYLINE
  5
290
330
1F
100
AcDbEntity
  8
0
  6
Continuous
 62
     7
370
    25
100
AcDbPolyline
 90
       11
 70
   128
 43
0.0
 10
6227.8528589002
 20
4499.5811635138
 10
6227.9120287092
 20
4499.5482115497
 10
6227.1164986282
 20
4499.4456950061
 10
6225.4069323299
 20
4499.3397053936
 10
6223.0097699643
 20
4499.2373152344
 10
6220.1397492327
 20
4499.1313199878
 10
6217.1762465088
 20
4499.028813355
 10
6214.3891084506
 20
4498.9230880293
 10
6212.1391605475
 20
4498.8202230696
 10
6210.6399756509
 20
4498.7150409076
 10
6210.1434602755
 20
4498.6235305191
  0
LWPOLYLINE
  5
291
330
1F
100
AcDbEntity
  8
0
  6
Continuous
 62
     7
370
    25
100
AcDbPolyline
 90
       11
 70
   128
 43
0.0
 10
6227.8529513886
 20
4497.6272658528
 10
6227.9120287092
 20
4497.5943653958
 10
6227.1164986282
 20
4497.4918488523
 10
6225.4069323299
 20
4497.3858592398
 10
6223.0097699643
 20
4497.2834690806
 10
6220.1397492327
 20
4497.177473834
 10
6217.1762465088
 20
4497.0749672011
 10
6214.3891084506
 20
4496.9692418754
 10
6212.1391605475
 20
4496.8663769157
 10
6210.6399756509
 20
4496.7611947538
 10
6210.1433476208
 20
4496.6696636024
  0
LWPOLYLINE
  5
292
330
1F
100
AcDbEntity
  8
0
  6
Continuous
 62
     7
370
    25
100
AcDbPolyline
 90
       11
 70
   128
 43
0.0
 10
6227.8530121182
 20
4495.6733858783
 10
6227.9120287092
 20
4495.640519242
 10
6227.1164986282
 20
4495.5380026984
 10
6225.4069323299
 20
4495.4320130859
 10
6223.0097699643
 20
4495.3296229268
 10
6220.1397492327
 20
4495.2236276801
 10
6217.1762465088
 20
4495.1211210473
 10
6214.3891084506
 20
4495.0153957216
 10
6212.1391605475
 20
4494.9125307619
 10
6210.6399756509
 20
4494.8073486
 10
6210.1432347068
 20
4494.7157966379
  0
LWPOLYLINE
  5
293
330
1F
100
AcDbEntity
  8
0
  6
Continuous
 62
     7
370
    25
100
AcDbPolyline
 90
       11
 70
   128
 43
0.0
 10
6227.8530124622
 20
4493.7195395329
 10
6227.9120287092
 20
4493.6866730882
 10
6227.1164986282
 20
4493.5841565446
 10
6225.4069323299
 20
4493.4781669321
 10
6223.0097699643
 20
4493.3757767729
 10
6220.1397492327
 20
4493.2697815263
 10
6217.1762465088
 20
4493.1672748934
 10
6214.3891084506
 20
4493.0615495677
 10
6212.1391605475
 20
4492.958684608
 10
6210.6399756509
 20
4492.8535024461
 10
6210.1431215312
 20
4492.7619296253
  0
LWPOLYLINE
  5
294
330
1F
100
AcDbEntity
  8
0
  6
Continuous
 62
     7
370
    25
100
AcDbPolyline
 90
       11
 70
   128
 43
0.0
 10
6227.8530132152
 20
4491.7656929597
 10
6227.9120287092
 20
4491.7328269343
 10
6227.1164986282
 20
4491.6303103907
 10
6225.4069323299
 20
4491.5243207782
 10
6223.0097699643
 20
4491.4219306191
 10
6220.1397492327
 20
4491.3159353724
 10
6217.1762465088
 20
4491.2134287396
 10
6214.3891084506
 20
4491.1077034139
 10
6212.1391605475
 20
4491.0048384542
 10
6210.6399756509
 20
4490.8996562923
 10
6210.1430080917
 20
4490.8080625639
  0
LINE
  5
295
330
1F
100
AcDbEntity
  8
0
  6
Continuous
 62
     7
370
    25
100
AcDbLine
 10
6210.5187553361
 20
4500.6688204758
 30
0.0
 11
6227.5187553361
 21
4500.6688204758
 31
0.0
  0
LINE
  5
296
330
1F
100
AcDbEntity
  8
0
  6
Continuous
 62
     7
370
    25
100
AcDbLine
 10
6318.8187553361
 20
4488.6688204758
 30
0.0
 11
6339.2187553361
 21
4488.6688204758
 31
0.0
  0
LWPOLYLINE
  5
297
330
1F
100
AcDbEntity
  8
0
  6
Continuous
 62
     7
370
    25
100
AcDbPolyline
 90
       11
 70
   128
 43
0.0
 10
6319.4782547288
 20
4499.5077792036
 10
6319.6598950568
 20
4499.553715416
 10
6320.9879540837
 20
4499.6202560003
 10
6323.2056167745
 20
4499.6874880238
 10
6326.0629713499
 20
4499.7544471902
 10
6329.2014124321
 20
4499.8211617682
 10
6332.2909471401
 20
4499.8886135483
 10
6334.9489365093
 20
4499.9549516953
 10
6336.9051896983
 20
4500.0226905681
 10
6337.9322082447
 20
4500.0888946116
 10
6337.9319353133
 20
4500.127253846
  0
LWPOLYLINE
  5
298
330
1F
100
AcDbEntity
  8
0
  6
Continuous
 62
     7
370
    25
100
AcDbPolyline
 90
       12
 70
   128
 43
0.0
 10
6337.854238797
 20
4500.0696552589
 10
6337.8915303821
 20
4500.030394852
 10
6337.1164985154
 20
4499.9341565353
 10
6335.406932112
 20
4499.8281669212
 10
6333.0097696458
 20
4499.7257767605
 10
6330.1397488368
 20
4499.6197815124
 10
6327.1762460723
 20
4499.5172748777
 10
6324.3891080351
 20
4499.411549551
 10
6322.1391602049
 20
4499.3086845891
 10
6320.6399754514
 20
4499.2035024267
 10
6320.0786131176
 20
4499.1000403667
 10
6320.1080182769
 20
4499.0929155875
  0
LWPOLYLINE
  5
299
330
1F
100
AcDbEntity
  8
0
  6
Continuous
 62
     7
370
    25
100
AcDbPolyline
 90
       12
 70
   128
 43
0.0
 10
6337.8722067766
 20
4498.0968925
 10
6337.8915303821
 20
4498.0765486982
 10
6337.1164985154
 20
4497.9803103815
 10
6335.406932112
 20
4497.8743207674
 10
6333.0097696458
 20
4497.7719306066
 10
6330.1397488368
 20
4497.6659353586
 10
6327.1762460723
 20
4497.5634287239
 10
6324.3891080351
 20
4497.4577033971
 10
6322.1391602049
 20
4497.3548384353
 10
6320.6399754514
 20
4497.2496562728
 10
6320.0786131176
 20
4497.1461942128
 10
6320.1082801168
 20
4497.1390059906
  0
LWPOLYLINE
  5
29A
330
1F
100
AcDbEntity
  8
0
  6
Continuous
 62
     7
370
    25
100
AcDbPolyline
 90
       12
 70
   128
 43
0.0
 10
6337.8722232141
 20
4496.1430290408
 10
6337.8915303821
 20
4496.1227025443
 10
6337.1164985154
 20
4496.0264642277
 10
6335.406932112
 20
4495.9204746135
 10
6333.0097696458
 20
4495.8180844528
 10
6330.1397488368
 20
4495.7120892047
 10
6327.1762460723
 20
4495.60958257
 10
6324.3891080351
 20
4495.5038572433
 10
6322.1391602049
 20
4495.4009922814
 10
6320.6399754514
 20
4495.295810119
 10
6320.0786131176
 20
4495.192348059
 10
6320.1085416655
 20
4495.1850964643
  0
LWPOLYLINE
  5
29B
330
1F
100
AcDbEntity
  8
0
  6
Continuous
 62
     7
370
    25
100
AcDbPolyline
 90
       12
 70
   128
 43
0.0
 10
6337.8722396768
 20
4494.1891655551
 10
6337.8915303821
 20
4494.1688563905
 10
6337.1164985154
 20
4494.0726180738
 10
6335.406932112
 20
4493.9666284597
 10
6333.0097696458
 20
4493.8642382989
 10
6330.1397488368
 20
4493.7582430509
 10
6327.1762460723
 20
4493.6557364162
 10
6324.3891080351
 20
4493.5500110895
 10
6322.1391602049
 20
4493.4471461276
 10
6320.6399754514
 20
4493.3419639651
 10
6320.0786131176
 20
4493.2385019051
 10
6320.1088029179
 20
4493.2311870098
  0
LWPOLYLINE
  5
29C
330
1F
100
AcDbEntity
  8
0
  6
Continuous
 62
     7
370
    25
100
AcDbPolyline
 90
       12
 70
   128
 43
0.0
 10
6337.8722561651
 20
4492.2353020424
 10
6337.8915303821
 20
4492.2150102366
 10
6337.1164985154
 20
4492.11877192
 10
6335.406932112
 20
4492.0127823058
 10
6333.0097696458
 20
4491.9103921451
 10
6330.1397488368
 20
4491.804396897
 10
6327.1762460723
 20
4491.7018902624
 10
6324.3891080351
 20
4491.5961649356
 10
6322.1391602049
 20
4491.4932999737
 10
6320.6399754514
 20
4491.3881178113
 10
6320.0786131176
 20
4491.2846557513
 10
6320.1090638689
 20
4491.2772776284
  0
LWPOLYLINE
  5
29D
330
1F
100
AcDbEntity
  8
0
  6
Continuous
 62
     7
370
    25
100
AcDbPolyline
 90
       11
 70
   128
 43
0.0
 10
6338.8690304889
 20
4498.7095905962
 10
6338.8448432001
 20
4498.6678096259
 10
6337.6970664485
 20
4498.5653124979
 10
6335.5685174846
 20
4498.4595707738
 10
6332.7333118383
 20
4498.3567251486
 10
6329.4633569244
 20
4498.2515155057
 10
6326.161857894
 20
4498.1480824464
 10
6323.1680195651
 20
4498.0436737298
 10
6320.826552418
 20
4497.939419323
 10
6319.3983662535
 20
4497.8358679231
 10
6319.1003202392
 20
4497.749309014
  0
LWPOLYLINE
  5
29E
330
1F
100
AcDbEntity
  8
0
  6
Continuous
 62
     7
370
    25
100
AcDbPolyline
 90
       11
 70
   128
 43
0.0
 10
6338.8690111843
 20
4496.7557110956
 10
6338.8448432001
 20
4496.713963472
 10
6337.6970664485
 20
4496.611466344
 10
6335.5685174846
 20
4496.5057246199
 10
6332.7333118383
 20
4496.4028789947
 10
6329.4633569244
 20
4496.2976693519
 10
6326.161857894
 20
4496.1942362926
 10
6323.1680195651
 20
4496.0898275759
 10
6320.826552418
 20
4495.9855731692
 10
6319.3983662535
 20
4495.8820217693
 10
6319.1003202392
 20
4495.7954628602
  0
LWPOLYLINE
  5
29F
330
1F
100
AcDbEntity
  8
0
  6
Continuous
 62
     7
370
    25
100
AcDbPolyline
 90
       11
 70
   128
 43
0.0
 10
6338.8689918894
 20
4494.8018316118
 10
6338.8448432001
 20
4494.7601173182
 10
6337.6970664485
 20
4494.6576201902
 10
6335.5685174846
 20
4494.5518784661
 10
6332.7333118383
 20
4494.4490328409
 10
6329.4633569244
 20
4494.343823198
 10
6326.161857894
 20
4494.2403901387
 10
6323.1680195651
 20
4494.1359814221
 10
6320.826552418
 20
4494.0317270153
 10
6319.3983662535
 20
4493.9281756154
 10
6319.1003202392
 20
4493.8416167063
  0
LWPOLYLINE
  5
2A0
330
1F
100
AcDbEntity
  8
0
  6
Continuous
 62
     7
370
    25
100
AcDbPolyline
 90
       11
 70
   128
 43
0.0
 10
6338.8689726042
 20
4492.8479521449
 10
6338.8448432001
 20
4492.8062711643
 10
6337.6970664485
 20
4492.7037740363
 10
6335.5685174846
 20
4492.5980323122
 10
6332.7333118383
 20
4492.495186687
 10
6329.4633569244
 20
4492.3899770442
 10
6326.161857894
 20
4492.2865439849
 10
6323.1680195651
 20
4492.1821352682
 10
6320.826552418
 20
4492.0778808615
 10
6319.3983662535
 20
4491.9743294616
 10
6319.1003202392
 20
4491.8877705525
  0
LWPOLYLINE
  5
2A1
330
1F
100
AcDbEntity
  8
0
  6
Continuous
 62
     7
370
    25
100
AcDbPolyline
 90
       12
 70
   128
 43
0.0
 10
6338.897768299
 20
4498.9705007533
 10
6338.96376327
 20
4498.9376346293
 10
6338.0741523657
 20
4498.8351180857
 10
6336.1624096714
 20
4498.7291284732
 10
6333.4817545578
 20
4498.626738314
 10
6330.2723199942
 20
4498.5207430674
 10
6326.9583480893
 20
4498.4182364346
 10
6323.8415980538
 20
4498.3125111088
 10
6321.3255672507
 20
4498.2096461492
 10
6319.6490860423
 20
4498.1044639872
 10
6319.0213357785
 20
4498.0010019299
 10
6319.0537352991
 20
4497.9939818318
  0
LWPOLYLINE
  5
2A2
330
1F
100
AcDbEntity
  8
0
  6
Continuous
 62
     7
370
    25
100
AcDbPolyline
 90
       12
 70
   128
 43
0.0
 10
6338.897768299
 20
4497.0166545995
 10
6338.96376327
 20
4496.9837884754
 10
6338.0741523657
 20
4496.8812719319
 10
6336.1624096714
 20
4496.7752823194
 10
6333.4817545578
 20
4496.6728921602
 10
6330.2723199942
 20
4496.5668969136
 10
6326.9583480893
 20
4496.4643902807
 10
6323.8415980538
 20
4496.358664955
 10
6321.3255672507
 20
4496.2557999953
 10
6319.6490860423
 20
4496.1506178334
 10
6319.0213357785
 20
4496.0471557761
 10
6319.0537352991
 20
4496.040135678
  0
LWPOLYLINE
  5
2A3
330
1F
100
AcDbEntity
  8
0
  6
Continuous
 62
     7
370
    25
100
AcDbPolyline
 90
       12
 70
   128
 43
0.0
 10
6338.897768299
 20
4495.0628084456
 10
6338.96376327
 20
4495.0299423216
 10
6338.0741523657
 20
4494.927425778
 10
6336.1624096714
 20
4494.8214361655
 10
6333.4817545578
 20
4494.7190460063
 10
6330.2723199942
 20
4494.6130507597
 10
6326.9583480893
 20
4494.5105441269
 10
6323.8415980538
 20
4494.4048188011
 10
6321.3255672507
 20
4494.3019538415
 10
6319.6490860423
 20
4494.1967716795
 10
6319.0213357785
 20
4494.0933096223
 10
6319.0537352991
 20
4494.0862895241
  0
LWPOLYLINE
  5
2A4
330
1F
100
AcDbEntity
  8
0
  6
Continuous
 62
     7
370
    25
100
AcDbPolyline
 90
       12
 70
   128
 43
0.0
 10
6338.897768299
 20
4493.1089622918
 10
6338.96376327
 20
4493.0760961677
 10
6338.0741523657
 20
4492.9735796242
 10
6336.1624096714
 20
4492.8675900117
 10
6333.4817545578
 20
4492.7651998525
 10
6330.2723199942
 20
4492.6592046059
 10
6326.9583480893
 20
4492.556697973
 10
6323.8415980538
 20
4492.4509726473
 10
6321.3255672507
 20
4492.3481076876
 10
6319.6490860423
 20
4492.2429255257
 10
6319.0213357785
 20
4492.1394634684
 10
6319.0537352991
 20
4492.1324433703
  0
LWPOLYLINE
  5
2A5
330
1F
100
AcDbEntity
  8
0
  6
Continuous
 62
     7
370
    25
100
AcDbPolyline
 90
       12
 70
   128
 43
0.0
 10
6338.897768299
 20
4491.1551161379
 10
6338.96376327
 20
4491.1222500139
 10
6338.0741523657
 20
4491.0197334703
 10
6336.1624096714
 20
4490.9137438578
 10
6333.4817545578
 20
4490.8113536987
 10
6330.2723199942
 20
4490.705358452
 10
6326.9583480893
 20
4490.6028518192
 10
6323.8415980538
 20
4490.4971264935
 10
6321.3255672507
 20
4490.3942615338
 10
6319.6490860423
 20
4490.2890793718
 10
6319.0213357785
 20
4490.1856173146
 10
6319.0537352991
 20
4490.1785972164
  0
LWPOLYLINE
  5
2A6
330
1F
100
AcDbEntity
  8
0
  6
Continuous
 62
     7
370
    25
100
AcDbPolyline
 90
       11
 70
   128
 43
0.0
 10
6337.8528589002
 20
4499.5811635138
 10
6337.9120287092
 20
4499.5482115497
 10
6337.1164986282
 20
4499.4456950061
 10
6335.4069323299
 20
4499.3397053936
 10
6333.0097699643
 20
4499.2373152344
 10
6330.1397492327
 20
4499.1313199878
 10
6327.1762465088
 20
4499.028813355
 10
6324.3891084506
 20
4498.9230880292
 10
6322.1391605475
 20
4498.8202230696
 10
6320.6399756509
 20
4498.7150409076
 10
6320.1434602755
 20
4498.6235305191
  0
LWPOLYLINE
  5
2A7
330
1F
100
AcDbEntity
  8
0
  6
Continuous
 62
     7
370
    25
100
AcDbPolyline
 90
       11
 70
   128
 43
0.0
 10
6337.8529513886
 20
4497.6272658527
 10
6337.9120287092
 20
4497.5943653958
 10
6337.1164986282
 20
4497.4918488523
 10
6335.4069323299
 20
4497.3858592398
 10
6333.0097699643
 20
4497.2834690806
 10
6330.1397492327
 20
4497.177473834
 10
6327.1762465088
 20
4497.0749672011
 10
6324.3891084506
 20
4496.9692418754
 10
6322.1391605475
 20
4496.8663769157
 10
6320.6399756509
 20
4496.7611947538
 10
6320.1433476208
 20
4496.6696636024
  0
LWPOLYLINE
  5
2A8
330
1F
100
AcDbEntity
  8
0
  6
Continuous
 62
     7
370
    25
100
AcDbPolyline
 90
       11
 70
   128
 43
0.0
 10
6337.8530121182
 20
4495.6733858783
 10
6337.9120287092
 20
4495.640519242
 10
6337.1164986282
 20
4495.5380026984
 10
6335.4069323299
 20
4495.4320130859
 10
6333.0097699643
 20
4495.3296229268
 10
6330.1397492327
 20
4495.2236276801
 10
6327.1762465088
 20
4495.1211210473
 10
6324.3891084506
 20
4495.0153957216
 10
6322.1391605475
 20
4494.9125307619
 10
6320.6399756509
 20
4494.8073486
 10
6320.1432347068
 20
4494.7157966379
  0
LWPOLYLINE
  5
2A9
330
1F
100
AcDbEntity
  8
0
  6
Continuous
 62
     7
370
    25
100
AcDbPolyline
 90
       11
 70
   128
 43
0.0
 10
6337.8530124622
 20
4493.7195395329
 10
6337.9120287092
 20
4493.6866730882
 10
6337.1164986282
 20
4493.5841565446
 10
6335.4069323299
 20
4493.4781669321
 10
6333.0097699643
 20
4493.3757767729
 10
6330.1397492327
 20
4493.2697815263
 10
6327.1762465088
 20
4493.1672748934
 10
6324.3891084506
 20
4493.0615495677
 10
6322.1391605475
 20
4492.958684608
 10
6320.6399756509
 20
4492.8535024461
 10
6320.1431215312
 20
4492.7619296253
  0
LWPOLYLINE
  5
2AA
330
1F
100
AcDbEntity
  8
0
  6
Continuous
 62
     7
370
    25
100
AcDbPolyline
 90
       11
 70
   128
 43
0.0
 10
6337.8530132152
 20
4491.7656929597
 10
6337.9120287092
 20
4491.7328269343
 10
6337.1164986282
 20
4491.6303103907
 10
6335.4069323299
 20
4491.5243207782
 10
6333.0097699643
 20
4491.4219306191
 10
6330.1397492327
 20
4491.3159353724
 10
6327.1762465088
 20
4491.2134287396
 10
6324.3891084506
 20
4491.1077034139
 10
6322.1391605475
 20
4491.0048384542
 10
6320.6399756509
 20
4490.8996562923
 10
6320.1430080917
 20
4490.8080625639
  0
LINE
  5
2AB
330
1F
100
AcDbEntity
  8
0
  6
Continuous
 62
     7
370
    25
100
AcDbLine
 10
6320.5187553361
 20
4500.6688204758
 30
0.0
 11
6337.5187553361
 21
4500.6688204758
 31
0.0
  0
LINE
  5
2AC
330
1F
100
AcDbEntity
  8
0
  6
Continuous
 62
     7
370
    25
100
AcDbLine
 10
6288.0187553361
 20
4392.3135756559
 30
0.0
 11
6302.3187553361
 21
4392.3135756559
 31
0.0
  0
LINE
  5
2AD
330
1F
100
AcDbEntity
  8
0
  6
Continuous
 62
     7
370
    25
100
AcDbLine
 10
6245.7187553361
 20
4392.3135756559
 30
0.0
 11
6260.0187553361
 21
4392.3135756559
 31
0.0
  0
LINE
  5
2AE
330
1F
100
AcDbEntity
  8
0
  6
Continuous
 62
     7
370
    25
100
AcDbLine
 10
6250.7687553361
 20
4384.8135756559
 30
0.0
 11
6259.1187553361
 21
4384.8135756559
 31
0.0
  0
LINE
  5
2AF
330
1F
100
AcDbEntity
  8
0
  6
Continuous
 62
     7
370
    25
100
AcDbLine
 10
6288.9187553361
 20
4384.8135756559
 30
0.0
 11
6297.2687553361
 21
4384.8135756559
 31
0.0
  0
LINE
  5
2B0
330
1F
100
AcDbEntity
  8
0
  6
Continuous
 62
     7
370
    25
100
AcDbLine
 10
6370.6462840985
 20
4489.6135756559
 30
0.0
 11
6370.0187553361
 21
4489.6135756559
 31
0.0
  0
LINE
  5
2B1
330
1F
100
AcDbEntity
  8
0
  6
Continuous
 62
     7
370
    25
100
AcDbLine
 10
6373.0187553361
 20
4489.6135756559
 30
0.0
 11
6370.6462840985
 21
4489.6135756559
 31
0.0
  0
LINE
  5
2B2
330
1F
100
AcDbEntity
  8
0
  6
Continuous
 62
     7
370
    25
100
AcDbLine
 10
6178.0187553361
 20
4489.6135756559
 30
0.0
 11
6175.0187553361
 21
4489.6135756559
 31
0.0
  0
ELLIPSE
  5
2B3
330
1F
100
AcDbEntity
  8
0
  6
Continuous
 62
     7
370
    25
100
AcDbEllipse
 10
6381.7308902996
 20
4486.7135756559
 30
0.0
 11
0.0
 21
1.600000000000364
 31
0.0
210
0.0
220
0.0
230
1.0
 40
0.5
 41
4.310963252425494
 42
6.283185307179586
  0
LINE
  5
2B4
330
1F
100
AcDbEntity
  8
0
  6
Continuous
 62
     7
370
    25
100
AcDbLine
 10
6165.5702164898
 20
4486.0884058503
 30
0.0
 11
6382.4672941824
 21
4486.0884058503
 31
0.0
  0
LINE
  5
2B5
330
1F
100
AcDbEntity
  8
0
  6
Continuous
 62
     7
370
    25
100
AcDbLine
 10
6166.3066203725
 20
4488.3135756559
 30
0.0
 11
6381.7308902997
 21
4488.3135756559
 31
0.0
  0
ELLIPSE
  5
2B6
330
1F
100
AcDbEntity
  8
0
  6
Continuous
 62
     7
370
    25
100
AcDbEllipse
 10
6166.3066203725
 20
4486.7135756559
 30
0.0
 11
0.0
 21
1.600000000000364
 31
0.0
210
0.0
220
0.0
230
1.0
 40
0.5
 41
0.0
 42
1.972222054751517
  0
LINE
  5
2B7
330
1F
100
AcDbEntity
  8
0
  6
Continuous
 62
     7
370
    25
100
AcDbLine
 10
6203.6880549854
 20
4396.2884058503
 30
0.0
 11
6344.3494556867
 21
4396.2884058503
 31
0.0
  0
LINE
  5
2B8
330
1F
100
AcDbEntity
  8
0
  6
Continuous
 62
     7
370
    25
100
AcDbLine
 10
6344.3494556867
 20
4396.2884058503
 30
0.0
 11
6382.4672941824
 21
4486.0884058503
 31
0.0
  0
LINE
  5
2B9
330
1F
100
AcDbEntity
  8
0
  6
Continuous
 62
     7
370
    25
100
AcDbLine
 10
6165.5702164898
 20
4486.0884058503
 30
0.0
 11
6203.6880549854
 21
4396.2884058503
 31
0.0
  0
ARC
  5
2BA
330
1F
100
AcDbEntity
  8
0
  6
Continuous
 62
     7
370
    25
100
AcDbCircle
 10
6165.5995135914
 20
4486.7135756559
 30
0.0
 40
0.8000000000001819
100
AcDbArc
 50
90.0
 51
203.0
  0
LINE
  5
2BB
330
1F
100
AcDbEntity
  8
0
  6
Continuous
 62
     7
370
    25
100
AcDbLine
 10
6164.1267058258
 20
4486.0884058503
 30
0.0
 11
6164.8631097086
 21
4486.4009907531
 31
0.0
  0
ARC
  5
2BC
330
1F
100
AcDbEntity
  8
0
  6
Continuous
 62
     7
370
    25
100
AcDbCircle
 10
6165.5995135914
 20
4486.7135756559
 30
0.0
 40
1.600000000000364
100
AcDbArc
 50
90.0
 51
203.0
  0
LINE
  5
2BD
330
1F
100
AcDbEntity
  8
0
  6
Continuous
 62
     7
370
    25
100
AcDbLine
 10
6165.5995135914
 20
4488.3135756559
 30
0.0
 11
6165.5995135914
 21
4487.5135756559
 31
0.0
  0
LINE
  5
2BE
330
1F
100
AcDbEntity
  8
0
  6
Continuous
 62
     7
370
    25
100
AcDbLine
 10
6383.9108048464
 20
4486.0884058503
 30
0.0
 11
6383.1744009636
 21
4486.4009907531
 31
0.0
  0
ARC
  5
2BF
330
1F
100
AcDbEntity
  8
0
  6
Continuous
 62
     7
370
    25
100
AcDbCircle
 10
6382.4379970808
 20
4486.7135756559
 30
0.0
 40
0.8000000000001819
100
AcDbArc
 50
337.0
 51
90.0
  0
LINE
  5
2C0
330
1F
100
AcDbEntity
  8
0
  6
Continuous
 62
     7
370
    25
100
AcDbLine
 10
6382.4379970808
 20
4488.3135756559
 30
0.0
 11
6382.4379970808
 21
4487.5135756559
 31
0.0
  0
ARC
  5
2C1
330
1F
100
AcDbEntity
  8
0
  6
Continuous
 62
     7
370
    25
100
AcDbCircle
 10
6382.4379970808
 20
4486.7135756559
 30
0.0
 40
1.600000000000364
100
AcDbArc
 50
337.0
 51
90.0
  0
LINE
  5
2C2
330
1F
100
AcDbEntity
  8
0
  6
Continuous
 62
     7
370
    25
100
AcDbLine
 10
6202.9809482042
 20
4396.6009907531
 30
0.0
 11
6164.8631097086
 21
4486.4009907531
 31
0.0
  0
LINE
  5
2C3
330
1F
100
AcDbEntity
  8
0
  6
Continuous
 62
     7
370
    25
100
AcDbLine
 10
6202.2445443215
 20
4396.2884058503
 30
0.0
 11
6202.9809482042
 21
4396.6009907531
 31
0.0
  0
LINE
  5
2C4
330
1F
100
AcDbEntity
  8
0
  6
Continuous
 62
     7
370
    25
100
AcDbLine
 10
6202.2445443215
 20
4396.2884058503
 30
0.0
 11
6164.1267058258
 21
4486.0884058503
 31
0.0
  0
LINE
  5
2C5
330
1F
100
AcDbEntity
  8
0
  6
Continuous
 62
     7
370
    25
100
AcDbLine
 10
6383.1744009636
 20
4486.4009907531
 30
0.0
 11
6345.056562468
 21
4396.6009907531
 31
0.0
  0
LINE
  5
2C6
330
1F
100
AcDbEntity
  8
0
  6
Continuous
 62
     7
370
    25
100
AcDbLine
 10
6383.9108048464
 20
4486.0884058503
 30
0.0
 11
6345.7929663507
 21
4396.2884058503
 31
0.0
  0
LINE
  5
2C7
330
1F
100
AcDbEntity
  8
0
  6
Continuous
 62
     7
370
    25
100
AcDbLine
 10
6345.7929663507
 20
4396.2884058503
 30
0.0
 11
6345.056562468
 21
4396.6009907531
 31
0.0
  0
LINE
  5
2C8
330
1F
100
AcDbEntity
  8
0
  6
Continuous
 62
     7
370
    25
100
AcDbLine
 10
6166.3066203725
 20
4488.3135756559
 30
0.0
 11
6165.5995135914
 21
4488.3135756559
 31
0.0
  0
LINE
  5
2C9
330
1F
100
AcDbEntity
  8
0
  6
Continuous
 62
     7
370
    25
100
AcDbLine
 10
6165.6138000495
 20
4487.5135756559
 30
0.0
 11
6165.5995135914
 21
4487.5135756559
 31
0.0
  0
LINE
  5
2CA
330
1F
100
AcDbEntity
  8
0
  6
Continuous
 62
     7
370
    25
100
AcDbLine
 10
6382.4379970808
 20
4487.5135756559
 30
0.0
 11
6382.4237106227
 21
4487.5135756559
 31
0.0
  0
LINE
  5
2CB
330
1F
100
AcDbEntity
  8
0
  6
Continuous
 62
     7
370
    25
100
AcDbLine
 10
6382.4379970808
 20
4488.3135756559
 30
0.0
 11
6381.7308902996
 21
4488.3135756559
 31
0.0
  0
LINE
  5
2CC
330
1F
100
AcDbEntity
  8
0
  6
Continuous
 62
     7
370
    25
100
AcDbLine
 10
6203.717352087
 20
4395.3135756559
 30
0.0
 11
6344.3201585852
 21
4395.3135756559
 31
0.0
  0
ELLIPSE
  5
2CD
330
1F
100
AcDbEntity
  8
0
  6
Continuous
 62
     7
370
    25
100
AcDbEllipse
 10
6344.3201585852
 20
4396.9135756559
 30
0.0
 11
0.0
 21
1.600000000001273
 31
0.0
210
0.0
220
0.0
230
1.0
 40
0.0198920064
 41
3.141592653561211
 42
4.310963252420357
  0
ELLIPSE
  5
2CE
330
1F
100
AcDbEntity
  8
0
  6
Continuous
 62
     7
370
    25
100
AcDbEllipse
 10
6203.717352087
 20
4396.9135756559
 30
0.0
 11
0.0
 21
1.600000000001273
 31
0.0
210
0.0
220
0.0
230
1.0
 40
0.0198920064
 41
1.972222054756293
 42
3.141592653589787
  0
ARC
  5
2CF
330
1F
100
AcDbEntity
  8
0
  6
Continuous
 62
     7
370
    25
100
AcDbCircle
 10
6203.717352087
 20
4396.9135756559
 30
0.0
 40
0.7999999999997247
100
AcDbArc
 50
203.0
 51
270.0
  0
ARC
  5
2D0
330
1F
100
AcDbEntity
  8
0
  6
Continuous
 62
     7
370
    25
100
AcDbCircle
 10
6203.717352087
 20
4396.9135756559
 30
0.0
 40
1.599999999999454
100
AcDbArc
 50
203.0
 51
269.9999999999
  0
ARC
  5
2D1
330
1F
100
AcDbEntity
  8
0
  6
Continuous
 62
     7
370
    25
100
AcDbCircle
 10
6344.3201585852
 20
4396.9135756559
 30
0.0
 40
0.7999999999997247
100
AcDbArc
 50
270.0000000001
 51
337.0
  0
ARC
  5
2D2
330
1F
100
AcDbEntity
  8
0
  6
Continuous
 62
     7
370
    25
100
AcDbCircle
 10
6344.3201585852
 20
4396.9135756559
 30
0.0
 40
1.599999999999454
100
AcDbArc
 50
270.0
 51
337.0
  0
ARC
  5
2D3
330
1F
100
AcDbEntity
  8
0
  6
Continuous
 62
     7
370
    25
100
AcDbCircle
 10
6344.153894872
 20
4396.482910364
 30
0.0
 40
0.9103580433433642
100
AcDbArc
 50
7.4526980152
 51
50.6667874865
  0
ARC
  5
2D4
330
1F
100
AcDbEntity
  8
0
  6
Continuous
 62
     7
370
    25
100
AcDbCircle
 10
6382.7398568126
 20
4487.7152153126
 30
0.0
 40
1.384201868228199
100
AcDbArc
 50
251.7036967382
 51
288.2963032617
  0
ARC
  5
2D5
330
1F
100
AcDbEntity
  8
0
  6
Continuous
 62
     7
370
    25
100
AcDbCircle
 10
6165.2976538596
 20
4487.7152153126
 30
0.0
 40
1.384201868228484
100
AcDbArc
 50
251.7036967382
 51
288.2963032618
  0
ARC
  5
2D6
330
1F
100
AcDbEntity
  8
0
  6
Continuous
 62
     7
370
    25
100
AcDbCircle
 10
6203.8836158001
 20
4396.482910364
 30
0.0
 40
0.9103580432892945
100
AcDbArc
 50
129.3332125136
 51
172.547301986
  0
LINE
  5
2D7
330
1F
100
AcDbEntity
  8
0
  6
Continuous
 62
     7
370
    25
100
AcDbLine
 10
6301.0187553361
 20
4393.3135756559
 30
0.0
 11
6247.0187553361
 21
4393.3135756559
 31
0.0
  0
LINE
  5
2D8
330
1F
100
AcDbEntity
  8
0
  6
Continuous
 62
     8
370
    25
100
AcDbLine
 10
6253.9187553361
 20
4346.3135756559
 30
0.0
 11
6259.1187553361
 21
4346.3135756559
 31
0.0
  0
LINE
  5
2D9
330
1F
100
AcDbEntity
  8
0
  6
Continuous
 62
     8
370
    25
100
AcDbLine
 10
6288.9187553361
 20
4346.3135756559
 30
0.0
 11
6294.1187553361
 21
4346.3135756559
 31
0.0
  0
LINE
  5
2DA
330
1F
100
AcDbEntity
  8
0
  6
Continuous
 62
     8
370
    25
100
AcDbLine
 10
6288.0187553361
 20
4392.5135756559
 30
0.0
 11
6302.5187553361
 21
4392.5135756559
 31
0.0
  0
LINE
  5
2DB
330
1F
100
AcDbEntity
  8
0
  6
Continuous
 62
     8
370
    25
100
AcDbLine
 10
6245.5187553361
 20
4392.5135756559
 30
0.0
 11
6260.0187553361
 21
4392.5135756559
 31
0.0
  0
LINE
  5
2DC
330
1F
100
AcDbEntity
  8
0
  6
Continuous
 62
     8
370
    25
100
AcDbLine
 10
6301.4187553361
 20
4395.1135756559
 30
0.0
 11
6302.5187553361
 21
4395.1135756559
 31
0.0
  0
LINE
  5
2DD
330
1F
100
AcDbEntity
  8
0
  6
Continuous
 62
     8
370
    25
100
AcDbLine
 10
6245.5187553361
 20
4395.1135756559
 30
0.0
 11
6246.6187553361
 21
4395.1135756559
 31
0.0
  0
LINE
  5
2DE
330
1F
100
AcDbEntity
  8
0
  6
Continuous
 62
     8
370
    25
100
AcDbLine
 10
6369.5887600442
 20
4488.6218559107
 30
0.0
 11
6368.2006024699
 21
4488.6218559107
 31
0.0
  0
LINE
  5
2DF
330
1F
100
AcDbEntity
  8
0
  6
Continuous
 62
     8
370
    25
100
AcDbLine
 10
6374.8369082023
 20
4488.6218559107
 30
0.0
 11
6369.5887600442
 21
4488.6218559107
 31
0.0
  0
LINE
  5
2E0
330
1F
100
AcDbEntity
  8
0
  6
Continuous
 62
     8
370
    25
100
AcDbLine
 10
6179.8369082023
 20
4488.6218559107
 30
0.0
 11
6173.2006024699
 21
4488.6218559107
 31
0.0
  0
LINE
  5
2E1
330
1F
100
AcDbEntity
  8
0
  6
Continuous
 62
     8
370
    25
100
AcDbLine
 10
6246.5187553361
 20
4393.8135756559
 30
0.0
 11
6301.5187553361
 21
4393.8135756559
 31
0.0
  0
LINE
  5
2E2
330
1F
100
AcDbEntity
  8
0
  6
Continuous
 62
     8
370
    25
100
AcDbLine
 10
6301.5187553361
 20
4394.8135756559
 30
0.0
 11
6246.5187553361
 21
4394.8135756559
 31
0.0
  0
ENDSEC
  0
SECTION
  2
OBJECTS
  0
DICTIONARY
  5
C
330
0
100
AcDbDictionary
281
     1
  3
ACAD_GROUP
350
D
  3
ACAD_LAYOUT
350
1A
  3
ACAD_MLINESTYLE
350
17
  3
ACAD_PLOTSETTINGS
350
19
  3
ACAD_PLOTSTYLENAME
350
E
  3
ACAD_SCALELIST
350
47
  3
DWGPROPS
350
2E3
  0
DICTIONARY
  5
D
102
{ACAD_REACTORS
330
C
102
}
330
C
100
AcDbDictionary
281
     1
  0
DICTIONARY
  5
1A
102
{ACAD_REACTORS
330
C
102
}
330
C
100
AcDbDictionary
281
     1
  3
Layout1
350
1E
  3
Layout2
350
26
  3
Model
350
22
  0
DICTIONARY
  5
17
102
{ACAD_REACTORS
330
C
102
}
330
C
100
AcDbDictionary
281
     1
  3
Standard
350
18
  0
DICTIONARY
  5
19
102
{ACAD_REACTORS
330
C
102
}
330
C
100
AcDbDictionary
281
     1
  0
ACDBDICTIONARYWDFLT
  5
E
102
{ACAD_REACTORS
330
C
102
}
330
C
100
AcDbDictionary
281
     1
  3
Normal
350
F
100
AcDbDictionaryWithDefault
340
F
  0
DICTIONARY
  5
47
102
{ACAD_REACTORS
330
C
102
}
330
C
100
AcDbDictionary
281
     1
  3
A0
350
48
  3
A1
350
49
  3
A2
350
4A
  3
A3
350
4B
  3
A4
350
4C
  3
A5
350
4D
  3
A6
350
4E
  3
A7
350
4F
  3
A8
350
50
  3
A9
350
51
  3
B0
350
52
  3
B1
350
53
  3
B2
350
54
  3
B3
350
55
  3
B4
350
56
  3
B5
350
57
  3
B6
350
58
  3
B7
350
59
  3
B8
350
5A
  3
B9
350
5B
  3
C0
350
5C
  3
C1
350
5D
  3
C2
350
5E
  3
C3
350
5F
  3
C4
350
60
  3
C5
350
61
  3
C6
350
62
  3
C7
350
63
  3
C8
350
64
  3
C9
350
65
  3
D0
350
66
  3
D1
350
67
  3
D2
350
68
  0
XRECORD
  5
2E3
102
{ACAD_REACTORS
330
C
102
}
330
C
100
AcDbXrecord
280
     1
  1
DWGPROPS COOKIE
  2

  3

  4

  6

  7

  8
radek.stransky
  9

300
=
301
=
302
=
303
=
304
=
305
=
306
=
307
=
308
=
309
=
 40
0.0
 41
2459744.510109213
 42
2459744.510109664
  1

 90
        0
  0
LAYOUT
  5
1E
102
{ACAD_REACTORS
330
1A
102
}
330
1A
100
AcDbPlotSettings
  1

  2
none_device
  4

  6

 40
0.0
 41
0.0
 42
0.0
 43
0.0
 44
0.0
 45
0.0
 46
0.0
 47
0.0
 48
0.0
 49
0.0
140
0.0
141
0.0
142
1.0
143
1.0
 70
   688
 72
     1
 73
     0
 74
     5
  7

 75
    16
147
1.0
148
0.0
149
0.0
100
AcDbLayout
  1
Layout1
 70
     1
 71
     1
 10
0.0
 20
0.0
 11
420.0
 21
297.0
 12
0.0
 22
0.0
 32
0.0
 14
1.0000000000E+20
 24
1.0000000000E+20
 34
1.0000000000E+20
 15
-1.0000000000E+20
 25
-1.0000000000E+20
 35
-1.0000000000E+20
146
0.0
 13
0.0
 23
0.0
 33
0.0
 16
1.0
 26
0.0
 36
0.0
 17
0.0
 27
1.0
 37
0.0
 76
     0
330
1B
  0
LAYOUT
  5
26
102
{ACAD_REACTORS
330
1A
102
}
330
1A
100
AcDbPlotSettings
  1

  2
none_device
  4

  6

 40
0.0
 41
0.0
 42
0.0
 43
0.0
 44
0.0
 45
0.0
 46
0.0
 47
0.0
 48
0.0
 49
0.0
140
0.0
141
0.0
142
1.0
143
1.0
 70
   688
 72
     1
 73
     0
 74
     5
  7

 75
    16
147
1.0
148
0.0
149
0.0
100
AcDbLayout
  1
Layout2
 70
     1
 71
     2
 10
0.0
 20
0.0
 11
0.0
 21
0.0
 12
0.0
 22
0.0
 32
0.0
 14
0.0
 24
0.0
 34
0.0
 15
0.0
 25
0.0
 35
0.0
146
0.0
 13
0.0
 23
0.0
 33
0.0
 16
1.0
 26
0.0
 36
0.0
 17
0.0
 27
1.0
 37
0.0
 76
     0
330
23
  0
LAYOUT
  5
22
102
{ACAD_REACTORS
330
1A
102
}
330
1A
100
AcDbPlotSettings
  1

  2
none_device
  4
Letter_(8.50_x_11.00_Inches)
  6

 40
6.35
 41
6.35
 42
6.35000508
 43
6.35000508
 44
215.9
 45
279.4
 46
0.0
 47
0.0
 48
0.0
 49
0.0
140
0.0
141
0.0
142
1.0
143
1.0
 70
  1712
 72
     1
 73
     0
 74
     0
  7

 75
     0
147
1.0
148
0.0
149
0.0
100
AcDbLayout
  1
Model
 70
     1
 71
     0
 10
0.0
 20
0.0
 11
20000.0
 21
10000.0
 12
0.0
 22
0.0
 32
0.0
 14
0.0
 24
0.0
 34
0.0
 15
20000.0
 25
10000.0
 35
0.0
146
0.0
 13
0.0
 23
0.0
 33
0.0
 16
1.0
 26
0.0
 36
0.0
 17
0.0
 27
1.0
 37
0.0
 76
     0
330
1F
331
29
  0
MLINESTYLE
  5
18
102
{ACAD_REACTORS
330
17
102
}
330
17
100
AcDbMlineStyle
  2
Standard
 70
     0
  3

 62
   256
 51
90.0
 52
90.0
 71
     2
 49
0.5
 62
   256
  6
BYLAYER
 49
-0.5
 62
   256
  6
BYLAYER
  0
ACDBPLACEHOLDER
  5
F
102
{ACAD_REACTORS
330
E
102
}
330
E
  0
SCALE
  5
48
102
{ACAD_REACTORS
330
47
102
}
330
47
100
AcDbScale
 70
     0
300
1:1
140
1.0
141
1.0
290
     1
  0
SCALE
  5
49
102
{ACAD_REACTORS
330
47
102
}
330
47
100
AcDbScale
 70
     0
300
1:2
140
1.0
141
2.0
290
     0
  0
SCALE
  5
4A
102
{ACAD_REACTORS
330
47
102
}
330
47
100
AcDbScale
 70
     0
300
1:4
140
1.0
141
4.0
290
     0
  0
SCALE
  5
4B
102
{ACAD_REACTORS
330
47
102
}
330
47
100
AcDbScale
 70
     0
300
1:5
140
1.0
141
5.0
290
     0
  0
SCALE
  5
4C
102
{ACAD_REACTORS
330
47
102
}
330
47
100
AcDbScale
 70
     0
300
1:8
140
1.0
141
8.0
290
     0
  0
SCALE
  5
4D
102
{ACAD_REACTORS
330
47
102
}
330
47
100
AcDbScale
 70
     0
300
1:10
140
1.0
141
10.0
290
     0
  0
SCALE
  5
4E
102
{ACAD_REACTORS
330
47
102
}
330
47
100
AcDbScale
 70
     0
300
1:16
140
1.0
141
16.0
290
     0
  0
SCALE
  5
4F
102
{ACAD_REACTORS
330
47
102
}
330
47
100
AcDbScale
 70
     0
300
1:20
140
1.0
141
20.0
290
     0
  0
SCALE
  5
50
102
{ACAD_REACTORS
330
47
102
}
330
47
100
AcDbScale
 70
     0
300
1:30
140
1.0
141
30.0
290
     0
  0
SCALE
  5
51
102
{ACAD_REACTORS
330
47
102
}
330
47
100
AcDbScale
 70
     0
300
1:40
140
1.0
141
40.0
290
     0
  0
SCALE
  5
52
102
{ACAD_REACTORS
330
47
102
}
330
47
100
AcDbScale
 70
     0
300
1:50
140
1.0
141
50.0
290
     0
  0
SCALE
  5
53
102
{ACAD_REACTORS
330
47
102
}
330
47
100
AcDbScale
 70
     0
300
1:100
140
1.0
141
100.0
290
     0
  0
SCALE
  5
54
102
{ACAD_REACTORS
330
47
102
}
330
47
100
AcDbScale
 70
     0
300
2:1
140
2.0
141
1.0
290
     0
  0
SCALE
  5
55
102
{ACAD_REACTORS
330
47
102
}
330
47
100
AcDbScale
 70
     0
300
4:1
140
4.0
141
1.0
290
     0
  0
SCALE
  5
56
102
{ACAD_REACTORS
330
47
102
}
330
47
100
AcDbScale
 70
     0
300
8:1
140
8.0
141
1.0
290
     0
  0
SCALE
  5
57
102
{ACAD_REACTORS
330
47
102
}
330
47
100
AcDbScale
 70
     0
300
10:1
140
10.0
141
1.0
290
     0
  0
SCALE
  5
58
102
{ACAD_REACTORS
330
47
102
}
330
47
100
AcDbScale
 70
     0
300
100:1
140
100.0
141
1.0
290
     0
  0
SCALE
  5
59
102
{ACAD_REACTORS
330
47
102
}
330
47
100
AcDbScale
 70
     0
300
1/128" = 1'-0"
140
0.0078125
141
12.0
290
     0
  0
SCALE
  5
5A
102
{ACAD_REACTORS
330
47
102
}
330
47
100
AcDbScale
 70
     0
300
1/64" = 1'-0"
140
0.015625
141
12.0
290
     0
  0
SCALE
  5
5B
102
{ACAD_REACTORS
330
47
102
}
330
47
100
AcDbScale
 70
     0
300
1/32" = 1'-0"
140
0.03125
141
12.0
290
     0
  0
SCALE
  5
5C
102
{ACAD_REACTORS
330
47
102
}
330
47
100
AcDbScale
 70
     0
300
1/16" = 1'-0"
140
0.0625
141
12.0
290
     0
  0
SCALE
  5
5D
102
{ACAD_REACTORS
330
47
102
}
330
47
100
AcDbScale
 70
     0
300
3/32" = 1'-0"
140
0.09375
141
12.0
290
     0
  0
SCALE
  5
5E
102
{ACAD_REACTORS
330
47
102
}
330
47
100
AcDbScale
 70
     0
300
1/8" = 1'-0"
140
0.125
141
12.0
290
     0
  0
SCALE
  5
5F
102
{ACAD_REACTORS
330
47
102
}
330
47
100
AcDbScale
 70
     0
300
3/16" = 1'-0"
140
0.1875
141
12.0
290
     0
  0
SCALE
  5
60
102
{ACAD_REACTORS
330
47
102
}
330
47
100
AcDbScale
 70
     0
300
1/4" = 1'-0"
140
0.25
141
12.0
290
     0
  0
SCALE
  5
61
102
{ACAD_REACTORS
330
47
102
}
330
47
100
AcDbScale
 70
     0
300
3/8" = 1'-0"
140
0.375
141
12.0
290
     0
  0
SCALE
  5
62
102
{ACAD_REACTORS
330
47
102
}
330
47
100
AcDbScale
 70
     0
300
1/2" = 1'-0"
140
0.5
141
12.0
290
     0
  0
SCALE
  5
63
102
{ACAD_REACTORS
330
47
102
}
330
47
100
AcDbScale
 70
     0
300
3/4" = 1'-0"
140
0.75
141
12.0
290
     0
  0
SCALE
  5
64
102
{ACAD_REACTORS
330
47
102
}
330
47
100
AcDbScale
 70
     0
300
1" = 1'-0"
140
1.0
141
12.0
290
     0
  0
SCALE
  5
65
102
{ACAD_REACTORS
330
47
102
}
330
47
100
AcDbScale
 70
     0
300
1-1/2" = 1'-0"
140
1.5
141
12.0
290
     0
  0
SCALE
  5
66
102
{ACAD_REACTORS
330
47
102
}
330
47
100
AcDbScale
 70
     0
300
3" = 1'-0"
140
3.0
141
12.0
290
     0
  0
SCALE
  5
67
102
{ACAD_REACTORS
330
47
102
}
330
47
100
AcDbScale
 70
     0
300
6" = 1'-0"
140
6.0
141
12.0
290
     0
  0
SCALE
  5
68
102
{ACAD_REACTORS
330
47
102
}
330
47
100
AcDbScale
 70
     0
300
1'-0" = 1'-0"
140
12.0
141
12.0
290
     0
  0
ENDSEC
  0
EOF
