  0
SECTION
  2
HEADER
  9
$ACADVER
  1
AC1015
  9
$ACADMAINTVER
 70
     6
  9
$DWGCODEPAGE
  3
ANSI_1250
  9
$INSBASE
 10
0.0
 20
0.0
 30
0.0
  9
$EXTMIN
 10
0.0
 20
0.0
 30
0.0
  9
$EXTMAX
 10
20000.0
 20
10000.0
 30
0.0
  9
$LIMMIN
 10
0.0
 20
0.0
  9
$LIMMAX
 10
20000.0
 20
10000.0
  9
$ORTHOMODE
 70
     0
  9
$REGENMODE
 70
     1
  9
$FILLMODE
 70
     1
  9
$QTEXTMODE
 70
     0
  9
$MIRRTEXT
 70
     1
  9
$LTSCALE
 40
1.0
  9
$ATTMODE
 70
     1
  9
$TEXTSIZE
 40
2.0
  9
$TRACEWID
 40
1.0
  9
$TEXTSTYLE
  7
Standard
  9
$CLAYER
  8
0
  9
$CELTYPE
  6
ByLayer
  9
$CECOLOR
 62
   256
  9
$CELTSCALE
 40
1.0
  9
$DISPSILH
 70
     0
  9
$DIMSCALE
 40
1.0
  9
$DIMASZ
 40
2.0
  9
$DIMEXO
 40
1.0
  9
$DIMDLI
 40
3.75
  9
$DIMRND
 40
0.0
  9
$DIMDLE
 40
0.0
  9
$DIMEXE
 40
1.0
  9
$DIMTP
 40
0.0
  9
$DIMTM
 40
0.0
  9
$DIMTXT
 40
2.0
  9
$DIMCEN
 40
2.5
  9
$DIMTSZ
 40
0.0
  9
$DIMTOL
 70
     0
  9
$DIMLIM
 70
     0
  9
$DIMTIH
 70
     1
  9
$DIMTOH
 70
     1
  9
$DIMSE1
 70
     0
  9
$DIMSE2
 70
     0
  9
$DIMTAD
 70
     1
  9
$DIMZIN
 70
     0
  9
$DIMBLK
  1

  9
$DIMASO
 70
     1
  9
$DIMSHO
 70
     1
  9
$DIMPOST
  1

  9
$DIMAPOST
  1

  9
$DIMALT
 70
     0
  9
$DIMALTD
 70
     3
  9
$DIMALTF
 40
0.0393700787
  9
$DIMLFAC
 40
1.0
  9
$DIMTOFL
 70
     1
  9
$DIMTVP
 40
0.0
  9
$DIMTIX
 70
     0
  9
$DIMSOXD
 70
     0
  9
$DIMSAH
 70
     0
  9
$DIMBLK1
  1

  9
$DIMBLK2
  1

  9
$DIMSTYLE
  2
ISO-25
  9
$DIMCLRD
 70
     0
  9
$DIMCLRE
 70
     0
  9
$DIMCLRT
 70
     0
  9
$DIMTFAC
 40
1.0
  9
$DIMGAP
 40
1.524
  9
$DIMJUST
 70
     0
  9
$DIMSD1
 70
     0
  9
$DIMSD2
 70
     0
  9
$DIMTOLJ
 70
     0
  9
$DIMTZIN
 70
     0
  9
$DIMALTZ
 70
     0
  9
$DIMALTTZ
 70
     0
  9
$DIMUPT
 70
     0
  9
$DIMDEC
 70
     2
  9
$DIMTDEC
 70
     0
  9
$DIMALTU
 70
     2
  9
$DIMALTTD
 70
     3
  9
$DIMTXSTY
  7
Standard
  9
$DIMAUNIT
 70
     0
  9
$DIMADEC
 70
     2
  9
$DIMALTRND
 40
0.0
  9
$DIMAZIN
 70
     0
  9
$DIMDSEP
 70
    44
  9
$DIMATFIT
 70
     3
  9
$DIMFRAC
 70
     0
  9
$DIMLDRBLK
  1

  9
$DIMLUNIT
 70
     2
  9
$DIMLWD
 70
    -2
  9
$DIMLWE
 70
    -2
  9
$DIMTMOVE
 70
     0
  9
$LUNITS
 70
     2
  9
$LUPREC
 70
     3
  9
$SKETCHINC
 40
1.0
  9
$FILLETRAD
 40
10.0
  9
$AUNITS
 70
     0
  9
$AUPREC
 70
     2
  9
$MENU
  1
.
  9
$ELEVATION
 40
0.0
  9
$PELEVATION
 40
0.0
  9
$THICKNESS
 40
0.0
  9
$LIMCHECK
 70
     0
  9
$CHAMFERA
 40
0.0
  9
$CHAMFERB
 40
0.0
  9
$CHAMFERC
 40
0.0
  9
$CHAMFERD
 40
0.0
  9
$SKPOLY
 70
     0
  9
$TDCREATE
 40
2459594.519061042
  9
$TDUCREATE
 40
2459594.477394375
  9
$TDUPDATE
 40
2459594.519061458
  9
$TDUUPDATE
 40
2459594.477394792
  9
$TDINDWG
 40
0.0000000116
  9
$TDUSRTIMER
 40
0.0000000116
  9
$USRTIMER
 70
     1
  9
$ANGBASE
 50
0.0
  9
$ANGDIR
 70
     0
  9
$PDMODE
 70
     0
  9
$PDSIZE
 40
-1.0
  9
$PLINEWID
 40
0.0
  9
$SPLFRAME
 70
     0
  9
$SPLINETYPE
 70
     6
  9
$SPLINESEGS
 70
     8
  9
$HANDSEED
  5
1DA
  9
$SURFTAB1
 70
     6
  9
$SURFTAB2
 70
     6
  9
$SURFTYPE
 70
     6
  9
$SURFU
 70
     6
  9
$SURFV
 70
     6
  9
$UCSBASE
  2

  9
$UCSNAME
  2

  9
$UCSORG
 10
0.0
 20
0.0
 30
0.0
  9
$UCSXDIR
 10
1.0
 20
0.0
 30
0.0
  9
$UCSYDIR
 10
0.0
 20
1.0
 30
0.0
  9
$UCSORTHOREF
  2

  9
$UCSORTHOVIEW
 70
     0
  9
$UCSORGTOP
 10
0.0
 20
0.0
 30
0.0
  9
$UCSORGBOTTOM
 10
0.0
 20
0.0
 30
0.0
  9
$UCSORGLEFT
 10
0.0
 20
0.0
 30
0.0
  9
$UCSORGRIGHT
 10
0.0
 20
0.0
 30
0.0
  9
$UCSORGFRONT
 10
0.0
 20
0.0
 30
0.0
  9
$UCSORGBACK
 10
0.0
 20
0.0
 30
0.0
  9
$PUCSBASE
  2

  9
$PUCSNAME
  2

  9
$PUCSORG
 10
0.0
 20
0.0
 30
0.0
  9
$PUCSXDIR
 10
1.0
 20
0.0
 30
0.0
  9
$PUCSYDIR
 10
0.0
 20
1.0
 30
0.0
  9
$PUCSORTHOREF
  2

  9
$PUCSORTHOVIEW
 70
     0
  9
$PUCSORGTOP
 10
0.0
 20
0.0
 30
0.0
  9
$PUCSORGBOTTOM
 10
0.0
 20
0.0
 30
0.0
  9
$PUCSORGLEFT
 10
0.0
 20
0.0
 30
0.0
  9
$PUCSORGRIGHT
 10
0.0
 20
0.0
 30
0.0
  9
$PUCSORGFRONT
 10
0.0
 20
0.0
 30
0.0
  9
$PUCSORGBACK
 10
0.0
 20
0.0
 30
0.0
  9
$USERI1
 70
     0
  9
$USERI2
 70
     0
  9
$USERI3
 70
     0
  9
$USERI4
 70
     0
  9
$USERI5
 70
     0
  9
$USERR1
 40
0.0
  9
$USERR2
 40
0.0
  9
$USERR3
 40
0.0
  9
$USERR4
 40
0.0
  9
$USERR5
 40
0.0
  9
$WORLDVIEW
 70
     1
  9
$SHADEDGE
 70
     3
  9
$SHADEDIF
 70
    70
  9
$TILEMODE
 70
     1
  9
$MAXACTVP
 70
    64
  9
$PINSBASE
 10
0.0
 20
0.0
 30
0.0
  9
$PLIMCHECK
 70
     0
  9
$PEXTMIN
 10
1.0000000000E+20
 20
1.0000000000E+20
 30
1.0000000000E+20
  9
$PEXTMAX
 10
-1.0000000000E+20
 20
-1.0000000000E+20
 30
-1.0000000000E+20
  9
$PLIMMIN
 10
0.0
 20
0.0
  9
$PLIMMAX
 10
420.0
 20
297.0
  9
$UNITMODE
 70
     0
  9
$VISRETAIN
 70
     1
  9
$PLINEGEN
 70
     0
  9
$PSLTSCALE
 70
     1
  9
$TREEDEPTH
 70
  3020
  9
$CMLSTYLE
  2
Standard
  9
$CMLJUST
 70
     0
  9
$CMLSCALE
 40
20.0
  9
$PROXYGRAPHICS
 70
     1
  9
$MEASUREMENT
 70
     1
  9
$CELWEIGHT
370
    -1
  9
$ENDCAPS
280
     0
  9
$JOINSTYLE
280
     0
  9
$LWDISPLAY
290
     1
  9
$INSUNITS
 70
     4
  9
$HYPERLINKBASE
  1

  9
$STYLESHEET
  1

  9
$XEDIT
290
     1
  9
$CEPSNTYPE
380
     0
  9
$PSTYLEMODE
290
     1
  9
$FINGERPRINTGUID
  2
{3b59b752-7065-492c-a4c1-85f87eed78af}
  9
$VERSIONGUID
  2
{FAEB1C32-E019-11D5-929B-00C0DF256EC4}
  9
$EXTNAMES
290
     1
  9
$PSVPSCALE
 40
0.0
  9
$OLESTARTUP
290
     0
  0
ENDSEC
  0
SECTION
  2
CLASSES
  0
CLASS
  1
ACDBDICTIONARYWDFLT
  2
AcDbDictionaryWithDefault
  3
ObjectDBX Classes
 90
        0
280
     0
281
     0
  0
CLASS
  1
VISUALSTYLE
  2
AcDbVisualStyle
  3
ObjectDBX Classes
 90
     4095
280
     0
281
     0
  0
CLASS
  1
MATERIAL
  2
AcDbMaterial
  3
ObjectDBX Classes
 90
     1153
280
     0
281
     0
  0
CLASS
  1
SCALE
  2
AcDbScale
  3
ObjectDBX Classes
 90
     1153
280
     0
281
     0
  0
CLASS
  1
TABLESTYLE
  2
AcDbTableStyle
  3
ObjectDBX Classes
 90
     4095
280
     0
281
     0
  0
CLASS
  1
MLEADERSTYLE
  2
AcDbMLeaderStyle
  3
ACDB_MLEADERSTYLE_CLASS
 90
     4095
280
     0
281
     0
  0
CLASS
  1
SUN
  2
AcDbSun
  3
SCENEOE
 90
     1153
280
     0
281
     0
  0
CLASS
  1
ACDBPLACEHOLDER
  2
AcDbPlaceHolder
  3
ObjectDBX Classes
 90
        0
280
     0
281
     0
  0
CLASS
  1
LAYOUT
  2
AcDbLayout
  3
ObjectDBX Classes
 90
        0
280
     0
281
     0
  0
ENDSEC
  0
SECTION
  2
TABLES
  0
TABLE
  2
VPORT
  5
8
330
0
100
AcDbSymbolTable
 70
     1
  0
VPORT
  5
29
330
8
100
AcDbSymbolTableRecord
100
AcDbViewportTableRecord
  2
*Active
 70
     0
 10
0.0
 20
0.0
 11
1.0
 21
1.0
 12
10000.0
 22
5000.0
 13
0.0
 23
0.0
 14
10.0
 24
10.0
 15
10.0
 25
10.0
 16
0.0
 26
0.0
 36
1.0
 17
0.0
 27
0.0
 37
0.0
 40
10000.0
 41
2.0
 42
50.0
 43
0.0
 44
0.0
 50
0.0
 51
0.0
 71
     0
 72
  2000
 73
     1
 74
     3
 75
     0
 76
     0
 77
     0
 78
     0
281
     0
 65
     1
110
0.0
120
0.0
130
0.0
111
1.0
121
0.0
131
0.0
112
0.0
122
1.0
132
0.0
 79
     0
146
0.0
  0
ENDTAB
  0
TABLE
  2
LTYPE
  5
5
330
0
100
AcDbSymbolTable
 70
     6
  0
LTYPE
  5
14
330
5
100
AcDbSymbolTableRecord
100
AcDbLinetypeTableRecord
  2
ByBlock
 70
     0
  3

 72
    65
 73
     0
 40
0.0
  0
LTYPE
  5
15
330
5
100
AcDbSymbolTableRecord
100
AcDbLinetypeTableRecord
  2
ByLayer
 70
     0
  3

 72
    65
 73
     0
 40
0.0
  0
LTYPE
  5
16
330
5
100
AcDbSymbolTableRecord
100
AcDbLinetypeTableRecord
  2
Continuous
 70
     0
  3
Solid line
 72
    65
 73
     0
 40
0.0
  0
LTYPE
  5
6E
330
5
100
AcDbSymbolTableRecord
100
AcDbLinetypeTableRecord
  2
HIDDEN
 70
     0
  3
Hidden __ __ __ __ __ __ __ __ __ __ __ __ __ __
 72
    65
 73
     2
 40
1.905
 49
1.27
 74
     0
 49
-0.635
 74
     0
  0
LTYPE
  5
6F
330
5
100
AcDbSymbolTableRecord
100
AcDbLinetypeTableRecord
  2
PHANTOM
 70
     0
  3
Phantom ______  __  __  ______  __  __  ______
 72
    65
 73
     6
 40
12.7
 49
6.35
 74
     0
 49
-1.27
 74
     0
 49
1.27
 74
     0
 49
-1.27
 74
     0
 49
1.27
 74
     0
 49
-1.27
 74
     0
  0
LTYPE
  5
70
330
5
100
AcDbSymbolTableRecord
100
AcDbLinetypeTableRecord
  2
CENTER
 70
     0
  3
Center ____ _ ____ _ ____ _ ____ _ ____ _ ____
 72
    65
 73
     4
 40
10.16
 49
6.35
 74
     0
 49
-1.27
 74
     0
 49
1.27
 74
     0
 49
-1.27
 74
     0
  0
LTYPE
  5
71
330
5
100
AcDbSymbolTableRecord
100
AcDbLinetypeTableRecord
  2
CENTERX2
 70
     0
  3
Center (2x) ________  __  ________  __  _____
 72
    65
 73
     4
 40
20.32
 49
12.7
 74
     0
 49
-2.54
 74
     0
 49
2.54
 74
     0
 49
-2.54
 74
     0
  0
LTYPE
  5
72
330
5
100
AcDbSymbolTableRecord
100
AcDbLinetypeTableRecord
  2
DOT2
 70
     0
  3
Dot (.5x) ........................................
 72
    65
 73
     2
 40
0.635
 49
0.0
 74
     0
 49
-0.635
 74
     0
  0
ENDTAB
  0
TABLE
  2
LAYER
  5
2
330
0
100
AcDbSymbolTable
 70
    13
  0
LAYER
  5
10
330
2
100
AcDbSymbolTableRecord
100
AcDbLayerTableRecord
  2
0
 70
     0
 62
     7
  6
Continuous
370
    -3
390
F
  0
LAYER
  5
73
330
2
100
AcDbSymbolTableRecord
100
AcDbLayerTableRecord
  2
FORMAT
 70
     0
 62
     7
  6
Continuous
370
    -3
390
F
  0
LAYER
  5
74
330
2
100
AcDbSymbolTableRecord
100
AcDbLayerTableRecord
  2
OSA
 70
     0
 62
     7
  6
CENTER
370
    -3
390
F
  0
LAYER
  5
75
330
2
100
AcDbSymbolTableRecord
100
AcDbLayerTableRecord
  2
0_35
 70
     0
 62
     7
  6
Continuous
370
    35
390
F
  0
LAYER
  5
76
330
2
100
AcDbSymbolTableRecord
100
AcDbLayerTableRecord
  2
0_5
 70
     0
 62
     7
  6
Continuous
370
    50
390
F
  0
LAYER
  5
77
330
2
100
AcDbSymbolTableRecord
100
AcDbLayerTableRecord
  2
0_25
 70
     0
 62
     7
  6
Continuous
370
    25
390
F
  0
LAYER
  5
78
330
2
100
AcDbSymbolTableRecord
100
AcDbLayerTableRecord
  2
0_18
 70
     0
 62
     7
  6
Continuous
370
    -3
390
F
  0
LAYER
  5
79
330
2
100
AcDbSymbolTableRecord
100
AcDbLayerTableRecord
  2
SLD-0
 70
     0
 62
   179
  6
Continuous
370
    -3
390
F
  0
LAYER
  5
7A
330
2
100
AcDbSymbolTableRecord
100
AcDbLayerTableRecord
  2
KOTY
 70
     0
 62
     7
  6
Continuous
370
    -3
390
F
  0
LAYER
  5
7B
330
2
100
AcDbSymbolTableRecord
100
AcDbLayerTableRecord
  2
SILNA
 70
     0
 62
   179
  6
Continuous
370
    -3
390
F
  0
LAYER
  5
7C
330
2
100
AcDbSymbolTableRecord
100
AcDbLayerTableRecord
  2
0_18_1
 70
     0
 62
   179
  6
Continuous
370
    -3
390
F
  0
LAYER
  5
7D
330
2
100
AcDbSymbolTableRecord
100
AcDbLayerTableRecord
  2
0_35_1
 70
     0
 62
   179
  6
Continuous
370
    35
390
F
  0
LAYER
  5
7E
330
2
100
AcDbSymbolTableRecord
100
AcDbLayerTableRecord
  2
0_5_1
 70
     0
 62
   179
  6
Continuous
370
    50
390
F
  0
ENDTAB
  0
TABLE
  2
STYLE
  5
3
330
0
100
AcDbSymbolTable
 70
     1
  0
STYLE
  5
11
330
3
100
AcDbSymbolTableRecord
100
AcDbTextStyleTableRecord
  2
Standard
 70
     0
 40
0.0
 41
1.0
 50
0.0
 71
     0
 42
2.0
  3
txt
  4

  0
ENDTAB
  0
TABLE
  2
VIEW
  5
6
330
0
100
AcDbSymbolTable
 70
     0
  0
ENDTAB
  0
TABLE
  2
UCS
  5
7
330
0
100
AcDbSymbolTable
 70
     0
  0
ENDTAB
  0
TABLE
  2
APPID
  5
9
330
0
100
AcDbSymbolTable
 70
     1
  0
APPID
  5
12
330
9
100
AcDbSymbolTableRecord
100
AcDbRegAppTableRecord
  2
ACAD
 70
     0
  0
ENDTAB
  0
TABLE
  2
DIMSTYLE
  5
A
330
0
100
AcDbSymbolTable
 70
     1
100
AcDbDimStyleTable
  0
DIMSTYLE
105
27
330
A
100
AcDbSymbolTableRecord
100
AcDbDimStyleTableRecord
  2
ISO-25
 70
     0
 41
2.5
 42
0.625
 43
3.75
 44
1.25
 73
     0
 74
     0
 77
     1
 78
     8
140
2.5
141
2.5
143
0.0393700787
147
0.625
171
     3
172
     1
178
     0
271
     2
272
     2
274
     3
278
    44
283
     0
284
     8
340
11
  0
ENDTAB
  0
TABLE
  2
BLOCK_RECORD
  5
1
330
0
100
AcDbSymbolTable
 70
     1
  0
BLOCK_RECORD
  5
1F
330
1
100
AcDbSymbolTableRecord
100
AcDbBlockTableRecord
  2
*Model_Space
340
22
  0
BLOCK_RECORD
  5
1B
330
1
100
AcDbSymbolTableRecord
100
AcDbBlockTableRecord
  2
*Paper_Space
340
1E
  0
BLOCK_RECORD
  5
23
330
1
100
AcDbSymbolTableRecord
100
AcDbBlockTableRecord
  2
*Paper_Space0
340
26
  0
ENDTAB
  0
ENDSEC
  0
SECTION
  2
BLOCKS
  0
BLOCK
  5
20
330
1F
100
AcDbEntity
  8
0
100
AcDbBlockBegin
  2
*Model_Space
 70
     0
 10
0.0
 20
0.0
 30
0.0
  3
*Model_Space
  1

  0
ENDBLK
  5
21
330
1F
100
AcDbEntity
  8
0
100
AcDbBlockEnd
  0
BLOCK
  5
1C
330
1B
100
AcDbEntity
 67
     1
  8
0
100
AcDbBlockBegin
  2
*Paper_Space
 70
     0
 10
0.0
 20
0.0
 30
0.0
  3
*Paper_Space
  1

  0
ENDBLK
  5
1D
330
1B
100
AcDbEntity
 67
     1
  8
0
100
AcDbBlockEnd
  0
BLOCK
  5
24
330
23
100
AcDbEntity
  8
0
100
AcDbBlockBegin
  2
*Paper_Space0
 70
     0
 10
0.0
 20
0.0
 30
0.0
  3
*Paper_Space0
  1

  0
ENDBLK
  5
25
330
23
100
AcDbEntity
  8
0
100
AcDbBlockEnd
  0
ENDSEC
  0
SECTION
  2
ENTITIES
  0
LINE
  5
7F
330
1F
100
AcDbEntity
  8
0
  6
Continuous
 62
     7
370
    25
100
AcDbLine
 10
6169.1311335661
 20
5190.0909429303
 30
0.0
 11
6153.7311335661
 21
5190.0909429303
 31
0.0
  0
LINE
  5
80
330
1F
100
AcDbEntity
  8
0
  6
Continuous
 62
     7
370
    25
100
AcDbLine
 10
6153.7311335661
 20
5144.0909429303
 30
0.0
 11
6169.1311335661
 21
5144.0909429303
 31
0.0
  0
ARC
  5
81
330
1F
100
AcDbEntity
  8
0
  6
Continuous
 62
     7
370
    25
100
AcDbCircle
 10
6153.7311335661
 20
5185.0909429303
 30
0.0
 40
5.0
100
AcDbArc
 50
90.0
 51
180.0
  0
ARC
  5
82
330
1F
100
AcDbEntity
  8
0
  6
Continuous
 62
     7
370
    25
100
AcDbCircle
 10
6153.7311335661
 20
5149.0909429303
 30
0.0
 40
5.0
100
AcDbArc
 50
180.0
 51
270.0
  0
LINE
  5
83
330
1F
100
AcDbEntity
  8
0
  6
Continuous
 62
     7
370
    25
100
AcDbLine
 10
6169.2311335661
 20
5187.0909429303
 30
0.0
 11
6169.1311335661
 21
5187.0909429303
 31
0.0
  0
LINE
  5
84
330
1F
100
AcDbEntity
  8
0
  6
Continuous
 62
     7
370
    25
100
AcDbLine
 10
6169.1311335661
 20
5147.0909429303
 30
0.0
 11
6169.2311335661
 21
5147.0909429303
 31
0.0
  0
ARC
  5
85
330
1F
100
AcDbEntity
  8
0
  6
Continuous
 62
     7
370
    25
100
AcDbCircle
 10
6409.4832928854
 20
5174.638783611
 30
0.0
 40
0.7521593192820855
100
AcDbArc
 50
15.3083338787
 51
70.7612320047
  0
ARC
  5
86
330
1F
100
AcDbEntity
  8
0
  6
Continuous
 62
     7
370
    25
100
AcDbCircle
 10
6409.4832928854
 20
5159.5431022495
 30
0.0
 40
0.7521593192820428
100
AcDbArc
 50
289.2387679954
 51
344.6916661213
  0
ARC
  5
87
330
1F
100
AcDbEntity
  8
0
  6
Continuous
 62
     7
370
    25
100
AcDbCircle
 10
6381.908793066
 20
5167.0909429303
 30
0.0
 40
29.34101972379658
100
AcDbArc
 50
344.6916661213
 51
15.3083338787
  0
ARC
  5
88
330
1F
100
AcDbEntity
  8
0
  6
Continuous
 62
     7
370
    25
100
AcDbCircle
 10
6375.7311335661
 20
5289.0909429303
 30
0.0
 40
145.0000000000014
100
AcDbArc
 50
270.0
 51
273.5343890603
  0
ARC
  5
89
330
1F
100
AcDbEntity
  8
0
  6
Continuous
 62
     7
370
    25
100
AcDbCircle
 10
6375.7311335661
 20
5045.0909429303
 30
0.0
 40
144.9999999999997
100
AcDbArc
 50
86.4654035468
 51
90.0
  0
LINE
  5
8A
330
1F
100
AcDbEntity
  8
0
  6
Continuous
 62
     7
370
    25
100
AcDbLine
 10
6370.7311335661
 20
5190.1909429303
 30
0.0
 11
6359.7311335661
 21
5190.1909429303
 31
0.0
  0
LINE
  5
8B
330
1F
100
AcDbEntity
  8
0
  6
Continuous
 62
     7
370
    25
100
AcDbLine
 10
6359.7311335661
 20
5143.9909429303
 30
0.0
 11
6370.7311335661
 21
5143.9909429303
 31
0.0
  0
LINE
  5
8C
330
1F
100
AcDbEntity
  8
0
  6
Continuous
 62
     7
370
    25
100
AcDbLine
 10
6375.7311335661
 20
5190.0909429303
 30
0.0
 11
6370.7311335661
 21
5190.0909429303
 31
0.0
  0
LINE
  5
8D
330
1F
100
AcDbEntity
  8
0
  6
Continuous
 62
     7
370
    25
100
AcDbLine
 10
6370.7311335661
 20
5144.0909429303
 30
0.0
 11
6375.7311335661
 21
5144.0909429303
 31
0.0
  0
ARC
  5
8E
330
1F
100
AcDbEntity
  8
0
  6
Continuous
 62
     7
370
    25
100
AcDbCircle
 10
6401.7311335661
 20
5179.6011655901
 30
0.0
 40
8.000000000000256
100
AcDbArc
 50
0.0
 51
28.7522907175
  0
ARC
  5
8F
330
1F
100
AcDbEntity
  8
0
  6
Continuous
 62
     7
370
    25
100
AcDbCircle
 10
6401.7311335661
 20
5154.5807202704
 30
0.0
 40
8.0
100
AcDbArc
 50
331.2458217082
 51
0.0
  0
LWPOLYLINE
  5
90
330
1F
100
AcDbEntity
  8
0
  6
Continuous
 62
     7
370
    25
100
AcDbPolyline
 90
        3
 70
   128
 43
0.0
 10
6251.7100244324
 20
5294.5441551065
 10
6251.9784747903
 20
5294.3969495418
 10
6252.0582939687
 20
5294.3658561403
  0
ARC
  5
91
330
1F
100
AcDbEntity
  8
0
  6
Continuous
 62
     7
370
    25
100
AcDbCircle
 10
6252.593754232
 20
5297.0256377212
 30
0.0
 40
2.634147741827666
100
AcDbArc
 50
193.4936610946
 51
250.3976725055
  0
ARC
  5
92
330
1F
100
AcDbEntity
  8
0
  6
Continuous
 62
     7
370
    25
100
AcDbCircle
 10
6276.1597688796
 20
5296.8001569726
 30
0.0
 40
2.282105304240535
100
AcDbArc
 50
290.8995685192
 51
351.858466098
  0
LWPOLYLINE
  5
93
330
1F
100
AcDbEntity
  8
0
  6
Continuous
 62
     7
370
    25
100
AcDbPolyline
 90
       52
 70
   128
 43
0.0
 10
6279.731110866
 20
5190.3409429303
 10
6279.6661285784
 20
5194.9627206291
 10
6279.6319632136
 20
5198.8620930627
 10
6279.6148974428
 20
5202.0003495173
 10
6279.6069291003
 20
5204.373799246
 10
6279.6026658317
 20
5206.6028389773
 10
6279.6018264948
 20
5211.461727149
 10
6279.6101172423
 20
5216.9343386552
 10
6279.6256411539
 20
5223.8427242565
 10
6279.6355212518
 20
5230.8067248059
 10
6279.6276491988
 20
5237.4295653586
 10
6279.5943640094
 20
5243.7009272794
 10
6279.5044660572
 20
5251.5100347764
 10
6279.3636288117
 20
5258.890350151
 10
6279.1981243738
 20
5266.0039014496
 10
6279.1044723483
 20
5270.0815344532
 10
6279.0242701955
 20
5273.9535409894
 10
6278.9669778987
 20
5277.3255371155
 10
6278.932494136
 20
5280.1218040074
 10
6278.9159712817
 20
5282.3952257539
 10
6278.9120871951
 20
5283.8168950136
 10
6278.9141934688
 20
5285.2004076057
 10
6278.9237632566
 20
5286.6337082898
 10
6278.9463510961
 20
5288.2907653806
 10
6278.9894169612
 20
5290.0862650136
 10
6279.0489653665
 20
5291.6731706825
 10
6279.1039739512
 20
5292.7344973979
 10
6279.1450843844
 20
5293.3734369648
 10
6279.1971719652
 20
5294.0029143228
 10
6279.2746093513
 20
5294.7449739
 10
6279.3912052699
 20
5295.6984802876
 10
6279.5432900048
 20
5296.7932994195
 10
6279.6765299205
 20
5297.9659202896
 10
6279.6778927604
 20
5299.4221726192
 10
6279.4595006889
 20
5301.4109981903
 10
6279.1894301349
 20
5303.1252054988
 10
6278.9673497767
 20
5304.5300134012
 10
6278.8227657182
 20
5305.7046241823
 10
6278.7491051642
 20
5306.7352167919
 10
6278.730821936
 20
5307.8724909419
 10
6278.7330509071
 20
5308.8819129923
 10
6278.6224121599
 20
5310.0262858249
 10
6278.3343331076
 20
5311.3084929033
 10
6277.7836008332
 20
5312.7674752728
 10
6277.3503011523
 20
5313.5986148058
 10
6276.7810869707
 20
5314.4827762554
 10
6276.0295034176
 20
5315.4277354001
 10
6274.8696055471
 20
5316.5773821456
 10
6273.1541393319
 20
5317.8461462628
 10
6270.7914745662
 20
5319.0492367771
 10
6267.7776312544
 20
5319.947347973
 10
6264.2311335661
 20
5320.2987469053
  0
LWPOLYLINE
  5
94
330
1F
100
AcDbEntity
  8
0
  6
Continuous
 62
     7
370
    25
100
AcDbPolyline
 90
        7
 70
   128
 43
0.0
 10
6278.4388777178
 20
5296.4990725501
 10
6278.4632482148
 20
5297.8289343679
 10
6278.4865163763
 20
5299.1269815586
 10
6278.499872631
 20
5300.0062076078
 10
6278.5030949382
 20
5300.5163190074
 10
6278.4954867898
 20
5300.7040696468
 10
6278.4924693277
 20
5300.6906650712
  0
LWPOLYLINE
  5
95
330
1F
100
AcDbEntity
  8
0
  6
Continuous
 62
     7
370
    25
100
AcDbPolyline
 90
       56
 70
   128
 43
0.0
 10
6264.2311335661
 20
5320.2987469053
 10
6261.177141336
 20
5320.0487155958
 10
6258.5729891034
 20
5319.4022375107
 10
6256.4927776892
 20
5318.536339676
 10
6254.9373890448
 20
5317.6261740929
 10
6253.8199484275
 20
5316.7848284062
 10
6252.8964521058
 20
5315.9319020141
 10
6252.1221313508
 20
5315.067907803
 10
6251.4870133018
 20
5314.2115643045
 10
6250.9764811937
 20
5313.3733566737
 10
6250.5677979323
 20
5312.5403322154
 10
6250.2502115551
 20
5311.7192040795
 10
6250.0155839079
 20
5310.9178540386
 10
6249.7624328347
 20
5309.3817280247
 10
6249.7251675596
 20
5308.6419764055
 10
6249.7285060619
 20
5307.9183336236
 10
6249.6959710895
 20
5306.5846495671
 10
6249.5986043957
 20
5305.3839105662
 10
6249.4599779975
 20
5304.2861868857
 10
6249.3037834018
 20
5303.2817837046
 10
6249.1779850333
 20
5302.547162821
 10
6249.0518267971
 20
5301.841085488
 10
6248.9293545296
 20
5301.1293652047
 10
6248.8249797105
 20
5300.39491371
 10
6248.7572530549
 20
5299.612204679
 10
6248.7613707547
 20
5298.3529880049
 10
6248.8740373115
 20
5297.0780820041
 10
6248.9942945061
 20
5296.1106601913
 10
6249.0858477807
 20
5295.5263575092
 10
6249.1785562014
 20
5294.8707860938
 10
6249.2716802757
 20
5293.9506203552
 10
6249.3472647644
 20
5292.9121948817
 10
6249.4042806619
 20
5291.8662085687
 10
6249.4503669906
 20
5290.7508715407
 10
6249.4874134614
 20
5289.5553488322
 10
6249.5154115902
 20
5288.2961174555
 10
6249.5371349374
 20
5286.7713142366
 10
6249.549330092
 20
5284.8759840631
 10
6249.5477248447
 20
5282.707653116
 10
6249.5319616073
 20
5280.3517905715
 10
6249.5074649402
 20
5278.1950808575
 10
6249.4737568553
 20
5275.9534533653
 10
6249.4270095367
 20
5273.3844990977
 10
6249.3664426574
 20
5270.4724586609
 10
6249.2925447763
 20
5267.2045012868
 10
6249.163346273
 20
5261.6884711477
 10
6249.0377764505
 20
5255.9387900557
 10
6248.9375830958
 20
5250.105545178
 10
6248.871412695
 20
5244.1858606786
 10
6248.8305763483
 20
5236.1858254321
 10
6248.8286064404
 20
5227.9540174892
 10
6248.8463157323
 20
5219.4598640855
 10
6248.8590531951
 20
5212.9528731897
 10
6248.8593543444
 20
5206.1066402351
 10
6248.8284605637
 20
5198.5317814771
 10
6248.7311562662
 20
5190.3409429303
  0
LWPOLYLINE
  5
96
330
1F
100
AcDbEntity
  8
0
  6
Continuous
 62
     7
370
    25
100
AcDbPolyline
 90
        7
 70
   128
 43
0.0
 10
6250.0464923535
 20
5300.1282107306
 10
6250.0458989239
 20
5300.137722299
 10
6250.0445363726
 20
5299.9963009086
 10
6250.0383361363
 20
5299.6122559166
 10
6250.0267381915
 20
5298.902582432
 10
6250.0176001726
 20
5297.7626265524
 10
6250.0281433762
 20
5296.4608288543
  0
ARC
  5
97
330
1F
100
AcDbEntity
  8
0
  6
Continuous
 62
     7
370
    25
100
AcDbCircle
 10
6253.7311335661
 20
5287.678540439
 30
0.0
 40
0.5000000000006642
100
AcDbArc
 50
180.0
 51
240.0043293887
  0
LINE
  5
98
330
1F
100
AcDbEntity
  8
0
  6
Continuous
 62
     7
370
    25
100
AcDbLine
 10
6274.9629974949
 20
5287.2367591239
 30
0.0
 11
6274.9811008461
 21
5287.2455088478
 31
0.0
  0
ARC
  5
99
330
1F
100
AcDbEntity
  8
0
  6
Continuous
 62
     7
370
    25
100
AcDbCircle
 10
6256.9328154172
 20
5293.269394838
 30
0.0
 40
6.942700061670432
100
AcDbArc
 50
240.1875600008
 51
253.9849441063
  0
ARC
  5
9A
330
1F
100
AcDbEntity
  8
0
  6
Continuous
 62
     7
370
    25
100
AcDbCircle
 10
6274.7311335661
 20
5287.678540439
 30
0.0
 40
0.5000000000006642
100
AcDbArc
 50
299.9956706113
 51
0.0
  0
LINE
  5
9B
330
1F
100
AcDbEntity
  8
0
  6
Continuous
 62
     7
370
    25
100
AcDbLine
 10
6169.1311335661
 20
5190.0909429303
 30
0.0
 11
6169.1311335661
 21
5144.0909429303
 31
0.0
  0
LINE
  5
9C
330
1F
100
AcDbEntity
  8
0
  6
Continuous
 62
     7
370
    25
100
AcDbLine
 10
6148.7311335661
 20
5185.0909429303
 30
0.0
 11
6148.7311335661
 21
5149.0909429303
 31
0.0
  0
LINE
  5
9D
330
1F
100
AcDbEntity
  8
0
  6
Continuous
 62
     7
370
    25
100
AcDbLine
 10
6214.2312120138
 20
5156.2118476354
 30
0.0
 11
6214.2316596483
 21
5156.2118476261
 31
0.0
  0
LINE
  5
9E
330
1F
100
AcDbEntity
  8
0
  6
Continuous
 62
     7
370
    25
100
AcDbLine
 10
6214.2316596483
 20
5156.2118476261
 30
0.0
 11
6214.2312120138
 21
5156.2118476354
 31
0.0
  0
ARC
  5
9F
330
1F
100
AcDbEntity
  8
0
  6
Continuous
 62
     7
370
    25
100
AcDbCircle
 10
6384.7554516648
 20
5174.2436375093
 30
0.0
 40
3.024969633870136
100
AcDbArc
 50
181.1891971524
 51
269.539387301
  0
LWPOLYLINE
  5
A0
330
1F
100
AcDbEntity
  8
0
  6
Continuous
 62
     7
370
    25
100
AcDbPolyline
 90
        3
 70
   128
 43
0.0
 10
6393.7311335661
 20
5170.955409244
 10
6389.3391568533
 20
5171.1060706836
 10
6384.7311335661
 20
5171.218765625
  0
ARC
  5
A1
330
1F
100
AcDbEntity
  8
0
  6
Continuous
 62
     7
370
    25
100
AcDbCircle
 10
6393.886068326
 20
5173.7967135133
 30
0.0
 40
2.845525387430443
100
AcDbArc
 50
266.8787837959
 51
358.9695885251
  0
ARC
  5
A2
330
1F
100
AcDbEntity
  8
0
  6
Continuous
 62
     7
370
    25
100
AcDbCircle
 10
6371.1519653069
 20
5035.8247620514
 30
0.0
 40
154.5759177532001
100
AcDbArc
 50
78.0154317171
 51
84.9826472525
  0
LINE
  5
A3
330
1F
100
AcDbEntity
  8
0
  6
Continuous
 62
     7
370
    25
100
AcDbLine
 10
6403.2493817413
 20
5187.0314755514
 30
0.0
 11
6403.2493817413
 21
5153.4184252057
 31
0.0
  0
LWPOLYLINE
  5
A4
330
1F
100
AcDbEntity
  8
0
  6
Continuous
 62
     7
370
    25
100
AcDbPolyline
 90
       20
 70
   128
 43
0.0
 10
6403.2493817413
 20
5147.1504103092
 10
6397.0773295097
 20
5146.0189430836
 10
6393.9508148076
 20
5145.504487383
 10
6390.8659402116
 20
5145.0448583633
 10
6386.3873639934
 20
5144.504535815
 10
6384.3076198205
 20
5144.3457796832
 10
6382.382604638
 20
5144.3101076067
 10
6380.7350550784
 20
5144.4886013284
 10
6380.1627380933
 20
5144.6914748819
 10
6379.8089324925
 20
5144.9969499743
 10
6379.8684939317
 20
5145.7129124325
 10
6380.5602036087
 20
5146.4713395265
 10
6381.3489592712
 20
5147.0479429018
 10
6382.3378116578
 20
5147.6354562294
 10
6384.083136828
 20
5148.4924039655
 10
6386.0625662609
 20
5149.3032318727
 10
6389.8140730945
 20
5150.5553519513
 10
6393.826838517
 20
5151.6203201978
 10
6398.5029496774
 20
5152.6128401236
 10
6403.2493817413
 20
5153.4184252057
  0
LINE
  5
A5
330
1F
100
AcDbEntity
  8
0
  6
Continuous
 62
     7
370
    25
100
AcDbLine
 10
6370.7311335661
 20
5190.1909429303
 30
0.0
 11
6370.7311335661
 21
5143.9909429303
 31
0.0
  0
LINE
  5
A6
330
1F
100
AcDbEntity
  8
0
  6
Continuous
 62
     7
370
    25
100
AcDbLine
 10
6359.7311335661
 20
5190.1909429303
 30
0.0
 11
6359.7311335661
 21
5143.9909429303
 31
0.0
  0
LINE
  5
A7
330
1F
100
AcDbEntity
  8
0
  6
Continuous
 62
     7
370
    25
100
AcDbLine
 10
6384.7311335661
 20
5172.2894884724
 30
0.0
 11
6384.7311335661
 21
5171.218765625
 31
0.0
  0
ARC
  5
A8
330
1F
100
AcDbEntity
  8
0
  6
Continuous
 62
     7
370
    25
100
AcDbCircle
 10
6390.4607988096
 20
5070.5263362944
 30
0.0
 40
101.9243258746754
100
AcDbArc
 50
88.1612971852
 51
93.2225750169
  0
LINE
  5
A9
330
1F
100
AcDbEntity
  8
0
  6
Continuous
 62
     7
370
    25
100
AcDbLine
 10
6393.7311335661
 20
5170.955409244
 30
0.0
 11
6393.7311335661
 21
5172.3981828252
 31
0.0
  0
ARC
  5
AA
330
1F
100
AcDbEntity
  8
0
  6
Continuous
 62
     7
370
    25
100
AcDbCircle
 10
6384.4595476482
 20
5175.0055561527
 30
0.0
 40
2.729612161928085
100
AcDbArc
 50
181.6976412333
 51
275.7101576552
  0
ARC
  5
AB
330
1F
100
AcDbEntity
  8
0
  6
Continuous
 62
     7
370
    25
100
AcDbCircle
 10
6384.8824854148
 20
5174.8453278942
 30
0.0
 40
3.152351027159982
100
AcDbArc
 50
92.7519642433
 51
178.5573753511
  0
ARC
  5
AC
330
1F
100
AcDbEntity
  8
0
  6
Continuous
 62
     7
370
    25
100
AcDbCircle
 10
6390.4607988096
 20
5076.2308912664
 30
0.0
 40
101.9243258746754
100
AcDbArc
 50
88.1612971852
 51
93.2225750169
  0
ARC
  5
AD
330
1F
100
AcDbEntity
  8
0
  6
Continuous
 62
     7
370
    25
100
AcDbCircle
 10
6393.6528175057
 20
5175.0242446477
 30
0.0
 40
3.079489158385725
100
AcDbArc
 50
1.5815365181
 51
88.5427246768
  0
ARC
  5
AE
330
1F
100
AcDbEntity
  8
0
  6
Continuous
 62
     7
370
    25
100
AcDbCircle
 10
6393.952003042
 20
5175.1691709553
 30
0.0
 40
2.779776707302821
100
AcDbArc
 50
265.4427122623
 51
358.7645677618
  0
LINE
  5
AF
330
1F
100
AcDbEntity
  8
0
  6
Continuous
 62
     7
370
    25
100
AcDbLine
 10
6396.7311335661
 20
5175.109237053
 30
0.0
 11
6396.7311335661
 21
5173.7455421358
 31
0.0
  0
LINE
  5
B0
330
1F
100
AcDbEntity
  8
0
  6
Continuous
 62
     7
370
    25
100
AcDbLine
 10
6381.7311335661
 20
5174.1808575448
 30
0.0
 11
6381.7311335661
 21
5174.924691136
 31
0.0
  0
ARC
  5
B1
330
1F
100
AcDbEntity
  8
0
  6
Continuous
 62
     7
370
    25
100
AcDbCircle
 10
6402.3294070639
 20
5179.6744553164
 30
0.0
 40
7.414317240675632
100
AcDbArc
 50
30.4860298039
 51
82.8723217037
  0
LWPOLYLINE
  5
B2
330
1F
100
AcDbEntity
  8
0
  6
Continuous
 62
     7
370
    25
100
AcDbPolyline
 90
       14
 70
   128
 43
0.0
 10
6403.2493817413
 20
5153.4184252057
 10
6405.1673929506
 20
5153.7113738042
 10
6406.7841189541
 20
5153.9352510435
 10
6407.9788727511
 20
5154.0193680486
 10
6408.5718260823
 20
5153.9635710501
 10
6408.9680456307
 20
5153.7978280707
 10
6409.2507818533
 20
5153.4075266313
 10
6409.3338310345
 20
5152.8295555003
 10
6409.1900745557
 20
5151.8271642853
 10
6408.6188880753
 20
5150.5169465155
 10
6407.5902536132
 20
5149.2723602358
 10
6405.9111624376
 20
5148.0857344822
 10
6403.945769881
 20
5147.3125709415
 10
6403.2493817413
 20
5147.1504103092
  0
LINE
  5
B3
330
1F
100
AcDbEntity
  8
0
  6
Continuous
 62
     7
370
    25
100
AcDbLine
 10
6409.7311335661
 20
5179.6011655901
 30
0.0
 11
6409.7311335661
 21
5154.5807202704
 31
0.0
  0
ARC
  5
B4
330
1F
100
AcDbEntity
  8
0
  6
Continuous
 62
     7
370
    25
100
AcDbCircle
 10
6189.2311335661
 20
5167.0909429303
 30
0.0
 40
40.00000000000078
100
AcDbArc
 50
215.0996321954
 51
324.4614909118
  0
ARC
  5
B5
330
1F
100
AcDbEntity
  8
0
  6
Continuous
 62
     7
370
    25
100
AcDbCircle
 10
6189.2311335661
 20
5167.0909429303
 30
0.0
 40
40.0000000000002
100
AcDbArc
 50
35.5385090882
 51
144.9003678046
  0
ARC
  5
B6
330
1F
100
AcDbEntity
  8
0
  6
Continuous
 62
     7
370
    25
100
AcDbCircle
 10
6339.2311335661
 20
5167.0909429303
 30
0.0
 40
40.00000000000152
100
AcDbArc
 50
267.2175530615
 51
324.9003678046
  0
ARC
  5
B7
330
1F
100
AcDbEntity
  8
0
  6
Continuous
 62
     7
370
    25
100
AcDbCircle
 10
6339.2311335661
 20
5167.0909429303
 30
0.0
 40
39.99999999999973
100
AcDbArc
 50
35.0996321954
 51
144.4614909118
  0
ARC
  5
B8
330
1F
100
AcDbEntity
  8
0
  6
Continuous
 62
     7
370
    25
100
AcDbCircle
 10
6339.2311335661
 20
5167.0909429303
 30
0.0
 40
40.00000000000023
100
AcDbArc
 50
215.5385090882
 51
267.2175530615
  0
LINE
  5
B9
330
1F
100
AcDbEntity
  8
0
  6
Continuous
 62
     7
370
    25
100
AcDbLine
 10
6264.2311335661
 20
5299.5238117066
 30
0.0
 11
6264.2311335661
 21
5300.1353770564
 31
0.0
  0
LWPOLYLINE
  5
BA
330
1F
100
AcDbEntity
  8
0
  6
Continuous
 62
     7
370
    25
100
AcDbPolyline
 90
        8
 70
   128
 43
0.0
 10
6264.2311335661
 20
5299.5238117066
 10
6261.9612534457
 20
5299.4762658596
 10
6259.6913733253
 20
5299.3299092231
 10
6257.6121925679
 20
5299.096400685
 10
6255.6629718772
 20
5298.7699183775
 10
6254.0073114894
 20
5298.3761339605
 10
6252.5978447788
 20
5297.9050425521
 10
6251.6523676011
 20
5297.4420898945
  0
LWPOLYLINE
  5
BB
330
1F
100
AcDbEntity
  8
0
  6
Continuous
 62
     7
370
    25
100
AcDbPolyline
 90
        3
 70
   128
 43
0.0
 10
6252.2958654076
 20
5294.3442177977
 10
6253.0722006587
 20
5294.0149015233
 10
6253.2311335661
 20
5293.9704216861
  0
ARC
  5
BC
330
1F
100
AcDbEntity
  8
0
  6
Continuous
 62
     7
370
    25
100
AcDbCircle
 10
6274.1434763658
 20
5298.5570753072
 30
0.0
 40
4.713262936972575
100
AcDbArc
 50
283.342128144
 51
303.1458161925
  0
LWPOLYLINE
  5
BD
330
1F
100
AcDbEntity
  8
0
  6
Continuous
 62
     7
370
    25
100
AcDbPolyline
 90
        8
 70
   128
 43
0.0
 10
6276.7115907914
 20
5297.4886657485
 10
6275.8644223534
 20
5297.9050425521
 10
6274.4767285079
 20
5298.3698529788
 10
6272.7992952551
 20
5298.7699183775
 10
6270.8786425977
 20
5299.0923002415
 10
6268.7708938069
 20
5299.3299092231
 10
6266.5334854605
 20
5299.4747100505
 10
6264.2311335661
 20
5299.5238117066
  0
ARC
  5
BE
330
1F
100
AcDbEntity
  8
0
  6
Continuous
 62
     7
370
    25
100
AcDbCircle
 10
6275.1652293646
 20
5297.2187394674
 30
0.0
 40
0.0670596252243264
100
AcDbArc
 50
10.6513155471
 51
68.6449726447
  0
LWPOLYLINE
  5
BF
330
1F
100
AcDbEntity
  8
0
  6
Continuous
 62
     7
370
    25
100
AcDbPolyline
 90
       16
 70
   128
 43
0.0
 10
6275.18964885
 20
5297.2811949081
 10
6274.3241655051
 20
5297.6909131099
 10
6273.2174834452
 20
5298.0622478116
 10
6271.896049658
 20
5298.3863250245
 10
6270.3914431708
 20
5298.6554000978
 10
6268.7396203893
 20
5298.863042797
 10
6266.9800558277
 20
5299.0042909707
 10
6265.1547987644
 20
5299.075769134
 10
6263.3074683678
 20
5299.075769134
 10
6261.4822113045
 20
5299.0042909707
 10
6259.7226467429
 20
5298.863042797
 10
6258.0708239614
 20
5298.6554000978
 10
6256.5662174742
 20
5298.3863250245
 10
6255.244783687
 20
5298.0622478116
 10
6254.1381016272
 20
5297.6909131099
 10
6253.2726182823
 20
5297.2811949081
  0
ARC
  5
C0
330
1F
100
AcDbEntity
  8
0
  6
Continuous
 62
     7
370
    25
100
AcDbCircle
 10
6253.2970377676
 20
5297.2187394674
 30
0.0
 40
0.0670596252266828
100
AcDbArc
 50
111.3550273562
 51
169.3486844517
  0
LINE
  5
C1
330
1F
100
AcDbEntity
  8
0
  6
Continuous
 62
     7
370
    25
100
AcDbLine
 10
6264.2311335661
 20
5190.3409429303
 30
0.0
 11
6279.7311335661
 21
5190.3409429303
 31
0.0
  0
LINE
  5
C2
330
1F
100
AcDbEntity
  8
0
  6
Continuous
 62
     7
370
    25
100
AcDbLine
 10
6264.2311335661
 20
5190.3409429303
 30
0.0
 11
6248.7311335661
 21
5190.3409429303
 31
0.0
  0
LWPOLYLINE
  5
C3
330
1F
100
AcDbEntity
  8
0
  6
Continuous
 62
     7
370
    25
100
AcDbPolyline
 90
       16
 70
   128
 43
0.0
 10
6253.2726182823
 20
5290.0213812743
 10
6254.1381016272
 20
5290.4310994761
 10
6255.244783687
 20
5290.8024341778
 10
6256.5662174742
 20
5291.1265113907
 10
6258.0708239614
 20
5291.395586464
 10
6259.7226467429
 20
5291.6032291632
 10
6261.4822113045
 20
5291.7444773369
 10
6263.3074683678
 20
5291.8159555002
 10
6265.1547987644
 20
5291.8159555002
 10
6266.9800558277
 20
5291.7444773369
 10
6268.7396203893
 20
5291.6032291632
 10
6270.3914431708
 20
5291.395586464
 10
6271.896049658
 20
5291.1265113907
 10
6273.2174834452
 20
5290.8024341778
 10
6274.3241655051
 20
5290.4310994761
 10
6275.18964885
 20
5290.0213812743
  0
ARC
  5
C4
330
1F
100
AcDbEntity
  8
0
  6
Continuous
 62
     7
370
    25
100
AcDbCircle
 10
6274.6523316882
 20
5290.0188463293
 30
0.0
 40
0.5373231413429146
100
AcDbArc
 50
278.4332094665
 51
0.2703069703
  0
LWPOLYLINE
  5
C5
330
1F
100
AcDbEntity
  8
0
  6
Continuous
 62
     7
370
    25
100
AcDbPolyline
 90
       15
 70
   128
 43
0.0
 10
6274.7311335661
 20
5289.4873329971
 10
6273.8335160452
 20
5289.9066481927
 10
6272.6725502289
 20
5290.2830234394
 10
6271.2800759619
 20
5290.6061365304
 10
6269.6942822798
 20
5290.8671259895
 10
6267.9586600624
 20
5291.0588341005
 10
6266.1208092834
 20
5291.1760032096
 10
6264.2311335661
 20
5291.2154199177
 10
6262.3414578488
 20
5291.1760032096
 10
6260.5036070698
 20
5291.0588341005
 10
6258.7679848524
 20
5290.8671259895
 10
6257.1821911703
 20
5290.6061365304
 10
6255.7897169033
 20
5290.2830234394
 10
6254.628751087
 20
5289.9066481927
 10
6253.7311335661
 20
5289.4873329971
  0
ARC
  5
C6
330
1F
100
AcDbEntity
  8
0
  6
Continuous
 62
     7
370
    25
100
AcDbCircle
 10
6253.809935444
 20
5290.0188463293
 30
0.0
 40
0.5373231413427811
100
AcDbArc
 50
179.7296930297
 51
261.5667905336
  0
LINE
  5
C7
330
1F
100
AcDbEntity
  8
0
  6
Continuous
 62
     7
370
    25
100
AcDbLine
 10
6253.2726182823
 20
5297.2811949081
 30
0.0
 11
6253.2726182823
 21
5290.0213812743
 31
0.0
  0
LINE
  5
C8
330
1F
100
AcDbEntity
  8
0
  6
Continuous
 62
     7
370
    25
100
AcDbLine
 10
6275.18964885
 20
5290.0213812743
 30
0.0
 11
6275.18964885
 21
5297.2811949081
 31
0.0
  0
LINE
  5
C9
330
1F
100
AcDbEntity
  8
0
  6
Continuous
 62
     7
370
    25
100
AcDbLine
 10
6274.7311335661
 20
5287.1945528634
 30
0.0
 11
6274.7311335661
 21
5289.4873329971
 31
0.0
  0
LWPOLYLINE
  5
CA
330
1F
100
AcDbEntity
  8
0
  6
Continuous
 62
     7
370
    25
100
AcDbPolyline
 90
       14
 70
   128
 43
0.0
 10
6255.1756315942
 20
5286.5818216032
 10
6255.7897169033
 20
5286.3988624211
 10
6257.1821911703
 20
5286.0757493302
 10
6258.7679848524
 20
5285.8147598711
 10
6260.5036070698
 20
5285.62305176
 10
6262.3414578488
 20
5285.505882651
 10
6264.2311335661
 20
5285.4664659428
 10
6266.1208092834
 20
5285.505882651
 10
6267.9586600624
 20
5285.62305176
 10
6269.6942822798
 20
5285.8147598711
 10
6271.2800759619
 20
5286.0757493302
 10
6272.6725502289
 20
5286.3988624211
 10
6273.8335160452
 20
5286.7752376679
 10
6274.7311335661
 20
5287.1945528634
  0
LINE
  5
CB
330
1F
100
AcDbEntity
  8
0
  6
Continuous
 62
     7
370
    25
100
AcDbLine
 10
6253.7311335661
 20
5289.4873329971
 30
0.0
 11
6253.7311335661
 21
5287.1945528634
 31
0.0
  0
ARC
  5
CC
330
1F
100
AcDbEntity
  8
0
  6
Continuous
 62
     7
370
    25
100
AcDbCircle
 10
6253.7232555528
 20
5289.9794592252
 30
0.0
 40
0.4921892800737072
100
AcDbArc
 50
180.9474641331
 51
270.9171191026
  0
ARC
  5
CD
330
1F
100
AcDbEntity
  8
0
  6
Continuous
 62
     7
370
    25
100
AcDbCircle
 10
6253.2970377676
 20
5289.9589258336
 30
0.0
 40
0.0670596252250443
100
AcDbArc
 50
111.355027356
 51
169.3486844523
  0
ARC
  5
CE
330
1F
100
AcDbEntity
  8
0
  6
Continuous
 62
     7
370
    25
100
AcDbCircle
 10
6274.7390115794
 20
5289.9794592252
 30
0.0
 40
0.4921892800727978
100
AcDbArc
 50
269.0828808974
 51
359.052535867
  0
ARC
  5
CF
330
1F
100
AcDbEntity
  8
0
  6
Continuous
 62
     7
370
    25
100
AcDbCircle
 10
6275.1652293646
 20
5289.9589258337
 30
0.0
 40
0.0670596252231481
100
AcDbArc
 50
10.6513155472
 51
68.6449726451
  0
LINE
  5
D0
330
1F
100
AcDbEntity
  8
0
  6
Continuous
 62
     7
370
    25
100
AcDbLine
 10
6275.2311335661
 20
5297.2311342065
 30
0.0
 11
6275.2311335661
 21
5289.9713205727
 31
0.0
  0
LINE
  5
D1
330
1F
100
AcDbEntity
  8
0
  6
Continuous
 62
     7
370
    25
100
AcDbLine
 10
6253.2311335661
 20
5289.9713205727
 30
0.0
 11
6253.2311335661
 21
5297.2311342065
 31
0.0
  0
LINE
  5
D2
330
1F
100
AcDbEntity
  8
0
  6
Continuous
 62
     7
370
    25
100
AcDbLine
 10
6275.2311335661
 20
5289.9713205727
 30
0.0
 11
6275.2311335661
 21
5287.678540439
 31
0.0
  0
ARC
  5
D3
330
1F
100
AcDbEntity
  8
0
  6
Continuous
 62
     7
370
    25
100
AcDbCircle
 10
6274.7390115795
 20
5287.6866790914
 30
0.0
 40
0.4921892800710227
100
AcDbArc
 50
269.0828808971
 51
359.0525358672
  0
ARC
  5
D4
330
1F
100
AcDbEntity
  8
0
  6
Continuous
 62
     7
370
    25
100
AcDbCircle
 10
6253.7232555528
 20
5287.6866790914
 30
0.0
 40
0.4921892800713376
100
AcDbArc
 50
180.9474641328
 51
270.9171191028
  0
LINE
  5
D5
330
1F
100
AcDbEntity
  8
0
  6
Continuous
 62
     7
370
    25
100
AcDbLine
 10
6253.2311335661
 20
5287.678540439
 30
0.0
 11
6253.2311335661
 21
5289.9713205727
 31
0.0
  0
ARC
  5
D6
330
1F
100
AcDbEntity
  8
0
  6
Continuous
 62
     7
370
    25
100
AcDbCircle
 10
6274.7785592765
 20
5287.6004996723
 30
0.0
 40
0.4087077313554874
100
AcDbArc
 50
263.3364894187
 51
299.692220099
  0
LINE
  5
D7
330
1F
100
AcDbEntity
  8
0
  6
Continuous
 62
     7
370
    25
100
AcDbLine
 10
6169.2311335661
 20
5143.8409429303
 30
0.0
 11
6359.2311335661
 21
5143.8409429303
 31
0.0
  0
LINE
  5
D8
330
1F
100
AcDbEntity
  8
0
  6
Continuous
 62
     7
370
    25
100
AcDbLine
 10
6169.2311335661
 20
5143.8409429303
 30
0.0
 11
6169.2311335661
 21
5190.3409429303
 31
0.0
  0
LINE
  5
D9
330
1F
100
AcDbEntity
  8
0
  6
Continuous
 62
     7
370
    25
100
AcDbLine
 10
6169.2311335661
 20
5190.3409429303
 30
0.0
 11
6359.2311335661
 21
5190.3409429303
 31
0.0
  0
LINE
  5
DA
330
1F
100
AcDbEntity
  8
0
  6
Continuous
 62
     7
370
    25
100
AcDbLine
 10
6359.2311335661
 20
5143.8409429303
 30
0.0
 11
6359.2311335661
 21
5190.3409429303
 31
0.0
  0
LINE
  5
DB
330
1F
100
AcDbEntity
  8
0
  6
Continuous
 62
     8
370
    25
100
AcDbLine
 10
6153.7311335661
 20
5190.0909429303
 30
0.0
 11
6153.7311335661
 21
5144.0909429303
 31
0.0
  0
LINE
  5
DC
330
1F
100
AcDbEntity
  8
0
  6
Continuous
 62
     8
370
    25
100
AcDbLine
 10
6410.2087648601
 20
5174.8373637093
 30
0.0
 11
6410.2087648601
 21
5159.3445221513
 31
0.0
  0
LINE
  5
DD
330
1F
100
AcDbEntity
  8
0
  6
Continuous
 62
     8
370
    25
100
AcDbLine
 10
6375.7311335661
 20
5190.0909429303
 30
0.0
 11
6375.7311335661
 21
5144.0909429303
 31
0.0
  0
ARC
  5
DE
330
1F
100
AcDbEntity
  8
0
  6
Continuous
 62
     8
370
    25
100
AcDbCircle
 10
6189.2311335661
 20
5167.0909429303
 30
0.0
 40
39.74322922164693
100
AcDbArc
 50
215.360208125
 51
324.1966350936
  0
ARC
  5
DF
330
1F
100
AcDbEntity
  8
0
  6
Continuous
 62
     8
370
    25
100
AcDbCircle
 10
6189.2311335661
 20
5167.0909429303
 30
0.0
 40
39.74322922164664
100
AcDbArc
 50
35.8033649064
 51
144.639791875
  0
ARC
  5
E0
330
1F
100
AcDbEntity
  8
0
  6
Continuous
 62
     8
370
    25
100
AcDbCircle
 10
6339.2311335661
 20
5167.0909429303
 30
0.0
 40
39.74322922164767
100
AcDbArc
 50
267.2175530615
 51
324.639791875
  0
ARC
  5
E1
330
1F
100
AcDbEntity
  8
0
  6
Continuous
 62
     8
370
    25
100
AcDbCircle
 10
6339.2311335661
 20
5167.0909429303
 30
0.0
 40
39.74322922164662
100
AcDbArc
 50
35.360208125
 51
144.1966350936
  0
ARC
  5
E2
330
1F
100
AcDbEntity
  8
0
  6
Continuous
 62
     8
370
    25
100
AcDbCircle
 10
6339.2311335661
 20
5167.0909429303
 30
0.0
 40
39.74322922164755
100
AcDbArc
 50
215.8033649064
 51
267.2175530615
  0
LWPOLYLINE
  5
E3
330
1F
100
AcDbEntity
  8
0
  6
Continuous
 62
     8
370
    25
100
AcDbPolyline
 90
       11
 70
   128
 43
0.0
 10
6250.0731982971
 20
5296.4421595058
 10
6250.0445969057
 20
5296.7445065274
 10
6250.3685175346
 20
5297.3419484972
 10
6251.0709604832
 20
5297.9055034651
 10
6252.1738000179
 20
5298.449047421
 10
6253.5889663925
 20
5298.9258753685
 10
6255.3507518901
 20
5299.3491019154
 10
6257.3112346627
 20
5299.6812180388
 10
6259.52581352
 20
5299.93316186
 10
6261.8109166941
 20
5300.0829420382
 10
6264.2311335661
 20
5300.1353770564
  0
LWPOLYLINE
  5
E4
330
1F
100
AcDbEntity
  8
0
  6
Continuous
 62
     8
370
    25
100
AcDbPolyline
 90
        8
 70
   128
 43
0.0
 10
6251.6523676011
 20
5297.4420898945
 10
6251.5593716407
 20
5297.3965544463
 10
6250.8565699067
 20
5296.8354351632
 10
6250.5470940884
 20
5296.2728560705
 10
6250.5987314009
 20
5295.6901154857
 10
6251.0305833837
 20
5295.1042312728
 10
6251.8611851873
 20
5294.5286062696
 10
6252.2958654076
 20
5294.3442177977
  0
LWPOLYLINE
  5
E5
330
1F
100
AcDbEntity
  8
0
  6
Continuous
 62
     8
370
    25
100
AcDbPolyline
 90
       11
 70
   128
 43
0.0
 10
6264.2311335661
 20
5300.1353770564
 10
6266.5837935892
 20
5300.0858417292
 10
6268.9364536123
 20
5299.93316186
 10
6271.091342826
 20
5299.6895650942
 10
6273.1115152421
 20
5299.3491019154
 10
6274.8276022752
 20
5298.9388264042
 10
6276.2884671143
 20
5298.449047421
 10
6277.3651122894
 20
5297.9215866231
 10
6278.0937495977
 20
5297.3419484972
 10
6278.4142362435
 20
5296.7601109843
 10
6278.390527191
 20
5296.486617424
  0
LWPOLYLINE
  5
E6
330
1F
100
AcDbEntity
  8
0
  6
Continuous
 62
     8
370
    25
100
AcDbPolyline
 90
        7
 70
   128
 43
0.0
 10
6276.7205549781
 20
5294.6107462106
 10
6277.4261496874
 20
5295.0958557475
 10
6277.8635357313
 20
5295.6901154857
 10
6277.916848438
 20
5296.2654479204
 10
6277.6056972255
 20
5296.8354351632
 10
6276.9149329729
 20
5297.3887246226
 10
6276.7115907914
 20
5297.4886657485
  0
LINE
  5
E7
330
1F
100
AcDbEntity
  8
0
  6
Continuous
 62
     8
370
    25
100
AcDbLine
 10
6264.2311335696
 20
5190.3409429303
 30
0.0
 11
6264.2311335661
 21
5285.4967059329
 31
0.0
  0
LINE
  5
E8
330
1F
100
AcDbEntity
  8
0
  6
Continuous
 62
     8
370
    25
100
AcDbLine
 10
6264.2311335661
 20
5300.1353770564
 30
0.0
 11
6264.2311335661
 21
5320.2201888996
 31
0.0
  0
LWPOLYLINE
  5
E9
330
1F
100
AcDbEntity
  8
0
  6
Continuous
 62
     8
370
    25
100
AcDbPolyline
 90
        3
 70
   128
 43
0.0
 10
6253.7311335661
 20
5287.1945528634
 10
6254.628751087
 20
5286.7752376679
 10
6255.1756315942
 20
5286.5818216032
  0
ARC
  5
EA
330
1F
100
AcDbEntity
  8
0
  6
Continuous
 62
     8
370
    25
100
AcDbCircle
 10
6253.6837076309
 20
5287.6004942834
 30
0.0
 40
0.4087024049382972
100
AcDbArc
 50
240.2925441953
 51
276.6636295466
  0
LINE
  5
EB
330
1F
100
AcDbEntity
  8
0
  6
Continuous
 62
     7
370
    25
100
AcDbLine
 10
6582.9969574377
 20
5177.3409429303
 30
0.0
 11
6569.1969574377
 21
5177.3409429303
 31
0.0
  0
LINE
  5
EC
330
1F
100
AcDbEntity
  8
0
  6
Continuous
 62
     7
370
    25
100
AcDbLine
 10
6569.1969574377
 20
5156.8409429303
 30
0.0
 11
6582.9969574377
 21
5156.8409429303
 31
0.0
  0
LINE
  5
ED
330
1F
100
AcDbEntity
  8
0
  6
Continuous
 62
     7
370
    25
100
AcDbLine
 10
6689.7325321342
 20
5156.196014688
 30
0.0
 11
6690.6715452979
 21
5156.2124052225
 31
0.0
  0
LINE
  5
EE
330
1F
100
AcDbEntity
  8
0
  6
Continuous
 62
     7
370
    25
100
AcDbLine
 10
6690.6715446932
 20
5177.9694806797
 30
0.0
 11
6689.6397367911
 21
5177.9874909539
 31
0.0
  0
LINE
  5
EF
330
1F
100
AcDbEntity
  8
0
  6
Continuous
 62
     7
370
    25
100
AcDbLine
 10
6695.3677845543
 20
5172.4504971373
 30
0.0
 11
6693.5082005762
 21
5178.1550521093
 31
0.0
  0
LINE
  5
F0
330
1F
100
AcDbEntity
  8
0
  6
Continuous
 62
     7
370
    25
100
AcDbLine
 10
6589.4969574377
 20
5207.0909429303
 30
0.0
 11
6582.9969574377
 21
5207.0909429303
 31
0.0
  0
LINE
  5
F1
330
1F
100
AcDbEntity
  8
0
  6
Continuous
 62
     7
370
    25
100
AcDbLine
 10
6582.9969574377
 20
5127.0909429303
 30
0.0
 11
6589.4969574377
 21
5127.0909429303
 31
0.0
  0
ARC
  5
F2
330
1F
100
AcDbEntity
  8
0
  6
Continuous
 62
     7
370
    25
100
AcDbCircle
 10
6589.4969574377
 20
5205.0909429303
 30
0.0
 40
2.000000000000909
100
AcDbArc
 50
60.6468132401
 51
90.0
  0
ARC
  5
F3
330
1F
100
AcDbEntity
  8
0
  6
Continuous
 62
     7
370
    25
100
AcDbCircle
 10
6589.4969574377
 20
5129.0909429303
 30
0.0
 40
1.999999999999935
100
AcDbArc
 50
270.0
 51
299.3531867599
  0
ARC
  5
F4
330
1F
100
AcDbEntity
  8
0
  6
Continuous
 62
     7
370
    25
100
AcDbCircle
 10
6570.8696702233
 20
5171.969587719
 30
0.0
 40
40.0000000000004
100
AcDbArc
 50
15.4472718235
 51
60.6468132401
  0
ARC
  5
F5
330
1F
100
AcDbEntity
  8
0
  6
Continuous
 62
     7
370
    25
100
AcDbCircle
 10
6570.8696702233
 20
5162.2122981415
 30
0.0
 40
40.0000000000004
100
AcDbArc
 50
299.3531867599
 51
344.5527281765
  0
ARC
  5
F6
330
1F
100
AcDbEntity
  8
0
  6
Continuous
 62
     7
370
    25
100
AcDbCircle
 10
6607.4969574377
 20
5182.0909429303
 30
0.0
 40
2.0
100
AcDbArc
 50
0.0
 51
15.4472718236
  0
ARC
  5
F7
330
1F
100
AcDbEntity
  8
0
  6
Continuous
 62
     7
370
    25
100
AcDbCircle
 10
6607.4969574377
 20
5152.0909429303
 30
0.0
 40
2.0
100
AcDbArc
 50
344.5527281765
 51
0.0
  0
LINE
  5
F8
330
1F
100
AcDbEntity
  8
0
  6
Continuous
 62
     7
370
    25
100
AcDbLine
 10
6609.4969574377
 20
5152.0909429303
 30
0.0
 11
6609.4969574377
 21
5152.2409429303
 31
0.0
  0
LINE
  5
F9
330
1F
100
AcDbEntity
  8
0
  6
Continuous
 62
     7
370
    25
100
AcDbLine
 10
6609.4969574377
 20
5157.8334241718
 30
0.0
 11
6609.4969574377
 21
5161.4984616887
 31
0.0
  0
LINE
  5
FA
330
1F
100
AcDbEntity
  8
0
  6
Continuous
 62
     7
370
    25
100
AcDbLine
 10
6609.4969574377
 20
5172.6834241718
 30
0.0
 11
6609.4969574377
 21
5176.3484616887
 31
0.0
  0
LINE
  5
FB
330
1F
100
AcDbEntity
  8
0
  6
Continuous
 62
     7
370
    25
100
AcDbLine
 10
6609.4969574377
 20
5181.9409429303
 30
0.0
 11
6609.4969574377
 21
5182.0909429303
 31
0.0
  0
ARC
  5
FC
330
1F
100
AcDbEntity
  8
0
  6
Continuous
 62
     7
370
    25
100
AcDbCircle
 10
6768.8579610269
 20
5292.1465945208
 30
0.0
 40
2.806653532600636
100
AcDbArc
 50
15.8001375264
 51
48.4671864542
  0
LWPOLYLINE
  5
FD
330
1F
100
AcDbEntity
  8
0
  6
Continuous
 62
     7
370
    25
100
AcDbPolyline
 90
       25
 70
   128
 43
0.0
 10
6686.3425786758
 20
5254.3037587429
 10
6688.1741914152
 20
5257.3036801708
 10
6693.2175096242
 20
5263.9881752561
 10
6698.7596152519
 20
5270.1145940198
 10
6704.7257716879
 20
5275.7335037512
 10
6711.0690737657
 20
5280.8815620054
 10
6716.0533429122
 20
5284.4254624158
 10
6721.2186462856
 20
5287.6586986198
 10
6726.4542533486
 20
5290.4565095759
 10
6731.6189943298
 20
5292.6895256438
 10
6736.6658850051
 20
5294.3293885926
 10
6741.5697022584
 20
5295.413489888
 10
6746.2668008647
 20
5296.0134888623
 10
6750.6171156565
 20
5296.2147167929
 10
6754.4165742802
 20
5296.1250914229
 10
6756.7990503847
 20
5295.9520853959
 10
6758.9061125724
 20
5295.7928958884
 10
6760.973140936
 20
5295.7026287383
 10
6763.2528544853
 20
5295.6835226542
 10
6765.0101740425
 20
5295.692103722
 10
6766.9831186313
 20
5295.6415160733
 10
6768.9796013796
 20
5295.2794201934
 10
6769.753401775
 20
5294.9641764573
 10
6770.1849069873
 20
5294.7037442974
 10
6770.7189094796
 20
5294.2475883116
  0
LINE
  5
FE
330
1F
100
AcDbEntity
  8
0
  6
Continuous
 62
     7
370
    25
100
AcDbLine
 10
6773.9212861804
 20
5293.0847441396
 30
0.0
 11
6775.8041313686
 21
5285.8249305059
 31
0.0
  0
ARC
  5
FF
330
1F
100
AcDbEntity
  8
0
  6
Continuous
 62
     7
370
    25
100
AcDbCircle
 10
6776.2881189442
 20
5285.9504535184
 30
0.0
 40
0.500000000001069
100
AcDbArc
 50
194.5394191876
 51
284.5394191875
  0
LINE
  5
100
330
1F
100
AcDbEntity
  8
0
  6
Continuous
 62
     7
370
    25
100
AcDbLine
 10
6798.9387374816
 20
5291.8249305059
 30
0.0
 11
6797.0558922933
 21
5299.0847441396
 31
0.0
  0
ARC
  5
101
330
1F
100
AcDbEntity
  8
0
  6
Continuous
 62
     7
370
    25
100
AcDbCircle
 10
6798.454749906
 20
5291.6994074933
 30
0.0
 40
0.500000000001069
100
AcDbArc
 50
284.5394191876
 51
14.5394191875
  0
LINE
  5
102
330
1F
100
AcDbEntity
  8
0
  6
Continuous
 62
     7
370
    25
100
AcDbLine
 10
6631.4969574377
 20
5180.7909429303
 30
0.0
 11
6621.4969574377
 21
5180.7909429303
 31
0.0
  0
LINE
  5
103
330
1F
100
AcDbEntity
  8
0
  6
Continuous
 62
     7
370
    25
100
AcDbLine
 10
6621.4969574377
 20
5153.3909429303
 30
0.0
 11
6631.4969574377
 21
5153.3909429303
 31
0.0
  0
CIRCLE
  5
104
330
1F
100
AcDbEntity
  8
0
  6
Continuous
 62
     7
370
    25
100
AcDbCircle
 10
6669.2469574377
 20
5167.0909429303
 30
0.0
 40
18.0
  0
CIRCLE
  5
105
330
1F
100
AcDbEntity
  8
0
  6
Continuous
 62
     7
370
    25
100
AcDbCircle
 10
6669.2469574377
 20
5167.0909429303
 30
0.0
 40
22.99999999999909
  0
LINE
  5
106
330
1F
100
AcDbEntity
  8
0
  6
Continuous
 62
     7
370
    25
100
AcDbLine
 10
6569.1969574377
 20
5167.0909429303
 30
0.0
 11
6569.1969574377
 21
5177.3409429303
 31
0.0
  0
LINE
  5
107
330
1F
100
AcDbEntity
  8
0
  6
Continuous
 62
     7
370
    25
100
AcDbLine
 10
6569.1969574377
 20
5156.8409429303
 30
0.0
 11
6569.1969574377
 21
5167.0909429303
 31
0.0
  0
LWPOLYLINE
  5
108
330
1F
100
AcDbEntity
  8
0
  6
Continuous
 62
     7
370
    25
100
AcDbPolyline
 90
       20
 70
   128
 43
0.0
 10
6690.6591321645
 20
5177.9315395099
 10
6690.65328173
 20
5177.94309849
 10
6690.7717446254
 20
5177.7061931168
 10
6691.0056770081
 20
5177.2180413625
 10
6691.7035547595
 20
5175.5586012091
 10
6692.1318751054
 20
5174.3214714962
 10
6692.5478167592
 20
5172.8415911439
 10
6692.8957376271
 20
5171.1818102652
 10
6693.1429097768
 20
5169.3233097918
 10
6693.2418931121
 20
5167.5839560917
 10
6693.2106732886
 20
5165.771730053
 10
6693.0668969203
 20
5164.156580471
 10
6692.818876576
 20
5162.5782244438
 10
6692.4900271459
 20
5161.1110005777
 10
6692.1009118554
 20
5159.7631351084
 10
6691.6721296814
 20
5158.5404078687
 10
6691.2578068912
 20
5157.5242033428
 10
6690.9196712821
 20
5156.7810702533
 10
6690.6979898835
 20
5156.327430167
 10
6690.6396030329
 20
5156.2118476354
  0
LINE
  5
109
330
1F
100
AcDbEntity
  8
0
  6
Continuous
 62
     7
370
    25
100
AcDbLine
 10
6690.9554295052
 20
5177.3228939118
 30
0.0
 11
6693.0142821565
 21
5177.9940434444
 31
0.0
  0
ARC
  5
10A
330
1F
100
AcDbEntity
  8
0
  6
Continuous
 62
     7
370
    25
100
AcDbCircle
 10
6697.4358606226
 20
5176.8281613046
 30
0.0
 40
4.572705686558739
100
AcDbArc
 50
165.2284597986
 51
204.5991817387
  0
LWPOLYLINE
  5
10B
330
1F
100
AcDbEntity
  8
0
  6
Continuous
 62
     7
370
    25
100
AcDbPolyline
 90
        6
 70
   128
 43
0.0
 10
6693.2781643118
 20
5174.924691136
 10
6693.6209203238
 20
5174.0191510441
 10
6694.0051759762
 20
5173.2422036127
 10
6694.3849908657
 20
5172.6590354199
 10
6694.7085288743
 20
5172.3323815162
 10
6694.8738661345
 20
5172.2894884724
  0
LINE
  5
10C
330
1F
100
AcDbEntity
  8
0
  6
Continuous
 62
     7
370
    25
100
AcDbLine
 10
6694.8738661345
 20
5172.2894884724
 30
0.0
 11
6692.8049226441
 21
5171.6150495048
 31
0.0
  0
LINE
  5
10D
330
1F
100
AcDbEntity
  8
0
  6
Continuous
 62
     7
370
    25
100
AcDbLine
 10
6695.3677845543
 20
5172.4504971373
 30
0.0
 11
6694.8738661345
 21
5172.2894884724
 31
0.0
  0
LINE
  5
10E
330
1F
100
AcDbEntity
  8
0
  6
Continuous
 62
     7
370
    25
100
AcDbLine
 10
6693.5082005762
 20
5178.1550521093
 30
0.0
 11
6693.0142821565
 21
5177.9940434444
 31
0.0
  0
LINE
  5
10F
330
1F
100
AcDbEntity
  8
0
  6
Continuous
 62
     7
370
    25
100
AcDbLine
 10
6582.9969574377
 20
5151.4721262678
 30
0.0
 11
6582.9969574377
 21
5127.0909429303
 31
0.0
  0
LINE
  5
110
330
1F
100
AcDbEntity
  8
0
  6
Continuous
 62
     7
370
    25
100
AcDbLine
 10
6582.9969574377
 20
5207.0909429303
 30
0.0
 11
6582.9969574377
 21
5151.4721262678
 31
0.0
  0
LINE
  5
111
330
1F
100
AcDbEntity
  8
0
  6
Continuous
 62
     7
370
    25
100
AcDbLine
 10
6669.3881001006
 20
5190.3409429303
 30
0.0
 11
6671.9969574377
 21
5190.3409429303
 31
0.0
  0
LINE
  5
112
330
1F
100
AcDbEntity
  8
0
  6
Continuous
 62
     7
370
    25
100
AcDbLine
 10
6641.0004843943
 20
5191.8433087314
 30
0.0
 11
6640.9969574377
 21
5190.3409429303
 31
0.0
  0
ARC
  5
113
330
1F
100
AcDbEntity
  8
0
  6
Continuous
 62
     7
370
    25
100
AcDbCircle
 10
6626.0624664769
 20
5195.8143198207
 30
0.0
 40
15.45682077175623
100
AcDbArc
 50
345.1132116693
 51
12.8681368503
  0
LWPOLYLINE
  5
114
330
1F
100
AcDbEntity
  8
0
  6
Continuous
 62
     7
370
    25
100
AcDbPolyline
 90
       32
 70
   128
 43
0.0
 10
6799.1067618268
 20
5300.1353770564
 10
6797.8994754498
 20
5304.3024976696
 10
6796.5149471763
 20
5308.0848678912
 10
6794.8733558576
 20
5311.4238697909
 10
6792.8949273386
 20
5314.2609252891
 10
6790.4261957467
 20
5316.5921237096
 10
6787.4492771556
 20
5318.2832688527
 10
6784.0236009205
 20
5319.3945321056
 10
6780.2585590719
 20
5320.0285225542
 10
6773.8036344308
 20
5320.3077216087
 10
6767.2040180568
 20
5320.0436272034
 10
6760.7804136216
 20
5319.5408796172
 10
6754.5434561999
 20
5318.8233948985
 10
6748.4701377971
 20
5317.8844847751
 10
6738.5746011341
 20
5315.7926875558
 10
6728.9713154711
 20
5313.0303683801
 10
6719.5465842048
 20
5309.5646726947
 10
6710.2105068046
 20
5305.3703717621
 10
6701.0028183585
 20
5300.464410646
 10
6692.2124781585
 20
5294.9984948968
 10
6683.8049310569
 20
5288.9372707835
 10
6675.9077385801
 20
5282.3256470145
 10
6668.6478888116
 20
5275.2083330889
 10
6662.5774682789
 20
5268.1703070604
 10
6657.2766166913
 20
5260.7709497425
 10
6652.8238956379
 20
5253.0375682499
 10
6649.2033220463
 20
5244.9628530958
 10
6646.3438642112
 20
5236.5193384301
 10
6644.2068112672
 20
5227.8407609151
 10
6642.6690829691
 20
5218.7542758683
 10
6641.6655522977
 20
5209.2346568617
 10
6641.131092234
 20
5199.2566774669
  0
LWPOLYLINE
  5
115
330
1F
100
AcDbEntity
  8
0
  6
Continuous
 62
     7
370
    25
100
AcDbPolyline
 90
       22
 70
   128
 43
0.0
 10
6771.5944902243
 20
5292.9279852185
 10
6771.5944902244
 20
5292.9279852185
 10
6771.6261066503
 20
5292.9343735385
 10
6771.9187943052
 20
5292.9947010319
 10
6772.5318672705
 20
5293.1257408232
 10
6773.430366081
 20
5293.3259848669
 10
6774.6366430818
 20
5293.605252733
 10
6775.3201373919
 20
5293.7673363764
 10
6777.1033273064
 20
5294.2128776643
 10
6779.2058970661
 20
5294.8124706831
 10
6781.4064277152
 20
5295.4684253604
 10
6783.7979082633
 20
5296.1392256668
 10
6786.0594464312
 20
5296.7445065274
 10
6788.3638459829
 20
5297.3419484972
 10
6790.545201836
 20
5297.9055034651
 10
6792.6397527105
 20
5298.449047421
 10
6794.4723632102
 20
5298.9258753685
 10
6796.0952306777
 20
5299.3491019154
 10
6797.3674560318
 20
5299.6812180388
 10
6798.3321399115
 20
5299.93316186
 10
6798.9057126815
 20
5300.0829420382
 10
6799.1067618268
 20
5300.1353770564
  0
LWPOLYLINE
  5
116
330
1F
100
AcDbEntity
  8
0
  6
Continuous
 62
     7
370
    25
100
AcDbPolyline
 90
       10
 70
   128
 43
0.0
 10
6671.9969574377
 20
5190.3409429303
 10
6672.2228086988
 20
5201.0029557864
 10
6672.9973844489
 20
5211.6647330382
 10
6674.4790172175
 20
5222.2475327925
 10
6675.9943183005
 20
5229.4111863467
 10
6677.992636216
 20
5236.4623552265
 10
6680.5327135296
 20
5243.3226845016
 10
6683.5541821474
 20
5249.6826838
 10
6687.1367504002
 20
5255.7447705899
 10
6687.7153889357
 20
5256.552226897
  0
LWPOLYLINE
  5
117
330
1F
100
AcDbEntity
  8
0
  6
Continuous
 62
     7
370
    25
100
AcDbPolyline
 90
       13
 70
   128
 43
0.0
 10
6696.2696404909
 20
5267.3620972033
 10
6701.0694293099
 20
5272.1434561147
 10
6706.4190198645
 20
5276.7072469121
 10
6712.2472300168
 20
5280.9462275621
 10
6718.3936159969
 20
5284.7084203615
 10
6725.1100352052
 20
5288.0803822694
 10
6732.1614821766
 20
5290.8516709917
 10
6739.019138209
 20
5292.8457179891
 10
6746.0208120345
 20
5294.2612001242
 10
6753.278638364
 20
5295.166317057
 10
6760.5813900128
 20
5295.6073615469
 10
6764.3896593815
 20
5295.6867294292
 10
6767.154778567
 20
5295.6103826435
  0
LWPOLYLINE
  5
118
330
1F
100
AcDbEntity
  8
0
  6
Continuous
 62
     7
370
    25
100
AcDbPolyline
 90
        3
 70
   128
 43
0.0
 10
6770.565152246
 20
5294.3789309242
 10
6771.3638703914
 20
5293.4081544408
 10
6771.5944902243
 20
5292.9279852185
  0
ARC
  5
119
330
1F
100
AcDbEntity
  8
0
  6
Continuous
 62
     7
370
    25
100
AcDbCircle
 10
6798.6233118174
 20
5300.0077992822
 30
0.0
 40
0.5000000000001886
100
AcDbArc
 50
284.5394191876
 51
14.7828023193
  0
LINE
  5
11A
330
1F
100
AcDbEntity
  8
0
  6
Continuous
 62
     7
370
    25
100
AcDbLine
 10
6798.74883483
 20
5299.5238117066
 30
0.0
 11
6772.1825840394
 21
5292.6338087403
 31
0.0
  0
ARC
  5
11B
330
1F
100
AcDbEntity
  8
0
  6
Continuous
 62
     7
370
    25
100
AcDbCircle
 10
6772.0570610268
 20
5293.1177963159
 30
0.0
 40
0.5000000000002159
100
AcDbArc
 50
202.3102825016
 51
284.5394191876
  0
LINE
  5
11C
330
1F
100
AcDbEntity
  8
0
  6
Continuous
 62
     7
370
    25
100
AcDbLine
 10
6781.0683754621
 20
5294.9383540728
 30
0.0
 11
6782.9512206503
 21
5287.678540439
 31
0.0
  0
LINE
  5
11D
330
1F
100
AcDbEntity
  8
0
  6
Continuous
 62
     7
370
    25
100
AcDbLine
 10
6791.7916481999
 20
5289.9713205727
 30
0.0
 11
6789.9088030116
 21
5297.2311342065
 31
0.0
  0
LINE
  5
11E
330
1F
100
AcDbEntity
  8
0
  6
Continuous
 62
     7
370
    25
100
AcDbLine
 10
6782.9512206503
 20
5287.678540439
 30
0.0
 11
6791.7916481999
 21
5289.9713205727
 31
0.0
  0
LINE
  5
11F
330
1F
100
AcDbEntity
  8
0
  6
Continuous
 62
     7
370
    25
100
AcDbLine
 10
6782.9512206503
 20
5287.678540439
 30
0.0
 11
6782.7581982148
 21
5287.6284797374
 31
0.0
  0
LINE
  5
120
330
1F
100
AcDbEntity
  8
0
  6
Continuous
 62
     7
370
    25
100
AcDbLine
 10
6782.7581982148
 20
5287.6284797374
 30
0.0
 11
6780.8753530265
 21
5294.8882933711
 31
0.0
  0
LWPOLYLINE
  5
121
330
1F
100
AcDbEntity
  8
0
  6
Continuous
 62
     7
370
    25
100
AcDbPolyline
 90
        9
 70
   128
 43
0.0
 10
6783.0767436629
 20
5287.1945528634
 10
6783.0366749643
 20
5287.1940861906
 10
6782.9933223043
 20
5287.2122368228
 10
6782.9483517014
 20
5287.2483072415
 10
6782.9034913506
 20
5287.3009112807
 10
6782.86046521
 20
5287.3680273967
 10
6782.8209267501
 20
5287.4470763547
 10
6782.7863954117
 20
5287.5350203478
 10
6782.7581982148
 20
5287.6284797374
  0
LINE
  5
122
330
1F
100
AcDbEntity
  8
0
  6
Continuous
 62
     7
370
    25
100
AcDbLine
 10
6783.0767436629
 20
5287.1945528634
 30
0.0
 11
6782.9512206503
 21
5287.678540439
 31
0.0
  0
LINE
  5
123
330
1F
100
AcDbEntity
  8
0
  6
Continuous
 62
     7
370
    25
100
AcDbLine
 10
6791.9171712124
 20
5289.4873329971
 30
0.0
 11
6783.0767436629
 21
5287.1945528634
 31
0.0
  0
LINE
  5
124
330
1F
100
AcDbEntity
  8
0
  6
Continuous
 62
     7
370
    25
100
AcDbLine
 10
6791.9171712124
 20
5289.4873329971
 30
0.0
 11
6791.7916481999
 21
5289.9713205727
 31
0.0
  0
LINE
  5
125
330
1F
100
AcDbEntity
  8
0
  6
Continuous
 62
     7
370
    25
100
AcDbLine
 10
6790.1018254472
 20
5297.2811949081
 30
0.0
 11
6791.9846706355
 21
5290.0213812743
 31
0.0
  0
LINE
  5
126
330
1F
100
AcDbEntity
  8
0
  6
Continuous
 62
     7
370
    25
100
AcDbLine
 10
6791.9846706355
 20
5290.0213812743
 30
0.0
 11
6791.7916481999
 21
5289.9713205727
 31
0.0
  0
LWPOLYLINE
  5
127
330
1F
100
AcDbEntity
  8
0
  6
Continuous
 62
     7
370
    25
100
AcDbPolyline
 90
        9
 70
   128
 43
0.0
 10
6791.9846706355
 20
5290.0213812743
 10
6792.0054500884
 20
5289.92599808
 10
6792.0180132547
 20
5289.8323566037
 10
6792.0218773389
 20
5289.7440554347
 10
6792.0168938464
 20
5289.6644879376
 10
6792.00325429
 20
5289.5967118465
 10
6791.9814828302
 20
5289.5433317588
 10
6791.9524161321
 20
5289.5063990411
 10
6791.9171712124
 20
5289.4873329971
  0
LINE
  5
128
330
1F
100
AcDbEntity
  8
0
  6
Continuous
 62
     7
370
    25
100
AcDbLine
 10
6783.0767436629
 20
5287.1945528634
 30
0.0
 11
6776.4136419568
 21
5285.4664659428
 31
0.0
  0
LINE
  5
129
330
1F
100
AcDbEntity
  8
0
  6
Continuous
 62
     7
370
    25
100
AcDbLine
 10
6798.5802729185
 20
5291.2154199177
 30
0.0
 11
6791.9171712124
 21
5289.4873329971
 31
0.0
  0
LINE
  5
12A
330
1F
100
AcDbEntity
  8
0
  6
Continuous
 62
     7
370
    25
100
AcDbLine
 10
6641.1331775612
 20
5199.1926985371
 30
0.0
 11
6641.131092234
 21
5199.2566774669
 31
0.0
  0
LWPOLYLINE
  5
12B
330
1F
100
AcDbEntity
  8
0
  6
Continuous
 62
     7
370
    25
100
AcDbPolyline
 90
        3
 70
   128
 43
0.0
 10
6641.0004843943
 20
5191.8433087314
 10
6641.0104942121
 20
5191.9405175571
 10
6641.0161285179
 20
5191.9650590328
  0
LINE
  5
12C
330
1F
100
AcDbEntity
  8
0
  6
Continuous
 62
     7
370
    25
100
AcDbLine
 10
6631.4969574377
 20
5183.3409429303
 30
0.0
 11
6631.4969574377
 21
5150.8409429303
 31
0.0
  0
LINE
  5
12D
330
1F
100
AcDbEntity
  8
0
  6
Continuous
 62
     7
370
    25
100
AcDbLine
 10
6638.4969574377
 20
5190.3409429303
 30
0.0
 11
6631.4969574377
 21
5183.3409429303
 31
0.0
  0
LINE
  5
12E
330
1F
100
AcDbEntity
  8
0
  6
Continuous
 62
     7
370
    25
100
AcDbLine
 10
6669.2469574377
 20
5190.3409429303
 30
0.0
 11
6638.4969574377
 21
5190.3409429303
 31
0.0
  0
ARC
  5
12F
330
1F
100
AcDbEntity
  8
0
  6
Continuous
 62
     7
370
    25
100
AcDbCircle
 10
6669.2469574377
 20
5167.0909429303
 30
0.0
 40
23.25
100
AcDbArc
 50
270.0
 51
90.0
  0
LINE
  5
130
330
1F
100
AcDbEntity
  8
0
  6
Continuous
 62
     7
370
    25
100
AcDbLine
 10
6638.4969574377
 20
5143.8409429303
 30
0.0
 11
6669.2469574377
 21
5143.8409429303
 31
0.0
  0
LINE
  5
131
330
1F
100
AcDbEntity
  8
0
  6
Continuous
 62
     7
370
    25
100
AcDbLine
 10
6631.4969574377
 20
5150.8409429303
 30
0.0
 11
6638.4969574377
 21
5143.8409429303
 31
0.0
  0
LINE
  5
132
330
1F
100
AcDbEntity
  8
0
  6
Continuous
 62
     7
370
    25
100
AcDbLine
 10
6609.4969574377
 20
5152.2409429303
 30
0.0
 11
6621.4969574377
 21
5152.2409429303
 31
0.0
  0
LINE
  5
133
330
1F
100
AcDbEntity
  8
0
  6
Continuous
 62
     7
370
    25
100
AcDbLine
 10
6609.4969574377
 20
5152.2409429303
 30
0.0
 11
6609.4969574377
 21
5157.8334241718
 31
0.0
  0
LINE
  5
134
330
1F
100
AcDbEntity
  8
0
  6
Continuous
 62
     7
370
    25
100
AcDbLine
 10
6609.4969574377
 20
5161.4984616887
 30
0.0
 11
6609.4969574377
 21
5167.0909429303
 31
0.0
  0
LINE
  5
135
330
1F
100
AcDbEntity
  8
0
  6
Continuous
 62
     7
370
    25
100
AcDbLine
 10
6609.4969574377
 20
5167.0909429303
 30
0.0
 11
6621.4969574377
 21
5167.0909429303
 31
0.0
  0
LINE
  5
136
330
1F
100
AcDbEntity
  8
0
  6
Continuous
 62
     7
370
    25
100
AcDbLine
 10
6621.4969574377
 20
5152.2409429303
 30
0.0
 11
6621.4969574377
 21
5167.0909429303
 31
0.0
  0
LINE
  5
137
330
1F
100
AcDbEntity
  8
0
  6
Continuous
 62
     7
370
    25
100
AcDbLine
 10
6609.4969574377
 20
5181.9409429303
 30
0.0
 11
6621.4969574377
 21
5181.9409429303
 31
0.0
  0
LINE
  5
138
330
1F
100
AcDbEntity
  8
0
  6
Continuous
 62
     7
370
    25
100
AcDbLine
 10
6621.4969574377
 20
5167.0909429303
 30
0.0
 11
6621.4969574377
 21
5181.9409429303
 31
0.0
  0
LINE
  5
139
330
1F
100
AcDbEntity
  8
0
  6
Continuous
 62
     7
370
    25
100
AcDbLine
 10
6609.4969574377
 20
5167.0909429303
 30
0.0
 11
6609.4969574377
 21
5172.6834241718
 31
0.0
  0
LINE
  5
13A
330
1F
100
AcDbEntity
  8
0
  6
Continuous
 62
     7
370
    25
100
AcDbLine
 10
6609.4969574377
 20
5176.3484616887
 30
0.0
 11
6609.4969574377
 21
5181.9409429303
 31
0.0
  0
LINE
  5
13B
330
1F
100
AcDbEntity
  8
0
  6
Continuous
 62
     8
370
    25
100
AcDbLine
 10
6692.0604602108
 20
5174.5277411465
 30
0.0
 11
6693.2781643118
 21
5174.924691136
 31
0.0
  0
LINE
  5
13C
330
1F
100
AcDbEntity
  8
0
  6
Continuous
 62
     8
370
    25
100
AcDbLine
 10
6589.4969574377
 20
5151.4721262678
 30
0.0
 11
6589.4969574377
 21
5127.0909429303
 31
0.0
  0
LINE
  5
13D
330
1F
100
AcDbEntity
  8
0
  6
Continuous
 62
     8
370
    25
100
AcDbLine
 10
6589.4969574377
 20
5207.0909429303
 30
0.0
 11
6589.4969574377
 21
5151.4721262678
 31
0.0
  0
LINE
  5
13E
330
1F
100
AcDbEntity
  8
0
  6
Continuous
 62
     8
370
    25
100
AcDbLine
 10
6590.4773409753
 20
5151.5723876606
 30
0.0
 11
6590.4773409753
 21
5127.3477137086
 31
0.0
  0
LINE
  5
13F
330
1F
100
AcDbEntity
  8
0
  6
Continuous
 62
     8
370
    25
100
AcDbLine
 10
6590.4773409753
 20
5206.8341721519
 30
0.0
 11
6590.4773409753
 21
5151.5723876606
 31
0.0
  0
LINE
  5
140
330
1F
100
AcDbEntity
  8
0
  6
Continuous
 62
     8
370
    25
100
AcDbLine
 10
6609.4247093963
 20
5161.0258819563
 30
0.0
 11
6609.4247093963
 21
5151.5582400244
 31
0.0
  0
LINE
  5
141
330
1F
100
AcDbEntity
  8
0
  6
Continuous
 62
     8
370
    25
100
AcDbLine
 10
6609.4247093963
 20
5182.6236458361
 30
0.0
 11
6609.4247093963
 21
5161.0258819563
 31
0.0
  0
LINE
  5
142
330
1F
100
AcDbEntity
  8
0
  6
Continuous
 62
     8
370
    25
100
AcDbLine
 10
6775.8041313686
 20
5285.8249305059
 30
0.0
 11
6782.7581982148
 21
5287.6284797374
 31
0.0
  0
LINE
  5
143
330
1F
100
AcDbEntity
  8
0
  6
Continuous
 62
     8
370
    25
100
AcDbLine
 10
6791.9846706355
 20
5290.0213812743
 30
0.0
 11
6798.9387374816
 21
5291.8249305059
 31
0.0
  0
LWPOLYLINE
  5
144
330
1F
100
AcDbEntity
  8
0
  6
Continuous
 62
     8
370
    25
100
AcDbPolyline
 90
        3
 70
   128
 43
0.0
 10
6641.1432288999
 20
5199.1303493865
 10
6641.1379518616
 20
5199.1569384577
 10
6641.1331775612
 20
5199.1926985371
  0
LINE
  5
145
330
1F
100
AcDbEntity
  8
0
  6
Continuous
 62
     7
370
    25
100
AcDbLine
 10
6169.1311335661
 20
4871.1674681514
 30
0.0
 11
6153.7311335661
 21
4871.1674681514
 31
0.0
  0
LINE
  5
146
330
1F
100
AcDbEntity
  8
0
  6
Continuous
 62
     7
370
    25
100
AcDbLine
 10
6153.7311335661
 20
4825.1674681514
 30
0.0
 11
6169.1311335661
 21
4825.1674681514
 31
0.0
  0
ARC
  5
147
330
1F
100
AcDbEntity
  8
0
  6
Continuous
 62
     7
370
    25
100
AcDbCircle
 10
6153.7311335661
 20
4866.1674681514
 30
0.0
 40
5.0
100
AcDbArc
 50
90.0
 51
180.0
  0
ARC
  5
148
330
1F
100
AcDbEntity
  8
0
  6
Continuous
 62
     7
370
    25
100
AcDbCircle
 10
6153.7311335661
 20
4830.1674681514
 30
0.0
 40
5.000000000000909
100
AcDbArc
 50
180.0
 51
270.0
  0
LINE
  5
149
330
1F
100
AcDbEntity
  8
0
  6
Continuous
 62
     7
370
    25
100
AcDbLine
 10
6169.2311335661
 20
4868.1674681514
 30
0.0
 11
6169.1311335661
 21
4868.1674681514
 31
0.0
  0
LINE
  5
14A
330
1F
100
AcDbEntity
  8
0
  6
Continuous
 62
     7
370
    25
100
AcDbLine
 10
6169.1311335661
 20
4828.1674681514
 30
0.0
 11
6169.2311335661
 21
4828.1674681514
 31
0.0
  0
LINE
  5
14B
330
1F
100
AcDbEntity
  8
0
  6
Continuous
 62
     7
370
    25
100
AcDbLine
 10
6324.4811335661
 20
4934.4174681514
 30
0.0
 11
6324.4811335661
 21
4948.2174681514
 31
0.0
  0
LINE
  5
14C
330
1F
100
AcDbEntity
  8
0
  6
Continuous
 62
     7
370
    25
100
AcDbLine
 10
6303.9811335661
 20
4948.2174681514
 30
0.0
 11
6303.9811335661
 21
4934.4174681514
 31
0.0
  0
LINE
  5
14D
330
1F
100
AcDbEntity
  8
0
  6
Continuous
 62
     7
370
    25
100
AcDbLine
 10
6224.4811335661
 20
4934.4174681514
 30
0.0
 11
6224.4811335661
 21
4948.2174681514
 31
0.0
  0
LINE
  5
14E
330
1F
100
AcDbEntity
  8
0
  6
Continuous
 62
     7
370
    25
100
AcDbLine
 10
6203.9811335661
 20
4948.2174681514
 30
0.0
 11
6203.9811335661
 21
4934.4174681514
 31
0.0
  0
LINE
  5
14F
330
1F
100
AcDbEntity
  8
0
  6
Continuous
 62
     7
370
    25
100
AcDbLine
 10
6203.3283365031
 20
4824.9632380526
 30
0.0
 11
6203.3419997336
 21
4824.1804720697
 31
0.0
  0
LINE
  5
150
330
1F
100
AcDbEntity
  8
0
  6
Continuous
 62
     7
370
    25
100
AcDbLine
 10
6225.1200408389
 20
4824.167468152
 30
0.0
 11
6225.1331979077
 21
4824.9212361225
 31
0.0
  0
LINE
  5
151
330
1F
100
AcDbEntity
  8
0
  6
Continuous
 62
     7
370
    25
100
AcDbLine
 10
6203.3721917245
 20
4824.1674681514
 30
0.0
 11
6225.1200408018
 21
4824.1674681514
 31
0.0
  0
ARC
  5
152
330
1F
100
AcDbEntity
  8
0
  6
Continuous
 62
     7
370
    25
100
AcDbCircle
 10
6409.4832928854
 20
4855.7153088321
 30
0.0
 40
0.7521593192820855
100
AcDbArc
 50
15.3083338787
 51
70.7612320047
  0
ARC
  5
153
330
1F
100
AcDbEntity
  8
0
  6
Continuous
 62
     7
370
    25
100
AcDbCircle
 10
6409.4832928854
 20
4840.6196274707
 30
0.0
 40
0.7521593192820428
100
AcDbArc
 50
289.2387679954
 51
344.6916661213
  0
ARC
  5
154
330
1F
100
AcDbEntity
  8
0
  6
Continuous
 62
     7
370
    25
100
AcDbCircle
 10
6381.908793066
 20
4848.1674681514
 30
0.0
 40
29.34101972379658
100
AcDbArc
 50
344.6916661213
 51
15.3083338787
  0
LWPOLYLINE
  5
155
330
1F
100
AcDbEntity
  8
0
  6
Continuous
 62
     7
370
    25
100
AcDbPolyline
 90
        3
 70
   128
 43
0.0
 10
6375.7311335661
 20
4825.1674681514
 10
6379.1915763778
 20
4825.2087659788
 10
6381.7311335661
 20
4825.2916592667
  0
LWPOLYLINE
  5
156
330
1F
100
AcDbEntity
  8
0
  6
Continuous
 62
     7
370
    25
100
AcDbPolyline
 90
        3
 70
   128
 43
0.0
 10
6396.7311335661
 20
4826.6962166757
 10
6399.8439899412
 20
4827.1864548754
 10
6403.2493817413
 20
4827.8026339494
  0
ARC
  5
157
330
1F
100
AcDbEntity
  8
0
  6
Continuous
 62
     7
370
    25
100
AcDbCircle
 10
6375.7311335661
 20
4726.1674681514
 30
0.0
 40
144.9999999999991
100
AcDbArc
 50
79.0599948332
 51
90.0
  0
LINE
  5
158
330
1F
100
AcDbEntity
  8
0
  6
Continuous
 62
     7
370
    25
100
AcDbLine
 10
6370.7311335661
 20
4871.2674681514
 30
0.0
 11
6359.7311335661
 21
4871.2674681514
 31
0.0
  0
LINE
  5
159
330
1F
100
AcDbEntity
  8
0
  6
Continuous
 62
     7
370
    25
100
AcDbLine
 10
6359.7311335661
 20
4825.0674681514
 30
0.0
 11
6370.7311335661
 21
4825.0674681514
 31
0.0
  0
LINE
  5
15A
330
1F
100
AcDbEntity
  8
0
  6
Continuous
 62
     7
370
    25
100
AcDbLine
 10
6375.7311335661
 20
4871.1674681514
 30
0.0
 11
6370.7311335661
 21
4871.1674681514
 31
0.0
  0
LINE
  5
15B
330
1F
100
AcDbEntity
  8
0
  6
Continuous
 62
     7
370
    25
100
AcDbLine
 10
6370.7311335661
 20
4825.1674681514
 30
0.0
 11
6375.7311335661
 21
4825.1674681514
 31
0.0
  0
ARC
  5
15C
330
1F
100
AcDbEntity
  8
0
  6
Continuous
 62
     7
370
    25
100
AcDbCircle
 10
6401.7311335661
 20
4860.6776908112
 30
0.0
 40
8.0
100
AcDbArc
 50
0.0
 51
79.0599948332
  0
ARC
  5
15D
330
1F
100
AcDbEntity
  8
0
  6
Continuous
 62
     7
370
    25
100
AcDbCircle
 10
6401.7311335661
 20
4835.6572454915
 30
0.0
 40
8.0
100
AcDbArc
 50
280.9400051668
 51
0.0
  0
LINE
  5
15E
330
1F
100
AcDbEntity
  8
0
  6
Continuous
 62
     7
370
    25
100
AcDbLine
 10
6229.2311335661
 20
4927.9174681514
 30
0.0
 11
6229.2311335661
 21
4934.4174681514
 31
0.0
  0
LINE
  5
15F
330
1F
100
AcDbEntity
  8
0
  6
Continuous
 62
     7
370
    25
100
AcDbLine
 10
6149.2311335661
 20
4934.4174681514
 30
0.0
 11
6149.2311335661
 21
4927.9174681514
 31
0.0
  0
ARC
  5
160
330
1F
100
AcDbEntity
  8
0
  6
Continuous
 62
     7
370
    25
100
AcDbCircle
 10
6227.2311335661
 20
4927.9174681514
 30
0.0
 40
2.0
100
AcDbArc
 50
330.6468132401
 51
0.0
  0
ARC
  5
161
330
1F
100
AcDbEntity
  8
0
  6
Continuous
 62
     7
370
    25
100
AcDbCircle
 10
6151.2311335661
 20
4927.9174681514
 30
0.0
 40
2.0
100
AcDbArc
 50
180.0
 51
209.3531867599
  0
ARC
  5
162
330
1F
100
AcDbEntity
  8
0
  6
Continuous
 62
     7
370
    25
100
AcDbCircle
 10
6194.1097783548
 20
4946.5447553658
 30
0.0
 40
39.99999999999959
100
AcDbArc
 50
285.4472718235
 51
330.6468132401
  0
ARC
  5
163
330
1F
100
AcDbEntity
  8
0
  6
Continuous
 62
     7
370
    25
100
AcDbCircle
 10
6184.3524887774
 20
4946.5447553658
 30
0.0
 40
40.00000000000038
100
AcDbArc
 50
209.3531867599
 51
254.5527281765
  0
ARC
  5
164
330
1F
100
AcDbEntity
  8
0
  6
Continuous
 62
     7
370
    25
100
AcDbCircle
 10
6204.2311335661
 20
4909.9174681514
 30
0.0
 40
2.0
100
AcDbArc
 50
270.0
 51
285.4472718235
  0
ARC
  5
165
330
1F
100
AcDbEntity
  8
0
  6
Continuous
 62
     7
370
    25
100
AcDbCircle
 10
6174.2311335661
 20
4909.9174681514
 30
0.0
 40
2.0
100
AcDbArc
 50
254.5527281765
 51
270.0
  0
LINE
  5
166
330
1F
100
AcDbEntity
  8
0
  6
Continuous
 62
     7
370
    25
100
AcDbLine
 10
6175.3126511214
 20
4907.9174681514
 30
0.0
 11
6177.4286615184
 21
4907.9174681514
 31
0.0
  0
LINE
  5
167
330
1F
100
AcDbEntity
  8
0
  6
Continuous
 62
     7
370
    25
100
AcDbLine
 10
6187.1151231692
 20
4907.9174681514
 30
0.0
 11
6191.3471439631
 21
4907.9174681514
 31
0.0
  0
LINE
  5
168
330
1F
100
AcDbEntity
  8
0
  6
Continuous
 62
     7
370
    25
100
AcDbLine
 10
6201.0336056138
 20
4907.9174681514
 30
0.0
 11
6203.1496160108
 21
4907.9174681514
 31
0.0
  0
LINE
  5
169
330
1F
100
AcDbEntity
  8
0
  6
Continuous
 62
     7
370
    25
100
AcDbLine
 10
6379.2311335661
 20
4927.9174681514
 30
0.0
 11
6379.2311335661
 21
4934.4174681514
 31
0.0
  0
LINE
  5
16A
330
1F
100
AcDbEntity
  8
0
  6
Continuous
 62
     7
370
    25
100
AcDbLine
 10
6299.2311335661
 20
4934.4174681514
 30
0.0
 11
6299.2311335661
 21
4927.9174681514
 31
0.0
  0
ARC
  5
16B
330
1F
100
AcDbEntity
  8
0
  6
Continuous
 62
     7
370
    25
100
AcDbCircle
 10
6377.2311335661
 20
4927.9174681514
 30
0.0
 40
2.0
100
AcDbArc
 50
330.6468132401
 51
0.0
  0
ARC
  5
16C
330
1F
100
AcDbEntity
  8
0
  6
Continuous
 62
     7
370
    25
100
AcDbCircle
 10
6301.2311335661
 20
4927.9174681514
 30
0.0
 40
2.0
100
AcDbArc
 50
180.0
 51
209.3531867599
  0
ARC
  5
16D
330
1F
100
AcDbEntity
  8
0
  6
Continuous
 62
     7
370
    25
100
AcDbCircle
 10
6344.1097783548
 20
4946.5447553658
 30
0.0
 40
39.99999999999959
100
AcDbArc
 50
285.4472718235
 51
330.6468132401
  0
ARC
  5
16E
330
1F
100
AcDbEntity
  8
0
  6
Continuous
 62
     7
370
    25
100
AcDbCircle
 10
6334.3524887774
 20
4946.5447553658
 30
0.0
 40
39.99999999999959
100
AcDbArc
 50
209.3531867599
 51
254.5527281765
  0
ARC
  5
16F
330
1F
100
AcDbEntity
  8
0
  6
Continuous
 62
     7
370
    25
100
AcDbCircle
 10
6354.2311335661
 20
4909.9174681514
 30
0.0
 40
2.0
100
AcDbArc
 50
270.0
 51
285.4472718236
  0
ARC
  5
170
330
1F
100
AcDbEntity
  8
0
  6
Continuous
 62
     7
370
    25
100
AcDbCircle
 10
6324.2311335661
 20
4909.9174681514
 30
0.0
 40
2.0
100
AcDbArc
 50
254.5527281765
 51
270.0
  0
LINE
  5
171
330
1F
100
AcDbEntity
  8
0
  6
Continuous
 62
     7
370
    25
100
AcDbLine
 10
6325.3126511214
 20
4907.9174681514
 30
0.0
 11
6327.4286615184
 21
4907.9174681514
 31
0.0
  0
LINE
  5
172
330
1F
100
AcDbEntity
  8
0
  6
Continuous
 62
     7
370
    25
100
AcDbLine
 10
6337.1151231692
 20
4907.9174681514
 30
0.0
 11
6341.3471439631
 21
4907.9174681514
 31
0.0
  0
LINE
  5
173
330
1F
100
AcDbEntity
  8
0
  6
Continuous
 62
     7
370
    25
100
AcDbLine
 10
6351.0336056138
 20
4907.9174681514
 30
0.0
 11
6353.1496160108
 21
4907.9174681514
 31
0.0
  0
LWPOLYLINE
  5
174
330
1F
100
AcDbEntity
  8
0
  6
Continuous
 62
     7
370
    25
100
AcDbPolyline
 90
       46
 70
   128
 43
0.0
 10
6248.8577266356
 20
4859.9590640015
 10
6248.8552416735
 20
4859.9926850336
 10
6248.8428432303
 20
4859.1176331013
 10
6248.8297198548
 20
4857.7459786287
 10
6248.8270908747
 20
4855.8171820814
 10
6248.848639024
 20
4853.2512191913
 10
6248.8984329276
 20
4850.3711602844
 10
6248.971254177
 20
4847.3504376499
 10
6249.0587748708
 20
4844.2751138577
 10
6249.1504413928
 20
4841.1720933591
 10
6249.2324109555
 20
4838.2830391384
 10
6249.3200009752
 20
4834.8963281926
 10
6249.4055380567
 20
4831.0047477581
 10
6249.4730336282
 20
4827.0637221705
 10
6249.5178460151
 20
4823.3321428934
 10
6249.5424568561
 20
4819.8511431439
 10
6249.5499044901
 20
4815.7569426624
 10
6249.5333460586
 20
4811.6324096316
 10
6249.497457799
 20
4807.8775288922
 10
6249.4489520055
 20
4804.4849063237
 10
6249.3884740844
 20
4801.1648496644
 10
6249.3174577357
 20
4797.8295874732
 10
6249.2410540763
 20
4794.5518515332
 10
6249.1690251885
 20
4791.4965830743
 10
6249.0707690381
 20
4787.7371434359
 10
6248.9465740003
 20
4783.4685526964
 10
6248.8318946634
 20
4779.7970825311
 10
6248.7137313537
 20
4774.1915223343
 10
6248.7036247199
 20
4768.0255034186
 10
6248.8255209901
 20
4761.4006708602
 10
6249.0836859685
 20
4754.6277124426
 10
6249.2432596425
 20
4751.5548494929
 10
6249.4134015581
 20
4748.83702975
 10
6249.4957885891
 20
4747.6553067938
 10
6249.5760948105
 20
4746.541165364
 10
6249.6581567415
 20
4745.3833425365
 10
6249.7273418672
 20
4744.1987092336
 10
6249.7735975318
 20
4742.9663506071
 10
6249.798870852
 20
4741.6266095566
 10
6249.8148531259
 20
4740.189472016
 10
6249.8331456422
 20
4738.5346913445
 10
6249.8647142164
 20
4736.6869166128
 10
6249.9138587638
 20
4734.7968394185
 10
6249.9553133991
 20
4733.5590227842
 10
6250.0004989393
 20
4732.3865402981
 10
6250.0381508553
 20
4731.4862533459
  0
LWPOLYLINE
  5
175
330
1F
100
AcDbEntity
  8
0
  6
Continuous
 62
     7
370
    25
100
AcDbPolyline
 90
       47
 70
   128
 43
0.0
 10
6278.4241108471
 20
4731.4861235145
 10
6278.4617681929
 20
4732.3865402978
 10
6278.5069537331
 20
4733.5590227838
 10
6278.5484083684
 20
4734.7968394182
 10
6278.5975529158
 20
4736.6869166124
 10
6278.62912149
 20
4738.5346913442
 10
6278.6474140063
 20
4740.1894720161
 10
6278.6633962803
 20
4741.6266095568
 10
6278.6886696005
 20
4742.9663506073
 10
6278.734925265
 20
4744.1987092337
 10
6278.8041103908
 20
4745.3833425367
 10
6278.8861723217
 20
4746.5411653644
 10
6279.025437677
 20
4748.4997770431
 10
6279.1731511125
 20
4750.760678629
 10
6279.3143237496
 20
4753.3268445317
 10
6279.4452605739
 20
4756.0927562378
 10
6279.6170530397
 20
4760.7330695247
 10
6279.7247506586
 20
4765.2866932839
 10
6279.7601005797
 20
4772.9497333201
 10
6279.6303724689
 20
4779.7970825307
 10
6279.5326165084
 20
4782.9123769995
 10
6279.427653459
 20
4786.4642413321
 10
6279.3296281974
 20
4790.0261017074
 10
6279.2630104311
 20
4792.7897903705
 10
6279.1995161203
 20
4795.4657050653
 10
6279.1341478661
 20
4798.3063945755
 10
6279.0737930478
 20
4801.1648496648
 10
6279.0133151267
 20
4804.4849063258
 10
6278.9648093332
 20
4807.8775288962
 10
6278.9289210736
 20
4811.6324096357
 10
6278.9123626421
 20
4815.7569426649
 10
6278.9198102761
 20
4819.8511431442
 10
6278.9444211171
 20
4823.3321428929
 10
6279.0038962258
 20
4828.0296099413
 10
6279.0985938482
 20
4833.0097810211
 10
6279.2082367301
 20
4837.4839599087
 10
6279.3118257397
 20
4841.1720933666
 10
6279.4034922615
 20
4844.275113862
 10
6279.4910129552
 20
4847.3504376517
 10
6279.5638342046
 20
4850.3711602848
 10
6279.6136281082
 20
4853.2512191912
 10
6279.6332300941
 20
4855.3546853745
 10
6279.6355980423
 20
4857.0473985735
 10
6279.6278557163
 20
4858.3556275608
 10
6279.6165743587
 20
4859.3340061372
 10
6279.6070254587
 20
4859.9926850337
 10
6279.6045404966
 20
4859.9590640016
  0
LWPOLYLINE
  5
176
330
1F
100
AcDbEntity
  8
0
  6
Continuous
 62
     7
370
    25
100
AcDbPolyline
 90
        3
 70
   128
 43
0.0
 10
6267.948479984
 20
4875.9040011265
 10
6267.9502371233
 20
4875.9038782863
 10
6267.9106976977
 20
4875.9098392562
  0
LWPOLYLINE
  5
177
330
1F
100
AcDbEntity
  8
0
  6
Continuous
 62
     7
370
    25
100
AcDbPolyline
 90
        4
 70
   128
 43
0.0
 10
6260.7253611707
 20
4875.9401825683
 10
6260.5669556906
 20
4875.912138952
 10
6260.5125310953
 20
4875.9039952288
 10
6260.5126884277
 20
4875.9040048504
  0
LINE
  5
178
330
1F
100
AcDbEntity
  8
0
  6
Continuous
 62
     7
370
    25
100
AcDbLine
 10
6225.1977371704
 20
4824.9174681514
 30
0.0
 11
6249.4988079072
 21
4824.9174681514
 31
0.0
  0
LINE
  5
179
330
1F
100
AcDbEntity
  8
0
  6
Continuous
 62
     7
370
    25
100
AcDbLine
 10
6278.9644930816
 20
4824.9174681514
 30
0.0
 11
6359.2311335661
 21
4824.9174681514
 31
0.0
  0
LINE
  5
17A
330
1F
100
AcDbEntity
  8
0
  6
Continuous
 62
     7
370
    25
100
AcDbLine
 10
6169.2311335661
 20
4824.9174681514
 30
0.0
 11
6203.2311335661
 21
4824.9174681514
 31
0.0
  0
LINE
  5
17B
330
1F
100
AcDbEntity
  8
0
  6
Continuous
 62
     7
370
    25
100
AcDbLine
 10
6202.9311335661
 20
4885.9174681514
 30
0.0
 11
6202.9311335661
 21
4895.9174681514
 31
0.0
  0
LINE
  5
17C
330
1F
100
AcDbEntity
  8
0
  6
Continuous
 62
     7
370
    25
100
AcDbLine
 10
6175.5311335661
 20
4895.9174681514
 30
0.0
 11
6175.5311335661
 21
4885.9174681514
 31
0.0
  0
LINE
  5
17D
330
1F
100
AcDbEntity
  8
0
  6
Continuous
 62
     7
370
    25
100
AcDbLine
 10
6352.9311335661
 20
4885.9174681514
 30
0.0
 11
6352.9311335661
 21
4895.9174681514
 31
0.0
  0
LINE
  5
17E
330
1F
100
AcDbEntity
  8
0
  6
Continuous
 62
     7
370
    25
100
AcDbLine
 10
6325.5311335661
 20
4895.9174681514
 30
0.0
 11
6325.5311335661
 21
4885.9174681514
 31
0.0
  0
LINE
  5
17F
330
1F
100
AcDbEntity
  8
0
  6
Continuous
 62
     7
370
    25
100
AcDbLine
 10
6169.1311335661
 20
4848.1674681514
 30
0.0
 11
6169.1311335661
 21
4825.1674681514
 31
0.0
  0
LINE
  5
180
330
1F
100
AcDbEntity
  8
0
  6
Continuous
 62
     7
370
    25
100
AcDbLine
 10
6169.1311335661
 20
4871.1674681514
 30
0.0
 11
6169.1311335661
 21
4848.1674681514
 31
0.0
  0
LINE
  5
181
330
1F
100
AcDbEntity
  8
0
  6
Continuous
 62
     7
370
    25
100
AcDbLine
 10
6148.7311335661
 20
4848.1674681514
 30
0.0
 11
6148.7311335661
 21
4830.1674681514
 31
0.0
  0
LINE
  5
182
330
1F
100
AcDbEntity
  8
0
  6
Continuous
 62
     7
370
    25
100
AcDbLine
 10
6148.7311335661
 20
4866.1674681514
 30
0.0
 11
6148.7311335661
 21
4848.1674681514
 31
0.0
  0
LINE
  5
183
330
1F
100
AcDbEntity
  8
0
  6
Continuous
 62
     7
370
    25
100
AcDbLine
 10
6303.9811335661
 20
4948.2174681514
 30
0.0
 11
6324.4811335661
 21
4948.2174681514
 31
0.0
  0
LINE
  5
184
330
1F
100
AcDbEntity
  8
0
  6
Continuous
 62
     7
370
    25
100
AcDbLine
 10
6203.9811335661
 20
4948.2174681514
 30
0.0
 11
6224.4811335661
 21
4948.2174681514
 31
0.0
  0
LWPOLYLINE
  5
185
330
1F
100
AcDbEntity
  8
0
  6
Continuous
 62
     7
370
    25
100
AcDbPolyline
 90
       20
 70
   128
 43
0.0
 10
6225.1200408389
 20
4824.1674681514
 10
6224.9864100592
 20
4824.2276953989
 10
6224.5754611798
 20
4824.4092932522
 10
6223.9273879626
 20
4824.6837267585
 10
6223.0297362883
 20
4825.0393456248
 10
6221.8859674403
 20
4825.4490899803
 10
6220.5079174218
 20
4825.874833269
 10
6218.9022571183
 20
4826.2718479027
 10
6217.0857998866
 20
4826.5856756872
 10
6215.3246718469
 20
4826.7469531753
 10
6213.4635549183
 20
4826.7611438591
 10
6211.8469870778
 20
4826.6426809636
 10
6210.2522348788
 20
4826.408748581
 10
6207.3935713838
 20
4825.7108708296
 10
6206.0944991441
 20
4825.2825504837
 10
6204.9872927307
 20
4824.8666088298
 10
6204.1411383445
 20
4824.5186879619
 10
6203.5738570981
 20
4824.2715158122
 10
6203.3534310128
 20
4824.1725324769
 10
6203.372139581
 20
4824.1809981618
  0
LWPOLYLINE
  5
186
330
1F
100
AcDbEntity
  8
0
  6
Continuous
 62
     7
370
    25
100
AcDbPolyline
 90
        3
 70
   128
 43
0.0
 10
6393.7311335661
 20
4828.492633143
 10
6389.3391568533
 20
4828.0304564009
 10
6384.7311335661
 20
4827.6847476316
  0
LWPOLYLINE
  5
187
330
1F
100
AcDbEntity
  8
0
  6
Continuous
 62
     7
370
    25
100
AcDbPolyline
 90
        6
 70
   128
 43
0.0
 10
6381.7311335661
 20
4826.4180832661
 10
6381.8970526125
 20
4826.7497670499
 10
6382.3747145191
 20
4827.0920753148
 10
6383.1168658916
 20
4827.3963326386
 10
6384.0494321793
 20
4827.6115188376
 10
6384.7311335661
 20
4827.6847476316
  0
LWPOLYLINE
  5
188
330
1F
100
AcDbEntity
  8
0
  6
Continuous
 62
     7
370
    25
100
AcDbPolyline
 90
        6
 70
   128
 43
0.0
 10
6393.7311335661
 20
4828.492633143
 10
6394.7194483515
 20
4828.5411825613
 10
6395.6005300043
 20
4828.449008707
 10
6396.2696176927
 20
4828.2419797107
 10
6396.6551153507
 20
4827.9608715683
 10
6396.7311335661
 20
4827.7534790913
  0
LWPOLYLINE
  5
189
330
1F
100
AcDbEntity
  8
0
  6
Continuous
 62
     7
370
    25
100
AcDbPolyline
 90
       20
 70
   128
 43
0.0
 10
6403.2493817413
 20
4844.0320563385
 10
6399.093909533
 20
4844.140869428
 10
6394.9444187578
 20
4844.6007673359
 10
6390.8659402116
 20
4845.4909152762
 10
6386.3873639934
 20
4847.1818933426
 10
6384.2813533849
 20
4848.3946104015
 10
6382.382604638
 20
4849.9097189312
 10
6380.7350550784
 20
4851.9316002292
 10
6380.1548145735
 20
4853.1066719955
 10
6379.8089324925
 20
4854.3497514987
 10
6379.8684939317
 20
4856.4901789651
 10
6380.5602036087
 20
4858.1743846463
 10
6381.3610067769
 20
4859.2382202891
 10
6382.3378116578
 20
4860.1499391164
 10
6384.105199245
 20
4861.2978351473
 10
6386.0625662609
 20
4862.1596328632
 10
6389.8562807864
 20
4863.1623944976
 10
6393.826838517
 20
4863.6206216167
 10
6398.5258310014
 20
4863.6554849382
 10
6403.2493817413
 20
4863.2601395898
  0
LINE
  5
18A
330
1F
100
AcDbEntity
  8
0
  6
Continuous
 62
     7
370
    25
100
AcDbLine
 10
6370.7311335661
 20
4855.3268664669
 30
0.0
 11
6370.7311335661
 21
4825.0674681514
 31
0.0
  0
LINE
  5
18B
330
1F
100
AcDbEntity
  8
0
  6
Continuous
 62
     7
370
    25
100
AcDbLine
 10
6370.7311335661
 20
4871.2674681514
 30
0.0
 11
6370.7311335661
 21
4855.3268664669
 31
0.0
  0
LINE
  5
18C
330
1F
100
AcDbEntity
  8
0
  6
Continuous
 62
     7
370
    25
100
AcDbLine
 10
6359.7311335661
 20
4855.3268664669
 30
0.0
 11
6359.7311335661
 21
4825.0674681514
 31
0.0
  0
LINE
  5
18D
330
1F
100
AcDbEntity
  8
0
  6
Continuous
 62
     7
370
    25
100
AcDbLine
 10
6359.7311335661
 20
4871.2674681514
 30
0.0
 11
6359.7311335661
 21
4855.3268664669
 31
0.0
  0
LWPOLYLINE
  5
18E
330
1F
100
AcDbEntity
  8
0
  6
Continuous
 62
     7
370
    25
100
AcDbPolyline
 90
       14
 70
   128
 43
0.0
 10
6403.2493817413
 20
4863.2601395898
 10
6405.1673929506
 20
4862.6741188747
 10
6406.7841189541
 20
4861.4747103595
 10
6407.9788727511
 20
4859.8131485137
 10
6408.5775856082
 20
4858.4036694523
 10
6408.9680456307
 20
4856.9277156196
 10
6409.2548838517
 20
4854.8616669977
 10
6409.3338310345
 20
4852.8164280965
 10
6409.1909514276
 20
4850.181870695
 10
6408.6188880753
 20
4847.7411716621
 10
6407.5902536132
 20
4845.9397037477
 10
6405.9111624376
 20
4844.6316576891
 10
6403.945769881
 20
4844.0738099668
 10
6403.2493817413
 20
4844.0320563385
  0
LINE
  5
18F
330
1F
100
AcDbEntity
  8
0
  6
Continuous
 62
     7
370
    25
100
AcDbLine
 10
6409.7311335661
 20
4852.0447697547
 30
0.0
 11
6409.7311335661
 21
4835.6572454915
 31
0.0
  0
LINE
  5
190
330
1F
100
AcDbEntity
  8
0
  6
Continuous
 62
     7
370
    25
100
AcDbLine
 10
6409.7311335661
 20
4860.6776908112
 30
0.0
 11
6409.7311335661
 21
4852.0447697547
 31
0.0
  0
LINE
  5
191
330
1F
100
AcDbEntity
  8
0
  6
Continuous
 62
     7
370
    25
100
AcDbLine
 10
6384.7311335661
 20
4827.6847476316
 30
0.0
 11
6384.7311335661
 21
4824.4001434326
 31
0.0
  0
LINE
  5
192
330
1F
100
AcDbEntity
  8
0
  6
Continuous
 62
     7
370
    25
100
AcDbLine
 10
6393.7311335661
 20
4824.0667070738
 30
0.0
 11
6393.7311335661
 21
4828.492633143
 31
0.0
  0
ARC
  5
193
330
1F
100
AcDbEntity
  8
0
  6
Continuous
 62
     7
370
    25
100
AcDbCircle
 10
6390.4581174561
 20
4857.3517541934
 30
0.0
 40
33.44558261127246
100
AcDbArc
 50
260.1404901717
 51
275.6160070722
  0
ARC
  5
194
330
1F
100
AcDbEntity
  8
0
  6
Continuous
 62
     7
370
    25
100
AcDbCircle
 10
6390.4581174561
 20
4855.4921702155
 30
0.0
 40
33.44558261142073
100
AcDbArc
 50
260.1404901717
 51
275.6160070722
  0
ARC
  5
195
330
1F
100
AcDbEntity
  8
0
  6
Continuous
 62
     7
370
    25
100
AcDbCircle
 10
6384.8996181396
 20
4826.4752456124
 30
0.0
 40
3.938291788674377
100
AcDbArc
 50
216.4348491364
 51
267.5480734825
  0
LWPOLYLINE
  5
196
330
1F
100
AcDbEntity
  8
0
  6
Continuous
 62
     7
370
    25
100
AcDbPolyline
 90
        6
 70
   128
 43
0.0
 10
6384.7311335661
 20
4824.4001434326
 10
6383.7203679327
 20
4824.5377159577
 10
6382.8286972736
 20
4824.5776642817
 10
6382.1548529922
 20
4824.5007951936
 10
6381.7887066426
 20
4824.3019908971
 10
6381.7311335661
 20
4824.1362612773
  0
LWPOLYLINE
  5
197
330
1F
100
AcDbEntity
  8
0
  6
Continuous
 62
     7
370
    25
100
AcDbPolyline
 90
        6
 70
   128
 43
0.0
 10
6396.7311335661
 20
4823.5701387785
 10
6396.566468966
 20
4823.8428955458
 10
6396.092954885
 20
4824.0278798391
 10
6395.3560870351
 20
4824.1185783904
 10
6394.4251024057
 20
4824.1170435327
 10
6393.7311335661
 20
4824.0667070738
  0
LWPOLYLINE
  5
198
330
1F
100
AcDbEntity
  8
0
  6
Continuous
 62
     7
370
    25
100
AcDbPolyline
 90
        6
 70
   128
 43
0.0
 10
6393.7311335661
 20
4822.2071230958
 10
6394.7300067928
 20
4822.3735776914
 10
6395.6134387835
 20
4822.6521342994
 10
6396.2859872719
 20
4823.0008085505
 10
6396.6640093303
 20
4823.3617922213
 10
6396.7311335661
 20
4823.5701387785
  0
LINE
  5
199
330
1F
100
AcDbEntity
  8
0
  6
Continuous
 62
     7
370
    25
100
AcDbLine
 10
6396.7311335661
 20
4823.5701387785
 30
0.0
 11
6396.7311335661
 21
4827.7534790913
 31
0.0
  0
LINE
  5
19A
330
1F
100
AcDbEntity
  8
0
  6
Continuous
 62
     7
370
    25
100
AcDbLine
 10
6381.7311335661
 20
4826.4180832661
 30
0.0
 11
6381.7311335661
 21
4824.1362612773
 31
0.0
  0
LINE
  5
19B
330
1F
100
AcDbEntity
  8
0
  6
Continuous
 62
     7
370
    25
100
AcDbLine
 10
6229.2311335661
 20
4934.4174681514
 30
0.0
 11
6149.2311335661
 21
4934.4174681514
 31
0.0
  0
LINE
  5
19C
330
1F
100
AcDbEntity
  8
0
  6
Continuous
 62
     7
370
    25
100
AcDbLine
 10
6379.2311335661
 20
4934.4174681514
 30
0.0
 11
6299.2311335661
 21
4934.4174681514
 31
0.0
  0
ARC
  5
19D
330
1F
100
AcDbEntity
  8
0
  6
Continuous
 62
     7
370
    25
100
AcDbCircle
 10
6264.0474623874
 20
4861.0957592002
 30
0.0
 40
15.26465606720367
100
AcDbArc
 50
101.6584444123
 51
184.2177488878
  0
LINE
  5
19E
330
1F
100
AcDbEntity
  8
0
  6
Continuous
 62
     7
370
    25
100
AcDbLine
 10
6264.2311335661
 20
4876.4139411948
 30
0.0
 11
6264.2311335661
 21
4876.4174681514
 31
0.0
  0
ARC
  5
19F
330
1F
100
AcDbEntity
  8
0
  6
Continuous
 62
     7
370
    25
100
AcDbCircle
 10
6264.3635963154
 20
4856.8929560971
 30
0.0
 40
19.39082970336375
100
AcDbArc
 50
90.3914023082
 51
100.8138979965
  0
LWPOLYLINE
  5
1A0
330
1F
100
AcDbEntity
  8
0
  6
Continuous
 62
     7
370
    25
100
AcDbPolyline
 90
        7
 70
   128
 43
0.0
 10
6260.508624644
 20
4875.9008561411
 10
6260.4281696185
 20
4875.9036818293
 10
6260.757587346
 20
4876.0001489487
 10
6261.4632139418
 20
4876.156068641
 10
6262.4973387362
 20
4876.3138548273
 10
6263.7348081045
 20
4876.405751711
 10
6264.2311335661
 20
4876.4139411948
  0
LINE
  5
1A1
330
1F
100
AcDbEntity
  8
0
  6
Continuous
 62
     7
370
    25
100
AcDbLine
 10
6264.2311335661
 20
4718.3076637623
 30
0.0
 11
6264.2311335661
 21
4876.2833333551
 31
0.0
  0
ARC
  5
1A2
330
1F
100
AcDbEntity
  8
0
  6
Continuous
 62
     7
370
    25
100
AcDbCircle
 10
6263.9682819583
 20
4732.2462949711
 30
0.0
 40
13.94110938708354
100
AcDbArc
 50
183.1259522531
 51
271.080343019
  0
ARC
  5
1A3
330
1F
100
AcDbEntity
  8
0
  6
Continuous
 62
     7
370
    25
100
AcDbCircle
 10
6264.7759333478
 20
4866.3022654019
 30
0.0
 40
10.12634159711649
100
AcDbArc
 50
71.2270332452
 51
93.0840166563
  0
ARC
  5
1A4
330
1F
100
AcDbEntity
  8
0
  6
Continuous
 62
     7
370
    25
100
AcDbCircle
 10
6263.8944603968
 20
4854.6134359146
 30
0.0
 40
21.67251263478725
100
AcDbArc
 50
79.3201686981
 51
89.1098988872
  0
ARC
  5
1A5
330
1F
100
AcDbEntity
  8
0
  6
Continuous
 62
     7
370
    25
100
AcDbCircle
 10
6264.4007143121
 20
4861.0910365477
 30
0.0
 40
15.27836208238011
100
AcDbArc
 50
355.8037999855
 51
78.5454517137
  0
ARC
  5
1A6
330
1F
100
AcDbEntity
  8
0
  6
Continuous
 62
     7
370
    25
100
AcDbCircle
 10
6264.5023645146
 20
4732.232508119
 30
0.0
 40
13.92748565200539
100
AcDbArc
 50
268.8841222688
 51
356.9270171623
  0
LINE
  5
1A7
330
1F
100
AcDbEntity
  8
0
  6
Continuous
 62
     7
370
    25
100
AcDbLine
 10
6169.2311335661
 20
4878.9174681514
 30
0.0
 11
6359.2311335661
 21
4878.9174681514
 31
0.0
  0
LINE
  5
1A8
330
1F
100
AcDbEntity
  8
0
  6
Continuous
 62
     7
370
    25
100
AcDbLine
 10
6169.2311335661
 20
4878.9174681514
 30
0.0
 11
6169.2311335661
 21
4885.9174681514
 31
0.0
  0
LINE
  5
1A9
330
1F
100
AcDbEntity
  8
0
  6
Continuous
 62
     7
370
    25
100
AcDbLine
 10
6169.2311335661
 20
4885.9174681514
 30
0.0
 11
6359.2311335661
 21
4885.9174681514
 31
0.0
  0
LINE
  5
1AA
330
1F
100
AcDbEntity
  8
0
  6
Continuous
 62
     7
370
    25
100
AcDbLine
 10
6359.2311335661
 20
4878.9174681514
 30
0.0
 11
6359.2311335661
 21
4885.9174681514
 31
0.0
  0
LINE
  5
1AB
330
1F
100
AcDbEntity
  8
0
  6
Continuous
 62
     7
370
    25
100
AcDbLine
 10
6359.2311335661
 20
4848.1674681514
 30
0.0
 11
6359.2311335661
 21
4878.9174681514
 31
0.0
  0
LINE
  5
1AC
330
1F
100
AcDbEntity
  8
0
  6
Continuous
 62
     7
370
    25
100
AcDbLine
 10
6169.2311335661
 20
4848.1674681514
 30
0.0
 11
6169.2311335661
 21
4878.9174681514
 31
0.0
  0
LWPOLYLINE
  5
1AD
330
1F
100
AcDbEntity
  8
0
  6
Continuous
 62
     7
370
    25
100
AcDbPolyline
 90
       20
 70
   128
 43
0.0
 10
6203.2311335661
 20
4824.9174681514
 10
6203.3654896178
 20
4824.9807323222
 10
6203.7789149668
 20
4825.1715690899
 10
6204.429787964
 20
4825.4600051576
 10
6205.3307180991
 20
4825.8340874067
 10
6206.4788922257
 20
4826.266332432
 10
6207.8617862466
 20
4826.7168018383
 10
6209.4870803713
 20
4827.1420420983
 10
6211.3300444921
 20
4827.4798192319
 10
6213.1095803496
 20
4827.6535611218
 10
6214.9935347516
 20
4827.6700596428
 10
6216.6072160421
 20
4827.5468894026
 10
6218.1992127444
 20
4827.3034284571
 10
6221.0672909415
 20
4826.573590601
 10
6222.3858491278
 20
4826.1206569105
 10
6223.5136619322
 20
4825.6790748591
 10
6224.3866169641
 20
4825.304914859
 10
6224.978253316
 20
4825.0360375229
 10
6225.2154521634
 20
4824.9248832037
 10
6225.1977371704
 20
4824.9332387953
  0
LINE
  5
1AE
330
1F
100
AcDbEntity
  8
0
  6
Continuous
 62
     7
370
    25
100
AcDbLine
 10
6359.2311335661
 20
4824.9174681514
 30
0.0
 11
6359.2311335661
 21
4848.1674681514
 31
0.0
  0
LINE
  5
1AF
330
1F
100
AcDbEntity
  8
0
  6
Continuous
 62
     7
370
    25
100
AcDbLine
 10
6169.2311335661
 20
4824.9174681514
 30
0.0
 11
6169.2311335661
 21
4848.1674681514
 31
0.0
  0
LINE
  5
1B0
330
1F
100
AcDbEntity
  8
0
  6
Continuous
 62
     7
370
    25
100
AcDbLine
 10
6172.0838305712
 20
4907.9174681514
 30
0.0
 11
6172.0838305712
 21
4895.9174681514
 31
0.0
  0
LINE
  5
1B1
330
1F
100
AcDbEntity
  8
0
  6
Continuous
 62
     7
370
    25
100
AcDbLine
 10
6172.0838305712
 20
4907.9174681514
 30
0.0
 11
6175.3126511214
 21
4907.9174681514
 31
0.0
  0
LINE
  5
1B2
330
1F
100
AcDbEntity
  8
0
  6
Continuous
 62
     7
370
    25
100
AcDbLine
 10
6177.4286615184
 20
4907.9174681514
 30
0.0
 11
6180.6574820686
 21
4907.9174681514
 31
0.0
  0
LINE
  5
1B3
330
1F
100
AcDbEntity
  8
0
  6
Continuous
 62
     7
370
    25
100
AcDbLine
 10
6180.6574820686
 20
4907.9174681514
 30
0.0
 11
6180.6574820686
 21
4895.9174681514
 31
0.0
  0
LINE
  5
1B4
330
1F
100
AcDbEntity
  8
0
  6
Continuous
 62
     7
370
    25
100
AcDbLine
 10
6172.0838305712
 20
4895.9174681514
 30
0.0
 11
6180.6574820686
 21
4895.9174681514
 31
0.0
  0
LINE
  5
1B5
330
1F
100
AcDbEntity
  8
0
  6
Continuous
 62
     7
370
    25
100
AcDbLine
 10
6180.6574820686
 20
4907.9174681514
 30
0.0
 11
6187.1151231692
 21
4907.9174681514
 31
0.0
  0
LINE
  5
1B6
330
1F
100
AcDbEntity
  8
0
  6
Continuous
 62
     7
370
    25
100
AcDbLine
 10
6191.3471439631
 20
4907.9174681514
 30
0.0
 11
6197.8047850636
 21
4907.9174681514
 31
0.0
  0
LINE
  5
1B7
330
1F
100
AcDbEntity
  8
0
  6
Continuous
 62
     7
370
    25
100
AcDbLine
 10
6197.8047850636
 20
4907.9174681514
 30
0.0
 11
6197.8047850636
 21
4895.9174681514
 31
0.0
  0
LINE
  5
1B8
330
1F
100
AcDbEntity
  8
0
  6
Continuous
 62
     7
370
    25
100
AcDbLine
 10
6180.6574820686
 20
4895.9174681514
 30
0.0
 11
6197.8047850636
 21
4895.9174681514
 31
0.0
  0
LINE
  5
1B9
330
1F
100
AcDbEntity
  8
0
  6
Continuous
 62
     7
370
    25
100
AcDbLine
 10
6206.378436561
 20
4907.9174681514
 30
0.0
 11
6206.378436561
 21
4895.9174681514
 31
0.0
  0
LINE
  5
1BA
330
1F
100
AcDbEntity
  8
0
  6
Continuous
 62
     7
370
    25
100
AcDbLine
 10
6197.8047850636
 20
4895.9174681514
 30
0.0
 11
6206.378436561
 21
4895.9174681514
 31
0.0
  0
LINE
  5
1BB
330
1F
100
AcDbEntity
  8
0
  6
Continuous
 62
     7
370
    25
100
AcDbLine
 10
6197.8047850636
 20
4907.9174681514
 30
0.0
 11
6201.0336056138
 21
4907.9174681514
 31
0.0
  0
LINE
  5
1BC
330
1F
100
AcDbEntity
  8
0
  6
Continuous
 62
     7
370
    25
100
AcDbLine
 10
6203.1496160108
 20
4907.9174681514
 30
0.0
 11
6206.378436561
 21
4907.9174681514
 31
0.0
  0
LINE
  5
1BD
330
1F
100
AcDbEntity
  8
0
  6
Continuous
 62
     7
370
    25
100
AcDbLine
 10
6322.0838305712
 20
4907.9174681514
 30
0.0
 11
6322.0838305712
 21
4895.9174681514
 31
0.0
  0
LINE
  5
1BE
330
1F
100
AcDbEntity
  8
0
  6
Continuous
 62
     7
370
    25
100
AcDbLine
 10
6322.0838305712
 20
4907.9174681514
 30
0.0
 11
6325.3126511214
 21
4907.9174681514
 31
0.0
  0
LINE
  5
1BF
330
1F
100
AcDbEntity
  8
0
  6
Continuous
 62
     7
370
    25
100
AcDbLine
 10
6327.4286615184
 20
4907.9174681514
 30
0.0
 11
6330.6574820686
 21
4907.9174681514
 31
0.0
  0
LINE
  5
1C0
330
1F
100
AcDbEntity
  8
0
  6
Continuous
 62
     7
370
    25
100
AcDbLine
 10
6330.6574820686
 20
4907.9174681514
 30
0.0
 11
6330.6574820686
 21
4895.9174681514
 31
0.0
  0
LINE
  5
1C1
330
1F
100
AcDbEntity
  8
0
  6
Continuous
 62
     7
370
    25
100
AcDbLine
 10
6322.0838305712
 20
4895.9174681514
 30
0.0
 11
6330.6574820686
 21
4895.9174681514
 31
0.0
  0
LINE
  5
1C2
330
1F
100
AcDbEntity
  8
0
  6
Continuous
 62
     7
370
    25
100
AcDbLine
 10
6347.8047850636
 20
4907.9174681514
 30
0.0
 11
6347.8047850636
 21
4895.9174681514
 31
0.0
  0
LINE
  5
1C3
330
1F
100
AcDbEntity
  8
0
  6
Continuous
 62
     7
370
    25
100
AcDbLine
 10
6330.6574820686
 20
4895.9174681514
 30
0.0
 11
6347.8047850636
 21
4895.9174681514
 31
0.0
  0
LINE
  5
1C4
330
1F
100
AcDbEntity
  8
0
  6
Continuous
 62
     7
370
    25
100
AcDbLine
 10
6330.6574820686
 20
4907.9174681514
 30
0.0
 11
6337.1151231692
 21
4907.9174681514
 31
0.0
  0
LINE
  5
1C5
330
1F
100
AcDbEntity
  8
0
  6
Continuous
 62
     7
370
    25
100
AcDbLine
 10
6341.3471439631
 20
4907.9174681514
 30
0.0
 11
6347.8047850636
 21
4907.9174681514
 31
0.0
  0
LINE
  5
1C6
330
1F
100
AcDbEntity
  8
0
  6
Continuous
 62
     7
370
    25
100
AcDbLine
 10
6356.378436561
 20
4907.9174681514
 30
0.0
 11
6356.378436561
 21
4895.9174681514
 31
0.0
  0
LINE
  5
1C7
330
1F
100
AcDbEntity
  8
0
  6
Continuous
 62
     7
370
    25
100
AcDbLine
 10
6347.8047850636
 20
4895.9174681514
 30
0.0
 11
6356.378436561
 21
4895.9174681514
 31
0.0
  0
LINE
  5
1C8
330
1F
100
AcDbEntity
  8
0
  6
Continuous
 62
     7
370
    25
100
AcDbLine
 10
6347.8047850636
 20
4907.9174681514
 30
0.0
 11
6351.0336056138
 21
4907.9174681514
 31
0.0
  0
LINE
  5
1C9
330
1F
100
AcDbEntity
  8
0
  6
Continuous
 62
     7
370
    25
100
AcDbLine
 10
6353.1496160108
 20
4907.9174681514
 30
0.0
 11
6356.378436561
 21
4907.9174681514
 31
0.0
  0
LINE
  5
1CA
330
1F
100
AcDbEntity
  8
0
  6
Continuous
 62
     8
370
    25
100
AcDbLine
 10
6153.7311335661
 20
4848.1674681514
 30
0.0
 11
6153.7311335661
 21
4825.1674681514
 31
0.0
  0
LINE
  5
1CB
330
1F
100
AcDbEntity
  8
0
  6
Continuous
 62
     8
370
    25
100
AcDbLine
 10
6153.7311335661
 20
4871.1674681514
 30
0.0
 11
6153.7311335661
 21
4848.1674681514
 31
0.0
  0
LINE
  5
1CC
330
1F
100
AcDbEntity
  8
0
  6
Continuous
 62
     8
370
    25
100
AcDbLine
 10
6410.2087648601
 20
4855.9138889304
 30
0.0
 11
6410.2087648601
 21
4840.4210473724
 31
0.0
  0
LINE
  5
1CD
330
1F
100
AcDbEntity
  8
0
  6
Continuous
 62
     8
370
    25
100
AcDbLine
 10
6403.2493817413
 20
4844.0320563385
 30
0.0
 11
6403.2493817413
 21
4827.8026339494
 31
0.0
  0
LINE
  5
1CE
330
1F
100
AcDbEntity
  8
0
  6
Continuous
 62
     8
370
    25
100
AcDbLine
 10
6403.2493817413
 20
4868.5323023534
 30
0.0
 11
6403.2493817413
 21
4863.2601395898
 31
0.0
  0
LINE
  5
1CF
330
1F
100
AcDbEntity
  8
0
  6
Continuous
 62
     8
370
    25
100
AcDbLine
 10
6375.7311335661
 20
4855.2958734006
 30
0.0
 11
6375.7311335661
 21
4825.1674681514
 31
0.0
  0
LINE
  5
1D0
330
1F
100
AcDbEntity
  8
0
  6
Continuous
 62
     8
370
    25
100
AcDbLine
 10
6375.7311335661
 20
4871.1674681514
 30
0.0
 11
6375.7311335661
 21
4855.2958734006
 31
0.0
  0
LINE
  5
1D1
330
1F
100
AcDbEntity
  8
0
  6
Continuous
 62
     8
370
    25
100
AcDbLine
 10
6229.2311335661
 20
4927.9174681514
 30
0.0
 11
6149.2311335661
 21
4927.9174681514
 31
0.0
  0
LINE
  5
1D2
330
1F
100
AcDbEntity
  8
0
  6
Continuous
 62
     8
370
    25
100
AcDbLine
 10
6228.9743627878
 20
4926.9370846138
 30
0.0
 11
6149.4879043445
 21
4926.9370846138
 31
0.0
  0
LINE
  5
1D3
330
1F
100
AcDbEntity
  8
0
  6
Continuous
 62
     8
370
    25
100
AcDbLine
 10
6204.763836472
 20
4907.9897161927
 30
0.0
 11
6173.6984306603
 21
4907.9897161927
 31
0.0
  0
LINE
  5
1D4
330
1F
100
AcDbEntity
  8
0
  6
Continuous
 62
     8
370
    25
100
AcDbLine
 10
6379.2311335661
 20
4927.9174681514
 30
0.0
 11
6299.2311335661
 21
4927.9174681514
 31
0.0
  0
LINE
  5
1D5
330
1F
100
AcDbEntity
  8
0
  6
Continuous
 62
     8
370
    25
100
AcDbLine
 10
6378.9743627878
 20
4926.9370846138
 30
0.0
 11
6299.4879043445
 21
4926.9370846138
 31
0.0
  0
LINE
  5
1D6
330
1F
100
AcDbEntity
  8
0
  6
Continuous
 62
     8
370
    25
100
AcDbLine
 10
6354.763836472
 20
4907.9897161927
 30
0.0
 11
6323.6984306603
 21
4907.9897161927
 31
0.0
  0
LINE
  5
1D7
330
1F
100
AcDbEntity
  8
0
  6
Continuous
 62
     8
370
    25
100
AcDbLine
 10
6169.2311335661
 20
4848.1674681514
 30
0.0
 11
6248.9515578364
 21
4848.1674681514
 31
0.0
  0
LINE
  5
1D8
330
1F
100
AcDbEntity
  8
0
  6
Continuous
 62
     8
370
    25
100
AcDbLine
 10
6279.5107092958
 20
4848.1674681514
 30
0.0
 11
6359.2311335661
 21
4848.1674681514
 31
0.0
  0
ENDSEC
  0
SECTION
  2
OBJECTS
  0
DICTIONARY
  5
C
330
0
100
AcDbDictionary
281
     1
  3
ACAD_GROUP
350
D
  3
ACAD_LAYOUT
350
1A
  3
ACAD_MLINESTYLE
350
17
  3
ACAD_PLOTSETTINGS
350
19
  3
ACAD_PLOTSTYLENAME
350
E
  3
ACAD_SCALELIST
350
47
  3
DWGPROPS
350
1D9
  0
DICTIONARY
  5
D
102
{ACAD_REACTORS
330
C
102
}
330
C
100
AcDbDictionary
281
     1
  0
DICTIONARY
  5
1A
102
{ACAD_REACTORS
330
C
102
}
330
C
100
AcDbDictionary
281
     1
  3
Layout1
350
1E
  3
Layout2
350
26
  3
Model
350
22
  0
DICTIONARY
  5
17
102
{ACAD_REACTORS
330
C
102
}
330
C
100
AcDbDictionary
281
     1
  3
Standard
350
18
  0
DICTIONARY
  5
19
102
{ACAD_REACTORS
330
C
102
}
330
C
100
AcDbDictionary
281
     1
  0
ACDBDICTIONARYWDFLT
  5
E
102
{ACAD_REACTORS
330
C
102
}
330
C
100
AcDbDictionary
281
     1
  3
Normal
350
F
100
AcDbDictionaryWithDefault
340
F
  0
DICTIONARY
  5
47
102
{ACAD_REACTORS
330
C
102
}
330
C
100
AcDbDictionary
281
     1
  3
A0
350
48
  3
A1
350
49
  3
A2
350
4A
  3
A3
350
4B
  3
A4
350
4C
  3
A5
350
4D
  3
A6
350
4E
  3
A7
350
4F
  3
A8
350
50
  3
A9
350
51
  3
B0
350
52
  3
B1
350
53
  3
B2
350
54
  3
B3
350
55
  3
B4
350
56
  3
B5
350
57
  3
B6
350
58
  3
B7
350
59
  3
B8
350
5A
  3
B9
350
5B
  3
C0
350
5C
  3
C1
350
5D
  3
C2
350
5E
  3
C3
350
5F
  3
C4
350
60
  3
C5
350
61
  3
C6
350
62
  3
C7
350
63
  3
C8
350
64
  3
C9
350
65
  3
D0
350
66
  3
D1
350
67
  3
D2
350
68
  0
XRECORD
  5
1D9
102
{ACAD_REACTORS
330
C
102
}
330
C
100
AcDbXrecord
280
     1
  1
DWGPROPS COOKIE
  2

  3

  4

  6

  7

  8
radek.stransky
  9

300
=
301
=
302
=
303
=
304
=
305
=
306
=
307
=
308
=
309
=
 40
0.0
 41
2459594.477394375
 42
2459594.477394792
  1

 90
        0
  0
LAYOUT
  5
1E
102
{ACAD_REACTORS
330
1A
102
}
330
1A
100
AcDbPlotSettings
  1

  2
none_device
  4

  6

 40
0.0
 41
0.0
 42
0.0
 43
0.0
 44
0.0
 45
0.0
 46
0.0
 47
0.0
 48
0.0
 49
0.0
140
0.0
141
0.0
142
1.0
143
1.0
 70
   688
 72
     1
 73
     0
 74
     5
  7

 75
    16
147
1.0
148
0.0
149
0.0
100
AcDbLayout
  1
Layout1
 70
     1
 71
     1
 10
0.0
 20
0.0
 11
420.0
 21
297.0
 12
0.0
 22
0.0
 32
0.0
 14
1.0000000000E+20
 24
1.0000000000E+20
 34
1.0000000000E+20
 15
-1.0000000000E+20
 25
-1.0000000000E+20
 35
-1.0000000000E+20
146
0.0
 13
0.0
 23
0.0
 33
0.0
 16
1.0
 26
0.0
 36
0.0
 17
0.0
 27
1.0
 37
0.0
 76
     0
330
1B
  0
LAYOUT
  5
26
102
{ACAD_REACTORS
330
1A
102
}
330
1A
100
AcDbPlotSettings
  1

  2
none_device
  4

  6

 40
0.0
 41
0.0
 42
0.0
 43
0.0
 44
0.0
 45
0.0
 46
0.0
 47
0.0
 48
0.0
 49
0.0
140
0.0
141
0.0
142
1.0
143
1.0
 70
   688
 72
     1
 73
     0
 74
     5
  7

 75
    16
147
1.0
148
0.0
149
0.0
100
AcDbLayout
  1
Layout2
 70
     1
 71
     2
 10
0.0
 20
0.0
 11
0.0
 21
0.0
 12
0.0
 22
0.0
 32
0.0
 14
0.0
 24
0.0
 34
0.0
 15
0.0
 25
0.0
 35
0.0
146
0.0
 13
0.0
 23
0.0
 33
0.0
 16
1.0
 26
0.0
 36
0.0
 17
0.0
 27
1.0
 37
0.0
 76
     0
330
23
  0
LAYOUT
  5
22
102
{ACAD_REACTORS
330
1A
102
}
330
1A
100
AcDbPlotSettings
  1

  2
none_device
  4
Letter_(8.50_x_11.00_Inches)
  6

 40
6.35
 41
6.35
 42
6.35000508
 43
6.35000508
 44
215.9
 45
279.4
 46
0.0
 47
0.0
 48
0.0
 49
0.0
140
0.0
141
0.0
142
1.0
143
1.0
 70
  1712
 72
     1
 73
     0
 74
     0
  7

 75
     0
147
1.0
148
0.0
149
0.0
100
AcDbLayout
  1
Model
 70
     1
 71
     0
 10
0.0
 20
0.0
 11
20000.0
 21
10000.0
 12
0.0
 22
0.0
 32
0.0
 14
0.0
 24
0.0
 34
0.0
 15
20000.0
 25
10000.0
 35
0.0
146
0.0
 13
0.0
 23
0.0
 33
0.0
 16
1.0
 26
0.0
 36
0.0
 17
0.0
 27
1.0
 37
0.0
 76
     0
330
1F
331
29
  0
MLINESTYLE
  5
18
102
{ACAD_REACTORS
330
17
102
}
330
17
100
AcDbMlineStyle
  2
Standard
 70
     0
  3

 62
   256
 51
90.0
 52
90.0
 71
     2
 49
0.5
 62
   256
  6
BYLAYER
 49
-0.5
 62
   256
  6
BYLAYER
  0
ACDBPLACEHOLDER
  5
F
102
{ACAD_REACTORS
330
E
102
}
330
E
  0
SCALE
  5
48
102
{ACAD_REACTORS
330
47
102
}
330
47
100
AcDbScale
 70
     0
300
1:1
140
1.0
141
1.0
290
     1
  0
SCALE
  5
49
102
{ACAD_REACTORS
330
47
102
}
330
47
100
AcDbScale
 70
     0
300
1:2
140
1.0
141
2.0
290
     0
  0
SCALE
  5
4A
102
{ACAD_REACTORS
330
47
102
}
330
47
100
AcDbScale
 70
     0
300
1:4
140
1.0
141
4.0
290
     0
  0
SCALE
  5
4B
102
{ACAD_REACTORS
330
47
102
}
330
47
100
AcDbScale
 70
     0
300
1:5
140
1.0
141
5.0
290
     0
  0
SCALE
  5
4C
102
{ACAD_REACTORS
330
47
102
}
330
47
100
AcDbScale
 70
     0
300
1:8
140
1.0
141
8.0
290
     0
  0
SCALE
  5
4D
102
{ACAD_REACTORS
330
47
102
}
330
47
100
AcDbScale
 70
     0
300
1:10
140
1.0
141
10.0
290
     0
  0
SCALE
  5
4E
102
{ACAD_REACTORS
330
47
102
}
330
47
100
AcDbScale
 70
     0
300
1:16
140
1.0
141
16.0
290
     0
  0
SCALE
  5
4F
102
{ACAD_REACTORS
330
47
102
}
330
47
100
AcDbScale
 70
     0
300
1:20
140
1.0
141
20.0
290
     0
  0
SCALE
  5
50
102
{ACAD_REACTORS
330
47
102
}
330
47
100
AcDbScale
 70
     0
300
1:30
140
1.0
141
30.0
290
     0
  0
SCALE
  5
51
102
{ACAD_REACTORS
330
47
102
}
330
47
100
AcDbScale
 70
     0
300
1:40
140
1.0
141
40.0
290
     0
  0
SCALE
  5
52
102
{ACAD_REACTORS
330
47
102
}
330
47
100
AcDbScale
 70
     0
300
1:50
140
1.0
141
50.0
290
     0
  0
SCALE
  5
53
102
{ACAD_REACTORS
330
47
102
}
330
47
100
AcDbScale
 70
     0
300
1:100
140
1.0
141
100.0
290
     0
  0
SCALE
  5
54
102
{ACAD_REACTORS
330
47
102
}
330
47
100
AcDbScale
 70
     0
300
2:1
140
2.0
141
1.0
290
     0
  0
SCALE
  5
55
102
{ACAD_REACTORS
330
47
102
}
330
47
100
AcDbScale
 70
     0
300
4:1
140
4.0
141
1.0
290
     0
  0
SCALE
  5
56
102
{ACAD_REACTORS
330
47
102
}
330
47
100
AcDbScale
 70
     0
300
8:1
140
8.0
141
1.0
290
     0
  0
SCALE
  5
57
102
{ACAD_REACTORS
330
47
102
}
330
47
100
AcDbScale
 70
     0
300
10:1
140
10.0
141
1.0
290
     0
  0
SCALE
  5
58
102
{ACAD_REACTORS
330
47
102
}
330
47
100
AcDbScale
 70
     0
300
100:1
140
100.0
141
1.0
290
     0
  0
SCALE
  5
59
102
{ACAD_REACTORS
330
47
102
}
330
47
100
AcDbScale
 70
     0
300
1/128" = 1'-0"
140
0.0078125
141
12.0
290
     0
  0
SCALE
  5
5A
102
{ACAD_REACTORS
330
47
102
}
330
47
100
AcDbScale
 70
     0
300
1/64" = 1'-0"
140
0.015625
141
12.0
290
     0
  0
SCALE
  5
5B
102
{ACAD_REACTORS
330
47
102
}
330
47
100
AcDbScale
 70
     0
300
1/32" = 1'-0"
140
0.03125
141
12.0
290
     0
  0
SCALE
  5
5C
102
{ACAD_REACTORS
330
47
102
}
330
47
100
AcDbScale
 70
     0
300
1/16" = 1'-0"
140
0.0625
141
12.0
290
     0
  0
SCALE
  5
5D
102
{ACAD_REACTORS
330
47
102
}
330
47
100
AcDbScale
 70
     0
300
3/32" = 1'-0"
140
0.09375
141
12.0
290
     0
  0
SCALE
  5
5E
102
{ACAD_REACTORS
330
47
102
}
330
47
100
AcDbScale
 70
     0
300
1/8" = 1'-0"
140
0.125
141
12.0
290
     0
  0
SCALE
  5
5F
102
{ACAD_REACTORS
330
47
102
}
330
47
100
AcDbScale
 70
     0
300
3/16" = 1'-0"
140
0.1875
141
12.0
290
     0
  0
SCALE
  5
60
102
{ACAD_REACTORS
330
47
102
}
330
47
100
AcDbScale
 70
     0
300
1/4" = 1'-0"
140
0.25
141
12.0
290
     0
  0
SCALE
  5
61
102
{ACAD_REACTORS
330
47
102
}
330
47
100
AcDbScale
 70
     0
300
3/8" = 1'-0"
140
0.375
141
12.0
290
     0
  0
SCALE
  5
62
102
{ACAD_REACTORS
330
47
102
}
330
47
100
AcDbScale
 70
     0
300
1/2" = 1'-0"
140
0.5
141
12.0
290
     0
  0
SCALE
  5
63
102
{ACAD_REACTORS
330
47
102
}
330
47
100
AcDbScale
 70
     0
300
3/4" = 1'-0"
140
0.75
141
12.0
290
     0
  0
SCALE
  5
64
102
{ACAD_REACTORS
330
47
102
}
330
47
100
AcDbScale
 70
     0
300
1" = 1'-0"
140
1.0
141
12.0
290
     0
  0
SCALE
  5
65
102
{ACAD_REACTORS
330
47
102
}
330
47
100
AcDbScale
 70
     0
300
1-1/2" = 1'-0"
140
1.5
141
12.0
290
     0
  0
SCALE
  5
66
102
{ACAD_REACTORS
330
47
102
}
330
47
100
AcDbScale
 70
     0
300
3" = 1'-0"
140
3.0
141
12.0
290
     0
  0
SCALE
  5
67
102
{ACAD_REACTORS
330
47
102
}
330
47
100
AcDbScale
 70
     0
300
6" = 1'-0"
140
6.0
141
12.0
290
     0
  0
SCALE
  5
68
102
{ACAD_REACTORS
330
47
102
}
330
47
100
AcDbScale
 70
     0
300
1'-0" = 1'-0"
140
12.0
141
12.0
290
     0
  0
ENDSEC
  0
EOF
