  0
SECTION
  2
HEADER
  9
$ACADVER
  1
AC1015
  9
$ACADMAINTVER
 70
     6
  9
$DWGCODEPAGE
  3
ANSI_1250
  9
$INSBASE
 10
0.0
 20
0.0
 30
0.0
  9
$EXTMIN
 10
0.0
 20
0.0
 30
0.0
  9
$EXTMAX
 10
20000.0
 20
10000.0
 30
0.0
  9
$LIMMIN
 10
0.0
 20
0.0
  9
$LIMMAX
 10
20000.0
 20
10000.0
  9
$ORTHOMODE
 70
     0
  9
$REGENMODE
 70
     1
  9
$FILLMODE
 70
     1
  9
$QTEXTMODE
 70
     0
  9
$MIRRTEXT
 70
     1
  9
$LTSCALE
 40
1.0
  9
$ATTMODE
 70
     1
  9
$TEXTSIZE
 40
2.0
  9
$TRACEWID
 40
1.0
  9
$TEXTSTYLE
  7
Standard
  9
$CLAYER
  8
0
  9
$CELTYPE
  6
ByLayer
  9
$CECOLOR
 62
   256
  9
$CELTSCALE
 40
1.0
  9
$DISPSILH
 70
     0
  9
$DIMSCALE
 40
1.0
  9
$DIMASZ
 40
2.0
  9
$DIMEXO
 40
1.0
  9
$DIMDLI
 40
3.75
  9
$DIMRND
 40
0.0
  9
$DIMDLE
 40
0.0
  9
$DIMEXE
 40
1.0
  9
$DIMTP
 40
0.0
  9
$DIMTM
 40
0.0
  9
$DIMTXT
 40
2.0
  9
$DIMCEN
 40
2.5
  9
$DIMTSZ
 40
0.0
  9
$DIMTOL
 70
     0
  9
$DIMLIM
 70
     0
  9
$DIMTIH
 70
     1
  9
$DIMTOH
 70
     1
  9
$DIMSE1
 70
     0
  9
$DIMSE2
 70
     0
  9
$DIMTAD
 70
     1
  9
$DIMZIN
 70
     0
  9
$DIMBLK
  1

  9
$DIMASO
 70
     1
  9
$DIMSHO
 70
     1
  9
$DIMPOST
  1

  9
$DIMAPOST
  1

  9
$DIMALT
 70
     0
  9
$DIMALTD
 70
     3
  9
$DIMALTF
 40
0.0393700787
  9
$DIMLFAC
 40
1.0
  9
$DIMTOFL
 70
     1
  9
$DIMTVP
 40
0.0
  9
$DIMTIX
 70
     0
  9
$DIMSOXD
 70
     0
  9
$DIMSAH
 70
     0
  9
$DIMBLK1
  1

  9
$DIMBLK2
  1

  9
$DIMSTYLE
  2
ISO-25
  9
$DIMCLRD
 70
     0
  9
$DIMCLRE
 70
     0
  9
$DIMCLRT
 70
     0
  9
$DIMTFAC
 40
1.0
  9
$DIMGAP
 40
1.524
  9
$DIMJUST
 70
     0
  9
$DIMSD1
 70
     0
  9
$DIMSD2
 70
     0
  9
$DIMTOLJ
 70
     0
  9
$DIMTZIN
 70
     0
  9
$DIMALTZ
 70
     0
  9
$DIMALTTZ
 70
     0
  9
$DIMUPT
 70
     0
  9
$DIMDEC
 70
     2
  9
$DIMTDEC
 70
     0
  9
$DIMALTU
 70
     2
  9
$DIMALTTD
 70
     3
  9
$DIMTXSTY
  7
Standard
  9
$DIMAUNIT
 70
     0
  9
$DIMADEC
 70
     2
  9
$DIMALTRND
 40
0.0
  9
$DIMAZIN
 70
     0
  9
$DIMDSEP
 70
    44
  9
$DIMATFIT
 70
     3
  9
$DIMFRAC
 70
     0
  9
$DIMLDRBLK
  1

  9
$DIMLUNIT
 70
     2
  9
$DIMLWD
 70
    -2
  9
$DIMLWE
 70
    -2
  9
$DIMTMOVE
 70
     0
  9
$LUNITS
 70
     2
  9
$LUPREC
 70
     3
  9
$SKETCHINC
 40
1.0
  9
$FILLETRAD
 40
10.0
  9
$AUNITS
 70
     0
  9
$AUPREC
 70
     2
  9
$MENU
  1
.
  9
$ELEVATION
 40
0.0
  9
$PELEVATION
 40
0.0
  9
$THICKNESS
 40
0.0
  9
$LIMCHECK
 70
     0
  9
$CHAMFERA
 40
0.0
  9
$CHAMFERB
 40
0.0
  9
$CHAMFERC
 40
0.0
  9
$CHAMFERD
 40
0.0
  9
$SKPOLY
 70
     0
  9
$TDCREATE
 40
2459543.397250174
  9
$TDUCREATE
 40
2459543.355583507
  9
$TDUPDATE
 40
2459543.397250428
  9
$TDUUPDATE
 40
2459543.355583761
  9
$TDINDWG
 40
0.0000000116
  9
$TDUSRTIMER
 40
0.0000000116
  9
$USRTIMER
 70
     1
  9
$ANGBASE
 50
0.0
  9
$ANGDIR
 70
     0
  9
$PDMODE
 70
     0
  9
$PDSIZE
 40
-1.0
  9
$PLINEWID
 40
0.0
  9
$SPLFRAME
 70
     0
  9
$SPLINETYPE
 70
     6
  9
$SPLINESEGS
 70
     8
  9
$HANDSEED
  5
2A8
  9
$SURFTAB1
 70
     6
  9
$SURFTAB2
 70
     6
  9
$SURFTYPE
 70
     6
  9
$SURFU
 70
     6
  9
$SURFV
 70
     6
  9
$UCSBASE
  2

  9
$UCSNAME
  2

  9
$UCSORG
 10
0.0
 20
0.0
 30
0.0
  9
$UCSXDIR
 10
1.0
 20
0.0
 30
0.0
  9
$UCSYDIR
 10
0.0
 20
1.0
 30
0.0
  9
$UCSORTHOREF
  2

  9
$UCSORTHOVIEW
 70
     0
  9
$UCSORGTOP
 10
0.0
 20
0.0
 30
0.0
  9
$UCSORGBOTTOM
 10
0.0
 20
0.0
 30
0.0
  9
$UCSORGLEFT
 10
0.0
 20
0.0
 30
0.0
  9
$UCSORGRIGHT
 10
0.0
 20
0.0
 30
0.0
  9
$UCSORGFRONT
 10
0.0
 20
0.0
 30
0.0
  9
$UCSORGBACK
 10
0.0
 20
0.0
 30
0.0
  9
$PUCSBASE
  2

  9
$PUCSNAME
  2

  9
$PUCSORG
 10
0.0
 20
0.0
 30
0.0
  9
$PUCSXDIR
 10
1.0
 20
0.0
 30
0.0
  9
$PUCSYDIR
 10
0.0
 20
1.0
 30
0.0
  9
$PUCSORTHOREF
  2

  9
$PUCSORTHOVIEW
 70
     0
  9
$PUCSORGTOP
 10
0.0
 20
0.0
 30
0.0
  9
$PUCSORGBOTTOM
 10
0.0
 20
0.0
 30
0.0
  9
$PUCSORGLEFT
 10
0.0
 20
0.0
 30
0.0
  9
$PUCSORGRIGHT
 10
0.0
 20
0.0
 30
0.0
  9
$PUCSORGFRONT
 10
0.0
 20
0.0
 30
0.0
  9
$PUCSORGBACK
 10
0.0
 20
0.0
 30
0.0
  9
$USERI1
 70
     0
  9
$USERI2
 70
     0
  9
$USERI3
 70
     0
  9
$USERI4
 70
     0
  9
$USERI5
 70
     0
  9
$USERR1
 40
0.0
  9
$USERR2
 40
0.0
  9
$USERR3
 40
0.0
  9
$USERR4
 40
0.0
  9
$USERR5
 40
0.0
  9
$WORLDVIEW
 70
     1
  9
$SHADEDGE
 70
     3
  9
$SHADEDIF
 70
    70
  9
$TILEMODE
 70
     1
  9
$MAXACTVP
 70
    64
  9
$PINSBASE
 10
0.0
 20
0.0
 30
0.0
  9
$PLIMCHECK
 70
     0
  9
$PEXTMIN
 10
1.0000000000E+20
 20
1.0000000000E+20
 30
1.0000000000E+20
  9
$PEXTMAX
 10
-1.0000000000E+20
 20
-1.0000000000E+20
 30
-1.0000000000E+20
  9
$PLIMMIN
 10
0.0
 20
0.0
  9
$PLIMMAX
 10
420.0
 20
297.0
  9
$UNITMODE
 70
     0
  9
$VISRETAIN
 70
     1
  9
$PLINEGEN
 70
     0
  9
$PSLTSCALE
 70
     1
  9
$TREEDEPTH
 70
  3020
  9
$CMLSTYLE
  2
Standard
  9
$CMLJUST
 70
     0
  9
$CMLSCALE
 40
20.0
  9
$PROXYGRAPHICS
 70
     1
  9
$MEASUREMENT
 70
     1
  9
$CELWEIGHT
370
    -1
  9
$ENDCAPS
280
     0
  9
$JOINSTYLE
280
     0
  9
$LWDISPLAY
290
     1
  9
$INSUNITS
 70
     4
  9
$HYPERLINKBASE
  1

  9
$STYLESHEET
  1

  9
$XEDIT
290
     1
  9
$CEPSNTYPE
380
     0
  9
$PSTYLEMODE
290
     1
  9
$FINGERPRINTGUID
  2
{621cd455-72c9-448c-a1f1-63991e2e5b66}
  9
$VERSIONGUID
  2
{FAEB1C32-E019-11D5-929B-00C0DF256EC4}
  9
$EXTNAMES
290
     1
  9
$PSVPSCALE
 40
0.0
  9
$OLESTARTUP
290
     0
  0
ENDSEC
  0
SECTION
  2
CLASSES
  0
CLASS
  1
ACDBDICTIONARYWDFLT
  2
AcDbDictionaryWithDefault
  3
ObjectDBX Classes
 90
        0
280
     0
281
     0
  0
CLASS
  1
VISUALSTYLE
  2
AcDbVisualStyle
  3
ObjectDBX Classes
 90
     4095
280
     0
281
     0
  0
CLASS
  1
MATERIAL
  2
AcDbMaterial
  3
ObjectDBX Classes
 90
     1153
280
     0
281
     0
  0
CLASS
  1
SCALE
  2
AcDbScale
  3
ObjectDBX Classes
 90
     1153
280
     0
281
     0
  0
CLASS
  1
TABLESTYLE
  2
AcDbTableStyle
  3
ObjectDBX Classes
 90
     4095
280
     0
281
     0
  0
CLASS
  1
MLEADERSTYLE
  2
AcDbMLeaderStyle
  3
ACDB_MLEADERSTYLE_CLASS
 90
     4095
280
     0
281
     0
  0
CLASS
  1
SUN
  2
AcDbSun
  3
SCENEOE
 90
     1153
280
     0
281
     0
  0
CLASS
  1
ACDBPLACEHOLDER
  2
AcDbPlaceHolder
  3
ObjectDBX Classes
 90
        0
280
     0
281
     0
  0
CLASS
  1
LAYOUT
  2
AcDbLayout
  3
ObjectDBX Classes
 90
        0
280
     0
281
     0
  0
ENDSEC
  0
SECTION
  2
TABLES
  0
TABLE
  2
VPORT
  5
8
330
0
100
AcDbSymbolTable
 70
     1
  0
VPORT
  5
29
330
8
100
AcDbSymbolTableRecord
100
AcDbViewportTableRecord
  2
*Active
 70
     0
 10
0.0
 20
0.0
 11
1.0
 21
1.0
 12
10000.0
 22
5000.0
 13
0.0
 23
0.0
 14
10.0
 24
10.0
 15
10.0
 25
10.0
 16
0.0
 26
0.0
 36
1.0
 17
0.0
 27
0.0
 37
0.0
 40
10000.0
 41
2.0
 42
50.0
 43
0.0
 44
0.0
 50
0.0
 51
0.0
 71
     0
 72
  2000
 73
     1
 74
     3
 75
     0
 76
     0
 77
     0
 78
     0
281
     0
 65
     1
110
0.0
120
0.0
130
0.0
111
1.0
121
0.0
131
0.0
112
0.0
122
1.0
132
0.0
 79
     0
146
0.0
  0
ENDTAB
  0
TABLE
  2
LTYPE
  5
5
330
0
100
AcDbSymbolTable
 70
     6
  0
LTYPE
  5
14
330
5
100
AcDbSymbolTableRecord
100
AcDbLinetypeTableRecord
  2
ByBlock
 70
     0
  3

 72
    65
 73
     0
 40
0.0
  0
LTYPE
  5
15
330
5
100
AcDbSymbolTableRecord
100
AcDbLinetypeTableRecord
  2
ByLayer
 70
     0
  3

 72
    65
 73
     0
 40
0.0
  0
LTYPE
  5
16
330
5
100
AcDbSymbolTableRecord
100
AcDbLinetypeTableRecord
  2
Continuous
 70
     0
  3
Solid line
 72
    65
 73
     0
 40
0.0
  0
LTYPE
  5
6E
330
5
100
AcDbSymbolTableRecord
100
AcDbLinetypeTableRecord
  2
HIDDEN
 70
     0
  3
Hidden __ __ __ __ __ __ __ __ __ __ __ __ __ __
 72
    65
 73
     2
 40
1.905
 49
1.27
 74
     0
 49
-0.635
 74
     0
  0
LTYPE
  5
6F
330
5
100
AcDbSymbolTableRecord
100
AcDbLinetypeTableRecord
  2
PHANTOM
 70
     0
  3
Phantom ______  __  __  ______  __  __  ______
 72
    65
 73
     6
 40
12.7
 49
6.35
 74
     0
 49
-1.27
 74
     0
 49
1.27
 74
     0
 49
-1.27
 74
     0
 49
1.27
 74
     0
 49
-1.27
 74
     0
  0
LTYPE
  5
70
330
5
100
AcDbSymbolTableRecord
100
AcDbLinetypeTableRecord
  2
CENTER
 70
     0
  3
Center ____ _ ____ _ ____ _ ____ _ ____ _ ____
 72
    65
 73
     4
 40
10.16
 49
6.35
 74
     0
 49
-1.27
 74
     0
 49
1.27
 74
     0
 49
-1.27
 74
     0
  0
LTYPE
  5
71
330
5
100
AcDbSymbolTableRecord
100
AcDbLinetypeTableRecord
  2
CENTERX2
 70
     0
  3
Center (2x) ________  __  ________  __  _____
 72
    65
 73
     4
 40
20.32
 49
12.7
 74
     0
 49
-2.54
 74
     0
 49
2.54
 74
     0
 49
-2.54
 74
     0
  0
LTYPE
  5
72
330
5
100
AcDbSymbolTableRecord
100
AcDbLinetypeTableRecord
  2
DOT2
 70
     0
  3
Dot (.5x) ........................................
 72
    65
 73
     2
 40
0.635
 49
0.0
 74
     0
 49
-0.635
 74
     0
  0
ENDTAB
  0
TABLE
  2
LAYER
  5
2
330
0
100
AcDbSymbolTable
 70
    13
  0
LAYER
  5
10
330
2
100
AcDbSymbolTableRecord
100
AcDbLayerTableRecord
  2
0
 70
     0
 62
     7
  6
Continuous
370
    -3
390
F
  0
LAYER
  5
73
330
2
100
AcDbSymbolTableRecord
100
AcDbLayerTableRecord
  2
FORMAT
 70
     0
 62
     7
  6
Continuous
370
    -3
390
F
  0
LAYER
  5
74
330
2
100
AcDbSymbolTableRecord
100
AcDbLayerTableRecord
  2
OSA
 70
     0
 62
     7
  6
CENTER
370
    -3
390
F
  0
LAYER
  5
75
330
2
100
AcDbSymbolTableRecord
100
AcDbLayerTableRecord
  2
0_35
 70
     0
 62
     7
  6
Continuous
370
    35
390
F
  0
LAYER
  5
76
330
2
100
AcDbSymbolTableRecord
100
AcDbLayerTableRecord
  2
0_5
 70
     0
 62
     7
  6
Continuous
370
    50
390
F
  0
LAYER
  5
77
330
2
100
AcDbSymbolTableRecord
100
AcDbLayerTableRecord
  2
0_25
 70
     0
 62
     7
  6
Continuous
370
    25
390
F
  0
LAYER
  5
78
330
2
100
AcDbSymbolTableRecord
100
AcDbLayerTableRecord
  2
0_18
 70
     0
 62
     7
  6
Continuous
370
    -3
390
F
  0
LAYER
  5
79
330
2
100
AcDbSymbolTableRecord
100
AcDbLayerTableRecord
  2
SLD-0
 70
     0
 62
   179
  6
Continuous
370
    -3
390
F
  0
LAYER
  5
7A
330
2
100
AcDbSymbolTableRecord
100
AcDbLayerTableRecord
  2
KOTY
 70
     0
 62
     7
  6
Continuous
370
    -3
390
F
  0
LAYER
  5
7B
330
2
100
AcDbSymbolTableRecord
100
AcDbLayerTableRecord
  2
SILNA
 70
     0
 62
   179
  6
Continuous
370
    -3
390
F
  0
LAYER
  5
7C
330
2
100
AcDbSymbolTableRecord
100
AcDbLayerTableRecord
  2
0_18_1
 70
     0
 62
   179
  6
Continuous
370
    -3
390
F
  0
LAYER
  5
7D
330
2
100
AcDbSymbolTableRecord
100
AcDbLayerTableRecord
  2
0_35_1
 70
     0
 62
   179
  6
Continuous
370
    35
390
F
  0
LAYER
  5
7E
330
2
100
AcDbSymbolTableRecord
100
AcDbLayerTableRecord
  2
0_5_1
 70
     0
 62
   179
  6
Continuous
370
    50
390
F
  0
ENDTAB
  0
TABLE
  2
STYLE
  5
3
330
0
100
AcDbSymbolTable
 70
     1
  0
STYLE
  5
11
330
3
100
AcDbSymbolTableRecord
100
AcDbTextStyleTableRecord
  2
Standard
 70
     0
 40
0.0
 41
1.0
 50
0.0
 71
     0
 42
2.0
  3
txt
  4

  0
ENDTAB
  0
TABLE
  2
VIEW
  5
6
330
0
100
AcDbSymbolTable
 70
     0
  0
ENDTAB
  0
TABLE
  2
UCS
  5
7
330
0
100
AcDbSymbolTable
 70
     0
  0
ENDTAB
  0
TABLE
  2
APPID
  5
9
330
0
100
AcDbSymbolTable
 70
     1
  0
APPID
  5
12
330
9
100
AcDbSymbolTableRecord
100
AcDbRegAppTableRecord
  2
ACAD
 70
     0
  0
ENDTAB
  0
TABLE
  2
DIMSTYLE
  5
A
330
0
100
AcDbSymbolTable
 70
     1
100
AcDbDimStyleTable
  0
DIMSTYLE
105
27
330
A
100
AcDbSymbolTableRecord
100
AcDbDimStyleTableRecord
  2
ISO-25
 70
     0
 41
2.5
 42
0.625
 43
3.75
 44
1.25
 73
     0
 74
     0
 77
     1
 78
     8
140
2.5
141
2.5
143
0.0393700787
147
0.625
171
     3
172
     1
178
     0
271
     2
272
     2
274
     3
278
    44
283
     0
284
     8
340
11
  0
ENDTAB
  0
TABLE
  2
BLOCK_RECORD
  5
1
330
0
100
AcDbSymbolTable
 70
     1
  0
BLOCK_RECORD
  5
1F
330
1
100
AcDbSymbolTableRecord
100
AcDbBlockTableRecord
  2
*Model_Space
340
22
  0
BLOCK_RECORD
  5
1B
330
1
100
AcDbSymbolTableRecord
100
AcDbBlockTableRecord
  2
*Paper_Space
340
1E
  0
BLOCK_RECORD
  5
23
330
1
100
AcDbSymbolTableRecord
100
AcDbBlockTableRecord
  2
*Paper_Space0
340
26
  0
ENDTAB
  0
ENDSEC
  0
SECTION
  2
BLOCKS
  0
BLOCK
  5
20
330
1F
100
AcDbEntity
  8
0
100
AcDbBlockBegin
  2
*Model_Space
 70
     0
 10
0.0
 20
0.0
 30
0.0
  3
*Model_Space
  1

  0
ENDBLK
  5
21
330
1F
100
AcDbEntity
  8
0
100
AcDbBlockEnd
  0
BLOCK
  5
1C
330
1B
100
AcDbEntity
 67
     1
  8
0
100
AcDbBlockBegin
  2
*Paper_Space
 70
     0
 10
0.0
 20
0.0
 30
0.0
  3
*Paper_Space
  1

  0
ENDBLK
  5
1D
330
1B
100
AcDbEntity
 67
     1
  8
0
100
AcDbBlockEnd
  0
BLOCK
  5
24
330
23
100
AcDbEntity
  8
0
100
AcDbBlockBegin
  2
*Paper_Space0
 70
     0
 10
0.0
 20
0.0
 30
0.0
  3
*Paper_Space0
  1

  0
ENDBLK
  5
25
330
23
100
AcDbEntity
  8
0
100
AcDbBlockEnd
  0
ENDSEC
  0
SECTION
  2
ENTITIES
  0
LINE
  5
7F
330
1F
100
AcDbEntity
  8
0
  6
Continuous
 62
     7
370
    25
100
AcDbLine
 10
6403.8459010563
 20
5344.1213135489
 30
0.0
 11
6398.881558768
 21
5385.3111874018
 31
0.0
  0
LINE
  5
80
330
1F
100
AcDbEntity
  8
0
  6
Continuous
 62
     7
370
    25
100
AcDbLine
 10
6368.0640655273
 20
5373.5783344685
 30
0.0
 11
6371.614324874
 21
5344.1213135489
 31
0.0
  0
LINE
  5
81
330
1F
100
AcDbEntity
  8
0
  6
Continuous
 62
     7
370
    25
100
AcDbLine
 10
6291.2307084741
 20
5344.1213135489
 30
0.0
 11
6291.2307084741
 21
5344.1275635489
 31
0.0
  0
LINE
  5
82
330
1F
100
AcDbEntity
  8
0
  6
Continuous
 62
     7
370
    25
100
AcDbLine
 10
6287.818062958
 20
5344.1275635489
 30
0.0
 11
6287.818062958
 21
5344.1213135489
 31
0.0
  0
LINE
  5
83
330
1F
100
AcDbEntity
  8
0
  6
Continuous
 62
     7
370
    25
100
AcDbLine
 10
6287.3174891643
 20
5344.1275635489
 30
0.0
 11
6287.3174891643
 21
5344.1213135489
 31
0.0
  0
LINE
  5
84
330
1F
100
AcDbEntity
  8
0
  6
Continuous
 62
     7
370
    25
100
AcDbLine
 10
6287.2306741044
 20
5344.1213135489
 30
0.0
 11
6287.2306741044
 21
5344.1275635489
 31
0.0
  0
LINE
  5
85
330
1F
100
AcDbEntity
  8
0
  6
Continuous
 62
     7
370
    25
100
AcDbLine
 10
6288.8334697779
 20
5344.1213135489
 30
0.0
 11
6288.8334697779
 21
5344.1275635489
 31
0.0
  0
LINE
  5
86
330
1F
100
AcDbEntity
  8
0
  6
Continuous
 62
     7
370
    25
100
AcDbLine
 10
6442.0187553361
 20
5376.1213135489
 30
0.0
 11
6399.9891533082
 21
5376.1213135489
 31
0.0
  0
LINE
  5
87
330
1F
100
AcDbEntity
  8
0
  6
Continuous
 62
     7
370
    25
100
AcDbLine
 10
6368.7859826238
 20
5376.1213135489
 30
0.0
 11
6108.0187553361
 21
5376.1213135489
 31
0.0
  0
LINE
  5
88
330
1F
100
AcDbEntity
  8
0
  6
Continuous
 62
     7
370
    25
100
AcDbLine
 10
6382.338376385
 20
5385.4634276415
 30
0.0
 11
6398.8581843301
 21
5385.4634276415
 31
0.0
  0
ELLIPSE
  5
89
330
1F
100
AcDbEntity
  8
0
  6
Continuous
 62
     7
370
    25
100
AcDbEllipse
 10
6383.4728121476
 20
5379.4447609351
 30
0.0
 11
15.24710649354619
 21
6.478018520056139
 31
0.0
210
0.0
220
0.0
230
1.0
 40
0.3622926534
 41
1.491671915907361
 42
6.203651679425819
  0
LWPOLYLINE
  5
8A
330
1F
100
AcDbEntity
  8
0
  6
Continuous
 62
     7
370
    25
100
AcDbPolyline
 90
       17
 70
   128
 43
0.0
 10
6384.9747800629
 20
5380.7134276415
 10
6384.6233708959
 20
5380.7705179922
 10
6384.4606385274
 20
5380.9330975557
 10
6384.5113574853
 20
5381.1764150673
 10
6384.767806268
 20
5381.4634276415
 10
6385.1909428731
 20
5381.7504402158
 10
6385.7163485882
 20
5381.9937577274
 10
6386.2640351559
 20
5382.1563372909
 10
6386.7506222612
 20
5382.2134276415
 10
6387.1020314282
 20
5382.1563372909
 10
6387.2647637966
 20
5381.9937577274
 10
6387.2140448388
 20
5381.7504402158
 10
6386.957596056
 20
5381.4634276415
 10
6386.534459451
 20
5381.1764150673
 10
6386.0090537359
 20
5380.9330975557
 10
6385.4613671682
 20
5380.7705179922
 10
6384.9747800629
 20
5380.7134276415
  0
LWPOLYLINE
  5
8B
330
1F
100
AcDbEntity
  8
0
  6
Continuous
 62
     7
370
    25
100
AcDbPolyline
 90
       22
 70
   128
 43
0.0
 10
6390.9722106674
 20
5381.4634276415
 10
6390.0064139245
 20
5381.3745732531
 10
6388.916043964
 20
5381.1159051902
 10
6387.7979849418
 20
5380.7104072453
 10
6386.7515813085
 20
5380.1941096903
 10
6385.869810619
 20
5379.6128878287
 10
6385.2310220688
 20
5379.0183857736
 10
6384.8919748236
 20
5378.4634276415
 10
6384.8827947192
 20
5377.9973238979
 10
6385.2042974482
 20
5377.6614899057
 10
6385.8279160821
 20
5377.4857659891
 10
6386.6982393686
 20
5377.4857659891
 10
6387.7379352644
 20
5377.6614899057
 10
6388.8546222266
 20
5377.9973238979
 10
6389.9490777179
 20
5378.4634276415
 10
6390.9240545651
 20
5379.0183857736
 10
6391.6929217967
 20
5379.6128878287
 10
6392.187362185
 20
5380.1941096903
 10
6392.3634425318
 20
5380.7104072453
 10
6392.2055173254
 20
5381.1159051902
 10
6391.7276189136
 20
5381.3745732531
 10
6390.9722106674
 20
5381.4634276415
  0
LWPOLYLINE
  5
8C
330
1F
100
AcDbEntity
  8
0
  6
Continuous
 62
     7
370
    25
100
AcDbPolyline
 90
       22
 70
   128
 43
0.0
 10
6380.7736401341
 20
5381.4634276415
 10
6379.8078433913
 20
5381.3745732531
 10
6378.7174734308
 20
5381.1159051902
 10
6377.5994144086
 20
5380.7104072453
 10
6376.5530107753
 20
5380.1941096903
 10
6375.6712400858
 20
5379.6128878287
 10
6375.0324515355
 20
5379.0183857736
 10
6374.6934042904
 20
5378.4634276415
 10
6374.684224186
 20
5377.9973238979
 10
6375.005726915
 20
5377.6614899057
 10
6375.6293455489
 20
5377.4857659891
 10
6376.4996688354
 20
5377.4857659891
 10
6377.5393647312
 20
5377.6614899057
 10
6378.6560516933
 20
5377.9973238979
 10
6379.7505071847
 20
5378.4634276415
 10
6380.7254840319
 20
5379.0183857736
 10
6381.4943512635
 20
5379.6128878287
 10
6381.9887916518
 20
5380.1941096903
 10
6382.1648719985
 20
5380.7104072453
 10
6382.0069467922
 20
5381.1159051902
 10
6381.5290483803
 20
5381.3745732531
 10
6380.7736401341
 20
5381.4634276415
  0
LWPOLYLINE
  5
8D
330
1F
100
AcDbEntity
  8
0
  6
Continuous
 62
     7
370
    25
100
AcDbPolyline
 90
       17
 70
   128
 43
0.0
 10
6378.4633586691
 20
5375.2134276415
 10
6377.6523801603
 20
5375.1182770572
 10
6376.7395692141
 20
5374.847311118
 10
6375.8638930223
 20
5374.441781932
 10
6375.1586653472
 20
5373.9634276415
 10
6374.7312507093
 20
5373.4850733511
 10
6374.6467191128
 20
5373.0795441651
 10
6374.917939727
 20
5372.8085782259
 10
6375.5036216719
 20
5372.7134276415
 10
6376.3146001807
 20
5372.8085782259
 10
6377.2274111269
 20
5373.0795441651
 10
6378.1030873187
 20
5373.4850733511
 10
6378.8083149938
 20
5373.9634276415
 10
6379.2357296317
 20
5374.441781932
 10
6379.3202612282
 20
5374.847311118
 10
6379.049040614
 20
5375.1182770572
 10
6378.4633586691
 20
5375.2134276415
  0
LWPOLYLINE
  5
8E
330
1F
100
AcDbEntity
  8
0
  6
Continuous
 62
     7
370
    25
100
AcDbPolyline
 90
       22
 70
   128
 43
0.0
 10
6376.0380609391
 20
5377.4634276405
 10
6377.0038576819
 20
5377.552282029
 10
6378.0942276423
 20
5377.8109500921
 10
6379.2122866645
 20
5378.2164480372
 10
6380.2586902977
 20
5378.7327455924
 10
6381.140460987
 20
5379.3139674543
 10
6381.7792495372
 20
5379.9084695097
 10
6382.1182967822
 20
5380.463427642
 10
6382.1274768865
 20
5380.9295313859
 10
6381.8059741575
 20
5381.2653653783
 10
6381.1823555235
 20
5381.441089295
 10
6380.312032237
 20
5381.441089295
 10
6379.2723363412
 20
5381.2653653783
 10
6378.1556493792
 20
5380.9295313859
 10
6377.0611938879
 20
5380.463427642
 10
6376.0862170408
 20
5379.9084695097
 10
6375.3173498094
 20
5379.3139674543
 10
6374.8229094212
 20
5378.7327455924
 10
6374.6468290745
 20
5378.2164480372
 10
6374.804754281
 20
5377.8109500921
 10
6375.2826526928
 20
5377.552282029
 10
6376.0380609391
 20
5377.4634276405
  0
LWPOLYLINE
  5
8F
330
1F
100
AcDbEntity
  8
0
  6
Continuous
 62
     7
370
    25
100
AcDbPolyline
 90
       22
 70
   128
 43
0.0
 10
6386.2366314723
 20
5377.4634276405
 10
6387.2024282151
 20
5377.552282029
 10
6388.2927981756
 20
5377.8109500921
 10
6389.4108571977
 20
5378.2164480372
 10
6390.4572608309
 20
5378.7327455924
 10
6391.3390315202
 20
5379.3139674543
 10
6391.9778200704
 20
5379.9084695097
 10
6392.3168673154
 20
5380.463427642
 10
6392.3260474197
 20
5380.9295313859
 10
6392.0045446907
 20
5381.2653653783
 10
6391.3809260568
 20
5381.441089295
 10
6390.5106027702
 20
5381.441089295
 10
6389.4709068744
 20
5381.2653653783
 10
6388.3542199124
 20
5380.9295313859
 10
6387.2597644212
 20
5380.463427642
 10
6386.2847875741
 20
5379.9084695097
 10
6385.5159203426
 20
5379.3139674543
 10
6385.0214799544
 20
5378.7327455924
 10
6384.8453996077
 20
5378.2164480372
 10
6385.0033248142
 20
5377.8109500921
 10
6385.4812232261
 20
5377.552282029
 10
6386.2366314723
 20
5377.4634276405
  0
LWPOLYLINE
  5
90
330
1F
100
AcDbEntity
  8
0
  6
Continuous
 62
     7
370
    25
100
AcDbPolyline
 90
       17
 70
   128
 43
0.0
 10
6386.7506222613
 20
5382.2134276414
 10
6387.1020314282
 20
5382.1563372908
 10
6387.2647637967
 20
5381.9937577273
 10
6387.2140448388
 20
5381.7504402158
 10
6386.957596056
 20
5381.4634276415
 10
6386.5344594509
 20
5381.1764150673
 10
6386.0090537359
 20
5380.9330975557
 10
6385.4613671681
 20
5380.7705179923
 10
6384.9747800628
 20
5380.7134276417
 10
6384.6233708959
 20
5380.7705179923
 10
6384.4606385274
 20
5380.9330975557
 10
6384.5113574853
 20
5381.1764150673
 10
6384.767806268
 20
5381.4634276415
 10
6385.1909428731
 20
5381.7504402158
 10
6385.7163485882
 20
5381.9937577273
 10
6386.264035156
 20
5382.1563372908
 10
6386.7506222613
 20
5382.2134276414
  0
LINE
  5
91
330
1F
100
AcDbEntity
  8
0
  6
Continuous
 62
     7
370
    25
100
AcDbLine
 10
6442.0187553361
 20
5343.6213135489
 30
0.0
 11
6106.0187553361
 21
5343.6213135489
 31
0.0
  0
ARC
  5
92
330
1F
100
AcDbEntity
  8
0
  6
Continuous
 62
     7
370
    25
100
AcDbCircle
 10
6106.5187553361
 20
5343.6213135489
 30
0.0
 40
0.5000000000009095
100
AcDbArc
 50
90.0
 51
180.0
  0
LINE
  5
93
330
1F
100
AcDbEntity
  8
0
  6
Continuous
 62
     7
370
    25
100
AcDbLine
 10
6106.5187553361
 20
5344.1213135489
 30
0.0
 11
6441.5187553361
 21
5344.1213135489
 31
0.0
  0
ARC
  5
94
330
1F
100
AcDbEntity
  8
0
  6
Continuous
 62
     7
370
    25
100
AcDbCircle
 10
6441.5187553361
 20
5343.6213135489
 30
0.0
 40
0.5000000000009095
100
AcDbArc
 50
0.0
 51
90.0
  0
LINE
  5
95
330
1F
100
AcDbEntity
  8
0
  6
Continuous
 62
     7
370
    25
100
AcDbLine
 10
6106.0187553361
 20
5041.1213135489
 30
0.0
 11
6106.0187553361
 21
5343.6213135489
 31
0.0
  0
LINE
  5
96
330
1F
100
AcDbEntity
  8
0
  6
Continuous
 62
     7
370
    25
100
AcDbLine
 10
6442.0187553361
 20
5041.1213135489
 30
0.0
 11
6442.0187553361
 21
5343.6213135489
 31
0.0
  0
LINE
  5
97
330
1F
100
AcDbEntity
  8
0
  6
Continuous
 62
     7
370
    25
100
AcDbLine
 10
6106.0187553361
 20
5041.1213135489
 30
0.0
 11
6442.0187553361
 21
5041.1213135489
 31
0.0
  0
LINE
  5
98
330
1F
100
AcDbEntity
  8
0
  6
Continuous
 62
     7
370
    25
100
AcDbLine
 10
6108.0187553361
 20
5345.1213135489
 30
0.0
 11
6108.0187553361
 21
5344.1213135489
 31
0.0
  0
LINE
  5
99
330
1F
100
AcDbEntity
  8
0
  6
Continuous
 62
     7
370
    25
100
AcDbLine
 10
6440.0187553361
 20
5344.1213135489
 30
0.0
 11
6440.0187553361
 21
5345.1213135489
 31
0.0
  0
LINE
  5
9A
330
1F
100
AcDbEntity
  8
0
  6
Continuous
 62
     7
370
    25
100
AcDbLine
 10
6442.0187553361
 20
5345.1213135489
 30
0.0
 11
6440.0187553361
 21
5345.1213135489
 31
0.0
  0
LINE
  5
9B
330
1F
100
AcDbEntity
  8
0
  6
Continuous
 62
     7
370
    25
100
AcDbLine
 10
6442.0187553361
 20
5375.0713135489
 30
0.0
 11
6442.0187553361
 21
5345.1213135489
 31
0.0
  0
LINE
  5
9C
330
1F
100
AcDbEntity
  8
0
  6
Continuous
 62
     7
370
    25
100
AcDbLine
 10
6108.0187553361
 20
5345.1213135489
 30
0.0
 11
6108.0187553361
 21
5375.0713135489
 31
0.0
  0
LINE
  5
9D
330
1F
100
AcDbEntity
  8
0
  6
Continuous
 62
     7
370
    25
100
AcDbLine
 10
6108.0187553361
 20
5375.0713135489
 30
0.0
 11
6108.0187553361
 21
5376.1213135489
 31
0.0
  0
LINE
  5
9E
330
1F
100
AcDbEntity
  8
0
  6
Continuous
 62
     7
370
    25
100
AcDbLine
 10
6442.0187553361
 20
5376.1213135489
 30
0.0
 11
6442.0187553361
 21
5375.0713135489
 31
0.0
  0
LINE
  5
9F
330
1F
100
AcDbEntity
  8
0
  6
Continuous
 62
     8
370
    25
100
AcDbLine
 10
6440.0187553361
 20
5345.1213135489
 30
0.0
 11
6403.7253776891
 21
5345.1213135489
 31
0.0
  0
LINE
  5
A0
330
1F
100
AcDbEntity
  8
0
  6
Continuous
 62
     8
370
    25
100
AcDbLine
 10
6371.4938015069
 20
5345.1213135489
 30
0.0
 11
6108.0187553361
 21
5345.1213135489
 31
0.0
  0
LINE
  5
A1
330
1F
100
AcDbEntity
  8
0
  6
Continuous
 62
     8
370
    25
100
AcDbLine
 10
6442.0187553361
 20
5375.0713135489
 30
0.0
 11
6400.1157028437
 21
5375.0713135489
 31
0.0
  0
LINE
  5
A2
330
1F
100
AcDbEntity
  8
0
  6
Continuous
 62
     8
370
    25
100
AcDbLine
 10
6368.2750683849
 20
5375.0713135489
 30
0.0
 11
6108.0187553361
 21
5375.0713135489
 31
0.0
  0
LINE
  5
A3
330
1F
100
AcDbEntity
  8
0
  6
Continuous
 62
     7
370
    25
100
AcDbLine
 10
6752.8383613371
 20
5344.1213135489
 30
0.0
 11
6756.579211808
 21
5373.1863188501
 31
0.0
  0
LINE
  5
A4
330
1F
100
AcDbEntity
  8
0
  6
Continuous
 62
     7
370
    25
100
AcDbLine
 10
6725.7485384736
 20
5384.3223916472
 30
0.0
 11
6720.5744048247
 21
5344.1213135489
 31
0.0
  0
ARC
  5
A5
330
1F
100
AcDbEntity
  8
0
  6
Continuous
 62
     7
370
    25
100
AcDbCircle
 10
7023.4190928247
 20
5343.6213135489
 30
0.0
 40
0.5000000000009095
100
AcDbArc
 50
0.0
 51
90.0
  0
LINE
  5
A6
330
1F
100
AcDbEntity
  8
0
  6
Continuous
 62
     7
370
    25
100
AcDbLine
 10
7023.9190928248
 20
5041.1213135489
 30
0.0
 11
7023.9190928248
 21
5343.6213135489
 31
0.0
  0
LINE
  5
A7
330
1F
100
AcDbEntity
  8
0
  6
Continuous
 62
     7
370
    25
100
AcDbLine
 10
6665.39024349
 20
5344.1213135489
 30
0.0
 11
6665.39024349
 21
5344.1275635489
 31
0.0
  0
LINE
  5
A8
330
1F
100
AcDbEntity
  8
0
  6
Continuous
 62
     7
370
    25
100
AcDbLine
 10
6665.2764864754
 20
5344.1213135489
 30
0.0
 11
6665.2764864754
 21
5344.1275635489
 31
0.0
  0
ELLIPSE
  5
A9
330
1F
100
AcDbEntity
  8
0
  6
Continuous
 62
     7
370
    25
100
AcDbEllipse
 10
6745.7137119618
 20
5414.104881112
 30
0.0
 11
18.09415868023098
 21
40.30467960303758
 31
0.0
210
0.0
220
0.0
230
1.0
 40
0.2269976956
 41
2.457546376385409
 42
2.498206052392025
  0
ELLIPSE
  5
AA
330
1F
100
AcDbEntity
  8
0
  6
Continuous
 62
     7
370
    25
100
AcDbEllipse
 10
6741.2527347302
 20
5379.4447609351
 30
0.0
 11
15.17219895793005
 21
-6.811322610094977
 31
0.0
210
0.0
220
0.0
230
1.0
 40
0.3366205128
 41
3.28380882422265
 42
7.995788587741041
  0
LINE
  5
AB
330
1F
100
AcDbEntity
  8
0
  6
Continuous
 62
     7
370
    25
100
AcDbLine
 10
6725.9087299718
 20
5385.4634276415
 30
0.0
 11
6741.3782310783
 21
5385.4634276415
 31
0.0
  0
LWPOLYLINE
  5
AC
330
1F
100
AcDbEntity
  8
0
  6
Continuous
 62
     7
370
    25
100
AcDbPolyline
 90
       17
 70
   128
 43
0.0
 10
6739.648790212
 20
5380.7134276415
 10
6739.1842534611
 20
5380.7705179922
 10
6738.6460823308
 20
5380.9330975557
 10
6738.1162084972
 20
5381.1764150673
 10
6737.6753004481
 20
5381.4634276415
 10
6737.3904824371
 20
5381.7504402158
 10
6737.3051154246
 20
5381.9937577274
 10
6737.4321957644
 20
5382.1563372909
 10
6737.7523766266
 20
5382.2134276415
 10
6738.2169133775
 20
5382.1563372909
 10
6738.7550845078
 20
5381.9937577274
 10
6739.2849583414
 20
5381.7504402158
 10
6739.7258663905
 20
5381.4634276415
 10
6740.0106844015
 20
5381.1764150673
 10
6740.096051414
 20
5380.9330975557
 10
6739.9689710742
 20
5380.7705179922
 10
6739.648790212
 20
5380.7134276415
  0
LWPOLYLINE
  5
AD
330
1F
100
AcDbEntity
  8
0
  6
Continuous
 62
     7
370
    25
100
AcDbPolyline
 90
       22
 70
   128
 43
0.0
 10
6743.485237285
 20
5381.4634276415
 10
6742.7916871686
 20
5381.3745732531
 10
6742.384434916
 20
5381.1159051902
 10
6742.2996666772
 20
5380.7104072453
 10
6742.544914482
 20
5380.1941096903
 10
6743.098386987
 20
5379.6128878287
 10
6743.910905731
 20
5379.0183857736
 10
6744.910274858
 20
5378.4634276415
 10
6746.0076960354
 20
5377.9973238979
 10
6747.1056585757
 20
5377.6614899057
 10
6748.1066036888
 20
5377.4857659891
 10
6748.9215930088
 20
5377.4857659891
 10
6749.4782111582
 20
5377.6614899057
 10
6749.7270001716
 20
5377.9973238979
 10
6749.6458540535
 20
5378.4634276415
 10
6749.2419829925
 20
5379.0183857736
 10
6748.5512727048
 20
5379.6128878287
 10
6747.6350958306
 20
5380.1941096903
 10
6746.5748587057
 20
5380.7104072453
 10
6745.4647680514
 20
5381.1159051902
 10
6744.4034602939
 20
5381.3745732531
 10
6743.485237285
 20
5381.4634276415
  0
LWPOLYLINE
  5
AE
330
1F
100
AcDbEntity
  8
0
  6
Continuous
 62
     7
370
    25
100
AcDbPolyline
 90
       22
 70
   128
 43
0.0
 10
6733.9350779447
 20
5381.4634276415
 10
6733.2415278282
 20
5381.3745732531
 10
6732.8342755757
 20
5381.1159051902
 10
6732.7495073368
 20
5380.7104072453
 10
6732.9947551417
 20
5380.1941096903
 10
6733.5482276466
 20
5379.6128878287
 10
6734.3607463906
 20
5379.0183857736
 10
6735.3601155176
 20
5378.4634276415
 10
6736.4575366951
 20
5377.9973238979
 10
6737.5554992354
 20
5377.6614899057
 10
6738.5564443484
 20
5377.4857659891
 10
6739.3714336685
 20
5377.4857659891
 10
6739.9280518178
 20
5377.6614899057
 10
6740.1768408313
 20
5377.9973238979
 10
6740.0956947131
 20
5378.4634276415
 10
6739.6918236522
 20
5379.0183857736
 10
6739.0011133645
 20
5379.6128878287
 10
6738.0849364902
 20
5380.1941096903
 10
6737.0246993653
 20
5380.7104072453
 10
6735.914608711
 20
5381.1159051902
 10
6734.8533009536
 20
5381.3745732531
 10
6733.9350779447
 20
5381.4634276415
  0
LWPOLYLINE
  5
AF
330
1F
100
AcDbEntity
  8
0
  6
Continuous
 62
     7
370
    25
100
AcDbPolyline
 90
       17
 70
   128
 43
0.0
 10
6746.6023066916
 20
5375.2134276415
 10
6746.0686719212
 20
5375.1182770572
 10
6745.856871355
 20
5374.847311118
 10
6745.9991497091
 20
5374.441781932
 10
6746.473846394
 20
5373.9634276415
 10
6747.2086931425
 20
5373.4850733511
 10
6748.0918161985
 20
5373.0795441651
 10
6748.9887680823
 20
5372.8085782259
 10
6749.7629960005
 20
5372.7134276415
 10
6750.2966307709
 20
5372.8085782259
 10
6750.5084313372
 20
5373.0795441651
 10
6750.366152983
 20
5373.4850733511
 10
6749.8914562981
 20
5373.9634276415
 10
6749.1566095496
 20
5374.441781932
 10
6748.2734864936
 20
5374.847311118
 10
6747.3765346098
 20
5375.1182770572
 10
6746.6023066916
 20
5375.2134276415
  0
LWPOLYLINE
  5
B0
330
1F
100
AcDbEntity
  8
0
  6
Continuous
 62
     7
370
    25
100
AcDbPolyline
 90
       22
 70
   128
 43
0.0
 10
6738.9921808385
 20
5377.4634276405
 10
6739.685730955
 20
5377.552282029
 10
6740.0929832076
 20
5377.8109500921
 10
6740.1777514466
 20
5378.2164480372
 10
6739.9325036418
 20
5378.7327455924
 10
6739.379031137
 20
5379.3139674543
 10
6738.5665123931
 20
5379.9084695097
 10
6737.5671432662
 20
5380.463427642
 10
6736.4697220889
 20
5380.9295313859
 10
6735.3717595487
 20
5381.2653653783
 10
6734.3708144356
 20
5381.441089295
 10
6733.5558251156
 20
5381.441089295
 10
6732.9992069662
 20
5381.2653653783
 10
6732.7504179527
 20
5380.9295313859
 10
6732.8315640707
 20
5380.463427642
 10
6733.2354351316
 20
5379.9084695097
 10
6733.9261454191
 20
5379.3139674543
 10
6734.8423222933
 20
5378.7327455924
 10
6735.9025594181
 20
5378.2164480372
 10
6737.0126500723
 20
5377.8109500921
 10
6738.0739578297
 20
5377.552282029
 10
6738.9921808385
 20
5377.4634276405
  0
LWPOLYLINE
  5
B1
330
1F
100
AcDbEntity
  8
0
  6
Continuous
 62
     7
370
    25
100
AcDbPolyline
 90
       22
 70
   128
 43
0.0
 10
6748.5423401789
 20
5377.4634276405
 10
6749.2358902954
 20
5377.552282029
 10
6749.643142548
 20
5377.8109500921
 10
6749.7279107869
 20
5378.2164480372
 10
6749.4826629822
 20
5378.7327455924
 10
6748.9291904774
 20
5379.3139674543
 10
6748.1166717335
 20
5379.9084695097
 10
6747.1173026066
 20
5380.463427642
 10
6746.0198814292
 20
5380.9295313859
 10
6744.921918889
 20
5381.2653653783
 10
6743.920973776
 20
5381.441089295
 10
6743.105984456
 20
5381.441089295
 10
6742.5493663066
 20
5381.2653653783
 10
6742.3005772931
 20
5380.9295313859
 10
6742.3817234111
 20
5380.463427642
 10
6742.7855944719
 20
5379.9084695097
 10
6743.4763047595
 20
5379.3139674543
 10
6744.3924816336
 20
5378.7327455924
 10
6745.4527187584
 20
5378.2164480372
 10
6746.5628094126
 20
5377.8109500921
 10
6747.62411717
 20
5377.552282029
 10
6748.5423401789
 20
5377.4634276405
  0
LWPOLYLINE
  5
B2
330
1F
100
AcDbEntity
  8
0
  6
Continuous
 62
     7
370
    25
100
AcDbPolyline
 90
       17
 70
   128
 43
0.0
 10
6737.7523766266
 20
5382.2134276414
 10
6738.2169133775
 20
5382.1563372908
 10
6738.7550845078
 20
5381.9937577273
 10
6739.2849583414
 20
5381.7504402158
 10
6739.7258663905
 20
5381.4634276415
 10
6740.0106844015
 20
5381.1764150673
 10
6740.096051414
 20
5380.9330975557
 10
6739.9689710743
 20
5380.7705179923
 10
6739.648790212
 20
5380.7134276417
 10
6739.1842534611
 20
5380.7705179923
 10
6738.6460823308
 20
5380.9330975557
 10
6738.1162084972
 20
5381.1764150673
 10
6737.6753004481
 20
5381.4634276415
 10
6737.3904824371
 20
5381.7504402158
 10
6737.3051154246
 20
5381.9937577273
 10
6737.4321957643
 20
5382.1563372908
 10
6737.7523766266
 20
5382.2134276414
  0
LINE
  5
B3
330
1F
100
AcDbEntity
  8
0
  6
Continuous
 62
     7
370
    25
100
AcDbLine
 10
6637.9190928248
 20
5041.1213135489
 30
0.0
 11
6855.9190928248
 21
5041.1213135489
 31
0.0
  0
LINE
  5
B4
330
1F
100
AcDbEntity
  8
0
  6
Continuous
 62
     7
370
    25
100
AcDbLine
 10
6637.9190928248
 20
5343.6213135489
 30
0.0
 11
6638.9190928247
 21
5343.6213135489
 31
0.0
  0
LINE
  5
B5
330
1F
100
AcDbEntity
  8
0
  6
Continuous
 62
     7
370
    25
100
AcDbLine
 10
6855.9190928248
 20
5343.6213135489
 30
0.0
 11
6638.9190928247
 21
5343.6213135489
 31
0.0
  0
LINE
  5
B6
330
1F
100
AcDbEntity
  8
0
  6
Continuous
 62
     7
370
    25
100
AcDbLine
 10
6855.9190928248
 20
5041.1213135489
 30
0.0
 11
6855.9190928248
 21
5343.6213135489
 31
0.0
  0
LINE
  5
B7
330
1F
100
AcDbEntity
  8
0
  6
Continuous
 62
     7
370
    25
100
AcDbLine
 10
6637.9190928248
 20
5041.1213135489
 30
0.0
 11
6637.9190928248
 21
5343.6213135489
 31
0.0
  0
LINE
  5
B8
330
1F
100
AcDbEntity
  8
0
  6
Continuous
 62
     7
370
    25
100
AcDbLine
 10
6638.9190928247
 20
5344.1213135489
 30
0.0
 11
6855.9190928248
 21
5344.1213135489
 31
0.0
  0
LINE
  5
B9
330
1F
100
AcDbEntity
  8
0
  6
Continuous
 62
     7
370
    25
100
AcDbLine
 10
6855.9190928248
 20
5343.6213135489
 30
0.0
 11
6855.9190928248
 21
5344.1213135489
 31
0.0
  0
LINE
  5
BA
330
1F
100
AcDbEntity
  8
0
  6
Continuous
 62
     7
370
    25
100
AcDbLine
 10
6638.9190928247
 20
5343.6213135489
 30
0.0
 11
6638.9190928247
 21
5344.1213135489
 31
0.0
  0
LINE
  5
BB
330
1F
100
AcDbEntity
  8
0
  6
Continuous
 62
     7
370
    25
100
AcDbLine
 10
6855.9190928248
 20
5344.1213135489
 30
0.0
 11
7023.4190928247
 21
5344.1213135489
 31
0.0
  0
LINE
  5
BC
330
1F
100
AcDbEntity
  8
0
  6
Continuous
 62
     7
370
    25
100
AcDbLine
 10
6855.9190928248
 20
5041.1213135489
 30
0.0
 11
7023.9190928247
 21
5041.1213135489
 31
0.0
  0
ARC
  5
BD
330
1F
100
AcDbEntity
  8
0
  6
Continuous
 62
     7
370
    25
100
AcDbCircle
 10
6638.8690928248
 20
5375.0713135489
 30
0.0
 40
1.050000000000182
100
AcDbArc
 50
0.0
 51
180.0
  0
LINE
  5
BE
330
1F
100
AcDbEntity
  8
0
  6
Continuous
 62
     7
370
    25
100
AcDbLine
 10
6638.9190928247
 20
5375.0713135489
 30
0.0
 11
6639.9190928248
 21
5375.0713135489
 31
0.0
  0
LINE
  5
BF
330
1F
100
AcDbEntity
  8
0
  6
Continuous
 62
     7
370
    25
100
AcDbLine
 10
6638.8190928248
 20
5375.0713135489
 30
0.0
 11
6637.8190928248
 21
5375.0713135489
 31
0.0
  0
ARC
  5
C0
330
1F
100
AcDbEntity
  8
0
  6
Continuous
 62
     7
370
    25
100
AcDbCircle
 10
6638.8690928248
 20
5375.0713135489
 30
0.0
 40
0.0500000000001819
100
AcDbArc
 50
0.0
 51
180.0
  0
LINE
  5
C1
330
1F
100
AcDbEntity
  8
0
  6
Continuous
 62
     7
370
    25
100
AcDbLine
 10
6638.8190928248
 20
5370.1213135489
 30
0.0
 11
6637.8190928248
 21
5370.1213135489
 31
0.0
  0
LINE
  5
C2
330
1F
100
AcDbEntity
  8
0
  6
Continuous
 62
     7
370
    25
100
AcDbLine
 10
6637.8190928248
 20
5375.0713135489
 30
0.0
 11
6637.8190928248
 21
5370.1213135489
 31
0.0
  0
LINE
  5
C3
330
1F
100
AcDbEntity
  8
0
  6
Continuous
 62
     7
370
    25
100
AcDbLine
 10
6638.8190928248
 20
5375.0713135489
 30
0.0
 11
6638.8190928248
 21
5370.1213135489
 31
0.0
  0
LINE
  5
C4
330
1F
100
AcDbEntity
  8
0
  6
Continuous
 62
     7
370
    25
100
AcDbLine
 10
6639.9190928248
 20
5345.1213135489
 30
0.0
 11
6639.9190928248
 21
5375.0713135489
 31
0.0
  0
ARC
  5
C5
330
1F
100
AcDbEntity
  8
0
  6
Continuous
 62
     7
370
    25
100
AcDbCircle
 10
6640.9190928248
 20
5345.1213135489
 30
0.0
 40
2.000000000000909
100
AcDbArc
 50
180.0
 51
210.0
  0
LINE
  5
C6
330
1F
100
AcDbEntity
  8
0
  6
Continuous
 62
     7
370
    25
100
AcDbLine
 10
6638.9190928247
 20
5345.1213135489
 30
0.0
 11
6638.9190928247
 21
5375.0713135489
 31
0.0
  0
ARC
  5
C7
330
1F
100
AcDbEntity
  8
0
  6
Continuous
 62
     7
370
    25
100
AcDbCircle
 10
6640.9190928248
 20
5345.1213135489
 30
0.0
 40
1.0
100
AcDbArc
 50
180.0
 51
270.0
  0
LINE
  5
C8
330
1F
100
AcDbEntity
  8
0
  6
Continuous
 62
     8
370
    25
100
AcDbLine
 10
7023.9190928247
 20
5343.6213135489
 30
0.0
 11
6855.9190928248
 21
5343.6213135489
 31
0.0
  0
CIRCLE
  5
C9
330
1F
100
AcDbEntity
  8
0
  6
Continuous
 62
     7
100
AcDbCircle
 10
6387.2341251497
 20
4750.3207957153
 30
0.0
 40
15.00000000000085
  0
CIRCLE
  5
CA
330
1F
100
AcDbEntity
  8
0
  6
Continuous
 62
     7
100
AcDbCircle
 10
6381.1067825835
 20
4743.777435221
 30
0.0
 40
4.999999999999718
  0
LINE
  5
CB
330
1F
100
AcDbEntity
  8
0
  6
Continuous
 62
     7
100
AcDbLine
 10
6273.3187553361
 20
4636.8693607566
 30
0.0
 11
6273.3187553361
 21
4626.0674433896
 31
0.0
  0
LINE
  5
CC
330
1F
100
AcDbEntity
  8
0
  6
Continuous
 62
     7
100
AcDbLine
 10
6273.3187553361
 20
4626.0674433896
 30
0.0
 11
6274.7187553361
 21
4626.0674433896
 31
0.0
  0
LINE
  5
CD
330
1F
100
AcDbEntity
  8
0
  6
Continuous
 62
     7
100
AcDbLine
 10
6273.3187553361
 20
4636.8693607566
 30
0.0
 11
6274.7187553361
 21
4636.8693607566
 31
0.0
  0
LINE
  5
CE
330
1F
100
AcDbEntity
  8
0
  6
CENTERX2
 62
     7
100
AcDbLine
 10
6274.0187553361
 20
4631.6377490419
 30
0.0
 11
6274.0187553361
 21
4633.7485380459
 31
0.0
  0
LINE
  5
CF
330
1F
100
AcDbEntity
  8
0
  6
Continuous
 62
     7
100
AcDbLine
 10
6274.7187553361
 20
4636.8693607566
 30
0.0
 11
6274.7187553361
 21
4626.0674433896
 31
0.0
  0
POINT
  5
D0
330
1F
100
AcDbEntity
  8
0
  6
Continuous
 62
     7
100
AcDbPoint
 10
6274.0187553361
 20
4636.8693607566
 30
0.0
  0
POINT
  5
D1
330
1F
100
AcDbEntity
  8
0
  6
Continuous
 62
     7
100
AcDbPoint
 10
6274.0187553361
 20
4626.0674433896
 30
0.0
  0
LINE
  5
D2
330
1F
100
AcDbEntity
  8
0
  6
Continuous
 62
     7
370
    25
100
AcDbLine
 10
6376.0512340958
 20
4761.7868104789
 30
0.0
 11
6371.7939332783
 21
4757.2404588296
 31
0.0
  0
LINE
  5
D3
330
1F
100
AcDbEntity
  8
0
  6
Continuous
 62
     7
370
    25
100
AcDbLine
 10
6395.151691017
 20
4735.3677554433
 30
0.0
 11
6399.4089918344
 21
4739.9141070926
 31
0.0
  0
ELLIPSE
  5
D4
330
1F
100
AcDbEntity
  8
0
  6
Continuous
 62
     7
370
    25
100
AcDbEllipse
 10
6379.2954577589
 20
4741.8431299048
 30
0.0
 11
15.98787660106427
 21
17.07337871352865
 31
0.0
210
0.0
220
0.0
230
1.0
 40
0.6840402867
 41
5.497582535349106
 42
7.068788079010113
  0
ELLIPSE
  5
D5
330
1F
100
AcDbEntity
  8
0
  6
Continuous
 62
     7
370
    25
100
AcDbEllipse
 10
6383.4728121476
 20
4746.3041071364
 30
0.0
 11
11.67887886930839
 21
-10.93635169313802
 31
0.0
210
0.0
220
0.0
230
1.0
 40
0.9216049851
 41
2.356399098625459
 42
7.068378862144022
  0
ELLIPSE
  5
D6
330
1F
100
AcDbEntity
  8
0
  6
Continuous
 62
     7
370
    25
100
AcDbEllipse
 10
6387.7301129651
 20
4750.8504587858
 30
0.0
 11
11.10506254615393
 21
11.85904440088689
 31
0.0
210
0.0
220
0.0
230
1.0
 40
0.984807753
 41
4.712388980384731
 42
6.283185307179586
  0
ELLIPSE
  5
D7
330
1F
100
AcDbEntity
  8
0
  6
Continuous
 62
     7
370
    25
100
AcDbEllipse
 10
6387.7301129651
 20
4750.8504587858
 30
0.0
 11
11.10506254615393
 21
11.85904440088689
 31
0.0
210
0.0
220
0.0
230
1.0
 40
0.984807753
 41
0.0
 42
1.570796326794926
  0
LINE
  5
D8
330
1F
100
AcDbEntity
  8
0
  6
Continuous
 62
     7
370
    25
100
AcDbLine
 10
6382.338376385
 20
4761.6481118949
 30
0.0
 11
6398.8581843301
 21
4746.1786107884
 31
0.0
  0
LWPOLYLINE
  5
D9
330
1F
100
AcDbEntity
  8
0
  6
Continuous
 62
     7
370
    25
100
AcDbPolyline
 90
       17
 70
   128
 43
0.0
 10
6384.9747800629
 20
4747.9080516547
 10
6384.6233708959
 20
4748.3725884056
 10
6384.4606385274
 20
4748.9107595359
 10
6384.5113574853
 20
4749.4406333695
 10
6384.767806268
 20
4749.8815414186
 10
6385.1909428731
 20
4750.1663594295
 10
6385.7163485882
 20
4750.251726442
 10
6386.2640351559
 20
4750.1246461023
 10
6386.7506222612
 20
4749.80446524
 10
6387.1020314282
 20
4749.3399284891
 10
6387.2647637966
 20
4748.8017573588
 10
6387.2140448388
 20
4748.2718835252
 10
6386.957596056
 20
4747.8309754761
 10
6386.534459451
 20
4747.5461574652
 10
6386.0090537359
 20
4747.4607904527
 10
6385.4613671682
 20
4747.5878707924
 10
6384.9747800629
 20
4747.9080516547
  0
LWPOLYLINE
  5
DA
330
1F
100
AcDbEntity
  8
0
  6
Continuous
 62
     7
370
    25
100
AcDbPolyline
 90
       22
 70
   128
 43
0.0
 10
6390.9722106674
 20
4744.0716045816
 10
6390.0064139245
 20
4744.7651546981
 10
6388.916043964
 20
4745.1724069506
 10
6387.7979849418
 20
4745.2571751895
 10
6386.7515813085
 20
4745.0119273846
 10
6385.869810619
 20
4744.4584548797
 10
6385.2310220688
 20
4743.6459361357
 10
6384.8919748236
 20
4742.6465670086
 10
6384.8827947192
 20
4741.5491458312
 10
6385.2042974482
 20
4740.4511832909
 10
6385.8279160821
 20
4739.4502381779
 10
6386.6982393686
 20
4738.6352488578
 10
6387.7379352644
 20
4738.0786307085
 10
6388.8546222266
 20
4737.829841695
 10
6389.9490777179
 20
4737.9109878132
 10
6390.9240545651
 20
4738.3148588741
 10
6391.6929217967
 20
4739.0055691618
 10
6392.187362185
 20
4739.9217460361
 10
6392.3634425318
 20
4740.981983161
 10
6392.2055173254
 20
4742.0920738152
 10
6391.7276189136
 20
4743.1533815727
 10
6390.9722106674
 20
4744.0716045816
  0
LWPOLYLINE
  5
DB
330
1F
100
AcDbEntity
  8
0
  6
Continuous
 62
     7
370
    25
100
AcDbPolyline
 90
       22
 70
   128
 43
0.0
 10
6380.7736401341
 20
4753.621763922
 10
6379.8078433913
 20
4754.3153140384
 10
6378.7174734308
 20
4754.722566291
 10
6377.5994144086
 20
4754.8073345298
 10
6376.5530107753
 20
4754.562086725
 10
6375.6712400858
 20
4754.00861422
 10
6375.0324515355
 20
4753.196095476
 10
6374.6934042904
 20
4752.196726349
 10
6374.684224186
 20
4751.0993051716
 10
6375.005726915
 20
4750.0013426313
 10
6375.6293455489
 20
4749.0003975182
 10
6376.4996688354
 20
4748.1854081982
 10
6377.5393647312
 20
4747.6287900488
 10
6378.6560516933
 20
4747.3800010354
 10
6379.7505071847
 20
4747.4611471535
 10
6380.7254840319
 20
4747.8650182145
 10
6381.4943512635
 20
4748.5557285022
 10
6381.9887916518
 20
4749.4719053764
 10
6382.1648719985
 20
4750.5321425013
 10
6382.0069467922
 20
4751.6422331556
 10
6381.5290483803
 20
4752.7035409131
 10
6380.7736401341
 20
4753.621763922
  0
LWPOLYLINE
  5
DC
330
1F
100
AcDbEntity
  8
0
  6
Continuous
 62
     7
370
    25
100
AcDbPolyline
 90
       17
 70
   128
 43
0.0
 10
6378.4633586691
 20
4740.9545351751
 10
6377.6523801603
 20
4741.4881699455
 10
6376.7395692141
 20
4741.6999705117
 10
6375.8638930223
 20
4741.5576921575
 10
6375.1586653472
 20
4741.0829954726
 10
6374.7312507093
 20
4740.3481487242
 10
6374.6467191128
 20
4739.4650256681
 10
6374.917939727
 20
4738.5680737843
 10
6375.5036216719
 20
4737.7938458661
 10
6376.3146001807
 20
4737.2602110957
 10
6377.2274111269
 20
4737.0484105295
 10
6378.1030873187
 20
4737.1906888836
 10
6378.8083149938
 20
4737.6653855685
 10
6379.2357296317
 20
4738.400232317
 10
6379.3202612282
 20
4739.2833553731
 10
6379.049040614
 20
4740.1803072569
 10
6378.4633586691
 20
4740.9545351751
  0
LWPOLYLINE
  5
DD
330
1F
100
AcDbEntity
  8
0
  6
Continuous
 62
     7
370
    25
100
AcDbPolyline
 90
       22
 70
   128
 43
0.0
 10
6376.0380609391
 20
4748.5646610281
 10
6377.0038576819
 20
4747.8711109116
 10
6378.0942276423
 20
4747.463858659
 10
6379.2122866645
 20
4747.3790904201
 10
6380.2586902977
 20
4747.6243382248
 10
6381.140460987
 20
4748.1778107296
 10
6381.7792495372
 20
4748.9903294735
 10
6382.1182967822
 20
4749.9896986004
 10
6382.1274768865
 20
4751.0871197778
 10
6381.8059741575
 20
4752.185082318
 10
6381.1823555235
 20
4753.186027431
 10
6380.312032237
 20
4754.001016751
 10
6379.2723363412
 20
4754.5576349004
 10
6378.1556493792
 20
4754.8064239139
 10
6377.0611938879
 20
4754.7252777959
 10
6376.0862170408
 20
4754.3214067351
 10
6375.3173498094
 20
4753.6306964475
 10
6374.8229094212
 20
4752.7145195734
 10
6374.6468290745
 20
4751.6542824486
 10
6374.804754281
 20
4750.5441917944
 10
6375.2826526928
 20
4749.482884037
 10
6376.0380609391
 20
4748.5646610281
  0
LWPOLYLINE
  5
DE
330
1F
100
AcDbEntity
  8
0
  6
Continuous
 62
     7
370
    25
100
AcDbPolyline
 90
       22
 70
   128
 43
0.0
 10
6386.2366314723
 20
4739.0145016878
 10
6387.2024282151
 20
4738.3209515713
 10
6388.2927981756
 20
4737.9136993186
 10
6389.4108571977
 20
4737.8289310797
 10
6390.4572608309
 20
4738.0741788845
 10
6391.3390315202
 20
4738.6276513893
 10
6391.9778200704
 20
4739.4401701332
 10
6392.3168673154
 20
4740.4395392601
 10
6392.3260474197
 20
4741.5369604374
 10
6392.0045446907
 20
4742.6349229776
 10
6391.3809260568
 20
4743.6358680907
 10
6390.5106027702
 20
4744.4508574107
 10
6389.4709068744
 20
4745.0074755601
 10
6388.3542199124
 20
4745.2562645736
 10
6387.2597644212
 20
4745.1751184556
 10
6386.2847875741
 20
4744.7712473947
 10
6385.5159203426
 20
4744.0805371071
 10
6385.0214799544
 20
4743.164360233
 10
6384.8453996077
 20
4742.1041231082
 10
6385.0033248142
 20
4740.994032454
 10
6385.4812232261
 20
4739.9327246966
 10
6386.2366314723
 20
4739.0145016878
  0
LWPOLYLINE
  5
DF
330
1F
100
AcDbEntity
  8
0
  6
Continuous
 62
     7
370
    25
100
AcDbPolyline
 90
       17
 70
   128
 43
0.0
 10
6386.7506222613
 20
4749.8044652401
 10
6387.1020314282
 20
4749.3399284892
 10
6387.2647637967
 20
4748.8017573589
 10
6387.2140448388
 20
4748.2718835252
 10
6386.957596056
 20
4747.8309754761
 10
6386.5344594509
 20
4747.5461574652
 10
6386.0090537359
 20
4747.4607904527
 10
6385.4613671681
 20
4747.5878707924
 10
6384.9747800628
 20
4747.9080516546
 10
6384.6233708959
 20
4748.3725884055
 10
6384.4606385274
 20
4748.9107595358
 10
6384.5113574853
 20
4749.4406333695
 10
6384.767806268
 20
4749.8815414186
 10
6385.1909428731
 20
4750.1663594295
 10
6385.7163485882
 20
4750.2517264421
 10
6386.264035156
 20
4750.1246461023
 10
6386.7506222613
 20
4749.8044652401
  0
LINE
  5
E0
330
1F
100
AcDbEntity
  8
0
  6
Continuous
 62
     7
370
    25
100
AcDbLine
 10
6108.0187553361
 20
4847.6377490419
 30
0.0
 11
6108.0187553361
 21
4849.7377490419
 31
0.0
  0
LINE
  5
E1
330
1F
100
AcDbEntity
  8
0
  6
Continuous
 62
     7
370
    25
100
AcDbLine
 10
6442.0187553361
 20
4849.7377490419
 30
0.0
 11
6108.0187553361
 21
4849.7377490419
 31
0.0
  0
LINE
  5
E2
330
1F
100
AcDbEntity
  8
0
  6
Continuous
 62
     7
370
    25
100
AcDbLine
 10
6442.0187553361
 20
4847.6377490419
 30
0.0
 11
6108.0187553361
 21
4847.6377490419
 31
0.0
  0
LINE
  5
E3
330
1F
100
AcDbEntity
  8
0
  6
Continuous
 62
     7
370
    25
100
AcDbLine
 10
6442.0187553361
 20
4849.7377490419
 30
0.0
 11
6442.0187553361
 21
4847.6377490419
 31
0.0
  0
LINE
  5
E4
330
1F
100
AcDbEntity
  8
0
  6
Continuous
 62
     7
370
    25
100
AcDbLine
 10
6440.0187553361
 20
4846.6377490419
 30
0.0
 11
6440.0187553361
 21
4847.6377490419
 31
0.0
  0
LINE
  5
E5
330
1F
100
AcDbEntity
  8
0
  6
Continuous
 62
     7
370
    25
100
AcDbLine
 10
6108.0187553361
 20
4846.6377490419
 30
0.0
 11
6440.0187553361
 21
4846.6377490419
 31
0.0
  0
LINE
  5
E6
330
1F
100
AcDbEntity
  8
0
  6
Continuous
 62
     7
370
    25
100
AcDbLine
 10
6108.0187553361
 20
4847.6377490419
 30
0.0
 11
6108.0187553361
 21
4846.6377490419
 31
0.0
  0
LINE
  5
E7
330
1F
100
AcDbEntity
  8
0
  6
Continuous
 62
     7
370
    25
100
AcDbLine
 10
6442.0187553361
 20
4847.6377490419
 30
0.0
 11
6442.0187553361
 21
4631.6377490419
 31
0.0
  0
LINE
  5
E8
330
1F
100
AcDbEntity
  8
0
  6
Continuous
 62
     7
370
    25
100
AcDbLine
 10
6442.0187553361
 20
4631.6377490419
 30
0.0
 11
6441.5187553361
 21
4631.6377490419
 31
0.0
  0
LINE
  5
E9
330
1F
100
AcDbEntity
  8
0
  6
Continuous
 62
     7
370
    25
100
AcDbLine
 10
6106.5187553361
 20
4848.6377490419
 30
0.0
 11
6106.5187553361
 21
4631.6377490419
 31
0.0
  0
LINE
  5
EA
330
1F
100
AcDbEntity
  8
0
  6
Continuous
 62
     7
370
    25
100
AcDbLine
 10
6106.0187553361
 20
4631.6377490419
 30
0.0
 11
6106.5187553361
 21
4631.6377490419
 31
0.0
  0
LINE
  5
EB
330
1F
100
AcDbEntity
  8
0
  6
Continuous
 62
     7
370
    25
100
AcDbLine
 10
6106.0187553361
 20
4631.6377490419
 30
0.0
 11
6106.0187553361
 21
4848.6377490419
 31
0.0
  0
LINE
  5
EC
330
1F
100
AcDbEntity
  8
0
  6
Continuous
 62
     7
370
    25
100
AcDbLine
 10
6106.0187553361
 20
4848.6377490419
 30
0.0
 11
6106.5187553361
 21
4848.6377490419
 31
0.0
  0
ARC
  5
ED
330
1F
100
AcDbEntity
  8
0
  6
Continuous
 62
     7
370
    25
100
AcDbCircle
 10
6262.1567559333
 20
4829.6162355766
 30
0.0
 40
1.857677347416383
100
AcDbArc
 50
357.0076979383
 51
91.0595859788
  0
LINE
  5
EE
330
1F
100
AcDbEntity
  8
0
  6
Continuous
 62
     7
370
    25
100
AcDbLine
 10
6262.1224033738
 20
4831.4735952694
 30
0.0
 11
6262.0235980353
 21
4831.4651892365
 31
0.0
  0
LINE
  5
EF
330
1F
100
AcDbEntity
  8
0
  6
Continuous
 62
     7
370
    25
100
AcDbLine
 10
6262.0235980353
 20
4831.4651892365
 30
0.0
 11
6261.9601393764
 21
4831.4651892365
 31
0.0
  0
ARC
  5
F0
330
1F
100
AcDbEntity
  8
0
  6
Continuous
 62
     7
370
    25
100
AcDbCircle
 10
6262.0971846454
 20
4829.4495153781
 30
0.0
 40
2.020327327181443
100
AcDbArc
 50
93.8895428609
 51
181.6254812535
  0
LINE
  5
F1
330
1F
100
AcDbEntity
  8
0
  6
Continuous
 62
     7
370
    25
100
AcDbLine
 10
6260.0776703009
 20
4829.3922063806
 30
0.0
 11
6260.0579643547
 21
4827.9599423832
 31
0.0
  0
LINE
  5
F2
330
1F
100
AcDbEntity
  8
0
  6
Continuous
 62
     7
370
    25
100
AcDbLine
 10
6260.0579643547
 20
4827.9599423832
 30
0.0
 11
6259.1294422193
 21
4827.958564345
 31
0.0
  0
LINE
  5
F3
330
1F
100
AcDbEntity
  8
0
  6
Continuous
 62
     7
370
    25
100
AcDbLine
 10
6259.1294422193
 20
4827.958564345
 30
0.0
 11
6259.5075758998
 21
4826.8183755429
 31
0.0
  0
LINE
  5
F4
330
1F
100
AcDbEntity
  8
0
  6
Continuous
 62
     7
370
    25
100
AcDbLine
 10
6259.5075758998
 20
4826.8183755429
 30
0.0
 11
6260.0029117288
 21
4826.8113475481
 31
0.0
  0
LINE
  5
F5
330
1F
100
AcDbEntity
  8
0
  6
Continuous
 62
     7
370
    25
100
AcDbLine
 10
6260.0029117288
 20
4826.8113475481
 30
0.0
 11
6260.0085616854
 21
4823.1100058597
 31
0.0
  0
LINE
  5
F6
330
1F
100
AcDbEntity
  8
0
  6
Continuous
 62
     7
370
    25
100
AcDbLine
 10
6260.0085616854
 20
4823.1100058597
 30
0.0
 11
6261.1007258564
 21
4823.1255087894
 31
0.0
  0
LINE
  5
F7
330
1F
100
AcDbEntity
  8
0
  6
Continuous
 62
     7
370
    25
100
AcDbLine
 10
6261.1007258564
 20
4823.1255087894
 30
0.0
 11
6261.0950758998
 21
4826.7986006948
 31
0.0
  0
LINE
  5
F8
330
1F
100
AcDbEntity
  8
0
  6
Continuous
 62
     7
370
    25
100
AcDbLine
 10
6261.0950758998
 20
4826.7986006948
 30
0.0
 11
6262.0320729702
 21
4826.8070756297
 31
0.0
  0
LINE
  5
F9
330
1F
100
AcDbEntity
  8
0
  6
Continuous
 62
     7
370
    25
100
AcDbLine
 10
6262.0320729702
 20
4826.8070756297
 30
0.0
 11
6262.8956895066
 21
4826.8155505646
 31
0.0
  0
LINE
  5
FA
330
1F
100
AcDbEntity
  8
0
  6
Continuous
 62
     7
370
    25
100
AcDbLine
 10
6262.8956895066
 20
4826.8155505646
 30
0.0
 11
6262.8872145717
 21
4823.1142088762
 31
0.0
  0
LINE
  5
FB
330
1F
100
AcDbEntity
  8
0
  6
Continuous
 62
     7
370
    25
100
AcDbLine
 10
6262.8872145717
 20
4823.1142088762
 30
0.0
 11
6264.0076285257
 21
4823.1297118059
 31
0.0
  0
LINE
  5
FC
330
1F
100
AcDbEntity
  8
0
  6
Continuous
 62
     7
370
    25
100
AcDbLine
 10
6264.0076285257
 20
4823.1297118059
 30
0.0
 11
6264.0119004441
 21
4829.5192615021
 31
0.0
  0
ARC
  5
FD
330
1F
100
AcDbEntity
  8
0
  6
Continuous
 62
     7
370
    25
100
AcDbCircle
 10
6281.089969596
 20
4829.6119606653
 30
0.0
 40
1.869370984870463
100
AcDbArc
 50
357.3732782632
 51
91.4987318941
  0
LINE
  5
FE
330
1F
100
AcDbEntity
  8
0
  6
Continuous
 62
     7
370
    25
100
AcDbLine
 10
6281.0410765283
 20
4831.480692146
 30
0.0
 11
6280.8845313894
 21
4831.480692146
 31
0.0
  0
ARC
  5
FF
330
1F
100
AcDbEntity
  8
0
  6
Continuous
 62
     7
370
    25
100
AcDbCircle
 10
6281.0260196453
 20
4829.4525296519
 30
0.0
 40
2.033091741387782
100
AcDbArc
 50
93.9905911162
 51
181.4593857113
  0
LINE
  5
100
330
1F
100
AcDbEntity
  8
0
  6
Continuous
 62
     7
370
    25
100
AcDbLine
 10
6278.993587379
 20
4829.4007501972
 30
0.0
 11
6278.975259471
 21
4827.9670392597
 31
0.0
  0
LINE
  5
101
330
1F
100
AcDbEntity
  8
0
  6
Continuous
 62
     7
370
    25
100
AcDbLine
 10
6278.975259471
 20
4827.9670392597
 30
0.0
 11
6278.2669478391
 21
4827.9670392597
 31
0.0
  0
LINE
  5
102
330
1F
100
AcDbEntity
  8
0
  6
Continuous
 62
     7
370
    25
100
AcDbLine
 10
6278.2669478391
 20
4827.9670392597
 30
0.0
 11
6278.0679591238
 21
4827.9655923196
 31
0.0
  0
LINE
  5
103
330
1F
100
AcDbEntity
  8
0
  6
Continuous
 62
     7
370
    25
100
AcDbLine
 10
6278.0679591238
 20
4827.9655923196
 30
0.0
 11
6278.2683258773
 21
4827.3503671677
 31
0.0
  0
LINE
  5
104
330
1F
100
AcDbEntity
  8
0
  6
Continuous
 62
     7
370
    25
100
AcDbLine
 10
6278.2683258773
 20
4827.3503671677
 30
0.0
 11
6278.4376867714
 21
4826.8254724194
 31
0.0
  0
LINE
  5
105
330
1F
100
AcDbEntity
  8
0
  6
Continuous
 62
     7
370
    25
100
AcDbLine
 10
6278.4376867714
 20
4826.8254724194
 30
0.0
 11
6278.9273037419
 21
4826.8466253057
 31
0.0
  0
LINE
  5
106
330
1F
100
AcDbEntity
  8
0
  6
Continuous
 62
     7
370
    25
100
AcDbLine
 10
6278.9273037419
 20
4826.8466253057
 30
0.0
 11
6278.9259257037
 21
4823.1325367641
 31
0.0
  0
LINE
  5
107
330
1F
100
AcDbEntity
  8
0
  6
Continuous
 62
     7
370
    25
100
AcDbLine
 10
6278.9259257037
 20
4823.1325367641
 30
0.0
 11
6280.039242761
 21
4823.1339837042
 31
0.0
  0
LINE
  5
108
330
1F
100
AcDbEntity
  8
0
  6
Continuous
 62
     7
370
    25
100
AcDbLine
 10
6280.039242761
 20
4823.1339837042
 30
0.0
 11
6280.0476487939
 21
4826.8198224628
 31
0.0
  0
LINE
  5
109
330
1F
100
AcDbEntity
  8
0
  6
Continuous
 62
     7
370
    25
100
AcDbLine
 10
6280.0476487939
 20
4826.8198224628
 30
0.0
 11
6280.9480589502
 21
4826.821200501
 31
0.0
  0
LINE
  5
10A
330
1F
100
AcDbEntity
  8
0
  6
Continuous
 62
     7
370
    25
100
AcDbLine
 10
6280.9480589502
 20
4826.821200501
 30
0.0
 11
6281.8130535248
 21
4826.8226474411
 31
0.0
  0
LINE
  5
10B
330
1F
100
AcDbEntity
  8
0
  6
Continuous
 62
     7
370
    25
100
AcDbLine
 10
6281.8130535248
 20
4826.8226474411
 30
0.0
 11
6281.8187034814
 21
4823.1368086825
 31
0.0
  0
LINE
  5
10C
330
1F
100
AcDbEntity
  8
0
  6
Continuous
 62
     7
370
    25
100
AcDbLine
 10
6281.8187034814
 20
4823.1368086825
 30
0.0
 11
6282.9460765283
 21
4823.1381867207
 31
0.0
  0
LINE
  5
10D
330
1F
100
AcDbEntity
  8
0
  6
Continuous
 62
     7
370
    25
100
AcDbLine
 10
6282.9460765283
 20
4823.1381867207
 30
0.0
 11
6282.9573764415
 21
4829.5262894767
 31
0.0
  0
LINE
  5
10E
330
1F
100
AcDbEntity
  8
0
  6
Continuous
 62
     7
370
    25
100
AcDbLine
 10
6441.0187553361
 20
4845.6377490419
 30
0.0
 11
6441.0187553361
 21
4847.6377490419
 31
0.0
  0
ARC
  5
10F
330
1F
100
AcDbEntity
  8
0
  6
Continuous
 62
     7
370
    25
100
AcDbCircle
 10
6274.0187553361
 20
4631.6377490419
 30
0.0
 40
167.5
100
AcDbArc
 50
180.0
 51
0.0
  0
LINE
  5
110
330
1F
100
AcDbEntity
  8
0
  6
Continuous
 62
     7
370
    25
100
AcDbLine
 10
6107.0187553361
 20
4848.6377490419
 30
0.0
 11
6106.5187553361
 21
4848.6377490419
 31
0.0
  0
CIRCLE
  5
111
330
1F
100
AcDbEntity
  8
0
  6
Continuous
 62
     7
370
    25
100
AcDbCircle
 10
6274.0187553361
 20
4631.6377490419
 30
0.0
 40
134.0000000000009
  0
LINE
  5
112
330
1F
100
AcDbEntity
  8
0
  6
Continuous
 62
     7
370
    25
100
AcDbLine
 10
6274.3185927865
 20
4826.8409752703
 30
0.0
 11
6271.8153863865
 21
4826.8508284703
 31
0.0
  0
LINE
  5
113
330
1F
100
AcDbEntity
  8
0
  6
Continuous
 62
     7
370
    25
100
AcDbLine
 10
6273.9264031865
 20
4828.0234700703
 30
0.0
 11
6274.3185927865
 21
4826.8409752703
 31
0.0
  0
LINE
  5
114
330
1F
100
AcDbEntity
  8
0
  6
Continuous
 62
     7
370
    25
100
AcDbLine
 10
6271.8914539865
 20
4828.0206448703
 30
0.0
 11
6273.9264031865
 21
4828.0234700703
 31
0.0
  0
LINE
  5
115
330
1F
100
AcDbEntity
  8
0
  6
Continuous
 62
     7
370
    25
100
AcDbLine
 10
6271.8886979865
 20
4830.1274584703
 30
0.0
 11
6271.8914539865
 21
4828.0206448703
 31
0.0
  0
LINE
  5
116
330
1F
100
AcDbEntity
  8
0
  6
Continuous
 62
     7
370
    25
100
AcDbLine
 10
6273.9800087865
 20
4830.1302836703
 30
0.0
 11
6271.8886979865
 21
4830.1274584703
 31
0.0
  0
LINE
  5
117
330
1F
100
AcDbEntity
  8
0
  6
Continuous
 62
     7
370
    25
100
AcDbLine
 10
6273.9784927865
 20
4831.3212532703
 30
0.0
 11
6273.9800087865
 21
4830.1302836703
 31
0.0
  0
LINE
  5
118
330
1F
100
AcDbEntity
  8
0
  6
Continuous
 62
     7
370
    25
100
AcDbLine
 10
6270.7598091865
 20
4831.3156032703
 30
0.0
 11
6273.9784927865
 21
4831.3212532703
 31
0.0
  0
LINE
  5
119
330
1F
100
AcDbEntity
  8
0
  6
Continuous
 62
     7
370
    25
100
AcDbLine
 10
6270.7654591865
 20
4827.9981140703
 30
0.0
 11
6270.7598091865
 21
4831.3156032703
 31
0.0
  0
LINE
  5
11A
330
1F
100
AcDbEntity
  8
0
  6
Continuous
 62
     7
370
    25
100
AcDbLine
 10
6269.8708367865
 20
4827.9966668703
 30
0.0
 11
6270.7654591865
 21
4827.9981140703
 31
0.0
  0
LINE
  5
11B
330
1F
100
AcDbEntity
  8
0
  6
Continuous
 62
     7
370
    25
100
AcDbLine
 10
6269.8595367865
 20
4831.3142252703
 30
0.0
 11
6269.8708367865
 21
4827.9966668703
 31
0.0
  0
LINE
  5
11C
330
1F
100
AcDbEntity
  8
0
  6
Continuous
 62
     7
370
    25
100
AcDbLine
 10
6269.6111451865
 20
4831.3142252703
 30
0.0
 11
6269.8595367865
 21
4831.3142252703
 31
0.0
  0
LINE
  5
11D
330
1F
100
AcDbEntity
  8
0
  6
Continuous
 62
     7
370
    25
100
AcDbLine
 10
6268.5542587865
 20
4831.3127780703
 30
0.0
 11
6269.6111451865
 21
4831.3142252703
 31
0.0
  0
LINE
  5
11E
330
1F
100
AcDbEntity
  8
0
  6
Continuous
 62
     7
370
    25
100
AcDbLine
 10
6268.5584619865
 20
4828.5117088703
 30
0.0
 11
6268.5542587865
 21
4831.3127780703
 31
0.0
  0
LINE
  5
11F
330
1F
100
AcDbEntity
  8
0
  6
Continuous
 62
     7
370
    25
100
AcDbLine
 10
6264.9163759865
 20
4831.4129616703
 30
0.0
 11
6268.5584619865
 21
4828.5117088703
 31
0.0
  0
LINE
  5
120
330
1F
100
AcDbEntity
  8
0
  6
Continuous
 62
     7
370
    25
100
AcDbLine
 10
6264.9375975865
 20
4823.1100056703
 30
0.0
 11
6264.9163759865
 21
4831.4129616703
 31
0.0
  0
LINE
  5
121
330
1F
100
AcDbEntity
  8
0
  6
Continuous
 62
     7
370
    25
100
AcDbLine
 10
6266.1059675865
 20
4823.1128308703
 30
0.0
 11
6264.9375975865
 21
4823.1100056703
 31
0.0
  0
LINE
  5
122
330
1F
100
AcDbEntity
  8
0
  6
Continuous
 62
     7
370
    25
100
AcDbLine
 10
6266.1129955865
 20
4828.6782448703
 30
0.0
 11
6266.1059675865
 21
4823.1128308703
 31
0.0
  0
LINE
  5
123
330
1F
100
AcDbEntity
  8
0
  6
Continuous
 62
     7
370
    25
100
AcDbLine
 10
6268.5824399865
 20
4826.8028724703
 30
0.0
 11
6266.1129955865
 21
4828.6782448703
 31
0.0
  0
LINE
  5
124
330
1F
100
AcDbEntity
  8
0
  6
Continuous
 62
     7
370
    25
100
AcDbLine
 10
6268.5880899865
 20
4823.0958808703
 30
0.0
 11
6268.5824399865
 21
4826.8028724703
 31
0.0
  0
LINE
  5
125
330
1F
100
AcDbEntity
  8
0
  6
Continuous
 62
     7
370
    25
100
AcDbLine
 10
6269.6224451865
 20
4823.1100056703
 30
0.0
 11
6268.5880899865
 21
4823.0958808703
 31
0.0
  0
LINE
  5
126
330
1F
100
AcDbEntity
  8
0
  6
Continuous
 62
     7
370
    25
100
AcDbLine
 10
6269.8510619865
 20
4823.1184808703
 30
0.0
 11
6269.6224451865
 21
4823.1100056703
 31
0.0
  0
LINE
  5
127
330
1F
100
AcDbEntity
  8
0
  6
Continuous
 62
     7
370
    25
100
AcDbLine
 10
6269.8242587865
 20
4826.8268504703
 30
0.0
 11
6269.8510619865
 21
4823.1184808703
 31
0.0
  0
LINE
  5
128
330
1F
100
AcDbEntity
  8
0
  6
Continuous
 62
     7
370
    25
100
AcDbLine
 10
6270.7950867865
 20
4826.8282972703
 30
0.0
 11
6269.8242587865
 21
4826.8268504703
 31
0.0
  0
LINE
  5
129
330
1F
100
AcDbEntity
  8
0
  6
Continuous
 62
     7
370
    25
100
AcDbLine
 10
6270.8007367865
 20
4823.1410804703
 30
0.0
 11
6270.7950867865
 21
4826.8282972703
 31
0.0
  0
LINE
  5
12A
330
1F
100
AcDbEntity
  8
0
  6
Continuous
 62
     7
370
    25
100
AcDbLine
 10
6273.9348091865
 20
4823.1452836703
 30
0.0
 11
6270.8007367865
 21
4823.1410804703
 31
0.0
  0
LINE
  5
12B
330
1F
100
AcDbEntity
  8
0
  6
Continuous
 62
     7
370
    25
100
AcDbLine
 10
6273.9320531865
 20
4824.3447280703
 30
0.0
 11
6273.9348091865
 21
4823.1452836703
 31
0.0
  0
LINE
  5
12C
330
1F
100
AcDbEntity
  8
0
  6
Continuous
 62
     7
370
    25
100
AcDbLine
 10
6271.8195203865
 20
4824.3405248703
 30
0.0
 11
6273.9320531865
 21
4824.3447280703
 31
0.0
  0
LINE
  5
12D
330
1F
100
AcDbEntity
  8
0
  6
Continuous
 62
     7
370
    25
100
AcDbLine
 10
6271.8153863865
 20
4826.8508284703
 30
0.0
 11
6271.8195203865
 21
4824.3405248703
 31
0.0
  0
LINE
  5
12E
330
1F
100
AcDbEntity
  8
0
  6
Continuous
 62
     7
370
    25
100
AcDbLine
 10
6275.9499143865
 20
4831.3240780703
 30
0.0
 11
6275.9541863865
 21
4824.1697172703
 31
0.0
  0
LINE
  5
12F
330
1F
100
AcDbEntity
  8
0
  6
Continuous
 62
     7
370
    25
100
AcDbLine
 10
6274.7377919865
 20
4831.3156032703
 30
0.0
 11
6275.9499143865
 21
4831.3240780703
 31
0.0
  0
LINE
  5
130
330
1F
100
AcDbEntity
  8
0
  6
Continuous
 62
     7
370
    25
100
AcDbLine
 10
6274.7643879865
 20
4823.1325368703
 30
0.0
 11
6274.7377919865
 21
4831.3156032703
 31
0.0
  0
LINE
  5
131
330
1F
100
AcDbEntity
  8
0
  6
Continuous
 62
     7
370
    25
100
AcDbLine
 10
6278.2738379865
 20
4823.1311588703
 30
0.0
 11
6274.7643879865
 21
4823.1325368703
 31
0.0
  0
LINE
  5
132
330
1F
100
AcDbEntity
  8
0
  6
Continuous
 62
     7
370
    25
100
AcDbLine
 10
6278.4644207865
 20
4823.1311588703
 30
0.0
 11
6278.2738379865
 21
4823.1311588703
 31
0.0
  0
LINE
  5
133
330
1F
100
AcDbEntity
  8
0
  6
Continuous
 62
     7
370
    25
100
AcDbLine
 10
6278.4700707865
 20
4824.1810172703
 30
0.0
 11
6278.4644207865
 21
4823.1311588703
 31
0.0
  0
LINE
  5
134
330
1F
100
AcDbEntity
  8
0
  6
Continuous
 62
     7
370
    25
100
AcDbLine
 10
6278.2725975865
 20
4824.1796388703
 30
0.0
 11
6278.4700707865
 21
4824.1810172703
 31
0.0
  0
LINE
  5
135
330
1F
100
AcDbEntity
  8
0
  6
Continuous
 62
     7
370
    25
100
AcDbLine
 10
6275.9541863865
 20
4824.1697172703
 30
0.0
 11
6278.2725975865
 21
4824.1796388703
 31
0.0
  0
ARC
  5
136
330
1F
100
AcDbEntity
  8
0
  6
Continuous
 62
     7
370
    25
100
AcDbCircle
 10
6253.8016858505
 20
4824.5541610437
 30
0.0
 40
4.146089747538576
100
AcDbArc
 50
14.9618466759
 51
54.7549362227
  0
LWPOLYLINE
  5
137
330
1F
100
AcDbEntity
  8
0
  6
Continuous
 62
     7
370
    25
100
AcDbPolyline
 90
        7
 70
   128
 43
0.0
 10
6256.7023036733
 20
4824.3390780547
 10
6257.0432089702
 20
4824.370029863
 10
6257.3084314051
 20
4824.4582621175
 10
6257.5067523765
 20
4824.5986632071
 10
6257.6469532829
 20
4824.7861215207
 10
6257.7709641786
 20
4825.1634789788
 10
6257.8072146976
 20
4825.6245809844
  0
LINE
  5
138
330
1F
100
AcDbEntity
  8
0
  6
Continuous
 62
     7
370
    25
100
AcDbLine
 10
6254.3062397627
 20
4824.3348750382
 30
0.0
 11
6256.7023036733
 21
4824.3390780547
 31
0.0
  0
LINE
  5
139
330
1F
100
AcDbEntity
  8
0
  6
Continuous
 62
     7
370
    25
100
AcDbLine
 10
6254.3076867028
 20
4823.0945028594
 30
0.0
 11
6254.3062397627
 21
4824.3348750382
 31
0.0
  0
LINE
  5
13A
330
1F
100
AcDbEntity
  8
0
  6
Continuous
 62
     7
370
    25
100
AcDbLine
 10
6256.8109619849
 20
4823.0987058759
 30
0.0
 11
6254.3076867028
 21
4823.0945028594
 31
0.0
  0
ARC
  5
13B
330
1F
100
AcDbEntity
  8
0
  6
Continuous
 62
     7
370
    25
100
AcDbCircle
 10
6256.6814001143
 20
4825.5302676076
 30
0.0
 40
2.435011033553377
100
AcDbArc
 50
273.0500295178
 51
347.9874998472
  0
ARC
  5
13C
330
1F
100
AcDbEntity
  8
0
  6
Continuous
 62
     7
370
    25
100
AcDbCircle
 10
6256.1994548669
 20
4825.5105212699
 30
0.0
 40
2.904757056724842
100
AcDbArc
 50
350.3476259222
 51
42.0169705671
  0
LWPOLYLINE
  5
13D
330
1F
100
AcDbEntity
  8
0
  6
Continuous
 62
     7
370
    25
100
AcDbPolyline
 90
        3
 70
   128
 43
0.0
 10
6257.1990175405
 20
4828.7149694392
 10
6257.9699001233
 20
4827.935168396
 10
6258.3575342505
 20
4827.4548224123
  0
ARC
  5
13E
330
1F
100
AcDbEntity
  8
0
  6
Continuous
 62
     7
370
    25
100
AcDbCircle
 10
6258.7109340561
 20
4830.9502845784
 30
0.0
 40
2.698615445237636
100
AcDbArc
 50
179.9429340399
 51
235.926470141
  0
LWPOLYLINE
  5
13F
330
1F
100
AcDbEntity
  8
0
  6
Continuous
 62
     7
370
    25
100
AcDbPolyline
 90
        6
 70
   128
 43
0.0
 10
6257.4629118547
 20
4832.1256139705
 10
6256.8398312324
 20
4832.0343506195
 10
6256.3491488246
 20
4831.776221413
 10
6256.16823959
 20
4831.5631817641
 10
6256.0526421212
 20
4831.2903683981
 10
6256.0123199493
 20
4830.9529723689
  0
LINE
  5
140
330
1F
100
AcDbEntity
  8
0
  6
Continuous
 62
     7
370
    25
100
AcDbLine
 10
6262.0235981611
 20
4832.1256139705
 30
0.0
 11
6257.4629118547
 21
4832.1256139705
 31
0.0
  0
LINE
  5
141
330
1F
100
AcDbEntity
  8
0
  6
Continuous
 62
     7
370
    25
100
AcDbLine
 10
6269.6097673235
 20
4832.129816987
 30
0.0
 11
6262.0235981611
 21
4832.1256139705
 31
0.0
  0
LINE
  5
142
330
1F
100
AcDbEntity
  8
0
  6
Continuous
 62
     7
370
    25
100
AcDbLine
 10
6278.2599197757
 20
4832.1424949384
 30
0.0
 11
6269.6097673235
 21
4832.129816987
 31
0.0
  0
LINE
  5
143
330
1F
100
AcDbEntity
  8
0
  6
Continuous
 62
     7
370
    25
100
AcDbLine
 10
6280.9410308868
 20
4832.139738862
 30
0.0
 11
6278.2599197757
 21
4832.1424949384
 31
0.0
  0
LINE
  5
144
330
1F
100
AcDbEntity
  8
0
  6
Continuous
 62
     7
370
    25
100
AcDbLine
 10
6283.3512196889
 20
4832.1439418785
 30
0.0
 11
6280.9410308868
 21
4832.139738862
 31
0.0
  0
LINE
  5
145
330
1F
100
AcDbEntity
  8
0
  6
Continuous
 62
     7
370
    25
100
AcDbLine
 10
6283.3497038469
 20
4833.363161171
 30
0.0
 11
6283.3512196889
 21
4832.1439418785
 31
0.0
  0
LINE
  5
146
330
1F
100
AcDbEntity
  8
0
  6
Continuous
 62
     7
370
    25
100
AcDbLine
 10
6280.9379992028
 20
4833.3588892526
 30
0.0
 11
6283.3497038469
 21
4833.363161171
 31
0.0
  0
LINE
  5
147
330
1F
100
AcDbEntity
  8
0
  6
Continuous
 62
     7
370
    25
100
AcDbLine
 10
6278.2584039337
 20
4833.3560642743
 30
0.0
 11
6280.9379992028
 21
4833.3588892526
 31
0.0
  0
LINE
  5
148
330
1F
100
AcDbEntity
  8
0
  6
Continuous
 62
     7
370
    25
100
AcDbLine
 10
6269.6083203833
 20
4833.3419393828
 30
0.0
 11
6278.2584039337
 21
4833.3560642743
 31
0.0
  0
LINE
  5
149
330
1F
100
AcDbEntity
  8
0
  6
Continuous
 62
     7
370
    25
100
AcDbLine
 10
6262.0207731828
 20
4833.3236114748
 30
0.0
 11
6269.6083203833
 21
4833.3419393828
 31
0.0
  0
LINE
  5
14A
330
1F
100
AcDbEntity
  8
0
  6
Continuous
 62
     7
370
    25
100
AcDbLine
 10
6257.3768533695
 20
4833.31658348
 30
0.0
 11
6262.0207731828
 21
4833.3236114748
 31
0.0
  0
ARC
  5
14B
330
1F
100
AcDbEntity
  8
0
  6
Continuous
 62
     7
370
    25
100
AcDbCircle
 10
6257.1920547377
 20
4830.852830112
 30
0.0
 40
2.470674238473066
100
AcDbArc
 50
85.7104505517
 51
175.7435393215
  0
ARC
  5
14C
330
1F
100
AcDbEntity
  8
0
  6
Continuous
 62
     7
370
    25
100
AcDbCircle
 10
6258.4849731481
 20
4830.9201072906
 30
0.0
 40
3.758571603862823
100
AcDbArc
 50
178.2299080861
 51
232.4498360063
  0
ARC
  5
14D
330
1F
100
AcDbEntity
  8
0
  6
Continuous
 62
     7
370
    25
100
AcDbCircle
 10
6292.9570159147
 20
4833.6480150424
 30
0.0
 40
0.9354013219629138
100
AcDbArc
 50
0.4761050661
 51
89.2936033129
  0
LINE
  5
14E
330
1F
100
AcDbEntity
  8
0
  6
Continuous
 62
     7
370
    25
100
AcDbLine
 10
6292.9685481368
 20
4834.5833452733
 30
0.0
 11
6292.9619335535
 21
4834.5833452733
 31
0.0
  0
ARC
  5
14F
330
1F
100
AcDbEntity
  8
0
  6
Continuous
 62
     7
370
    25
100
AcDbCircle
 10
6292.9688432465
 20
4833.6627713919
 30
0.0
 40
0.9205998126685094
100
AcDbArc
 50
90.4300456698
 51
180.601897052
  0
ARC
  5
150
330
1F
100
AcDbEntity
  8
0
  6
Continuous
 62
     7
370
    25
100
AcDbCircle
 10
6292.9610544041
 20
4833.6522146318
 30
0.0
 40
0.9127606034725652
100
AcDbArc
 50
179.944386637
 51
270.2281908816
  0
LINE
  5
151
330
1F
100
AcDbEntity
  8
0
  6
Continuous
 62
     7
370
    25
100
AcDbLine
 10
6292.9646896299
 20
4832.7394612673
 30
0.0
 11
6292.9715798209
 21
4832.7394612673
 31
0.0
  0
ARC
  5
152
330
1F
100
AcDbEntity
  8
0
  6
Continuous
 62
     7
370
    25
100
AcDbCircle
 10
6292.9706577552
 20
4833.661203906
 30
0.0
 40
0.9217430998950294
100
AcDbArc
 50
270.0573158401
 51
359.663329377
  0
ARC
  5
153
330
1F
100
AcDbEntity
  8
0
  6
Continuous
 62
     7
370
    25
100
AcDbCircle
 10
6286.2757377588
 20
4825.9880788894
 30
0.0
 40
4.958913617698855
100
AcDbArc
 50
2.3646229321
 51
51.1199972206
  0
LINE
  5
154
330
1F
100
AcDbEntity
  8
0
  6
Continuous
 62
     7
370
    25
100
AcDbLine
 10
6289.3884051853
 20
4829.8484060465
 30
0.0
 11
6289.3812393866
 21
4829.8412402479
 31
0.0
  0
LWPOLYLINE
  5
155
330
1F
100
AcDbEntity
  8
0
  6
Continuous
 62
     7
370
    25
100
AcDbPolyline
 90
        3
 70
   128
 43
0.0
 10
6289.3812393866
 20
4829.8412402479
 10
6289.2936080637
 20
4829.7451167525
 10
6289.2262100898
 20
4829.6411491021
  0
LINE
  5
156
330
1F
100
AcDbEntity
  8
0
  6
Continuous
 62
     7
370
    25
100
AcDbLine
 10
6289.2262100898
 20
4829.6411491021
 30
0.0
 11
6289.0197799682
 21
4829.8173312852
 31
0.0
  0
LWPOLYLINE
  5
157
330
1F
100
AcDbEntity
  8
0
  6
Continuous
 62
     7
370
    25
100
AcDbPolyline
 90
        3
 70
   128
 43
0.0
 10
6289.0197799682
 20
4829.8173312852
 10
6289.211425032
 20
4830.0444799222
 10
6289.3806881714
 20
4830.1886436767
  0
LWPOLYLINE
  5
158
330
1F
100
AcDbEntity
  8
0
  6
Continuous
 62
     7
370
    25
100
AcDbPolyline
 90
        3
 70
   128
 43
0.0
 10
6289.3806881714
 20
4830.1886436767
 10
6290.0629781383
 20
4830.462787817
 10
6290.8171551853
 20
4830.5308105604
  0
LINE
  5
159
330
1F
100
AcDbEntity
  8
0
  6
Continuous
 62
     7
370
    25
100
AcDbLine
 10
6290.8171551853
 20
4830.5308105604
 30
0.0
 11
6290.8363099162
 21
4830.5233691542
 31
0.0
  0
LINE
  5
15A
330
1F
100
AcDbEntity
  8
0
  6
Continuous
 62
     7
370
    25
100
AcDbLine
 10
6290.8363099162
 20
4830.5233691542
 30
0.0
 11
6290.8445781453
 21
4830.5190972358
 31
0.0
  0
LINE
  5
15B
330
1F
100
AcDbEntity
  8
0
  6
Continuous
 62
     7
370
    25
100
AcDbLine
 10
6290.8445781453
 20
4830.5190972358
 30
0.0
 11
6290.8521573554
 21
4830.534944675
 31
0.0
  0
ARC
  5
15C
330
1F
100
AcDbEntity
  8
0
  6
Continuous
 62
     7
370
    25
100
AcDbCircle
 10
6290.4479482109
 20
4830.6925073866
 30
0.0
 40
0.4338329638818901
100
AcDbArc
 50
338.7039188613
 51
32.9021244081
  0
LWPOLYLINE
  5
15D
330
1F
100
AcDbEntity
  8
0
  6
Continuous
 62
     7
370
    25
100
AcDbPolyline
 90
        3
 70
   128
 43
0.0
 10
6290.8121942478
 20
4830.9281678738
 10
6290.5954187591
 20
4831.5331487956
 10
6290.3708086141
 20
4831.9200797661
  0
LWPOLYLINE
  5
15E
330
1F
100
AcDbEntity
  8
0
  6
Continuous
 62
     7
370
    25
100
AcDbPolyline
 90
        3
 70
   128
 43
0.0
 10
6290.3708086141
 20
4831.9200797661
 10
6291.0137067441
 20
4833.3544318773
 10
6291.160837911
 20
4834.5661887071
  0
LWPOLYLINE
  5
15F
330
1F
100
AcDbEntity
  8
0
  6
Continuous
 62
     7
370
    25
100
AcDbPolyline
 90
        3
 70
   128
 43
0.0
 10
6291.160837911
 20
4834.5661887071
 10
6290.1384661798
 20
4834.3874808776
 10
6289.3746248033
 20
4834.1311420491
  0
LWPOLYLINE
  5
160
330
1F
100
AcDbEntity
  8
0
  6
Continuous
 62
     7
370
    25
100
AcDbPolyline
 90
        3
 70
   128
 43
0.0
 10
6289.3746248033
 20
4834.1311420491
 10
6289.1421478461
 20
4834.0287290022
 10
6288.9639694214
 20
4833.9392502306
  0
LWPOLYLINE
  5
161
330
1F
100
AcDbEntity
  8
0
  6
Continuous
 62
     7
370
    25
100
AcDbPolyline
 90
        3
 70
   128
 43
0.0
 10
6288.9639694214
 20
4833.9392502306
 10
6288.8989017828
 20
4833.9018839554
 10
6288.8438044908
 20
4833.8677989502
  0
LWPOLYLINE
  5
162
330
1F
100
AcDbEntity
  8
0
  6
Continuous
 62
     7
370
    25
100
AcDbPolyline
 90
        3
 70
   128
 43
0.0
 10
6288.8438044908
 20
4833.8677989502
 10
6288.7018825553
 20
4833.7829185266
 10
6288.5960332235
 20
4833.7113227132
  0
LWPOLYLINE
  5
163
330
1F
100
AcDbEntity
  8
0
  6
Continuous
 62
     7
370
    25
100
AcDbPolyline
 90
        3
 70
   128
 43
0.0
 10
6288.5960332235
 20
4833.7113227132
 10
6288.346990739
 20
4833.5279947383
 10
6288.1707706366
 20
4833.3703960639
  0
LWPOLYLINE
  5
164
330
1F
100
AcDbEntity
  8
0
  6
Continuous
 62
     7
370
    25
100
AcDbPolyline
 90
        3
 70
   128
 43
0.0
 10
6288.1707706366
 20
4833.3703960639
 10
6287.9137366596
 20
4833.406873586
 10
6287.6597940741
 20
4833.4125640326
  0
LINE
  5
165
330
1F
100
AcDbEntity
  8
0
  6
Continuous
 62
     7
370
    25
100
AcDbLine
 10
6287.6597940741
 20
4833.4125640326
 30
0.0
 11
6287.6170748901
 21
4833.4051226264
 31
0.0
  0
ARC
  5
166
330
1F
100
AcDbEntity
  8
0
  6
Continuous
 62
     7
370
    25
100
AcDbCircle
 10
6287.5111219023
 20
4830.998092926
 30
0.0
 40
2.409360498981545
100
AcDbArc
 50
87.479572958
 51
101.1904471716
  0
LINE
  5
167
330
1F
100
AcDbEntity
  8
0
  6
Continuous
 62
     7
370
    25
100
AcDbLine
 10
6287.0435353936
 20
4833.3616455214
 30
0.0
 11
6286.9862090047
 21
4833.4041579997
 31
0.0
  0
LWPOLYLINE
  5
168
330
1F
100
AcDbEntity
  8
0
  6
Continuous
 62
     7
370
    25
100
AcDbPolyline
 90
        3
 70
   128
 43
0.0
 10
6286.9862090047
 20
4833.4041579997
 10
6286.20459897
 20
4833.892691034
 10
6285.5668296644
 20
4834.1961854519
  0
LWPOLYLINE
  5
169
330
1F
100
AcDbEntity
  8
0
  6
Continuous
 62
     7
370
    25
100
AcDbPolyline
 90
        3
 70
   128
 43
0.0
 10
6285.5668296644
 20
4834.1961854519
 10
6284.8256119621
 20
4834.4368547911
 10
6284.2196595255
 20
4834.5417974311
  0
LINE
  5
16A
330
1F
100
AcDbEntity
  8
0
  6
Continuous
 62
     7
370
    25
100
AcDbLine
 10
6284.2196595255
 20
4834.5417974311
 30
0.0
 11
6284.2196595255
 21
4834.5204378391
 31
0.0
  0
LINE
  5
16B
330
1F
100
AcDbEntity
  8
0
  6
Continuous
 62
     7
370
    25
100
AcDbLine
 10
6284.2196595255
 20
4834.5204378391
 30
0.0
 11
6284.2202107408
 21
4834.1517437201
 31
0.0
  0
LWPOLYLINE
  5
16C
330
1F
100
AcDbEntity
  8
0
  6
Continuous
 62
     7
370
    25
100
AcDbPolyline
 90
        3
 70
   128
 43
0.0
 10
6284.2202107408
 20
4834.1517437201
 10
6284.5161509386
 20
4832.7825622235
 10
6284.9323808797
 20
4831.9048524441
  0
LWPOLYLINE
  5
16D
330
1F
100
AcDbEntity
  8
0
  6
Continuous
 62
     7
370
    25
100
AcDbPolyline
 90
        3
 70
   128
 43
0.0
 10
6284.9323808797
 20
4831.9048524441
 10
6284.6625639469
 20
4831.2961324747
 10
6284.5356436835
 20
4830.8450721707
  0
LINE
  5
16E
330
1F
100
AcDbEntity
  8
0
  6
Continuous
 62
     7
370
    25
100
AcDbLine
 10
6284.5356436835
 20
4830.8450721707
 30
0.0
 11
6284.4976098294
 21
4830.7759635552
 31
0.0
  0
ARC
  5
16F
330
1F
100
AcDbEntity
  8
0
  6
Continuous
 62
     7
370
    25
100
AcDbCircle
 10
6285.3524039376
 20
4830.4343655413
 30
0.0
 40
0.9205227703072596
100
AcDbArc
 50
158.2170621679
 51
164.2128968082
  0
LWPOLYLINE
  5
170
330
1F
100
AcDbEntity
  8
0
  6
Continuous
 62
     7
370
    25
100
AcDbPolyline
 90
        3
 70
   128
 43
0.0
 10
6284.46660397
 20
4830.6848063286
 10
6284.5337201362
 20
4830.6767169225
 10
6284.5873201158
 20
4830.6696479085
  0
LINE
  5
171
330
1F
100
AcDbEntity
  8
0
  6
Continuous
 62
     7
370
    25
100
AcDbLine
 10
6284.5873201158
 20
4830.6696479085
 30
0.0
 11
6284.6177747599
 21
4830.6657204997
 31
0.0
  0
LWPOLYLINE
  5
172
330
1F
100
AcDbEntity
  8
0
  6
Continuous
 62
     7
370
    25
100
AcDbPolyline
 90
        3
 70
   128
 43
0.0
 10
6284.6177747599
 20
4830.6657204997
 10
6285.173523726
 20
4830.5484849828
 10
6285.5726174248
 20
4830.4028597141
  0
ARC
  5
173
330
1F
100
AcDbEntity
  8
0
  6
Continuous
 62
     7
370
    25
100
AcDbCircle
 10
6285.2540216398
 20
4829.3809882409
 30
0.0
 40
1.070385249299206
100
AcDbArc
 50
338.319048665
 51
72.6837346181
  0
LWPOLYLINE
  5
174
330
1F
100
AcDbEntity
  8
0
  6
Continuous
 62
     7
370
    25
100
AcDbPolyline
 90
        3
 70
   128
 43
0.0
 10
6286.248682963
 20
4828.9855474311
 10
6285.8855296733
 20
4828.1902914316
 10
6285.5767515394
 20
4827.6378949788
  0
LWPOLYLINE
  5
175
330
1F
100
AcDbEntity
  8
0
  6
Continuous
 62
     7
370
    25
100
AcDbPolyline
 90
        3
 70
   128
 43
0.0
 10
6285.5767515394
 20
4827.6378949788
 10
6285.2194909615
 20
4826.7854158397
 10
6284.9202541436
 20
4825.7432302653
  0
ARC
  5
176
330
1F
100
AcDbEntity
  8
0
  6
Continuous
 62
     7
370
    25
100
AcDbCircle
 10
6287.7572342952
 20
4824.9980785016
 30
0.0
 40
2.933207720469396
100
AcDbArc
 50
165.2832984796
 51
222.18484723
  0
LWPOLYLINE
  5
177
330
1F
100
AcDbEntity
  8
0
  6
Continuous
 62
     7
370
    25
100
AcDbPolyline
 90
        3
 70
   128
 43
0.0
 10
6285.5837795342
 20
4823.0283572184
 10
6286.3144040607
 20
4822.4844294828
 10
6287.0032966783
 20
4822.2367431776
  0
LWPOLYLINE
  5
178
330
1F
100
AcDbEntity
  8
0
  6
Continuous
 62
     7
370
    25
100
AcDbPolyline
 90
        3
 70
   128
 43
0.0
 10
6287.0032966783
 20
4822.2367431776
 10
6287.3751831583
 20
4822.1792522267
 10
6287.6767439439
 20
4822.1666010335
  0
LINE
  5
179
330
1F
100
AcDbEntity
  8
0
  6
Continuous
 62
     7
370
    25
100
AcDbLine
 10
6287.6767439439
 20
4822.1666010335
 30
0.0
 11
6287.7551543172
 21
4822.1667388373
 31
0.0
  0
LWPOLYLINE
  5
17A
330
1F
100
AcDbEntity
  8
0
  6
Continuous
 62
     7
370
    25
100
AcDbPolyline
 90
        3
 70
   128
 43
0.0
 10
6287.7551543172
 20
4822.1667388373
 10
6288.2462782926
 20
4822.2119081248
 10
6288.6133965047
 20
4822.2892464328
  0
LWPOLYLINE
  5
17B
330
1F
100
AcDbEntity
  8
0
  6
Continuous
 62
     7
370
    25
100
AcDbPolyline
 90
        3
 70
   128
 43
0.0
 10
6288.6133965047
 20
4822.2892464328
 10
6288.7549025858
 20
4822.3260540579
 10
6288.8613055759
 20
4822.3598019884
  0
LWPOLYLINE
  5
17C
330
1F
100
AcDbEntity
  8
0
  6
Continuous
 62
     7
370
    25
100
AcDbPolyline
 90
        3
 70
   128
 43
0.0
 10
6288.8613055759
 20
4822.3598019884
 10
6288.9310831859
 20
4822.384027794
 10
6288.9816083103
 20
4822.40279678
  0
LWPOLYLINE
  5
17D
330
1F
100
AcDbEntity
  8
0
  6
Continuous
 62
     7
370
    25
100
AcDbPolyline
 90
        3
 70
   128
 43
0.0
 10
6288.9816083103
 20
4822.40279678
 10
6289.21699452
 20
4822.5039593003
 10
6289.3922636922
 20
4822.5876606038
  0
ARC
  5
17E
330
1F
100
AcDbEntity
  8
0
  6
Continuous
 62
     7
370
    25
100
AcDbCircle
 10
6287.6753700066
 20
4825.6727830772
 30
0.0
 40
3.53068047319027
100
AcDbArc
 50
299.0962643318
 51
357.620395613
  0
LWPOLYLINE
  5
17F
330
1F
100
AcDbEntity
  8
0
  6
Continuous
 62
     7
370
    25
100
AcDbPolyline
 90
        3
 70
   128
 43
0.0
 10
6291.2030058797
 20
4825.5261892497
 10
6291.2240218397
 20
4825.7813646611
 10
6291.2307044474
 20
4825.9726736247
  0
LINE
  5
180
330
1F
100
AcDbEntity
  8
0
  6
Continuous
 62
     7
370
    25
100
AcDbLine
 10
6291.2307044474
 20
4825.9726736247
 30
0.0
 11
6291.2304288398
 21
4826.1926774224
 31
0.0
  0
LINE
  5
181
330
1F
100
AcDbEntity
  8
0
  6
Continuous
 62
     7
370
    25
100
AcDbLine
 10
6440.0187553361
 20
4846.6377490419
 30
0.0
 11
6440.0187553361
 21
4845.6377490419
 31
0.0
  0
LINE
  5
182
330
1F
100
AcDbEntity
  8
0
  6
Continuous
 62
     7
370
    25
100
AcDbLine
 10
6107.0187553361
 20
4848.6377490419
 30
0.0
 11
6107.0187553361
 21
4845.6377490419
 31
0.0
  0
LINE
  5
183
330
1F
100
AcDbEntity
  8
0
  6
Continuous
 62
     7
370
    25
100
AcDbLine
 10
6108.0187553361
 20
4845.6377490419
 30
0.0
 11
6108.0187553361
 21
4846.6377490419
 31
0.0
  0
LINE
  5
184
330
1F
100
AcDbEntity
  8
0
  6
Continuous
 62
     7
370
    25
100
AcDbLine
 10
6107.0187553361
 20
4845.6377490419
 30
0.0
 11
6108.0187553361
 21
4845.6377490419
 31
0.0
  0
LINE
  5
185
330
1F
100
AcDbEntity
  8
0
  6
Continuous
 62
     7
370
    25
100
AcDbLine
 10
6440.0187553361
 20
4845.6377490419
 30
0.0
 11
6441.0187553361
 21
4845.6377490419
 31
0.0
  0
LWPOLYLINE
  5
186
330
1F
100
AcDbEntity
  8
0
  6
Continuous
 62
     7
370
    25
100
AcDbPolyline
 90
        3
 70
   128
 43
0.0
 10
6289.3867515394
 20
4826.2180333252
 10
6289.1539860276
 20
4826.2481108498
 10
6288.975682746
 20
4826.2811474745
  0
LWPOLYLINE
  5
187
330
1F
100
AcDbEntity
  8
0
  6
Continuous
 62
     7
370
    25
100
AcDbPolyline
 90
        3
 70
   128
 43
0.0
 10
6288.975682746
 20
4826.2811474745
 10
6288.9081583806
 20
4826.2945143303
 10
6288.8553800116
 20
4826.3094661594
  0
LWPOLYLINE
  5
188
330
1F
100
AcDbEntity
  8
0
  6
Continuous
 62
     7
370
    25
100
AcDbPolyline
 90
        3
 70
   128
 43
0.0
 10
6288.8553800116
 20
4826.3094661594
 10
6288.7252991857
 20
4826.3427335889
 10
6288.6278659057
 20
4826.3728559163
  0
LWPOLYLINE
  5
189
330
1F
100
AcDbEntity
  8
0
  6
Continuous
 62
     7
370
    25
100
AcDbPolyline
 90
        3
 70
   128
 43
0.0
 10
6288.6278659057
 20
4826.3728559163
 10
6288.6626743303
 20
4826.892317631
 10
6288.7328724162
 20
4827.2521131863
  0
LWPOLYLINE
  5
18A
330
1F
100
AcDbEntity
  8
0
  6
Continuous
 62
     7
370
    25
100
AcDbPolyline
 90
        3
 70
   128
 43
0.0
 10
6288.7328724162
 20
4827.2521131863
 10
6288.800472717
 20
4827.2353109628
 10
6288.8540019735
 20
4827.21724882
  0
LWPOLYLINE
  5
18B
330
1F
100
AcDbEntity
  8
0
  6
Continuous
 62
     7
370
    25
100
AcDbPolyline
 90
        3
 70
   128
 43
0.0
 10
6288.8540019735
 20
4827.21724882
 10
6288.920870331
 20
4827.2010746997
 10
6288.9743047078
 20
4827.1888612332
  0
LWPOLYLINE
  5
18C
330
1F
100
AcDbEntity
  8
0
  6
Continuous
 62
     7
370
    25
100
AcDbPolyline
 90
        3
 70
   128
 43
0.0
 10
6288.9743047078
 20
4827.1888612332
 10
6289.199556441
 20
4827.1536609695
 10
6289.3855113051
 20
4827.1399408773
  0
ARC
  5
18D
330
1F
100
AcDbEntity
  8
0
  6
Continuous
 62
     7
370
    25
100
AcDbCircle
 10
6289.7925795016
 20
4829.809897958
 30
0.0
 40
2.700810124721039
100
AcDbArc
 50
261.3313011466
 51
294.2608153268
  0
LWPOLYLINE
  5
18E
330
1F
100
AcDbEntity
  8
0
  6
Continuous
 62
     7
370
    25
100
AcDbPolyline
 90
        3
 70
   128
 43
0.0
 10
6290.9023179457
 20
4827.3476112332
 10
6291.0294402537
 20
4826.7914033825
 10
6291.0595521037
 20
4826.4476144884
  0
ARC
  5
18F
330
1F
100
AcDbEntity
  8
0
  6
Continuous
 62
     7
370
    25
100
AcDbCircle
 10
6289.8573645811
 20
4828.99806479
 30
0.0
 40
2.819583582803077
100
AcDbArc
 50
260.391867047
 51
295.237448323
  0
LWPOLYLINE
  5
190
330
1F
100
AcDbEntity
  8
0
  6
Continuous
 62
     7
370
    25
100
AcDbPolyline
 90
        3
 70
   128
 43
0.0
 10
6289.9919859144
 20
4829.0197916802
 10
6290.3157260065
 20
4828.6138694648
 10
6290.4682359144
 20
4828.339936537
  0
LWPOLYLINE
  5
191
330
1F
100
AcDbEntity
  8
0
  6
Continuous
 62
     7
370
    25
100
AcDbPolyline
 90
        3
 70
   128
 43
0.0
 10
6290.4682359144
 20
4828.339936537
 10
6289.8499908657
 20
4828.1617877279
 10
6289.3838576592
 20
4828.1465977783
  0
LWPOLYLINE
  5
192
330
1F
100
AcDbEntity
  8
0
  6
Continuous
 62
     7
370
    25
100
AcDbPolyline
 90
        3
 70
   128
 43
0.0
 10
6289.3838576592
 20
4828.1465977783
 10
6289.1482070955
 20
4828.1691827616
 10
6288.9729266696
 20
4828.1957248399
  0
LWPOLYLINE
  5
193
330
1F
100
AcDbEntity
  8
0
  6
Continuous
 62
     7
370
    25
100
AcDbPolyline
 90
        3
 70
   128
 43
0.0
 10
6288.9729266696
 20
4828.1957248399
 10
6288.9195157966
 20
4828.2033434465
 10
6288.8735701158
 20
4828.2098497314
  0
LWPOLYLINE
  5
194
330
1F
100
AcDbEntity
  8
0
  6
Continuous
 62
     7
370
    25
100
AcDbPolyline
 90
        3
 70
   128
 43
0.0
 10
6288.8735701158
 20
4828.2098497314
 10
6288.9231887865
 20
4828.4743211195
 10
6288.9722376505
 20
4828.678038208
  0
LWPOLYLINE
  5
195
330
1F
100
AcDbEntity
  8
0
  6
Continuous
 62
     7
370
    25
100
AcDbPolyline
 90
        3
 70
   128
 43
0.0
 10
6288.9722376505
 20
4828.678038208
 10
6289.0206225868
 20
4828.8262303717
 10
6289.0636015828
 20
4828.9477202826
  0
LWPOLYLINE
  5
196
330
1F
100
AcDbEntity
  8
0
  6
Continuous
 62
     7
370
    25
100
AcDbPolyline
 90
        3
 70
   128
 43
0.0
 10
6289.0636015828
 20
4828.9477202826
 10
6289.244532221
 20
4828.9426039024
 10
6289.3826174248
 20
4828.9481336941
  0
LWPOLYLINE
  5
197
330
1F
100
AcDbEntity
  8
0
  6
Continuous
 62
     7
370
    25
100
AcDbPolyline
 90
        3
 70
   128
 43
0.0
 10
6289.3826174248
 20
4828.9481336941
 10
6289.7104909965
 20
4828.978026813
 10
6289.9919859144
 20
4829.0197916802
  0
LWPOLYLINE
  5
198
330
1F
100
AcDbEntity
  8
0
  6
Continuous
 62
     7
370
    25
100
AcDbPolyline
 90
        3
 70
   128
 43
0.0
 10
6291.0831165568
 20
4834.438031155
 10
6290.8373841157
 20
4833.1267986295
 10
6290.3068676419
 20
4832.0477550049
  0
LWPOLYLINE
  5
199
330
1F
100
AcDbEntity
  8
0
  6
Continuous
 62
     7
370
    25
100
AcDbPolyline
 90
        3
 70
   128
 43
0.0
 10
6290.3068676419
 20
4832.0477550049
 10
6290.2355852759
 20
4832.166228022
 10
6290.1645162964
 20
4832.2601106906
  0
LWPOLYLINE
  5
19A
330
1F
100
AcDbEntity
  8
0
  6
Continuous
 62
     7
370
    25
100
AcDbPolyline
 90
        3
 70
   128
 43
0.0
 10
6290.1645162964
 20
4832.2601106906
 10
6290.6741599939
 20
4833.3151976217
 10
6290.8358965047
 20
4834.1757215847
  0
LWPOLYLINE
  5
19B
330
1F
100
AcDbEntity
  8
0
  6
Continuous
 62
     7
370
    25
100
AcDbPolyline
 90
        3
 70
   128
 43
0.0
 10
6289.3757272339
 20
4833.4288248833
 10
6289.1659999101
 20
4833.2499335124
 10
6289.0007630412
 20
4833.0950640326
  0
LWPOLYLINE
  5
19C
330
1F
100
AcDbEntity
  8
0
  6
Continuous
 62
     7
370
    25
100
AcDbPolyline
 90
        3
 70
   128
 43
0.0
 10
6288.9654852634
 20
4833.1165614285
 10
6288.8948323588
 20
4833.1480202369
 10
6288.8447691176
 20
4833.1728542887
  0
LWPOLYLINE
  5
19D
330
1F
100
AcDbEntity
  8
0
  6
Continuous
 62
     7
370
    25
100
AcDbPolyline
 90
        3
 70
   128
 43
0.0
 10
6288.9650718519
 20
4833.3646083035
 10
6289.1920203404
 20
4833.5543362758
 10
6289.3753138224
 20
4833.6982313503
  0
LWPOLYLINE
  5
19E
330
1F
100
AcDbEntity
  8
0
  6
Continuous
 62
     7
370
    25
100
AcDbPolyline
 90
        3
 70
   128
 43
0.0
 10
6288.8446313137
 20
4833.2509890543
 10
6288.9144331243
 20
4833.3147991901
 10
6288.9650718519
 20
4833.3646083035
  0
LWPOLYLINE
  5
19F
330
1F
100
AcDbEntity
  8
0
  6
Continuous
 62
     7
370
    25
100
AcDbPolyline
 90
        3
 70
   128
 43
0.0
 10
6289.3753138224
 20
4833.6982313503
 10
6290.2654713745
 20
4834.2251325751
 10
6291.0831165568
 20
4834.438031155
  0
LINE
  5
1A0
330
1F
100
AcDbEntity
  8
0
  6
Continuous
 62
     7
370
    25
100
AcDbLine
 10
6288.8447691176
 20
4833.1728542887
 30
0.0
 11
6288.7808281453
 21
4833.194007175
 31
0.0
  0
LINE
  5
1A1
330
1F
100
AcDbEntity
  8
0
  6
Continuous
 62
     7
370
    25
100
AcDbLine
 10
6288.7808281453
 20
4833.194007175
 30
0.0
 11
6288.8446313137
 21
4833.2509890543
 31
0.0
  0
LWPOLYLINE
  5
1A2
330
1F
100
AcDbEntity
  8
0
  6
Continuous
 62
     7
370
    25
100
AcDbPolyline
 90
        3
 70
   128
 43
0.0
 10
6290.8358965047
 20
4834.1757215847
 10
6289.9815589851
 20
4833.8461121788
 10
6289.3757272339
 20
4833.4288248833
  0
LINE
  5
1A3
330
1F
100
AcDbEntity
  8
0
  6
Continuous
 62
     7
370
    25
100
AcDbLine
 10
6289.0007630412
 20
4833.0950640326
 30
0.0
 11
6288.9654852634
 21
4833.1165614285
 31
0.0
  0
LWPOLYLINE
  5
1A4
330
1F
100
AcDbEntity
  8
0
  6
Continuous
 62
     7
370
    25
100
AcDbPolyline
 90
        3
 70
   128
 43
0.0
 10
6288.8439422946
 20
4833.7546620144
 10
6288.9136750842
 20
4833.7944555682
 10
6288.964245029
 20
4833.8256309814
  0
LWPOLYLINE
  5
1A5
330
1F
100
AcDbEntity
  8
0
  6
Continuous
 62
     7
370
    25
100
AcDbPolyline
 90
        3
 70
   128
 43
0.0
 10
6288.964245029
 20
4833.8256309814
 10
6289.1966078979
 20
4833.9448871211
 10
6289.374900411
 20
4834.0250331082
  0
LWPOLYLINE
  5
1A6
330
1F
100
AcDbEntity
  8
0
  6
Continuous
 62
     7
370
    25
100
AcDbPolyline
 90
        3
 70
   128
 43
0.0
 10
6289.374900411
 20
4834.0250331082
 10
6289.7072123151
 20
4834.1438976557
 10
6289.9631849162
 20
4834.2098969319
  0
LWPOLYLINE
  5
1A7
330
1F
100
AcDbEntity
  8
0
  6
Continuous
 62
     7
370
    25
100
AcDbPolyline
 90
        3
 70
   128
 43
0.0
 10
6289.9631849162
 20
4834.2098969319
 10
6289.6205885167
 20
4834.0172955141
 10
6289.3750382148
 20
4833.8471972792
  0
LWPOLYLINE
  5
1A8
330
1F
100
AcDbEntity
  8
0
  6
Continuous
 62
     7
370
    25
100
AcDbPolyline
 90
        3
 70
   128
 43
0.0
 10
6289.3750382148
 20
4833.8471972792
 10
6289.1375164295
 20
4833.6658281911
 10
6288.9646584405
 20
4833.5136431342
  0
LWPOLYLINE
  5
1A9
330
1F
100
AcDbEntity
  8
0
  6
Continuous
 62
     7
370
    25
100
AcDbPolyline
 90
        3
 70
   128
 43
0.0
 10
6288.9646584405
 20
4833.5136431342
 10
6288.897203096
 20
4833.4460814184
 10
6288.8444935099
 20
4833.3925824788
  0
LWPOLYLINE
  5
1AA
330
1F
100
AcDbEntity
  8
0
  6
Continuous
 62
     7
370
    25
100
AcDbPolyline
 90
        3
 70
   128
 43
0.0
 10
6288.8444935099
 20
4833.3925824788
 10
6288.7607631684
 20
4833.301441211
 10
6288.6953897773
 20
4833.2294227566
  0
LWPOLYLINE
  5
1AB
330
1F
100
AcDbEntity
  8
0
  6
Continuous
 62
     7
370
    25
100
AcDbPolyline
 90
        3
 70
   128
 43
0.0
 10
6288.6953897773
 20
4833.2294227566
 10
6288.6426010807
 20
4833.2490461351
 10
6288.5967222426
 20
4833.2645627306
  0
LWPOLYLINE
  5
1AC
330
1F
100
AcDbEntity
  8
0
  6
Continuous
 62
     7
370
    25
100
AcDbPolyline
 90
        3
 70
   128
 43
0.0
 10
6288.5967222426
 20
4833.2645627306
 10
6288.4281788316
 20
4833.3150939844
 10
6288.291073371
 20
4833.3496565891
  0
LWPOLYLINE
  5
1AD
330
1F
100
AcDbEntity
  8
0
  6
Continuous
 62
     7
370
    25
100
AcDbPolyline
 90
        3
 70
   128
 43
0.0
 10
6288.291073371
 20
4833.3496565891
 10
6288.4620543706
 20
4833.4872608862
 10
6288.5961710273
 20
4833.5909510769
  0
LWPOLYLINE
  5
1AE
330
1F
100
AcDbEntity
  8
0
  6
Continuous
 62
     7
370
    25
100
AcDbPolyline
 90
        3
 70
   128
 43
0.0
 10
6288.5961710273
 20
4833.5909510769
 10
6288.7344013903
 20
4833.6852797184
 10
6288.8439422946
 20
4833.7546620144
  0
LWPOLYLINE
  5
1AF
330
1F
100
AcDbEntity
  8
0
  6
Continuous
 62
     7
370
    25
100
AcDbPolyline
 90
        3
 70
   128
 43
0.0
 10
6285.5668296644
 20
4834.1179817844
 10
6286.3109030323
 20
4833.7488354617
 10
6286.9575458103
 20
4833.3331201307
  0
LWPOLYLINE
  5
1B0
330
1F
100
AcDbEntity
  8
0
  6
Continuous
 62
     7
370
    25
100
AcDbPolyline
 90
        3
 70
   128
 43
0.0
 10
6286.9575458103
 20
4833.3331201307
 10
6286.6874793401
 20
4833.2717401752
 10
6286.4976944648
 20
4833.2048936767
  0
LWPOLYLINE
  5
1B1
330
1F
100
AcDbEntity
  8
0
  6
Continuous
 62
     7
370
    25
100
AcDbPolyline
 90
        3
 70
   128
 43
0.0
 10
6286.4976944648
 20
4833.2048936767
 10
6286.0232877639
 20
4833.6965978481
 10
6285.5671052721
 20
4834.0258599311
  0
LWPOLYLINE
  5
1B2
330
1F
100
AcDbEntity
  8
0
  6
Continuous
 62
     7
370
    25
100
AcDbPolyline
 90
        3
 70
   128
 43
0.0
 10
6285.5671052721
 20
4834.0258599311
 10
6285.2691513658
 20
4834.1856154536
 10
6285.0214021471
 20
4834.2877560899
  0
LWPOLYLINE
  5
1B3
330
1F
100
AcDbEntity
  8
0
  6
Continuous
 62
     7
370
    25
100
AcDbPolyline
 90
        3
 70
   128
 43
0.0
 10
6285.0214021471
 20
4834.2877560899
 10
6285.3009801764
 20
4834.2187537003
 10
6285.5668296644
 20
4834.1179817844
  0
LWPOLYLINE
  5
1B4
330
1F
100
AcDbEntity
  8
0
  6
Continuous
 62
     7
370
    25
100
AcDbPolyline
 90
        3
 70
   128
 43
0.0
 10
6284.3472658623
 20
4834.4068874918
 10
6285.0434629996
 20
4834.2087008698
 10
6285.5673808797
 20
4833.9265033773
  0
LWPOLYLINE
  5
1B5
330
1F
100
AcDbEntity
  8
0
  6
Continuous
 62
     7
370
    25
100
AcDbPolyline
 90
        3
 70
   128
 43
0.0
 10
6285.5673808797
 20
4833.9265033773
 10
6286.0593582951
 20
4833.5417916523
 10
6286.4268633016
 20
4833.1692024875
  0
LWPOLYLINE
  5
1B6
330
1F
100
AcDbEntity
  8
0
  6
Continuous
 62
     7
370
    25
100
AcDbPolyline
 90
        3
 70
   128
 43
0.0
 10
6286.4268633016
 20
4833.1692024875
 10
6286.292784692
 20
4833.1118889044
 10
6286.1928724162
 20
4833.0626112332
  0
LWPOLYLINE
  5
1B7
330
1F
100
AcDbEntity
  8
0
  6
Continuous
 62
     7
370
    25
100
AcDbPolyline
 90
        3
 70
   128
 43
0.0
 10
6286.1928724162
 20
4833.0626112332
 10
6285.8456767999
 20
4833.3950463009
 10
6285.5677942912
 20
4833.6287782253
  0
LWPOLYLINE
  5
1B8
330
1F
100
AcDbEntity
  8
0
  6
Continuous
 62
     7
370
    25
100
AcDbPolyline
 90
        3
 70
   128
 43
0.0
 10
6285.5677942912
 20
4833.6287782253
 10
6285.0174625453
 20
4833.9876061596
 10
6284.532198588
 20
4834.2087255995
  0
LWPOLYLINE
  5
1B9
330
1F
100
AcDbEntity
  8
0
  6
Continuous
 62
     7
370
    25
100
AcDbPolyline
 90
        3
 70
   128
 43
0.0
 10
6284.532198588
 20
4834.2087255995
 10
6284.70633171
 20
4833.012951702
 10
6285.0814846123
 20
4832.117897149
  0
LINE
  5
1BA
330
1F
100
AcDbEntity
  8
0
  6
Continuous
 62
     7
370
    25
100
AcDbLine
 10
6285.0814846123
 20
4832.117897149
 30
0.0
 11
6284.9957706366
 21
4831.997249905
 31
0.0
  0
LWPOLYLINE
  5
1BB
330
1F
100
AcDbEntity
  8
0
  6
Continuous
 62
     7
370
    25
100
AcDbPolyline
 90
        3
 70
   128
 43
0.0
 10
6284.9957706366
 20
4831.997249905
 10
6284.4407195355
 20
4833.3845609516
 10
6284.3472658623
 20
4834.4068874918
  0
LWPOLYLINE
  5
1BC
330
1F
100
AcDbEntity
  8
0
  6
Continuous
 62
     7
370
    25
100
AcDbPolyline
 90
        3
 70
   128
 43
0.0
 10
6285.569447937
 20
4832.5371652696
 10
6286.3109153002
 20
4833.0224895695
 10
6286.9864846123
 20
4833.2268733859
  0
LWPOLYLINE
  5
1BD
330
1F
100
AcDbEntity
  8
0
  6
Continuous
 62
     7
370
    25
100
AcDbPolyline
 90
        3
 70
   128
 43
0.0
 10
6286.9864846123
 20
4833.2268733859
 10
6287.3507439662
 20
4833.280245427
 10
6287.6460136922
 20
4833.2990136854
  0
LINE
  5
1BE
330
1F
100
AcDbEntity
  8
0
  6
Continuous
 62
     7
370
    25
100
AcDbLine
 10
6287.6460136922
 20
4833.2990136854
 30
0.0
 11
6287.6600696818
 21
4833.2990136854
 31
0.0
  0
LWPOLYLINE
  5
1BF
330
1F
100
AcDbEntity
  8
0
  6
Continuous
 62
     7
370
    25
100
AcDbPolyline
 90
        3
 70
   128
 43
0.0
 10
6287.6600696818
 20
4833.2990136854
 10
6288.192739961
 20
4833.265839107
 10
6288.5968600464
 20
4833.1656195882
  0
LWPOLYLINE
  5
1C0
330
1F
100
AcDbEntity
  8
0
  6
Continuous
 62
     7
370
    25
100
AcDbPolyline
 90
        3
 70
   128
 43
0.0
 10
6288.5968600464
 20
4833.1656195882
 10
6288.7384473722
 20
4833.1169851763
 10
6288.8449069214
 20
4833.0736355387
  0
LWPOLYLINE
  5
1C1
330
1F
100
AcDbEntity
  8
0
  6
Continuous
 62
     7
370
    25
100
AcDbPolyline
 90
        3
 70
   128
 43
0.0
 10
6288.8449069214
 20
4833.0736355387
 10
6288.9148712214
 20
4833.044585056
 10
6288.9656230672
 20
4833.0172048747
  0
LWPOLYLINE
  5
1C2
330
1F
100
AcDbEntity
  8
0
  6
Continuous
 62
     7
370
    25
100
AcDbPolyline
 90
        3
 70
   128
 43
0.0
 10
6288.9656230672
 20
4833.0172048747
 10
6289.2012649879
 20
4832.898404224
 10
6289.3768296644
 20
4832.790999905
  0
LWPOLYLINE
  5
1C3
330
1F
100
AcDbEntity
  8
0
  6
Continuous
 62
     7
370
    25
100
AcDbPolyline
 90
        3
 70
   128
 43
0.0
 10
6289.3768296644
 20
4832.790999905
 10
6290.1868710304
 20
4832.0269915764
 10
6290.5489889526
 20
4831.3036832818
  0
LWPOLYLINE
  5
1C4
330
1F
100
AcDbEntity
  8
0
  6
Continuous
 62
     7
370
    25
100
AcDbPolyline
 90
        3
 70
   128
 43
0.0
 10
6290.5489889526
 20
4831.3036832818
 10
6290.001385696
 20
4831.7667963489
 10
6289.3777942912
 20
4832.1245117323
  0
LWPOLYLINE
  5
1C5
330
1F
100
AcDbEntity
  8
0
  6
Continuous
 62
     7
370
    25
100
AcDbPolyline
 90
        3
 70
   128
 43
0.0
 10
6289.3777942912
 20
4832.1245117323
 10
6289.1502118963
 20
4832.2299303401
 10
6288.9665876939
 20
4832.3081353217
  0
LWPOLYLINE
  5
1C6
330
1F
100
AcDbEntity
  8
0
  6
Continuous
 62
     7
370
    25
100
AcDbPolyline
 90
        3
 70
   128
 43
0.0
 10
6288.9665876939
 20
4832.3081353217
 10
6288.9131768209
 20
4832.3318573607
 10
6288.8672311401
 20
4832.3503032904
  0
LINE
  5
1C7
330
1F
100
AcDbEntity
  8
0
  6
Continuous
 62
     7
370
    25
100
AcDbLine
 10
6288.8672311401
 20
4832.3503032904
 30
0.0
 11
6288.8460093519
 21
4832.329288208
 31
0.0
  0
LWPOLYLINE
  5
1C8
330
1F
100
AcDbEntity
  8
0
  6
Continuous
 62
     7
370
    25
100
AcDbPolyline
 90
        3
 70
   128
 43
0.0
 10
6288.8460093519
 20
4832.329288208
 10
6288.709791833
 20
4832.2057999961
 10
6288.5982380846
 20
4832.1234093017
  0
LWPOLYLINE
  5
1C9
330
1F
100
AcDbEntity
  8
0
  6
Continuous
 62
     7
370
    25
100
AcDbPolyline
 90
        3
 70
   128
 43
0.0
 10
6288.5982380846
 20
4832.1234093017
 10
6288.1671682816
 20
4831.9340591544
 10
6287.7474373033
 20
4831.8881781819
  0
LINE
  5
1CA
330
1F
100
AcDbEntity
  8
0
  6
Continuous
 62
     7
370
    25
100
AcDbLine
 10
6287.7474373033
 20
4831.8881781819
 30
0.0
 11
6287.6621367391
 21
4831.8950683729
 31
0.0
  0
LWPOLYLINE
  5
1CB
330
1F
100
AcDbEntity
  8
0
  6
Continuous
 62
     7
370
    25
100
AcDbPolyline
 90
        3
 70
   128
 43
0.0
 10
6287.6621367391
 20
4831.8950683729
 10
6287.2635301294
 20
4831.9827745817
 10
6286.9881382582
 20
4832.1208599311
  0
LWPOLYLINE
  5
1CC
330
1F
100
AcDbEntity
  8
0
  6
Continuous
 62
     7
370
    25
100
AcDbPolyline
 90
        3
 70
   128
 43
0.0
 10
6286.9881382582
 20
4832.1208599311
 10
6286.7643836257
 20
4832.2848167811
 10
6286.6259898207
 20
4832.4177582601
  0
LWPOLYLINE
  5
1CD
330
1F
100
AcDbEntity
  8
0
  6
Continuous
 62
     7
370
    25
100
AcDbPolyline
 90
        3
 70
   128
 43
0.0
 10
6286.6259898207
 20
4832.4177582601
 10
6286.0684818693
 20
4832.1394682312
 10
6285.5704125637
 20
4831.814108629
  0
LWPOLYLINE
  5
1CE
330
1F
100
AcDbEntity
  8
0
  6
Continuous
 62
     7
370
    25
100
AcDbPolyline
 90
        3
 70
   128
 43
0.0
 10
6285.5704125637
 20
4831.814108629
 10
6285.0892893444
 20
4831.440915319
 10
6284.7066582235
 20
4831.1104823269
  0
LWPOLYLINE
  5
1CF
330
1F
100
AcDbEntity
  8
0
  6
Continuous
 62
     7
370
    25
100
AcDbPolyline
 90
        3
 70
   128
 43
0.0
 10
6284.7066582235
 20
4831.1104823269
 10
6285.127283758
 20
4832.0113341786
 10
6285.569447937
 20
4832.5371652696
  0
LWPOLYLINE
  5
1D0
330
1F
100
AcDbEntity
  8
0
  6
Continuous
 62
     7
370
    25
100
AcDbPolyline
 90
        3
 70
   128
 43
0.0
 10
6284.5104255846
 20
4830.7069238417
 10
6284.5465188611
 20
4830.7994780638
 10
6284.616947937
 20
4830.8967486029
  0
LINE
  5
1D1
330
1F
100
AcDbEntity
  8
0
  6
Continuous
 62
     7
370
    25
100
AcDbLine
 10
6284.616947937
 20
4830.8967486029
 30
0.0
 11
6284.6126760186
 21
4830.8941992323
 31
0.0
  0
LWPOLYLINE
  5
1D2
330
1F
100
AcDbEntity
  8
0
  6
Continuous
 62
     7
370
    25
100
AcDbPolyline
 90
        3
 70
   128
 43
0.0
 10
6284.6126760186
 20
4830.8941992323
 10
6285.1568721828
 20
4831.3625066523
 10
6285.5705503676
 20
4831.6790608859
  0
LWPOLYLINE
  5
1D3
330
1F
100
AcDbEntity
  8
0
  6
Continuous
 62
     7
370
    25
100
AcDbPolyline
 90
        3
 70
   128
 43
0.0
 10
6285.5705503676
 20
4831.6790608859
 10
6286.1277297594
 20
4832.0462519025
 10
6286.5843730672
 20
4832.2976622314
  0
LWPOLYLINE
  5
1D4
330
1F
100
AcDbEntity
  8
0
  6
Continuous
 62
     7
370
    25
100
AcDbPolyline
 90
        3
 70
   128
 43
0.0
 10
6286.5843730672
 20
4832.2976622314
 10
6286.7843795464
 20
4832.1218069189
 10
6286.988276062
 20
4831.9931846924
  0
LWPOLYLINE
  5
1D5
330
1F
100
AcDbEntity
  8
0
  6
Continuous
 62
     7
370
    25
100
AcDbPolyline
 90
        3
 70
   128
 43
0.0
 10
6286.988276062
 20
4831.9931846924
 10
6287.3370912634
 20
4831.8462142246
 10
6287.6622745429
 20
4831.7886838243
  0
LINE
  5
1D6
330
1F
100
AcDbEntity
  8
0
  6
Continuous
 62
     7
370
    25
100
AcDbLine
 10
6287.6622745429
 20
4831.7886838243
 30
0.0
 11
6287.7475751071
 21
4831.7816558295
 31
0.0
  0
LWPOLYLINE
  5
1D7
330
1F
100
AcDbEntity
  8
0
  6
Continuous
 62
     7
370
    25
100
AcDbPolyline
 90
        3
 70
   128
 43
0.0
 10
6287.7475751071
 20
4831.7816558295
 10
6288.3159458977
 20
4831.8539189353
 10
6288.5985136922
 20
4831.9883615587
  0
LWPOLYLINE
  5
1D8
330
1F
100
AcDbEntity
  8
0
  6
Continuous
 62
     7
370
    25
100
AcDbPolyline
 90
        3
 70
   128
 43
0.0
 10
6288.5985136922
 20
4831.9883615587
 10
6288.736902964
 20
4832.0983155481
 10
6288.8462849596
 20
4832.1945160726
  0
LINE
  5
1D9
330
1F
100
AcDbEntity
  8
0
  6
Continuous
 62
     7
370
    25
100
AcDbLine
 10
6288.8462849596
 20
4832.1945160726
 30
0.0
 11
6288.8812871297
 21
4832.2229036594
 31
0.0
  0
LWPOLYLINE
  5
1DA
330
1F
100
AcDbEntity
  8
0
  6
Continuous
 62
     7
370
    25
100
AcDbPolyline
 90
        3
 70
   128
 43
0.0
 10
6288.8812871297
 20
4832.2229036594
 10
6288.9342011505
 20
4832.2057578744
 10
6288.9668633016
 20
4832.1876258816
  0
LWPOLYLINE
  5
1DB
330
1F
100
AcDbEntity
  8
0
  6
Continuous
 62
     7
370
    25
100
AcDbPolyline
 90
        3
 70
   128
 43
0.0
 10
6288.9668633016
 20
4832.1876258816
 10
6289.2047788398
 20
4832.074169726
 10
6289.3780698988
 20
4831.9894639892
  0
LWPOLYLINE
  5
1DC
330
1F
100
AcDbEntity
  8
0
  6
Continuous
 62
     7
370
    25
100
AcDbPolyline
 90
        3
 70
   128
 43
0.0
 10
6289.3780698988
 20
4831.9894639892
 10
6290.2678250549
 20
4831.4317277377
 10
6290.8079223294
 20
4830.8407313503
  0
ARC
  5
1DD
330
1F
100
AcDbEntity
  8
0
  6
Continuous
 62
     7
370
    25
100
AcDbCircle
 10
6290.5348288824
 20
4830.6955175787
 30
0.0
 40
0.3093009380392843
100
AcDbArc
 50
335.8935750003
 51
28.0012120043
  0
LWPOLYLINE
  5
1DE
330
1F
100
AcDbEntity
  8
0
  6
Continuous
 62
     7
370
    25
100
AcDbPolyline
 90
        3
 70
   128
 43
0.0
 10
6290.8171551853
 20
4830.5691889241
 10
6290.1514313629
 20
4831.0333551475
 10
6289.3790345255
 20
4831.3446110161
  0
LWPOLYLINE
  5
1DF
330
1F
100
AcDbEntity
  8
0
  6
Continuous
 62
     7
370
    25
100
AcDbPolyline
 90
        3
 70
   128
 43
0.0
 10
6289.3790345255
 20
4831.3446110161
 10
6289.1537051283
 20
4831.4101480961
 10
6288.9679657321
 20
4831.4574723443
  0
LWPOLYLINE
  5
1E0
330
1F
100
AcDbEntity
  8
0
  6
Continuous
 62
     7
370
    25
100
AcDbPolyline
 90
        3
 70
   128
 43
0.0
 10
6288.9679657321
 20
4831.4574723443
 10
6288.9026665831
 20
4831.4693303078
 10
6288.8473873901
 20
4831.4785563286
  0
LWPOLYLINE
  5
1E1
330
1F
100
AcDbEntity
  8
0
  6
Continuous
 62
     7
370
    25
100
AcDbPolyline
 90
        3
 70
   128
 43
0.0
 10
6288.8473873901
 20
4831.4785563286
 10
6288.7108364962
 20
4831.5049250564
 10
6288.5992027113
 20
4831.5205864936
  0
LWPOLYLINE
  5
1E2
330
1F
100
AcDbEntity
  8
0
  6
Continuous
 62
     7
370
    25
100
AcDbPolyline
 90
        3
 70
   128
 43
0.0
 10
6288.5992027113
 20
4831.5205864936
 10
6288.1316425452
 20
4831.5713535794
 10
6287.7406849162
 20
4831.5832183295
  0
LINE
  5
1E3
330
1F
100
AcDbEntity
  8
0
  6
Continuous
 62
     7
370
    25
100
AcDbLine
 10
6287.7406849162
 20
4831.5832183295
 30
0.0
 11
6287.6625501505
 21
4831.5830805257
 31
0.0
  0
LWPOLYLINE
  5
1E4
330
1F
100
AcDbEntity
  8
0
  6
Continuous
 62
     7
370
    25
100
AcDbPolyline
 90
        3
 70
   128
 43
0.0
 10
6287.6625501505
 20
4831.5830805257
 10
6287.27000578
 20
4831.5743488171
 10
6286.9889650811
 20
4831.5534527045
  0
LWPOLYLINE
  5
1E5
330
1F
100
AcDbEntity
  8
0
  6
Continuous
 62
     7
370
    25
100
AcDbPolyline
 90
        3
 70
   128
 43
0.0
 10
6286.9889650811
 20
4831.5534527045
 10
6286.1584079411
 20
4831.408858151
 10
6285.5713771905
 20
4831.211148017
  0
LWPOLYLINE
  5
1E6
330
1F
100
AcDbEntity
  8
0
  6
Continuous
 62
     7
370
    25
100
AcDbPolyline
 90
        3
 70
   128
 43
0.0
 10
6285.5713771905
 20
4831.211148017
 10
6285.0090138174
 20
4830.9555178574
 10
6284.5104255846
 20
4830.7069238417
  0
ARC
  5
1E7
330
1F
100
AcDbEntity
  8
0
  6
Continuous
 62
     7
370
    25
100
AcDbCircle
 10
6288.5911855415
 20
4831.1601583273
 30
0.0
 40
0.2422855740773824
100
AcDbArc
 50
272.1245052649
 51
359.7724224805
  0
LINE
  5
1E8
330
1F
100
AcDbEntity
  8
0
  6
Continuous
 62
     7
370
    25
100
AcDbLine
 10
6288.600167338
 20
4830.9180392931
 30
0.0
 11
6288.592588128
 21
4830.9179014892
 31
0.0
  0
ARC
  5
1E9
330
1F
100
AcDbEntity
  8
0
  6
Continuous
 62
     7
370
    25
100
AcDbCircle
 10
6288.5961688794
 20
4831.156146926
 30
0.0
 40
0.2382723439828148
100
AcDbArc
 50
179.4324893837
 51
269.1389279077
  0
ARC
  5
1EA
330
1F
100
AcDbEntity
  8
0
  6
Continuous
 62
     7
370
    25
100
AcDbCircle
 10
6288.5951941842
 20
4831.1626420903
 30
0.0
 40
0.237321989056863
100
AcDbArc
 50
90.8288163599
 51
180.998380391
  0
LINE
  5
1EB
330
1F
100
AcDbEntity
  8
0
  6
Continuous
 62
     7
370
    25
100
AcDbLine
 10
6288.5917613051
 20
4831.3999392497
 30
0.0
 11
6288.5993405151
 21
4831.4000770535
 31
0.0
  0
ARC
  5
1EC
330
1F
100
AcDbEntity
  8
0
  6
Continuous
 62
     7
370
    25
100
AcDbCircle
 10
6288.5994715297
 20
4831.1659810646
 30
0.0
 40
0.234096025512614
100
AcDbArc
 50
358.339094691
 51
90.0320662536
  0
ARC
  5
1ED
330
1F
100
AcDbEntity
  8
0
  6
Continuous
 62
     7
370
    25
100
AcDbCircle
 10
6286.990311763
 20
4831.1482861818
 30
0.0
 40
0.2422158743631681
100
AcDbArc
 50
90.2533617309
 51
178.152423786
  0
ARC
  5
1EE
330
1F
100
AcDbEntity
  8
0
  6
Continuous
 62
     7
370
    25
100
AcDbCircle
 10
6286.9898103821
 20
4831.149532732
 30
0.0
 40
0.240967629489368
100
AcDbArc
 50
1.6917384856
 51
90.1354582644
  0
ARC
  5
1EF
330
1F
100
AcDbEntity
  8
0
  6
Continuous
 62
     7
370
    25
100
AcDbCircle
 10
6286.9894437903
 20
4831.159525562
 30
0.0
 40
0.2412463689936115
100
AcDbArc
 50
180.8146897128
 51
359.3162346047
  0
LWPOLYLINE
  5
1F0
330
1F
100
AcDbEntity
  8
0
  6
Continuous
 62
     7
370
    25
100
AcDbPolyline
 90
        3
 70
   128
 43
0.0
 10
6285.5723418172
 20
4830.523506958
 10
6285.0856266644
 20
4830.6641350281
 10
6284.6935668606
 20
4830.7134006212
  0
LWPOLYLINE
  5
1F1
330
1F
100
AcDbEntity
  8
0
  6
Continuous
 62
     7
370
    25
100
AcDbPolyline
 90
        3
 70
   128
 43
0.0
 10
6284.6935668606
 20
4830.7134006212
 10
6285.1358451014
 20
4830.7568820433
 10
6285.5720662096
 20
4830.6932123616
  0
LWPOLYLINE
  5
1F2
330
1F
100
AcDbEntity
  8
0
  6
Continuous
 62
     7
370
    25
100
AcDbPolyline
 90
        3
 70
   128
 43
0.0
 10
6285.5720662096
 20
4830.6932123616
 10
6286.2434099936
 20
4830.4885072705
 10
6286.8208444214
 20
4830.248726142
  0
LWPOLYLINE
  5
1F3
330
1F
100
AcDbEntity
  8
0
  6
Continuous
 62
     7
370
    25
100
AcDbPolyline
 90
        3
 70
   128
 43
0.0
 10
6286.8208444214
 20
4830.248726142
 10
6286.9212109162
 20
4830.3960134395
 10
6286.9906187269
 20
4830.4969797227
  0
LWPOLYLINE
  5
1F4
330
1F
100
AcDbEntity
  8
0
  6
Continuous
 62
     7
370
    25
100
AcDbPolyline
 90
        3
 70
   128
 43
0.0
 10
6286.9906187269
 20
4830.4969797227
 10
6287.3724687979
 20
4830.8641320925
 10
6287.6633769735
 20
4830.9802577175
  0
ARC
  5
1F5
330
1F
100
AcDbEntity
  8
0
  6
Continuous
 62
     7
370
    25
100
AcDbCircle
 10
6287.7107044826
 20
4829.9340816722
 30
0.0
 40
1.047246012586605
100
AcDbArc
 50
31.7747674494
 51
92.5902131603
  0
LWPOLYLINE
  5
1F6
330
1F
100
AcDbEntity
  8
0
  6
Continuous
 62
     7
370
    25
100
AcDbPolyline
 90
        3
 70
   128
 43
0.0
 10
6288.600994161
 20
4830.4855420057
 10
6288.6643920847
 20
4830.4020741044
 10
6288.7138554891
 20
4830.3366449788
  0
LWPOLYLINE
  5
1F7
330
1F
100
AcDbEntity
  8
0
  6
Continuous
 62
     7
370
    25
100
AcDbPolyline
 90
        3
 70
   128
 43
0.0
 10
6288.7138554891
 20
4830.3366449788
 10
6288.7920772409
 20
4830.3725316246
 10
6288.8491788398
 20
4830.4004481472
  0
LWPOLYLINE
  5
1F8
330
1F
100
AcDbEntity
  8
0
  6
Continuous
 62
     7
370
    25
100
AcDbPolyline
 90
        3
 70
   128
 43
0.0
 10
6288.8491788398
 20
4830.4004481472
 10
6288.9188303846
 20
4830.4309526388
 10
6288.9693437703
 20
4830.4504020318
  0
LWPOLYLINE
  5
1F9
330
1F
100
AcDbEntity
  8
0
  6
Continuous
 62
     7
370
    25
100
AcDbPolyline
 90
        3
 70
   128
 43
0.0
 10
6288.9693437703
 20
4830.4504020318
 10
6289.1994330217
 20
4830.5382249218
 10
6289.3799991523
 20
4830.5928911811
  0
LWPOLYLINE
  5
1FA
330
1F
100
AcDbEntity
  8
0
  6
Continuous
 62
     7
370
    25
100
AcDbPolyline
 90
        3
 70
   128
 43
0.0
 10
6289.3799991523
 20
4830.5928911811
 10
6290.0659517992
 20
4830.6841275225
 10
6290.6279505412
 20
4830.6234147271
  0
LWPOLYLINE
  5
1FB
330
1F
100
AcDbEntity
  8
0
  6
Continuous
 62
     7
370
    25
100
AcDbPolyline
 90
        3
 70
   128
 43
0.0
 10
6290.6279505412
 20
4830.6234147271
 10
6289.8980079517
 20
4830.5176410132
 10
6289.3804125637
 20
4830.3378163113
  0
LWPOLYLINE
  5
1FC
330
1F
100
AcDbEntity
  8
0
  6
Continuous
 62
     7
370
    25
100
AcDbPolyline
 90
        3
 70
   128
 43
0.0
 10
6289.3804125637
 20
4830.3378163113
 10
6289.1479356065
 20
4830.2246809366
 10
6288.9697571818
 20
4830.131179484
  0
LWPOLYLINE
  5
1FD
330
1F
100
AcDbEntity
  8
0
  6
Continuous
 62
     7
370
    25
100
AcDbPolyline
 90
        3
 70
   128
 43
0.0
 10
6288.9697571818
 20
4830.131179484
 10
6288.9046895432
 20
4830.0849479651
 10
6288.8495922512
 20
4830.0534581299
  0
LWPOLYLINE
  5
1FE
330
1F
100
AcDbEntity
  8
0
  6
Continuous
 62
     7
370
    25
100
AcDbPolyline
 90
        3
 70
   128
 43
0.0
 10
6288.8495922512
 20
4830.0534581299
 10
6288.7107507007
 20
4829.9577261649
 10
6288.6018209839
 20
4829.8827191976
  0
ARC
  5
1FF
330
1F
100
AcDbEntity
  8
0
  6
Continuous
 62
     7
370
    25
100
AcDbCircle
 10
6287.9915275877
 20
4830.5861779357
 30
0.0
 40
0.9312959925456264
100
AcDbArc
 50
263.0369031451
 51
310.9436339504
  0
LWPOLYLINE
  5
200
330
1F
100
AcDbEntity
  8
0
  6
Continuous
 62
     7
370
    25
100
AcDbPolyline
 90
       12
 70
   128
 43
0.0
 10
6287.8786265394
 20
4829.6617507731
 10
6287.8647427037
 20
4829.664669314
 10
6287.8524602318
 20
4829.672964828
 10
6287.8418818709
 20
4829.6858696376
 10
6287.8331103685
 20
4829.7026160651
 10
6287.8213989279
 20
4829.7445630633
 10
6287.8181478882
 20
4829.7926644016
 10
6287.8241792276
 20
4829.8407786589
 10
6287.8403149244
 20
4829.8827644144
 10
6287.8673769569
 20
4829.912480247
 10
6287.8852622172
 20
4829.9208177482
 10
6287.9061873033
 20
4829.9237847358
  0
LINE
  5
201
330
1F
100
AcDbEntity
  8
0
  6
Continuous
 62
     7
370
    25
100
AcDbLine
 10
6287.9061873033
 20
4829.9237847358
 30
0.0
 11
6288.0694848294
 21
4829.9240603434
 31
0.0
  0
ARC
  5
202
330
1F
100
AcDbEntity
  8
0
  6
Continuous
 62
     7
370
    25
100
AcDbCircle
 10
6288.0716651904
 20
4830.0215361201
 30
0.0
 40
0.0975001590150805
100
AcDbArc
 50
268.7186082627
 51
352.9489459394
  0
ARC
  5
203
330
1F
100
AcDbEntity
  8
0
  6
Continuous
 62
     7
370
    25
100
AcDbCircle
 10
6288.0706812128
 20
4829.9959867427
 30
0.0
 40
0.0986857078554101
100
AcDbArc
 50
7.9099988958
 51
90.8546526504
  0
LINE
  5
204
330
1F
100
AcDbEntity
  8
0
  6
Continuous
 62
     7
370
    25
100
AcDbLine
 10
6288.0692092217
 20
4830.0946614719
 30
0.0
 11
6287.6647550116
 21
4830.0939724528
 31
0.0
  0
LINE
  5
205
330
1F
100
AcDbEntity
  8
0
  6
Continuous
 62
     7
370
    25
100
AcDbLine
 10
6287.6647550116
 20
4830.0939724528
 30
0.0
 11
6287.4169837443
 21
4830.0934901394
 31
0.0
  0
ARC
  5
206
330
1F
100
AcDbEntity
  8
0
  6
Continuous
 62
     7
370
    25
100
AcDbCircle
 10
6287.4223814312
 20
4829.986501482
 30
0.0
 40
0.1071247302878724
100
AcDbArc
 50
92.8881817384
 51
168.2817231386
  0
ARC
  5
207
330
1F
100
AcDbEntity
  8
0
  6
Continuous
 62
     7
370
    25
100
AcDbCircle
 10
6287.4093719588
 20
4830.0146556727
 30
0.0
 40
0.0921050008234515
100
AcDbArc
 50
183.9827114939
 51
274.9125292084
  0
LINE
  5
208
330
1F
100
AcDbEntity
  8
0
  6
Continuous
 62
     7
370
    25
100
AcDbLine
 10
6287.4172593519
 20
4829.9228890109
 30
0.0
 11
6287.5733910794
 21
4829.9231646186
 31
0.0
  0
LWPOLYLINE
  5
209
330
1F
100
AcDbEntity
  8
0
  6
Continuous
 62
     7
370
    25
100
AcDbPolyline
 90
       11
 70
   128
 43
0.0
 10
6287.5733910794
 20
4829.9231646186
 10
6287.5907880714
 20
4829.920340229
 10
6287.6058745617
 20
4829.9122871333
 10
6287.6291111925
 20
4829.8834803484
 10
6287.6430912823
 20
4829.842715314
 10
6287.6478051419
 20
4829.7959630805
 10
6287.6432430818
 20
4829.7491946981
 10
6287.6293954129
 20
4829.7083812171
 10
6287.6062524456
 20
4829.6794936877
 10
6287.5911921973
 20
4829.6713881081
 10
6287.5738044908
 20
4829.6685031602
  0
LWPOLYLINE
  5
20A
330
1F
100
AcDbEntity
  8
0
  6
Continuous
 62
     7
370
    25
100
AcDbPolyline
 90
        3
 70
   128
 43
0.0
 10
6287.5738044908
 20
4829.6685031602
 10
6287.2633171662
 20
4829.7217247504
 10
6286.9917211575
 20
4829.8234635552
  0
LWPOLYLINE
  5
20B
330
1F
100
AcDbEntity
  8
0
  6
Continuous
 62
     7
370
    25
100
AcDbPolyline
 90
        3
 70
   128
 43
0.0
 10
6286.9917211575
 20
4829.8234635552
 10
6286.5142395044
 20
4830.0624513262
 10
6286.1399557495
 20
4830.2616107991
  0
LWPOLYLINE
  5
20C
330
1F
100
AcDbEntity
  8
0
  6
Continuous
 62
     7
370
    25
100
AcDbPolyline
 90
        3
 70
   128
 43
0.0
 10
6286.1399557495
 20
4830.2616107991
 10
6285.8225808974
 20
4830.4212522333
 10
6285.5723418172
 20
4830.523506958
  0
LINE
  5
20D
330
1F
100
AcDbEntity
  8
0
  6
Continuous
 62
     7
370
    25
100
AcDbLine
 10
6287.0100490655
 20
4822.3569770101
 30
0.0
 11
6287.0030210707
 21
4822.3642806125
 31
0.0
  0
LWPOLYLINE
  5
20E
330
1F
100
AcDbEntity
  8
0
  6
Continuous
 62
     7
370
    25
100
AcDbPolyline
 90
        3
 70
   128
 43
0.0
 10
6287.0030210707
 20
4822.3642806125
 10
6286.0855567723
 20
4822.8167643881
 10
6285.5833661228
 20
4823.2560091281
  0
ARC
  5
20F
330
1F
100
AcDbEntity
  8
0
  6
Continuous
 62
     7
370
    25
100
AcDbCircle
 10
6288.5597615646
 20
4825.2457261933
 30
0.0
 40
3.580210025297861
100
AcDbArc
 50
146.408330412
 51
213.7626838309
  0
LWPOLYLINE
  5
210
330
1F
100
AcDbEntity
  8
0
  6
Continuous
 62
     7
370
    25
100
AcDbPolyline
 90
        3
 70
   128
 43
0.0
 10
6285.5774405585
 20
4827.2265505778
 10
6285.9955512109
 20
4828.070440557
 10
6286.1928724162
 20
4828.4538313937
  0
LWPOLYLINE
  5
211
330
1F
100
AcDbEntity
  8
0
  6
Continuous
 62
     7
370
    25
100
AcDbPolyline
 90
        3
 70
   128
 43
0.0
 10
6286.1928724162
 20
4828.4538313937
 10
6286.447822676
 20
4829.1225915833
 10
6286.4887372165
 20
4829.503827596
  0
LWPOLYLINE
  5
212
330
1F
100
AcDbEntity
  8
0
  6
Continuous
 62
     7
370
    25
100
AcDbPolyline
 90
        3
 70
   128
 43
0.0
 10
6286.4887372165
 20
4829.503827596
 10
6286.8711887207
 20
4827.9631805948
 10
6286.9964064873
 20
4826.6969704997
  0
LWPOLYLINE
  5
213
330
1F
100
AcDbEntity
  8
0
  6
Continuous
 62
     7
370
    25
100
AcDbPolyline
 90
        3
 70
   128
 43
0.0
 10
6286.9964064873
 20
4826.6969704997
 10
6287.0237469415
 20
4824.3272019082
 10
6287.0100490655
 20
4822.3569770101
  0
LWPOLYLINE
  5
214
330
1F
100
AcDbEntity
  8
0
  6
Continuous
 62
     7
370
    25
100
AcDbPolyline
 90
        3
 70
   128
 43
0.0
 10
6288.2584138658
 20
4822.3311387939
 10
6288.0069773785
 20
4822.2883577679
 10
6287.7479885186
 20
4822.2731233859
  0
LWPOLYLINE
  5
215
330
1F
100
AcDbEntity
  8
0
  6
Continuous
 62
     7
370
    25
100
AcDbPolyline
 90
        3
 70
   128
 43
0.0
 10
6287.7479885186
 20
4822.2731233859
 10
6287.6926559239
 20
4823.8859476181
 10
6287.6796378241
 20
4825.1447482774
  0
LINE
  5
216
330
1F
100
AcDbEntity
  8
0
  6
Continuous
 62
     7
370
    25
100
AcDbLine
 10
6287.6796378241
 20
4825.1447482774
 30
0.0
 11
6287.6724720255
 21
4825.0949321967
 31
0.0
  0
LWPOLYLINE
  5
217
330
1F
100
AcDbEntity
  8
0
  6
Continuous
 62
     7
370
    25
100
AcDbPolyline
 90
        3
 70
   128
 43
0.0
 10
6287.6724720255
 20
4825.0949321967
 10
6287.5857885989
 20
4823.5973877431
 10
6287.6274101766
 20
4822.2803580865
  0
LWPOLYLINE
  5
218
330
1F
100
AcDbEntity
  8
0
  6
Continuous
 62
     7
370
    25
100
AcDbPolyline
 90
        3
 70
   128
 43
0.0
 10
6287.6274101766
 20
4822.2803580865
 10
6287.3610647888
 20
4822.2985614727
 10
6287.1306274075
 20
4822.3359619276
  0
LWPOLYLINE
  5
219
330
1F
100
AcDbEntity
  8
0
  6
Continuous
 62
     7
370
    25
100
AcDbPolyline
 90
        3
 70
   128
 43
0.0
 10
6287.1306274075
 20
4822.3359619276
 10
6287.1479031469
 20
4825.9336134297
 10
6286.9944772339
 20
4827.9304524875
  0
ARC
  5
21A
330
1F
100
AcDbEntity
  8
0
  6
Continuous
 62
     7
370
    25
100
AcDbCircle
 10
6283.801429016
 20
4828.0452514892
 30
0.0
 40
3.195111223781573
100
AcDbArc
 50
357.9409435733
 51
38.8540510632
  0
ARC
  5
21B
330
1F
100
AcDbEntity
  8
0
  6
Continuous
 62
     7
370
    25
100
AcDbCircle
 10
6285.7019658111
 20
4828.1329429165
 30
0.0
 40
2.004785168080431
100
AcDbArc
 50
49.9484998501
 51
72.9550939821
  0
LWPOLYLINE
  5
21C
330
1F
100
AcDbEntity
  8
0
  6
Continuous
 62
     7
370
    25
100
AcDbPolyline
 90
        3
 70
   128
 43
0.0
 10
6286.9919967651
 20
4829.6675385335
 10
6287.3755358126
 20
4829.4474717076
 10
6287.6658574422
 20
4829.3563775092
  0
LINE
  5
21D
330
1F
100
AcDbEntity
  8
0
  6
Continuous
 62
     7
370
    25
100
AcDbLine
 10
6287.6658574422
 20
4829.3563775092
 30
0.0
 11
6287.7158802287
 21
4829.349694024
 31
0.0
  0
ARC
  5
21E
330
1F
100
AcDbEntity
  8
0
  6
Continuous
 62
     7
370
    25
100
AcDbCircle
 10
6287.5037437103
 20
4831.0060394894
 30
0.0
 40
1.669874906521937
100
AcDbArc
 50
277.2984266618
 51
311.1281656326
  0
LWPOLYLINE
  5
21F
330
1F
100
AcDbEntity
  8
0
  6
Continuous
 62
     7
370
    25
100
AcDbPolyline
 90
        3
 70
   128
 43
0.0
 10
6288.6020965915
 20
4829.7482226698
 10
6288.7434195633
 20
4829.842205836
 10
6288.8498678589
 20
4829.9114512939
  0
LWPOLYLINE
  5
220
330
1F
100
AcDbEntity
  8
0
  6
Continuous
 62
     7
370
    25
100
AcDbPolyline
 90
        3
 70
   128
 43
0.0
 10
6288.8498678589
 20
4829.9114512939
 10
6288.9195194037
 20
4829.9537967099
 10
6288.9700327894
 20
4829.9829025743
  0
LWPOLYLINE
  5
221
330
1F
100
AcDbEntity
  8
0
  6
Continuous
 62
     7
370
    25
100
AcDbPolyline
 90
        3
 70
   128
 43
0.0
 10
6288.9700327894
 20
4829.9829025743
 10
6289.0280323841
 20
4830.0093828592
 10
6289.0689759318
 20
4830.0252083469
  0
LWPOLYLINE
  5
222
330
1F
100
AcDbEntity
  8
0
  6
Continuous
 62
     7
370
    25
100
AcDbPolyline
 90
        3
 70
   128
 43
0.0
 10
6289.0689759318
 20
4830.0252083469
 10
6289.0159919022
 20
4829.9719390347
 10
6288.9701705932
 20
4829.9253005778
  0
LWPOLYLINE
  5
223
330
1F
100
AcDbEntity
  8
0
  6
Continuous
 62
     7
370
    25
100
AcDbPolyline
 90
        3
 70
   128
 43
0.0
 10
6288.9701705932
 20
4829.9253005778
 10
6288.9026704284
 20
4829.8409116972
 10
6288.8500056627
 20
4829.7696511637
  0
LWPOLYLINE
  5
224
330
1F
100
AcDbEntity
  8
0
  6
Continuous
 62
     7
370
    25
100
AcDbPolyline
 90
        3
 70
   128
 43
0.0
 10
6288.8500056627
 20
4829.7696511637
 10
6288.7032339852
 20
4829.5271599919
 10
6288.6027856106
 20
4829.3083528781
  0
ARC
  5
225
330
1F
100
AcDbEntity
  8
0
  6
Continuous
 62
     7
370
    25
100
AcDbCircle
 10
6305.1315356602
 20
4824.9954439909
 30
0.0
 40
17.08217671351271
100
AcDbArc
 50
165.3756823683
 51
188.9730509266
  0
ARC
  5
226
330
1F
100
AcDbEntity
  8
0
  6
Continuous
 62
     7
370
    25
100
AcDbCircle
 10
6287.5587164598
 20
4825.7835498246
 30
0.0
 40
3.537525505613174
100
AcDbArc
 50
301.2139727477
 51
352.820943498
  0
LWPOLYLINE
  5
227
330
1F
100
AcDbEntity
  8
0
  6
Continuous
 62
     7
370
    25
100
AcDbPolyline
 90
        3
 70
   128
 43
0.0
 10
6289.3919880846
 20
4822.7581239285
 10
6289.1700154032
 20
4822.6439524983
 10
6288.9813327026
 20
4822.5589285075
  0
LWPOLYLINE
  5
228
330
1F
100
AcDbEntity
  8
0
  6
Continuous
 62
     7
370
    25
100
AcDbPolyline
 90
        3
 70
   128
 43
0.0
 10
6288.9813327026
 20
4822.5589285075
 10
6288.9161631994
 20
4822.5307140552
 10
6288.8611677721
 20
4822.508905721
  0
LWPOLYLINE
  5
229
330
1F
100
AcDbEntity
  8
0
  6
Continuous
 62
     7
370
    25
100
AcDbPolyline
 90
        3
 70
   128
 43
0.0
 10
6288.8611677721
 20
4822.508905721
 10
6288.7246530555
 20
4822.4610825216
 10
6288.6132587009
 20
4822.4235362549
  0
LWPOLYLINE
  5
22A
330
1F
100
AcDbEntity
  8
0
  6
Continuous
 62
     7
370
    25
100
AcDbPolyline
 90
        3
 70
   128
 43
0.0
 10
6288.6132587009
 20
4822.4235362549
 10
6288.4683691105
 20
4822.379649103
 10
6288.3503290134
 20
4822.3449880778
  0
LWPOLYLINE
  5
22B
330
1F
100
AcDbEntity
  8
0
  6
Continuous
 62
     7
370
    25
100
AcDbPolyline
 90
        3
 70
   128
 43
0.0
 10
6288.3503290134
 20
4822.3449880778
 10
6288.2369450891
 20
4825.7803618903
 10
6288.5325056627
 20
4828.7621674398
  0
LWPOLYLINE
  5
22C
330
1F
100
AcDbEntity
  8
0
  6
Continuous
 62
     7
370
    25
100
AcDbPolyline
 90
        3
 70
   128
 43
0.0
 10
6288.5325056627
 20
4828.7621674398
 10
6288.5743145919
 20
4828.8748807864
 10
6288.6031990221
 20
4828.9541970622
  0
LWPOLYLINE
  5
22D
330
1F
100
AcDbEntity
  8
0
  6
Continuous
 62
     7
370
    25
100
AcDbPolyline
 90
        3
 70
   128
 43
0.0
 10
6288.6031990221
 20
4828.9541970622
 10
6288.7387085512
 20
4829.3008495858
 10
6288.8504190741
 20
4829.5355913764
  0
LWPOLYLINE
  5
22E
330
1F
100
AcDbEntity
  8
0
  6
Continuous
 62
     7
370
    25
100
AcDbPolyline
 90
        3
 70
   128
 43
0.0
 10
6288.8504190741
 20
4829.5355913764
 10
6288.9169782572
 20
4829.660197444
 10
6288.9704462009
 20
4829.7486360812
  0
LINE
  5
22F
330
1F
100
AcDbEntity
  8
0
  6
Continuous
 62
     7
370
    25
100
AcDbLine
 10
6288.9704462009
 20
4829.7486360812
 30
0.0
 11
6288.975682746
 21
4829.7560085856
 31
0.0
  0
LWPOLYLINE
  5
230
330
1F
100
AcDbEntity
  8
0
  6
Continuous
 62
     7
370
    25
100
AcDbPolyline
 90
        3
 70
   128
 43
0.0
 10
6288.975682746
 20
4829.7560085856
 10
6289.0956820651
 20
4829.655415334
 10
6289.1901054891
 20
4829.5752099745
  0
LWPOLYLINE
  5
231
330
1F
100
AcDbEntity
  8
0
  6
Continuous
 62
     7
370
    25
100
AcDbPolyline
 90
        3
 70
   128
 43
0.0
 10
6289.1901054891
 20
4829.5752099745
 10
6289.0671551839
 20
4829.302529227
 10
6288.9716864353
 20
4829.0394287245
  0
LWPOLYLINE
  5
232
330
1F
100
AcDbEntity
  8
0
  6
Continuous
 62
     7
370
    25
100
AcDbPolyline
 90
        3
 70
   128
 43
0.0
 10
6288.9716864353
 20
4829.0394287245
 10
6288.9042675151
 20
4828.8050720261
 10
6288.8516593085
 20
4828.6067936333
  0
LWPOLYLINE
  5
233
330
1F
100
AcDbEntity
  8
0
  6
Continuous
 62
     7
370
    25
100
AcDbPolyline
 90
        3
 70
   128
 43
0.0
 10
6288.8516593085
 20
4828.6067936333
 10
6288.7003544719
 20
4827.9006104949
 10
6288.6056794908
 20
4827.2805007731
  0
LWPOLYLINE
  5
234
330
1F
100
AcDbEntity
  8
0
  6
Continuous
 62
     7
370
    25
100
AcDbPolyline
 90
        3
 70
   128
 43
0.0
 10
6288.6056794908
 20
4827.2805007731
 10
6288.475677934
 20
4825.2067236821
 10
6288.6113294474
 20
4823.5933528781
  0
LWPOLYLINE
  5
235
330
1F
100
AcDbEntity
  8
0
  6
Continuous
 62
     7
370
    25
100
AcDbPolyline
 90
        3
 70
   128
 43
0.0
 10
6288.6113294474
 20
4823.5933528781
 10
6288.6469043876
 20
4823.398806711
 10
6288.6751326158
 20
4823.2460872531
  0
LWPOLYLINE
  5
236
330
1F
100
AcDbEntity
  8
0
  6
Continuous
 62
     7
370
    25
100
AcDbPolyline
 90
        3
 70
   128
 43
0.0
 10
6288.6751326158
 20
4823.2460872531
 10
6288.6408882123
 20
4823.8810124731
 10
6288.610089213
 20
4824.3663634033
  0
LWPOLYLINE
  5
237
330
1F
100
AcDbEntity
  8
0
  6
Continuous
 62
     7
370
    25
100
AcDbPolyline
 90
        3
 70
   128
 43
0.0
 10
6288.610089213
 20
4824.3663634033
 10
6288.580012244
 20
4824.8918592055
 10
6288.5659919908
 20
4825.3231353217
  0
LINE
  5
238
330
1F
100
AcDbEntity
  8
0
  6
Continuous
 62
     7
370
    25
100
AcDbLine
 10
6288.5659919908
 20
4825.3231353217
 30
0.0
 11
6288.6088489787
 21
4825.3166585422
 31
0.0
  0
LWPOLYLINE
  5
239
330
1F
100
AcDbEntity
  8
0
  6
Continuous
 62
     7
370
    25
100
AcDbPolyline
 90
        3
 70
   128
 43
0.0
 10
6288.6088489787
 20
4825.3166585422
 10
6288.7503550598
 20
4825.2821428702
 10
6288.8567580498
 20
4825.2597455648
  0
LWPOLYLINE
  5
23A
330
1F
100
AcDbEntity
  8
0
  6
Continuous
 62
     7
370
    25
100
AcDbPolyline
 90
        3
 70
   128
 43
0.0
 10
6288.8567580498
 20
4825.2597455648
 10
6288.9267223498
 20
4825.2439617402
 10
6288.9774741957
 20
4825.2318402913
  0
LWPOLYLINE
  5
23B
330
1F
100
AcDbEntity
  8
0
  6
Continuous
 62
     7
370
    25
100
AcDbPolyline
 90
        3
 70
   128
 43
0.0
 10
6288.9774741957
 20
4825.2318402913
 10
6289.2100443744
 20
4825.1957293583
 10
6289.3884051853
 20
4825.1760986464
  0
LWPOLYLINE
  5
23C
330
1F
100
AcDbEntity
  8
0
  6
Continuous
 62
     7
370
    25
100
AcDbPolyline
 90
        3
 70
   128
 43
0.0
 10
6289.3884051853
 20
4825.1760986464
 10
6290.2101878953
 20
4825.1919600732
 10
6291.0685093519
 20
4825.3414632297
  0
LWPOLYLINE
  5
23D
330
1F
100
AcDbEntity
  8
0
  6
Continuous
 62
     7
370
    25
100
AcDbPolyline
 90
        7
 70
   128
 43
0.0
 10
6281.2400652436
 20
4830.3391253057
 10
6281.3762809697
 20
4830.3319095851
 10
6281.4918404775
 20
4830.2839316861
 10
6281.5884289928
 20
4830.1990520296
 10
6281.7014275864
 20
4830.0109864202
 10
6281.7812208426
 20
4829.7616067239
 10
6281.8820932384
 20
4828.4115254793
  0
LINE
  5
23E
330
1F
100
AcDbEntity
  8
0
  6
Continuous
 62
     7
370
    25
100
AcDbLine
 10
6281.8820932384
 20
4828.4115254793
 30
0.0
 11
6281.8820932384
 21
4827.9938421026
 31
0.0
  0
LINE
  5
23F
330
1F
100
AcDbEntity
  8
0
  6
Continuous
 62
     7
370
    25
100
AcDbLine
 10
6281.8820932384
 20
4827.9938421026
 30
0.0
 11
6280.9465431082
 21
4827.9923951625
 31
0.0
  0
LINE
  5
240
330
1F
100
AcDbEntity
  8
0
  6
Continuous
 62
     7
370
    25
100
AcDbLine
 10
6280.9465431082
 20
4827.9923951625
 30
0.0
 11
6280.002586945
 21
4827.9910171243
 31
0.0
  0
LINE
  5
241
330
1F
100
AcDbEntity
  8
0
  6
Continuous
 62
     7
370
    25
100
AcDbLine
 10
6280.002586945
 20
4827.9910171243
 30
0.0
 11
6280.002586945
 21
4828.3945756095
 31
0.0
  0
LWPOLYLINE
  5
242
330
1F
100
AcDbEntity
  8
0
  6
Continuous
 62
     7
370
    25
100
AcDbPolyline
 90
        6
 70
   128
 43
0.0
 10
6280.002586945
 20
4828.3945756095
 10
6280.1754618365
 20
4829.7406347051
 10
6280.2896064627
 20
4829.9923577393
 10
6280.4399245915
 20
4830.1863170188
 10
6280.6303177935
 20
4830.3105890146
 10
6280.8646876394
 20
4830.3532501972
  0
LINE
  5
243
330
1F
100
AcDbEntity
  8
0
  6
Continuous
 62
     7
370
    25
100
AcDbLine
 10
6280.8646876394
 20
4830.3532501972
 30
0.0
 11
6280.9424089936
 21
4830.3532501972
 31
0.0
  0
LINE
  5
244
330
1F
100
AcDbEntity
  8
0
  6
Continuous
 62
     7
370
    25
100
AcDbLine
 10
6280.9424089936
 20
4830.3532501972
 30
0.0
 11
6281.2400652436
 21
4830.3391253057
 31
0.0
  0
LWPOLYLINE
  5
245
330
1F
100
AcDbEntity
  8
0
  6
Continuous
 62
     7
370
    25
100
AcDbPolyline
 90
        7
 70
   128
 43
0.0
 10
6262.3227701273
 20
4830.3250004344
 10
6262.4588516382
 20
4830.3193875205
 10
6262.574057306
 20
4830.2726959101
 10
6262.6701455647
 20
4830.1888254991
 10
6262.7822793855
 20
4830.0018406539
 10
6262.8612902282
 20
4829.7531404219
 10
6262.9647981221
 20
4828.4044286028
  0
LINE
  5
246
330
1F
100
AcDbEntity
  8
0
  6
Continuous
 62
     7
370
    25
100
AcDbLine
 10
6262.9647981221
 20
4828.4044286028
 30
0.0
 11
6262.9577701273
 21
4827.9853671878
 31
0.0
  0
LINE
  5
247
330
1F
100
AcDbEntity
  8
0
  6
Continuous
 62
     7
370
    25
100
AcDbLine
 10
6262.9577701273
 20
4827.9853671878
 30
0.0
 11
6262.0292479919
 21
4827.9839202477
 31
0.0
  0
LINE
  5
248
330
1F
100
AcDbEntity
  8
0
  6
Continuous
 62
     7
370
    25
100
AcDbLine
 10
6262.0292479919
 20
4827.9839202477
 30
0.0
 11
6261.0866698669
 21
4827.9825422095
 31
0.0
  0
LINE
  5
249
330
1F
100
AcDbEntity
  8
0
  6
Continuous
 62
     7
370
    25
100
AcDbLine
 10
6261.0866698669
 20
4827.9825422095
 30
0.0
 11
6261.0852229268
 21
4828.3875476349
 31
0.0
  0
LWPOLYLINE
  5
24A
330
1F
100
AcDbEntity
  8
0
  6
Continuous
 62
     7
370
    25
100
AcDbPolyline
 90
        6
 70
   128
 43
0.0
 10
6261.0852229268
 20
4828.3875476349
 10
6261.2545752081
 20
4829.733029677
 10
6261.3719833894
 20
4829.9849011463
 10
6261.526562267
 20
4830.1790274323
 10
6261.7218831667
 20
4830.3034357515
 10
6261.9615174146
 20
4830.3461533207
  0
LINE
  5
24B
330
1F
100
AcDbEntity
  8
0
  6
Continuous
 62
     7
370
    25
100
AcDbLine
 10
6261.9615174146
 20
4830.3461533207
 30
0.0
 11
6262.0264230136
 21
4830.3391253259
 31
0.0
  0
LINE
  5
24C
330
1F
100
AcDbEntity
  8
0
  6
Continuous
 62
     7
370
    25
100
AcDbLine
 10
6262.0264230136
 20
4830.3391253259
 30
0.0
 11
6262.3227701273
 21
4830.3250004344
 31
0.0
  0
LWPOLYLINE
  5
24D
330
1F
100
AcDbEntity
  8
0
  6
Continuous
 62
     7
370
    25
100
AcDbPolyline
 90
        3
 70
   128
 43
0.0
 10
6293.247049779
 20
4833.4847042287
 10
6293.195247996
 20
4833.5495322078
 10
6293.15472122
 20
4833.5908131697
  0
LINE
  5
24E
330
1F
100
AcDbEntity
  8
0
  6
Continuous
 62
     7
370
    25
100
AcDbLine
 10
6293.15472122
 20
4833.5908131697
 30
0.0
 11
6293.0838900568
 21
4833.6265043589
 31
0.0
  0
LWPOLYLINE
  5
24F
330
1F
100
AcDbEntity
  8
0
  6
Continuous
 62
     7
370
    25
100
AcDbPolyline
 90
        3
 70
   128
 43
0.0
 10
6293.0838900568
 20
4833.6265043589
 10
6293.1991271757
 20
4833.6622601241
 10
6293.2613813762
 20
4833.7042257131
  0
LWPOLYLINE
  5
250
330
1F
100
AcDbEntity
  8
0
  6
Continuous
 62
     7
370
    25
100
AcDbPolyline
 90
        3
 70
   128
 43
0.0
 10
6293.2613813762
 20
4833.7042257131
 10
6293.3123551546
 20
4833.7840369846
 10
6293.3246333294
 20
4833.8609086558
  0
LWPOLYLINE
  5
251
330
1F
100
AcDbEntity
  8
0
  6
Continuous
 62
     7
370
    25
100
AcDbPolyline
 90
        3
 70
   128
 43
0.0
 10
6293.3246333294
 20
4833.8609086558
 10
6293.3126194821
 20
4833.9350256971
 10
6293.2893555516
 20
4833.9880326793
  0
LWPOLYLINE
  5
252
330
1F
100
AcDbEntity
  8
0
  6
Continuous
 62
     7
370
    25
100
AcDbPolyline
 90
        3
 70
   128
 43
0.0
 10
6293.2893555516
 20
4833.9880326793
 10
6293.2389193713
 20
4834.0396683922
 10
6293.1898611939
 20
4834.0661674449
  0
LWPOLYLINE
  5
253
330
1F
100
AcDbEntity
  8
0
  6
Continuous
 62
     7
370
    25
100
AcDbPolyline
 90
        3
 70
   128
 43
0.0
 10
6293.1898611939
 20
4834.0661674449
 10
6293.1099829388
 20
4834.0872216195
 10
6293.0193978693
 20
4834.0941416202
  0
LINE
  5
254
330
1F
100
AcDbEntity
  8
0
  6
Continuous
 62
     7
370
    25
100
AcDbLine
 10
6293.0193978693
 20
4834.0941416202
 30
0.0
 11
6292.9841200915
 21
4834.0941416202
 31
0.0
  0
LINE
  5
255
330
1F
100
AcDbEntity
  8
0
  6
Continuous
 62
     7
370
    25
100
AcDbLine
 10
6292.9841200915
 20
4834.0941416202
 30
0.0
 11
6292.6507726523
 21
4834.0935904049
 31
0.0
  0
LINE
  5
256
330
1F
100
AcDbEntity
  8
0
  6
Continuous
 62
     7
370
    25
100
AcDbLine
 10
6292.6507726523
 20
4834.0935904049
 30
0.0
 11
6292.6521506905
 21
4833.2498865204
 31
0.0
  0
LINE
  5
257
330
1F
100
AcDbEntity
  8
0
  6
Continuous
 62
     7
370
    25
100
AcDbLine
 10
6292.6521506905
 20
4833.2498865204
 30
0.0
 11
6292.7651498224
 21
4833.2500243242
 31
0.0
  0
LINE
  5
258
330
1F
100
AcDbEntity
  8
0
  6
Continuous
 62
     7
370
    25
100
AcDbLine
 10
6292.7651498224
 20
4833.2500243242
 30
0.0
 11
6292.7645986071
 21
4833.6187184431
 31
0.0
  0
LINE
  5
259
330
1F
100
AcDbEntity
  8
0
  6
Continuous
 62
     7
370
    25
100
AcDbLine
 10
6292.7645986071
 20
4833.6187184431
 30
0.0
 11
6292.8923427478
 21
4833.618856247
 31
0.0
  0
LINE
  5
25A
330
1F
100
AcDbEntity
  8
0
  6
Continuous
 62
     7
370
    25
100
AcDbLine
 10
6292.8923427478
 20
4833.618856247
 30
0.0
 11
6292.9489801176
 21
4833.6189940508
 31
0.0
  0
LINE
  5
25B
330
1F
100
AcDbEntity
  8
0
  6
Continuous
 62
     7
370
    25
100
AcDbLine
 10
6292.9489801176
 20
4833.6189940508
 30
0.0
 11
6292.9846713068
 21
4833.6047313555
 31
0.0
  0
LINE
  5
25C
330
1F
100
AcDbEntity
  8
0
  6
Continuous
 62
     7
370
    25
100
AcDbLine
 10
6292.9846713068
 20
4833.6047313555
 30
0.0
 11
6292.9988651002
 21
4833.597427753
 31
0.0
  0
LINE
  5
25D
330
1F
100
AcDbEntity
  8
0
  6
Continuous
 62
     7
370
    25
100
AcDbLine
 10
6292.9988651002
 20
4833.597427753
 30
0.0
 11
6293.05550247
 21
4833.540997089
 31
0.0
  0
LWPOLYLINE
  5
25E
330
1F
100
AcDbEntity
  8
0
  6
Continuous
 62
     7
370
    25
100
AcDbPolyline
 90
        3
 70
   128
 43
0.0
 10
6293.05550247
 20
4833.540997089
 10
6293.098409808
 20
4833.4878906367
 10
6293.1408030342
 20
4833.4275156437
  0
LINE
  5
25F
330
1F
100
AcDbEntity
  8
0
  6
Continuous
 62
     7
370
    25
100
AcDbLine
 10
6293.1408030342
 20
4833.4275156437
 30
0.0
 11
6293.2546289891
 21
4833.2507133433
 31
0.0
  0
LINE
  5
260
330
1F
100
AcDbEntity
  8
0
  6
Continuous
 62
     7
370
    25
100
AcDbLine
 10
6293.2546289891
 20
4833.2507133433
 30
0.0
 11
6293.3892633207
 21
4833.2508511471
 31
0.0
  0
LINE
  5
261
330
1F
100
AcDbEntity
  8
0
  6
Continuous
 62
     7
370
    25
100
AcDbLine
 10
6293.3892633207
 20
4833.2508511471
 30
0.0
 11
6293.247049779
 21
4833.4847042287
 31
0.0
  0
ARC
  5
262
330
1F
100
AcDbEntity
  8
0
  6
Continuous
 62
     7
370
    25
100
AcDbCircle
 10
6292.9644547241
 20
4833.6550435659
 30
0.0
 40
0.8090889395614702
100
AcDbArc
 50
180.1278336833
 51
270.485053606
  0
ARC
  5
263
330
1F
100
AcDbEntity
  8
0
  6
Continuous
 62
     7
370
    25
100
AcDbCircle
 10
6292.9714784293
 20
4833.6603411898
 30
0.0
 40
0.8161415390699832
100
AcDbArc
 50
90.1863678037
 51
180.4986455646
  0
ARC
  5
264
330
1F
100
AcDbEntity
  8
0
  6
Continuous
 62
     7
370
    25
100
AcDbCircle
 10
6292.9652547761
 20
4833.6557405484
 30
0.0
 40
0.8207456227001614
100
AcDbArc
 50
359.9936761324
 51
89.7508515854
  0
ARC
  5
265
330
1F
100
AcDbEntity
  8
0
  6
Continuous
 62
     7
370
    25
100
AcDbCircle
 10
6292.9684107174
 20
4833.6636068945
 30
0.0
 40
0.8176283946670354
100
AcDbArc
 50
270.2027638077
 51
359.4424045031
  0
LINE
  5
266
330
1F
100
AcDbEntity
  8
0
  6
Continuous
 62
     7
370
    25
100
AcDbLine
 10
6293.182971003
 20
4833.7822915768
 30
0.0
 11
6293.1193056384
 21
4833.7323376923
 31
0.0
  0
LWPOLYLINE
  5
267
330
1F
100
AcDbEntity
  8
0
  6
Continuous
 62
     7
370
    25
100
AcDbPolyline
 90
        3
 70
   128
 43
0.0
 10
6293.1193056384
 20
4833.7323376923
 10
6293.0595438481
 20
4833.7218139078
 10
6292.9987272964
 20
4833.7182128008
  0
LWPOLYLINE
  5
268
330
1F
100
AcDbEntity
  8
0
  6
Continuous
 62
     7
370
    25
100
AcDbPolyline
 90
        3
 70
   128
 43
0.0
 10
6293.1613358033
 20
4833.9595072886
 10
6293.1957630691
 20
4833.9096300054
 10
6293.2039171835
 20
4833.860770852
  0
LINE
  5
269
330
1F
100
AcDbEntity
  8
0
  6
Continuous
 62
     7
370
    25
100
AcDbLine
 10
6292.9987272964
 20
4833.7182128008
 30
0.0
 11
6292.984533503
 21
4833.7182128008
 31
0.0
  0
LINE
  5
26A
330
1F
100
AcDbEntity
  8
0
  6
Continuous
 62
     7
370
    25
100
AcDbLine
 10
6292.984533503
 20
4833.7182128008
 30
0.0
 11
6292.7644608033
 21
4833.7179371931
 31
0.0
  0
LINE
  5
26B
330
1F
100
AcDbEntity
  8
0
  6
Continuous
 62
     7
370
    25
100
AcDbLine
 10
6292.7644608033
 20
4833.7179371931
 30
0.0
 11
6292.7640473919
 21
4833.9946472626
 31
0.0
  0
LINE
  5
26C
330
1F
100
AcDbEntity
  8
0
  6
Continuous
 62
     7
370
    25
100
AcDbLine
 10
6292.7640473919
 20
4833.9946472626
 30
0.0
 11
6292.9841200915
 21
4833.9949228702
 31
0.0
  0
LINE
  5
26D
330
1F
100
AcDbEntity
  8
0
  6
Continuous
 62
     7
370
    25
100
AcDbLine
 10
6292.9841200915
 20
4833.9949228702
 30
0.0
 11
6293.0265636679
 21
4833.995060674
 31
0.0
  0
LWPOLYLINE
  5
26E
330
1F
100
AcDbEntity
  8
0
  6
Continuous
 62
     7
370
    25
100
AcDbPolyline
 90
        3
 70
   128
 43
0.0
 10
6293.0265636679
 20
4833.995060674
 10
6293.1151480729
 20
4833.9829006357
 10
6293.1613358033
 20
4833.9595072886
  0
LINE
  5
26F
330
1F
100
AcDbEntity
  8
0
  6
Continuous
 62
     7
370
    25
100
AcDbLine
 10
6293.2039171835
 20
4833.860770852
 30
0.0
 11
6293.182971003
 21
4833.7822915768
 31
0.0
  0
CIRCLE
  5
270
330
1F
100
AcDbEntity
  8
0
  6
Continuous
 62
     7
370
    25
100
AcDbCircle
 10
6274.0187553361
 20
4631.6377490419
 30
0.0
 40
55.20168199351974
  0
ARC
  5
271
330
1F
100
AcDbEntity
  8
0
  6
Continuous
 62
     7
370
    25
100
AcDbCircle
 10
6274.0187553361
 20
4631.6377490419
 30
0.0
 40
168.0
100
AcDbArc
 50
180.0
 51
0.0
  0
LINE
  5
272
330
1F
100
AcDbEntity
  8
0
  6
Continuous
 62
     7
370
    25
100
AcDbLine
 10
6106.0187553361
 20
4849.6377490419
 30
0.0
 11
6108.0187553361
 21
4849.6377490419
 31
0.0
  0
LINE
  5
273
330
1F
100
AcDbEntity
  8
0
  6
Continuous
 62
     7
370
    25
100
AcDbLine
 10
6106.0187553361
 20
4849.6377490419
 30
0.0
 11
6106.0187553361
 21
4848.6377490419
 31
0.0
  0
LINE
  5
274
330
1F
100
AcDbEntity
  8
0
  6
Continuous
 62
     7
370
    25
100
AcDbLine
 10
6107.0187553361
 20
4848.6377490419
 30
0.0
 11
6108.0187553361
 21
4848.6377490419
 31
0.0
  0
CIRCLE
  5
275
330
1F
100
AcDbEntity
  8
0
  6
Continuous
 62
     7
370
    25
100
AcDbCircle
 10
6274.0187553361
 20
4631.6377490419
 30
0.0
 40
53.54008330347369
  0
CIRCLE
  5
276
330
1F
100
AcDbEntity
  8
0
  6
Continuous
 62
     7
370
    25
100
AcDbCircle
 10
6274.0187553361
 20
4631.6377490419
 30
0.0
 40
52.03233806055596
  0
CIRCLE
  5
277
330
1F
100
AcDbEntity
  8
0
  6
Continuous
 62
     7
370
    25
100
AcDbCircle
 10
6274.0187553361
 20
4631.6377490419
 30
0.0
 40
30.46438808284438
  0
CIRCLE
  5
278
330
1F
100
AcDbEntity
  8
0
  6
Continuous
 62
     7
370
    25
100
AcDbCircle
 10
6274.0187553361
 20
4631.6377490419
 30
0.0
 40
22.9403913764736
  0
CIRCLE
  5
279
330
1F
100
AcDbEntity
  8
0
  6
Continuous
 62
     7
370
    25
100
AcDbCircle
 10
6285.9768010329
 20
4624.7337681399
 30
0.0
 40
5.500000000000909
  0
CIRCLE
  5
27A
330
1F
100
AcDbEntity
  8
0
  6
Continuous
 62
     7
370
    25
100
AcDbCircle
 10
6274.0187553361
 20
4617.8297872378
 30
0.0
 40
5.499999999999091
  0
CIRCLE
  5
27B
330
1F
100
AcDbEntity
  8
0
  6
Continuous
 62
     7
370
    25
100
AcDbCircle
 10
6262.0607096393
 20
4624.7337681399
 30
0.0
 40
5.500000000000909
  0
CIRCLE
  5
27C
330
1F
100
AcDbEntity
  8
0
  6
Continuous
 62
     7
370
    25
100
AcDbCircle
 10
6285.9768010329
 20
4638.5417299439
 30
0.0
 40
5.500000000000909
  0
CIRCLE
  5
27D
330
1F
100
AcDbEntity
  8
0
  6
Continuous
 62
     7
370
    25
100
AcDbCircle
 10
6274.0187553361
 20
4645.445710846
 30
0.0
 40
5.499999999999091
  0
CIRCLE
  5
27E
330
1F
100
AcDbEntity
  8
0
  6
Continuous
 62
     7
370
    25
100
AcDbCircle
 10
6262.0607096393
 20
4638.5417299439
 30
0.0
 40
5.5
  0
ARC
  5
27F
330
1F
100
AcDbEntity
  8
0
  6
Continuous
 62
     7
370
    25
100
AcDbCircle
 10
6274.0187553361
 20
4631.6377490419
 30
0.0
 40
5.000000000000644
100
AcDbArc
 50
278.6269265587
 51
81.3730734413
  0
LINE
  5
280
330
1F
100
AcDbEntity
  8
0
  6
Continuous
 62
     7
370
    25
100
AcDbLine
 10
6274.7687553361
 20
4626.6943190586
 30
0.0
 11
6274.7687553361
 21
4636.5811790252
 31
0.0
  0
ARC
  5
281
330
1F
100
AcDbEntity
  8
0
  6
Continuous
 62
     7
370
    25
100
AcDbCircle
 10
6274.0187553361
 20
4631.6377490419
 30
0.0
 40
5.000000000000644
100
AcDbArc
 50
98.6269265587
 51
261.3730734413
  0
LINE
  5
282
330
1F
100
AcDbEntity
  8
0
  6
Continuous
 62
     7
370
    25
100
AcDbLine
 10
6273.2687553361
 20
4636.5811790252
 30
0.0
 11
6273.2687553361
 21
4626.6943190586
 31
0.0
  0
ARC
  5
283
330
1F
100
AcDbEntity
  8
0
  6
Continuous
 62
     7
370
    25
100
AcDbCircle
 10
6274.0187553361
 20
4631.6377490419
 30
0.0
 40
4.499999999999634
100
AcDbArc
 50
260.4059317731
 51
279.5940682269
  0
ARC
  5
284
330
1F
100
AcDbEntity
  8
0
  6
Continuous
 62
     7
370
    25
100
AcDbCircle
 10
6274.0187553361
 20
4631.6377490419
 30
0.0
 40
4.500000000000531
100
AcDbArc
 50
80.4059317731
 51
99.5940682269
  0
LINE
  5
285
330
1F
100
AcDbEntity
  8
0
  6
Continuous
 62
     7
370
    25
100
AcDbLine
 10
6272.8187553361
 20
4640.1866153505
 30
0.0
 11
6272.8187553361
 21
4650.780800277
 31
0.0
  0
LINE
  5
286
330
1F
100
AcDbEntity
  8
0
  6
Continuous
 62
     7
370
    25
100
AcDbLine
 10
6275.2187553361
 20
4650.7020404532
 30
0.0
 11
6275.2187553361
 21
4640.1699623542
 31
0.0
  0
LINE
  5
287
330
1F
100
AcDbEntity
  8
0
  6
Continuous
 62
     7
370
    25
100
AcDbLine
 10
6289.95866376
 20
4621.0491979764
 30
0.0
 11
6280.826055529
 21
4626.321911797
 31
0.0
  0
LINE
  5
288
330
1F
100
AcDbEntity
  8
0
  6
Continuous
 62
     7
370
    25
100
AcDbLine
 10
6282.0198049285
 20
4628.403981552
 30
0.0
 11
6291.1384137032
 21
4623.1393503213
 31
0.0
  0
LINE
  5
289
330
1F
100
AcDbEntity
  8
0
  6
Continuous
 62
     7
370
    25
100
AcDbLine
 10
6256.8137443278
 20
4623.0900719509
 30
0.0
 11
6266.08608559
 21
4628.4434606746
 31
0.0
  0
LINE
  5
28A
330
1F
100
AcDbEntity
  8
0
  6
Continuous
 62
     7
370
    25
100
AcDbLine
 10
6267.2538495544
 20
4626.3463882217
 30
0.0
 11
6258.0473860574
 21
4621.0310340435
 31
0.0
  0
LWPOLYLINE
  5
28B
330
1F
100
AcDbEntity
  8
0
  6
Continuous
 62
     7
370
    25
100
AcDbPolyline
 90
        3
 70
   128
 43
0.0
 10
6275.2335548675
 20
4649.5967095379
 10
6276.5238711534
 20
4649.4625742792
 10
6278.0579043878
 20
4649.1787089626
  0
ARC
  5
28C
330
1F
100
AcDbEntity
  8
0
  6
Continuous
 62
     7
370
    25
100
AcDbCircle
 10
6274.0187553361
 20
4631.6377490419
 30
0.0
 40
18.00000000000027
100
AcDbArc
 50
17.0325679121
 51
42.9674320883
  0
LWPOLYLINE
  5
28D
330
1F
100
AcDbEntity
  8
0
  6
Continuous
 62
     7
370
    25
100
AcDbPolyline
 90
        3
 70
   128
 43
0.0
 10
6291.2292467612
 20
4626.3652747739
 10
6290.7080647183
 20
4624.8948303604
 10
6290.1739164549
 20
4623.6998167403
  0
LWPOLYLINE
  5
28E
330
1F
100
AcDbEntity
  8
0
  6
Continuous
 62
     7
370
    25
100
AcDbPolyline
 90
        3
 70
   128
 43
0.0
 10
6288.9709232899
 20
4621.6161387181
 10
6288.202948901
 20
4620.555842486
 10
6287.1900977055
 20
4619.3692633901
  0
ARC
  5
28F
330
1F
100
AcDbEntity
  8
0
  6
Continuous
 62
     7
370
    25
100
AcDbCircle
 10
6274.0187553361
 20
4631.6377490419
 30
0.0
 40
18.00000000000047
100
AcDbArc
 50
257.0325678944
 51
282.9674321057
  0
LWPOLYLINE
  5
290
330
1F
100
AcDbEntity
  8
0
  6
Continuous
 62
     7
370
    25
100
AcDbPolyline
 90
        3
 70
   128
 43
0.0
 10
6260.8474129308
 20
4619.3692634287
 10
6259.8345617712
 20
4620.555842486
 10
6259.0731584136
 20
4621.6063417313
  0
LWPOLYLINE
  5
291
330
1F
100
AcDbEntity
  8
0
  6
Continuous
 62
     7
370
    25
100
AcDbPolyline
 90
        3
 70
   128
 43
0.0
 10
6257.8583832521
 20
4623.7104308254
 10
6257.3294459539
 20
4624.8948303604
 10
6256.8082639261
 20
4626.3652747245
  0
ARC
  5
292
330
1F
100
AcDbEntity
  8
0
  6
Continuous
 62
     7
370
    25
100
AcDbCircle
 10
6274.0187553361
 20
4631.6377490419
 30
0.0
 40
17.99999999999986
100
AcDbArc
 50
137.0325679707
 51
162.9674320276
  0
LWPOLYLINE
  5
293
330
1F
100
AcDbEntity
  8
0
  6
Continuous
 62
     7
370
    25
100
AcDbPolyline
 90
        3
 70
   128
 43
0.0
 10
6269.9796062845
 20
4649.1787089626
 10
6271.5136395188
 20
4649.4625742792
 10
6272.8155709646
 20
4649.5974914501
  0
LWPOLYLINE
  5
294
330
1F
100
AcDbEntity
  8
0
  6
Continuous
 62
     7
370
    25
100
AcDbPolyline
 90
        3
 70
   128
 43
0.0
 10
6291.4325995475
 20
4639.2376194211
 10
6290.2527240225
 20
4641.5098440926
 10
6289.3073582548
 20
4642.9186453181
  0
LWPOLYLINE
  5
295
330
1F
100
AcDbEntity
  8
0
  6
Continuous
 62
     7
370
    25
100
AcDbPolyline
 90
        3
 70
   128
 43
0.0
 10
6276.1439967578
 20
4650.5185156815
 10
6275.31536119
 20
4650.5934556565
 10
6275.2313024697
 20
4650.5990182359
  0
LWPOLYLINE
  5
296
330
1F
100
AcDbEntity
  8
0
  6
Continuous
 62
     7
370
    25
100
AcDbPolyline
 90
        3
 70
   128
 43
0.0
 10
6272.817176498
 20
4650.5997164582
 10
6272.7221494822
 20
4650.5934556565
 10
6271.8935139143
 20
4650.5185156815
  0
LWPOLYLINE
  5
297
330
1F
100
AcDbEntity
  8
0
  6
Continuous
 62
     7
370
    25
100
AcDbPolyline
 90
        3
 70
   128
 43
0.0
 10
6258.7301524836
 20
4642.9186454078
 10
6257.7847866497
 20
4641.5098440926
 10
6256.6049110796
 20
4639.2376193177
  0
LINE
  5
298
330
1F
100
AcDbEntity
  8
0
  6
Continuous
 62
     7
370
    25
100
AcDbLine
 10
6256.6049110216
 20
4624.037878899
 30
0.0
 11
6256.9959475668
 21
4623.1983168544
 31
0.0
  0
LINE
  5
299
330
1F
100
AcDbEntity
  8
0
  6
Continuous
 62
     7
370
    25
100
AcDbLine
 10
6258.1988711972
 20
4621.1148565768
 30
0.0
 11
6258.7301525705
 21
4620.3568525582
 31
0.0
  0
ARC
  5
29A
330
1F
100
AcDbEntity
  8
0
  6
Continuous
 62
     7
370
    25
100
AcDbCircle
 10
6274.0187553361
 20
4631.6377490419
 30
0.0
 40
18.99999999999965
100
AcDbArc
 50
263.5777515994
 51
276.4222484006
  0
LINE
  5
29B
330
1F
100
AcDbEntity
  8
0
  6
Continuous
 62
     7
370
    25
100
AcDbLine
 10
6289.3073580769
 20
4620.3568525246
 30
0.0
 11
6289.8386342888
 21
4621.1148487801
 31
0.0
  0
LINE
  5
29C
330
1F
100
AcDbEntity
  8
0
  6
Continuous
 62
     7
370
    25
100
AcDbLine
 10
6291.0461524327
 20
4623.2075801162
 30
0.0
 11
6291.4325996672
 21
4624.0378789369
 31
0.0
  0
ARC
  5
29D
330
1F
100
AcDbEntity
  8
0
  6
Continuous
 62
     7
370
    25
100
AcDbCircle
 10
6274.0187553361
 20
4631.6377490419
 30
0.0
 40
18.50000000000054
100
AcDbArc
 50
19.6989143921
 51
40.3010856051
  0
LWPOLYLINE
  5
29E
330
1F
100
AcDbEntity
  8
0
  6
Continuous
 62
     7
370
    25
100
AcDbPolyline
 90
        3
 70
   128
 43
0.0
 10
6277.3269411464
 20
4649.8395595739
 10
6277.2312466229
 20
4649.8566924726
 10
6275.2291280567
 20
4650.0981119277
  0
LWPOLYLINE
  5
29F
330
1F
100
AcDbEntity
  8
0
  6
Continuous
 62
     7
370
    25
100
AcDbPolyline
 90
        3
 70
   128
 43
0.0
 10
6272.8193778489
 20
4650.0988295532
 10
6272.0849787656
 20
4650.0364041062
 10
6270.7105695258
 20
4649.8395595739
  0
ARC
  5
2A0
330
1F
100
AcDbEntity
  8
0
  6
Continuous
 62
     7
370
    25
100
AcDbCircle
 10
6274.0187553361
 20
4631.6377490419
 30
0.0
 40
18.50000000000004
100
AcDbArc
 50
139.6989145298
 51
160.3010854704
  0
LWPOLYLINE
  5
2A1
330
1F
100
AcDbEntity
  8
0
  6
Continuous
 62
     7
370
    25
100
AcDbPolyline
 90
        3
 70
   128
 43
0.0
 10
6256.601432125
 20
4625.4018167011
 10
6256.6344418516
 20
4625.3103763904
 10
6257.4313065105
 20
4623.4458907999
  0
LWPOLYLINE
  5
2A2
330
1F
100
AcDbEntity
  8
0
  6
Continuous
 62
     7
370
    25
100
AcDbPolyline
 90
        3
 70
   128
 43
0.0
 10
6258.6364341111
 20
4621.3598993772
 10
6259.0519409402
 20
4620.7637218745
 10
6259.9096179068
 20
4619.6718708459
  0
ARC
  5
2A3
330
1F
100
AcDbEntity
  8
0
  6
Continuous
 62
     7
370
    25
100
AcDbCircle
 10
6274.0187553361
 20
4631.6377490419
 30
0.0
 40
18.49999999999942
100
AcDbArc
 50
259.6989145416
 51
280.3010854584
  0
LWPOLYLINE
  5
2A4
330
1F
100
AcDbEntity
  8
0
  6
Continuous
 62
     7
370
    25
100
AcDbPolyline
 90
        3
 70
   128
 43
0.0
 10
6288.1278927564
 20
4619.6718708353
 10
6288.1905775338
 20
4619.7461782627
 10
6289.3981236492
 20
4621.3554812818
  0
LWPOLYLINE
  5
2A5
330
1F
100
AcDbEntity
  8
0
  6
Continuous
 62
     7
370
    25
100
AcDbPolyline
 90
        3
 70
   128
 43
0.0
 10
6290.6117780112
 20
4623.4571868054
 10
6290.9193463025
 20
4624.113121145
 10
6291.4360785518
 20
4625.401816714
  0
LINE
  5
2A6
330
1F
100
AcDbEntity
  8
0
  6
Continuous
 62
     8
370
    25
100
AcDbLine
 10
6441.5187553361
 20
4631.6377490419
 30
0.0
 11
6441.5187553361
 21
4847.6377490419
 31
0.0
  0
ENDSEC
  0
SECTION
  2
OBJECTS
  0
DICTIONARY
  5
C
330
0
100
AcDbDictionary
281
     1
  3
ACAD_GROUP
350
D
  3
ACAD_LAYOUT
350
1A
  3
ACAD_MLINESTYLE
350
17
  3
ACAD_PLOTSETTINGS
350
19
  3
ACAD_PLOTSTYLENAME
350
E
  3
ACAD_SCALELIST
350
47
  3
DWGPROPS
350
2A7
  0
DICTIONARY
  5
D
102
{ACAD_REACTORS
330
C
102
}
330
C
100
AcDbDictionary
281
     1
  0
DICTIONARY
  5
1A
102
{ACAD_REACTORS
330
C
102
}
330
C
100
AcDbDictionary
281
     1
  3
Layout1
350
1E
  3
Layout2
350
26
  3
Model
350
22
  0
DICTIONARY
  5
17
102
{ACAD_REACTORS
330
C
102
}
330
C
100
AcDbDictionary
281
     1
  3
Standard
350
18
  0
DICTIONARY
  5
19
102
{ACAD_REACTORS
330
C
102
}
330
C
100
AcDbDictionary
281
     1
  0
ACDBDICTIONARYWDFLT
  5
E
102
{ACAD_REACTORS
330
C
102
}
330
C
100
AcDbDictionary
281
     1
  3
Normal
350
F
100
AcDbDictionaryWithDefault
340
F
  0
DICTIONARY
  5
47
102
{ACAD_REACTORS
330
C
102
}
330
C
100
AcDbDictionary
281
     1
  3
A0
350
48
  3
A1
350
49
  3
A2
350
4A
  3
A3
350
4B
  3
A4
350
4C
  3
A5
350
4D
  3
A6
350
4E
  3
A7
350
4F
  3
A8
350
50
  3
A9
350
51
  3
B0
350
52
  3
B1
350
53
  3
B2
350
54
  3
B3
350
55
  3
B4
350
56
  3
B5
350
57
  3
B6
350
58
  3
B7
350
59
  3
B8
350
5A
  3
B9
350
5B
  3
C0
350
5C
  3
C1
350
5D
  3
C2
350
5E
  3
C3
350
5F
  3
C4
350
60
  3
C5
350
61
  3
C6
350
62
  3
C7
350
63
  3
C8
350
64
  3
C9
350
65
  3
D0
350
66
  3
D1
350
67
  3
D2
350
68
  0
XRECORD
  5
2A7
102
{ACAD_REACTORS
330
C
102
}
330
C
100
AcDbXrecord
280
     1
  1
DWGPROPS COOKIE
  2

  3

  4

  6

  7

  8
radek.stransky
  9

300
=
301
=
302
=
303
=
304
=
305
=
306
=
307
=
308
=
309
=
 40
0.0
 41
2459543.355583507
 42
2459543.355583761
  1

 90
        0
  0
LAYOUT
  5
1E
102
{ACAD_REACTORS
330
1A
102
}
330
1A
100
AcDbPlotSettings
  1

  2
none_device
  4

  6

 40
0.0
 41
0.0
 42
0.0
 43
0.0
 44
0.0
 45
0.0
 46
0.0
 47
0.0
 48
0.0
 49
0.0
140
0.0
141
0.0
142
1.0
143
1.0
 70
   688
 72
     1
 73
     0
 74
     5
  7

 75
    16
147
1.0
148
0.0
149
0.0
100
AcDbLayout
  1
Layout1
 70
     1
 71
     1
 10
0.0
 20
0.0
 11
420.0
 21
297.0
 12
0.0
 22
0.0
 32
0.0
 14
1.0000000000E+20
 24
1.0000000000E+20
 34
1.0000000000E+20
 15
-1.0000000000E+20
 25
-1.0000000000E+20
 35
-1.0000000000E+20
146
0.0
 13
0.0
 23
0.0
 33
0.0
 16
1.0
 26
0.0
 36
0.0
 17
0.0
 27
1.0
 37
0.0
 76
     0
330
1B
  0
LAYOUT
  5
26
102
{ACAD_REACTORS
330
1A
102
}
330
1A
100
AcDbPlotSettings
  1

  2
none_device
  4

  6

 40
0.0
 41
0.0
 42
0.0
 43
0.0
 44
0.0
 45
0.0
 46
0.0
 47
0.0
 48
0.0
 49
0.0
140
0.0
141
0.0
142
1.0
143
1.0
 70
   688
 72
     1
 73
     0
 74
     5
  7

 75
    16
147
1.0
148
0.0
149
0.0
100
AcDbLayout
  1
Layout2
 70
     1
 71
     2
 10
0.0
 20
0.0
 11
0.0
 21
0.0
 12
0.0
 22
0.0
 32
0.0
 14
0.0
 24
0.0
 34
0.0
 15
0.0
 25
0.0
 35
0.0
146
0.0
 13
0.0
 23
0.0
 33
0.0
 16
1.0
 26
0.0
 36
0.0
 17
0.0
 27
1.0
 37
0.0
 76
     0
330
23
  0
LAYOUT
  5
22
102
{ACAD_REACTORS
330
1A
102
}
330
1A
100
AcDbPlotSettings
  1

  2
none_device
  4
Letter_(8.50_x_11.00_Inches)
  6

 40
6.35
 41
6.35
 42
6.35000508
 43
6.35000508
 44
215.9
 45
279.4
 46
0.0
 47
0.0
 48
0.0
 49
0.0
140
0.0
141
0.0
142
1.0
143
1.0
 70
  1712
 72
     1
 73
     0
 74
     0
  7

 75
     0
147
1.0
148
0.0
149
0.0
100
AcDbLayout
  1
Model
 70
     1
 71
     0
 10
0.0
 20
0.0
 11
20000.0
 21
10000.0
 12
0.0
 22
0.0
 32
0.0
 14
0.0
 24
0.0
 34
0.0
 15
20000.0
 25
10000.0
 35
0.0
146
0.0
 13
0.0
 23
0.0
 33
0.0
 16
1.0
 26
0.0
 36
0.0
 17
0.0
 27
1.0
 37
0.0
 76
     0
330
1F
331
29
  0
MLINESTYLE
  5
18
102
{ACAD_REACTORS
330
17
102
}
330
17
100
AcDbMlineStyle
  2
Standard
 70
     0
  3

 62
   256
 51
90.0
 52
90.0
 71
     2
 49
0.5
 62
   256
  6
BYLAYER
 49
-0.5
 62
   256
  6
BYLAYER
  0
ACDBPLACEHOLDER
  5
F
102
{ACAD_REACTORS
330
E
102
}
330
E
  0
SCALE
  5
48
102
{ACAD_REACTORS
330
47
102
}
330
47
100
AcDbScale
 70
     0
300
1:1
140
1.0
141
1.0
290
     1
  0
SCALE
  5
49
102
{ACAD_REACTORS
330
47
102
}
330
47
100
AcDbScale
 70
     0
300
1:2
140
1.0
141
2.0
290
     0
  0
SCALE
  5
4A
102
{ACAD_REACTORS
330
47
102
}
330
47
100
AcDbScale
 70
     0
300
1:4
140
1.0
141
4.0
290
     0
  0
SCALE
  5
4B
102
{ACAD_REACTORS
330
47
102
}
330
47
100
AcDbScale
 70
     0
300
1:5
140
1.0
141
5.0
290
     0
  0
SCALE
  5
4C
102
{ACAD_REACTORS
330
47
102
}
330
47
100
AcDbScale
 70
     0
300
1:8
140
1.0
141
8.0
290
     0
  0
SCALE
  5
4D
102
{ACAD_REACTORS
330
47
102
}
330
47
100
AcDbScale
 70
     0
300
1:10
140
1.0
141
10.0
290
     0
  0
SCALE
  5
4E
102
{ACAD_REACTORS
330
47
102
}
330
47
100
AcDbScale
 70
     0
300
1:16
140
1.0
141
16.0
290
     0
  0
SCALE
  5
4F
102
{ACAD_REACTORS
330
47
102
}
330
47
100
AcDbScale
 70
     0
300
1:20
140
1.0
141
20.0
290
     0
  0
SCALE
  5
50
102
{ACAD_REACTORS
330
47
102
}
330
47
100
AcDbScale
 70
     0
300
1:30
140
1.0
141
30.0
290
     0
  0
SCALE
  5
51
102
{ACAD_REACTORS
330
47
102
}
330
47
100
AcDbScale
 70
     0
300
1:40
140
1.0
141
40.0
290
     0
  0
SCALE
  5
52
102
{ACAD_REACTORS
330
47
102
}
330
47
100
AcDbScale
 70
     0
300
1:50
140
1.0
141
50.0
290
     0
  0
SCALE
  5
53
102
{ACAD_REACTORS
330
47
102
}
330
47
100
AcDbScale
 70
     0
300
1:100
140
1.0
141
100.0
290
     0
  0
SCALE
  5
54
102
{ACAD_REACTORS
330
47
102
}
330
47
100
AcDbScale
 70
     0
300
2:1
140
2.0
141
1.0
290
     0
  0
SCALE
  5
55
102
{ACAD_REACTORS
330
47
102
}
330
47
100
AcDbScale
 70
     0
300
4:1
140
4.0
141
1.0
290
     0
  0
SCALE
  5
56
102
{ACAD_REACTORS
330
47
102
}
330
47
100
AcDbScale
 70
     0
300
8:1
140
8.0
141
1.0
290
     0
  0
SCALE
  5
57
102
{ACAD_REACTORS
330
47
102
}
330
47
100
AcDbScale
 70
     0
300
10:1
140
10.0
141
1.0
290
     0
  0
SCALE
  5
58
102
{ACAD_REACTORS
330
47
102
}
330
47
100
AcDbScale
 70
     0
300
100:1
140
100.0
141
1.0
290
     0
  0
SCALE
  5
59
102
{ACAD_REACTORS
330
47
102
}
330
47
100
AcDbScale
 70
     0
300
1/128" = 1'-0"
140
0.0078125
141
12.0
290
     0
  0
SCALE
  5
5A
102
{ACAD_REACTORS
330
47
102
}
330
47
100
AcDbScale
 70
     0
300
1/64" = 1'-0"
140
0.015625
141
12.0
290
     0
  0
SCALE
  5
5B
102
{ACAD_REACTORS
330
47
102
}
330
47
100
AcDbScale
 70
     0
300
1/32" = 1'-0"
140
0.03125
141
12.0
290
     0
  0
SCALE
  5
5C
102
{ACAD_REACTORS
330
47
102
}
330
47
100
AcDbScale
 70
     0
300
1/16" = 1'-0"
140
0.0625
141
12.0
290
     0
  0
SCALE
  5
5D
102
{ACAD_REACTORS
330
47
102
}
330
47
100
AcDbScale
 70
     0
300
3/32" = 1'-0"
140
0.09375
141
12.0
290
     0
  0
SCALE
  5
5E
102
{ACAD_REACTORS
330
47
102
}
330
47
100
AcDbScale
 70
     0
300
1/8" = 1'-0"
140
0.125
141
12.0
290
     0
  0
SCALE
  5
5F
102
{ACAD_REACTORS
330
47
102
}
330
47
100
AcDbScale
 70
     0
300
3/16" = 1'-0"
140
0.1875
141
12.0
290
     0
  0
SCALE
  5
60
102
{ACAD_REACTORS
330
47
102
}
330
47
100
AcDbScale
 70
     0
300
1/4" = 1'-0"
140
0.25
141
12.0
290
     0
  0
SCALE
  5
61
102
{ACAD_REACTORS
330
47
102
}
330
47
100
AcDbScale
 70
     0
300
3/8" = 1'-0"
140
0.375
141
12.0
290
     0
  0
SCALE
  5
62
102
{ACAD_REACTORS
330
47
102
}
330
47
100
AcDbScale
 70
     0
300
1/2" = 1'-0"
140
0.5
141
12.0
290
     0
  0
SCALE
  5
63
102
{ACAD_REACTORS
330
47
102
}
330
47
100
AcDbScale
 70
     0
300
3/4" = 1'-0"
140
0.75
141
12.0
290
     0
  0
SCALE
  5
64
102
{ACAD_REACTORS
330
47
102
}
330
47
100
AcDbScale
 70
     0
300
1" = 1'-0"
140
1.0
141
12.0
290
     0
  0
SCALE
  5
65
102
{ACAD_REACTORS
330
47
102
}
330
47
100
AcDbScale
 70
     0
300
1-1/2" = 1'-0"
140
1.5
141
12.0
290
     0
  0
SCALE
  5
66
102
{ACAD_REACTORS
330
47
102
}
330
47
100
AcDbScale
 70
     0
300
3" = 1'-0"
140
3.0
141
12.0
290
     0
  0
SCALE
  5
67
102
{ACAD_REACTORS
330
47
102
}
330
47
100
AcDbScale
 70
     0
300
6" = 1'-0"
140
6.0
141
12.0
290
     0
  0
SCALE
  5
68
102
{ACAD_REACTORS
330
47
102
}
330
47
100
AcDbScale
 70
     0
300
1'-0" = 1'-0"
140
12.0
141
12.0
290
     0
  0
ENDSEC
  0
EOF
