  0
SECTION
  2
HEADER
  9
$ACADVER
  1
AC1015
  9
$ACADMAINTVER
 70
     6
  9
$DWGCODEPAGE
  3
ANSI_1250
  9
$INSBASE
 10
0.0
 20
0.0
 30
0.0
  9
$EXTMIN
 10
6138.7075473733
 20
4765.6381270512
 30
0.0
  9
$EXTMAX
 10
6737.2901926406
 20
5320.1994523278
 30
0.0
  9
$LIMMIN
 10
0.0
 20
0.0
  9
$LIMMAX
 10
420.0
 20
297.0
  9
$ORTHOMODE
 70
     0
  9
$REGENMODE
 70
     1
  9
$FILLMODE
 70
     1
  9
$QTEXTMODE
 70
     0
  9
$MIRRTEXT
 70
     1
  9
$LTSCALE
 40
1.0
  9
$ATTMODE
 70
     1
  9
$TEXTSIZE
 40
3.5
  9
$TRACEWID
 40
1.0
  9
$TEXTSTYLE
  7
Standard
  9
$CLAYER
  8
0
  9
$CELTYPE
  6
ByLayer
  9
$CECOLOR
 62
   256
  9
$CELTSCALE
 40
1.0
  9
$DISPSILH
 70
     0
  9
$DIMSCALE
 40
1.0
  9
$DIMASZ
 40
3.302
  9
$DIMEXO
 40
0.0
  9
$DIMDLI
 40
3.75
  9
$DIMRND
 40
0.0
  9
$DIMDLE
 40
0.0
  9
$DIMEXE
 40
1.0
  9
$DIMTP
 40
0.0
  9
$DIMTM
 40
0.0
  9
$DIMTXT
 40
3.5
  9
$DIMCEN
 40
2.5
  9
$DIMTSZ
 40
0.0
  9
$DIMTOL
 70
     0
  9
$DIMLIM
 70
     0
  9
$DIMTIH
 70
     1
  9
$DIMTOH
 70
     1
  9
$DIMSE1
 70
     0
  9
$DIMSE2
 70
     0
  9
$DIMTAD
 70
     1
  9
$DIMZIN
 70
     0
  9
$DIMBLK
  1

  9
$DIMASO
 70
     1
  9
$DIMSHO
 70
     1
  9
$DIMPOST
  1

  9
$DIMAPOST
  1

  9
$DIMALT
 70
     0
  9
$DIMALTD
 70
     3
  9
$DIMALTF
 40
0.0393700787
  9
$DIMLFAC
 40
1.0
  9
$DIMTOFL
 70
     1
  9
$DIMTVP
 40
0.0
  9
$DIMTIX
 70
     0
  9
$DIMSOXD
 70
     0
  9
$DIMSAH
 70
     0
  9
$DIMBLK1
  1

  9
$DIMBLK2
  1

  9
$DIMSTYLE
  2
ISO-25
  9
$DIMCLRD
 70
     0
  9
$DIMCLRE
 70
     0
  9
$DIMCLRT
 70
     0
  9
$DIMTFAC
 40
1.0
  9
$DIMGAP
 40
1.524
  9
$DIMJUST
 70
     0
  9
$DIMSD1
 70
     0
  9
$DIMSD2
 70
     0
  9
$DIMTOLJ
 70
     0
  9
$DIMTZIN
 70
     0
  9
$DIMALTZ
 70
     0
  9
$DIMALTTZ
 70
     0
  9
$DIMUPT
 70
     0
  9
$DIMDEC
 70
     2
  9
$DIMTDEC
 70
     2
  9
$DIMALTU
 70
     2
  9
$DIMALTTD
 70
     3
  9
$DIMTXSTY
  7
Standard
  9
$DIMAUNIT
 70
     0
  9
$DIMADEC
 70
     2
  9
$DIMALTRND
 40
0.0
  9
$DIMAZIN
 70
     0
  9
$DIMDSEP
 70
    44
  9
$DIMATFIT
 70
     3
  9
$DIMFRAC
 70
     0
  9
$DIMLDRBLK
  1

  9
$DIMLUNIT
 70
     2
  9
$DIMLWD
 70
    -2
  9
$DIMLWE
 70
    -2
  9
$DIMTMOVE
 70
     0
  9
$LUNITS
 70
     2
  9
$LUPREC
 70
     2
  9
$SKETCHINC
 40
1.0
  9
$FILLETRAD
 40
10.0
  9
$AUNITS
 70
     0
  9
$AUPREC
 70
     2
  9
$MENU
  1
.
  9
$ELEVATION
 40
0.0
  9
$PELEVATION
 40
0.0
  9
$THICKNESS
 40
0.0
  9
$LIMCHECK
 70
     0
  9
$CHAMFERA
 40
0.0
  9
$CHAMFERB
 40
0.0
  9
$CHAMFERC
 40
0.0
  9
$CHAMFERD
 40
0.0
  9
$SKPOLY
 70
     0
  9
$TDCREATE
 40
2459342.552886516
  9
$TDUCREATE
 40
2459342.469553183
  9
$TDUPDATE
 40
2459342.552953426
  9
$TDUUPDATE
 40
2459342.469620093
  9
$TDINDWG
 40
0.0000000116
  9
$TDUSRTIMER
 40
0.0000000116
  9
$USRTIMER
 70
     1
  9
$ANGBASE
 50
0.0
  9
$ANGDIR
 70
     0
  9
$PDMODE
 70
     0
  9
$PDSIZE
 40
-1.0
  9
$PLINEWID
 40
0.0
  9
$SPLFRAME
 70
     0
  9
$SPLINETYPE
 70
     6
  9
$SPLINESEGS
 70
     8
  9
$HANDSEED
  5
30B
  9
$SURFTAB1
 70
     6
  9
$SURFTAB2
 70
     6
  9
$SURFTYPE
 70
     6
  9
$SURFU
 70
     6
  9
$SURFV
 70
     6
  9
$UCSBASE
  2

  9
$UCSNAME
  2

  9
$UCSORG
 10
0.0
 20
0.0
 30
0.0
  9
$UCSXDIR
 10
1.0
 20
0.0
 30
0.0
  9
$UCSYDIR
 10
0.0
 20
1.0
 30
0.0
  9
$UCSORTHOREF
  2

  9
$UCSORTHOVIEW
 70
     0
  9
$UCSORGTOP
 10
0.0
 20
0.0
 30
0.0
  9
$UCSORGBOTTOM
 10
0.0
 20
0.0
 30
0.0
  9
$UCSORGLEFT
 10
0.0
 20
0.0
 30
0.0
  9
$UCSORGRIGHT
 10
0.0
 20
0.0
 30
0.0
  9
$UCSORGFRONT
 10
0.0
 20
0.0
 30
0.0
  9
$UCSORGBACK
 10
0.0
 20
0.0
 30
0.0
  9
$PUCSBASE
  2

  9
$PUCSNAME
  2

  9
$PUCSORG
 10
0.0
 20
0.0
 30
0.0
  9
$PUCSXDIR
 10
1.0
 20
0.0
 30
0.0
  9
$PUCSYDIR
 10
0.0
 20
1.0
 30
0.0
  9
$PUCSORTHOREF
  2

  9
$PUCSORTHOVIEW
 70
     0
  9
$PUCSORGTOP
 10
0.0
 20
0.0
 30
0.0
  9
$PUCSORGBOTTOM
 10
0.0
 20
0.0
 30
0.0
  9
$PUCSORGLEFT
 10
0.0
 20
0.0
 30
0.0
  9
$PUCSORGRIGHT
 10
0.0
 20
0.0
 30
0.0
  9
$PUCSORGFRONT
 10
0.0
 20
0.0
 30
0.0
  9
$PUCSORGBACK
 10
0.0
 20
0.0
 30
0.0
  9
$USERI1
 70
     0
  9
$USERI2
 70
     0
  9
$USERI3
 70
     0
  9
$USERI4
 70
     0
  9
$USERI5
 70
     0
  9
$USERR1
 40
0.0
  9
$USERR2
 40
0.0
  9
$USERR3
 40
0.0
  9
$USERR4
 40
0.0
  9
$USERR5
 40
0.0
  9
$WORLDVIEW
 70
     1
  9
$SHADEDGE
 70
     3
  9
$SHADEDIF
 70
    70
  9
$TILEMODE
 70
     1
  9
$MAXACTVP
 70
    64
  9
$PINSBASE
 10
0.0
 20
0.0
 30
0.0
  9
$PLIMCHECK
 70
     0
  9
$PEXTMIN
 10
1.0000000000E+20
 20
1.0000000000E+20
 30
1.0000000000E+20
  9
$PEXTMAX
 10
-1.0000000000E+20
 20
-1.0000000000E+20
 30
-1.0000000000E+20
  9
$PLIMMIN
 10
0.0
 20
0.0
  9
$PLIMMAX
 10
420.0
 20
297.0
  9
$UNITMODE
 70
     0
  9
$VISRETAIN
 70
     1
  9
$PLINEGEN
 70
     0
  9
$PSLTSCALE
 70
     1
  9
$TREEDEPTH
 70
  3020
  9
$CMLSTYLE
  2
Standard
  9
$CMLJUST
 70
     0
  9
$CMLSCALE
 40
20.0
  9
$PROXYGRAPHICS
 70
     1
  9
$MEASUREMENT
 70
     1
  9
$CELWEIGHT
370
    -1
  9
$ENDCAPS
280
     0
  9
$JOINSTYLE
280
     0
  9
$LWDISPLAY
290
     1
  9
$INSUNITS
 70
     4
  9
$HYPERLINKBASE
  1

  9
$STYLESHEET
  1

  9
$XEDIT
290
     1
  9
$CEPSNTYPE
380
     0
  9
$PSTYLEMODE
290
     1
  9
$FINGERPRINTGUID
  2
{efcfae78-9f35-42e5-a894-3fb85bcbcd1f}
  9
$VERSIONGUID
  2
{FAEB1C32-E019-11D5-929B-00C0DF256EC4}
  9
$EXTNAMES
290
     1
  9
$PSVPSCALE
 40
0.0
  9
$OLESTARTUP
290
     0
  0
ENDSEC
  0
SECTION
  2
CLASSES
  0
CLASS
  1
ACDBDICTIONARYWDFLT
  2
AcDbDictionaryWithDefault
  3
ObjectDBX Classes
 90
        0
280
     0
281
     0
  0
CLASS
  1
VISUALSTYLE
  2
AcDbVisualStyle
  3
ObjectDBX Classes
 90
     4095
280
     0
281
     0
  0
CLASS
  1
MATERIAL
  2
AcDbMaterial
  3
ObjectDBX Classes
 90
     1153
280
     0
281
     0
  0
CLASS
  1
SCALE
  2
AcDbScale
  3
ObjectDBX Classes
 90
     1153
280
     0
281
     0
  0
CLASS
  1
TABLESTYLE
  2
AcDbTableStyle
  3
ObjectDBX Classes
 90
     4095
280
     0
281
     0
  0
CLASS
  1
MLEADERSTYLE
  2
AcDbMLeaderStyle
  3
ACDB_MLEADERSTYLE_CLASS
 90
     4095
280
     0
281
     0
  0
CLASS
  1
SUN
  2
AcDbSun
  3
SCENEOE
 90
     1153
280
     0
281
     0
  0
CLASS
  1
ACDBPLACEHOLDER
  2
AcDbPlaceHolder
  3
ObjectDBX Classes
 90
        0
280
     0
281
     0
  0
CLASS
  1
LAYOUT
  2
AcDbLayout
  3
ObjectDBX Classes
 90
        0
280
     0
281
     0
  0
ENDSEC
  0
SECTION
  2
TABLES
  0
TABLE
  2
VPORT
  5
8
330
0
100
AcDbSymbolTable
 70
     1
  0
VPORT
  5
29
330
8
100
AcDbSymbolTableRecord
100
AcDbViewportTableRecord
  2
*Active
 70
     0
 10
0.0
 20
0.0
 11
1.0
 21
1.0
 12
6437.9988700069
 22
5042.9187896895
 13
0.0
 23
0.0
 14
10.0
 24
10.0
 15
10.0
 25
10.0
 16
0.0
 26
0.0
 36
1.0
 17
0.0
 27
0.0
 37
0.0
 40
565.6525517821
 41
1.0793804364
 42
50.0
 43
0.0
 44
0.0
 50
0.0
 51
0.0
 71
     0
 72
   100
 73
     1
 74
     3
 75
     0
 76
     0
 77
     0
 78
     0
281
     0
 65
     1
110
0.0
120
0.0
130
0.0
111
1.0
121
0.0
131
0.0
112
0.0
122
1.0
132
0.0
 79
     0
146
0.0
  0
ENDTAB
  0
TABLE
  2
LTYPE
  5
5
330
0
100
AcDbSymbolTable
 70
     6
  0
LTYPE
  5
14
330
5
100
AcDbSymbolTableRecord
100
AcDbLinetypeTableRecord
  2
ByBlock
 70
     0
  3

 72
    65
 73
     0
 40
0.0
  0
LTYPE
  5
15
330
5
100
AcDbSymbolTableRecord
100
AcDbLinetypeTableRecord
  2
ByLayer
 70
     0
  3

 72
    65
 73
     0
 40
0.0
  0
LTYPE
  5
16
330
5
100
AcDbSymbolTableRecord
100
AcDbLinetypeTableRecord
  2
Continuous
 70
     0
  3
Solid line
 72
    65
 73
     0
 40
0.0
  0
LTYPE
  5
6E
330
5
100
AcDbSymbolTableRecord
100
AcDbLinetypeTableRecord
  2
HIDDEN
 70
     0
  3
Hidden __ __ __ __ __ __ __ __ __ __ __ __ __ __
 72
    65
 73
     2
 40
1.905
 49
1.27
 74
     0
 49
-0.635
 74
     0
  0
LTYPE
  5
6F
330
5
100
AcDbSymbolTableRecord
100
AcDbLinetypeTableRecord
  2
PHANTOM
 70
     0
  3
Phantom ______  __  __  ______  __  __  ______
 72
    65
 73
     6
 40
12.7
 49
6.35
 74
     0
 49
-1.27
 74
     0
 49
1.27
 74
     0
 49
-1.27
 74
     0
 49
1.27
 74
     0
 49
-1.27
 74
     0
  0
LTYPE
  5
70
330
5
100
AcDbSymbolTableRecord
100
AcDbLinetypeTableRecord
  2
CENTER
 70
     0
  3
Center ____ _ ____ _ ____ _ ____ _ ____ _ ____
 72
    65
 73
     4
 40
10.16
 49
6.35
 74
     0
 49
-1.27
 74
     0
 49
1.27
 74
     0
 49
-1.27
 74
     0
  0
LTYPE
  5
71
330
5
100
AcDbSymbolTableRecord
100
AcDbLinetypeTableRecord
  2
CENTERX2
 70
     0
  3
Center (2x) ________  __  ________  __  _____
 72
    65
 73
     4
 40
20.32
 49
12.7
 74
     0
 49
-2.54
 74
     0
 49
2.54
 74
     0
 49
-2.54
 74
     0
  0
LTYPE
  5
72
330
5
100
AcDbSymbolTableRecord
100
AcDbLinetypeTableRecord
  2
DOT2
 70
     0
  3
Dot (.5x) ........................................
 72
    65
 73
     2
 40
0.635
 49
0.0
 74
     0
 49
-0.635
 74
     0
  0
ENDTAB
  0
TABLE
  2
LAYER
  5
2
330
0
100
AcDbSymbolTable
 70
     1
  0
LAYER
  5
10
330
2
100
AcDbSymbolTableRecord
100
AcDbLayerTableRecord
  2
0
 70
     0
 62
     7
  6
Continuous
370
    -3
390
F
  0
ENDTAB
  0
TABLE
  2
STYLE
  5
3
330
0
100
AcDbSymbolTable
 70
     1
  0
STYLE
  5
11
330
3
100
AcDbSymbolTableRecord
100
AcDbTextStyleTableRecord
  2
Standard
 70
     0
 40
0.0
 41
1.0
 50
0.0
 71
     0
 42
3.5
  3
txt
  4

  0
ENDTAB
  0
TABLE
  2
VIEW
  5
6
330
0
100
AcDbSymbolTable
 70
     0
  0
ENDTAB
  0
TABLE
  2
UCS
  5
7
330
0
100
AcDbSymbolTable
 70
     0
  0
ENDTAB
  0
TABLE
  2
APPID
  5
9
330
0
100
AcDbSymbolTable
 70
     1
  0
APPID
  5
12
330
9
100
AcDbSymbolTableRecord
100
AcDbRegAppTableRecord
  2
ACAD
 70
     0
  0
ENDTAB
  0
TABLE
  2
DIMSTYLE
  5
A
330
0
100
AcDbSymbolTable
 70
     1
100
AcDbDimStyleTable
  0
DIMSTYLE
105
27
330
A
100
AcDbSymbolTableRecord
100
AcDbDimStyleTableRecord
  2
ISO-25
 70
     0
 41
2.5
 42
0.625
 43
3.75
 44
1.25
 73
     0
 74
     0
 77
     1
 78
     8
140
2.5
141
2.5
143
0.0393700787
147
0.625
171
     3
172
     1
178
     0
271
     2
272
     2
274
     3
278
    44
283
     0
284
     8
340
11
  0
ENDTAB
  0
TABLE
  2
BLOCK_RECORD
  5
1
330
0
100
AcDbSymbolTable
 70
     1
  0
BLOCK_RECORD
  5
1F
330
1
100
AcDbSymbolTableRecord
100
AcDbBlockTableRecord
  2
*Model_Space
340
22
  0
BLOCK_RECORD
  5
1B
330
1
100
AcDbSymbolTableRecord
100
AcDbBlockTableRecord
  2
*Paper_Space
340
1E
  0
BLOCK_RECORD
  5
23
330
1
100
AcDbSymbolTableRecord
100
AcDbBlockTableRecord
  2
*Paper_Space0
340
26
  0
ENDTAB
  0
ENDSEC
  0
SECTION
  2
BLOCKS
  0
BLOCK
  5
20
330
1F
100
AcDbEntity
  8
0
100
AcDbBlockBegin
  2
*Model_Space
 70
     0
 10
0.0
 20
0.0
 30
0.0
  3
*Model_Space
  1

  0
ENDBLK
  5
21
330
1F
100
AcDbEntity
  8
0
100
AcDbBlockEnd
  0
BLOCK
  5
1C
330
1B
100
AcDbEntity
 67
     1
  8
0
100
AcDbBlockBegin
  2
*Paper_Space
 70
     0
 10
0.0
 20
0.0
 30
0.0
  3
*Paper_Space
  1

  0
ENDBLK
  5
1D
330
1B
100
AcDbEntity
 67
     1
  8
0
100
AcDbBlockEnd
  0
BLOCK
  5
24
330
23
100
AcDbEntity
  8
0
100
AcDbBlockBegin
  2
*Paper_Space0
 70
     0
 10
0.0
 20
0.0
 30
0.0
  3
*Paper_Space0
  1

  0
ENDBLK
  5
25
330
23
100
AcDbEntity
  8
0
100
AcDbBlockEnd
  0
ENDSEC
  0
SECTION
  2
ENTITIES
  0
ARC
  5
73
330
1F
100
AcDbEntity
  8
0
  6
Continuous
 62
     7
100
AcDbCircle
 10
6270.0075530859
 20
5185.5485848597
 30
0.0
 40
18.39298347276349
100
AcDbArc
 50
85.3221714665
 51
94.6778285335
  0
ARC
  5
74
330
1F
100
AcDbEntity
  8
0
  6
Continuous
 62
     7
100
AcDbCircle
 10
6267.5872565524
 20
5194.4758603943
 30
0.0
 40
9.097624442434643
100
AcDbArc
 50
109.0753629389
 51
124.0547293547
  0
ARC
  5
75
330
1F
100
AcDbEntity
  8
0
  6
Continuous
 62
     7
100
AcDbCircle
 10
6263.1236250101
 20
5199.3165169715
 30
0.0
 40
2.365675540305687
100
AcDbArc
 50
161.5163378425
 51
198.4836621575
  0
ARC
  5
76
330
1F
100
AcDbEntity
  8
0
  6
Continuous
 62
     7
100
AcDbCircle
 10
6265.2199749389
 20
5201.5477592718
 30
0.0
 40
4.892594028267814
100
AcDbArc
 50
217.5416361205
 51
236.1221887835
  0
ARC
  5
77
330
1F
100
AcDbEntity
  8
0
  6
Continuous
 62
     7
100
AcDbCircle
 10
6267.5872436968
 20
5204.1571553867
 30
0.0
 40
9.097602196284234
100
AcDbArc
 50
235.9452736718
 51
250.9246742809
  0
ARC
  5
78
330
1F
100
AcDbEntity
  8
0
  6
Continuous
 62
     7
100
AcDbCircle
 10
6269.6840103882
 20
5211.1757602473
 30
0.0
 40
15.60142210881468
100
AcDbArc
 50
252.4231558063
 51
265.6753888545
  0
ARC
  5
79
330
1F
100
AcDbEntity
  8
0
  6
Continuous
 62
     7
100
AcDbCircle
 10
6270.0075530859
 20
5213.0844490832
 30
0.0
 40
18.39298347276349
100
AcDbArc
 50
265.3221714665
 51
274.6778285335
  0
ARC
  5
7A
330
1F
100
AcDbEntity
  8
0
  6
Continuous
 62
     7
100
AcDbCircle
 10
6270.3310960748
 20
5211.1757571383
 30
0.0
 40
15.60141898668686
100
AcDbArc
 50
274.3246109399
 51
287.5768458069
  0
ARC
  5
7B
330
1F
100
AcDbEntity
  8
0
  6
Continuous
 62
     7
100
AcDbCircle
 10
6272.4278757399
 20
5204.1571283911
 30
0.0
 40
9.097572271764474
100
AcDbArc
 50
289.0753009421
 51
304.0547511052
  0
ARC
  5
7C
330
1F
100
AcDbEntity
  8
0
  6
Continuous
 62
     7
100
AcDbCircle
 10
6274.795177764
 20
5201.5477094179
 30
0.0
 40
4.892526570765013
100
AcDbArc
 50
303.8776819863
 51
322.4584931046
  0
ARC
  5
7D
330
1F
100
AcDbEntity
  8
0
  6
Continuous
 62
     7
100
AcDbCircle
 10
6276.8914869089
 20
5199.3165169715
 30
0.0
 40
2.365669868774225
100
AcDbArc
 50
341.5162919251
 51
18.4837080749
  0
ARC
  5
7E
330
1F
100
AcDbEntity
  8
0
  6
Continuous
 62
     7
100
AcDbCircle
 10
6272.4278628843
 20
5194.47588739
 30
0.0
 40
9.097594517807966
100
AcDbArc
 50
55.9452458682
 51
70.9246618381
  0
ARC
  5
7F
330
1F
100
AcDbEntity
  8
0
  6
Continuous
 62
     7
100
AcDbCircle
 10
6270.0075530859
 20
5186.3050096325
 30
0.0
 40
17.38656822855885
100
AcDbArc
 50
85.0507401831
 51
94.9492598169
  0
ARC
  5
80
330
1F
100
AcDbEntity
  8
0
  6
Continuous
 62
     7
100
AcDbCircle
 10
6275.5934481517
 20
5200.0477767507
 30
0.0
 40
2.667511705305959
100
AcDbArc
 50
2.895894664
 51
46.1770285606
  0
ARC
  5
81
330
1F
100
AcDbEntity
  8
0
  6
Continuous
 62
     7
100
AcDbCircle
 10
6272.2933975157
 20
5204.7542373783
 30
0.0
 40
8.600992757684557
100
AcDbArc
 50
288.640216674
 51
304.4899158616
  0
ARC
  5
82
330
1F
100
AcDbEntity
  8
0
  6
Continuous
 62
     7
100
AcDbCircle
 10
6270.0075530859
 20
5213.1939675115
 30
0.0
 40
17.3864851230892
100
AcDbArc
 50
265.0507164672
 51
274.9492835328
  0
ARC
  5
83
330
1F
100
AcDbEntity
  8
0
  6
Continuous
 62
     7
100
AcDbCircle
 10
6267.7217171922
 20
5204.7542549163
 30
0.0
 40
8.60101217854011
100
AcDbArc
 50
235.5101021475
 51
251.3597653169
  0
ARC
  5
84
330
1F
100
AcDbEntity
  8
0
  6
Continuous
 62
     7
100
AcDbCircle
 10
6275.1166260692
 20
5201.4619241507
 30
0.0
 40
3.208973485594583
100
AcDbArc
 50
307.3381997457
 51
344.7072655175
  0
ARC
  5
85
330
1F
100
AcDbEntity
  8
0
  6
Continuous
 62
     7
100
AcDbCircle
 10
6264.8833169178
 20
5201.4517053612
 30
0.0
 40
3.191657602744731
100
AcDbArc
 50
195.1875783645
 51
232.7669563724
  0
ARC
  5
86
330
1F
100
AcDbEntity
  8
0
  6
Continuous
 62
     7
100
AcDbCircle
 10
6267.7217272372
 20
5194.7447783985
 30
0.0
 40
8.601040323201
100
AcDbArc
 50
108.6402420592
 51
124.4898502302
  0
ARC
  5
87
330
1F
100
AcDbEntity
  8
0
  6
Continuous
 62
     7
100
AcDbCircle
 10
6272.2933874709
 20
5194.7447959367
 30
0.0
 40
8.601020902094517
100
AcDbArc
 50
55.5101317606
 51
71.35977595
  0
ARC
  5
88
330
1F
100
AcDbEntity
  8
0
  6
Continuous
 62
     7
100
AcDbCircle
 10
6269.4685578845
 20
5192.6312910954
 30
0.0
 40
11.26654661954746
100
AcDbArc
 50
94.8931148928
 51
113.5189242082
  0
ARC
  5
89
330
1F
100
AcDbEntity
  8
0
  6
Continuous
 62
     7
100
AcDbCircle
 10
6270.4497962048
 20
5192.249100633
 30
0.0
 40
11.65577150046805
100
AcDbArc
 50
66.7946930335
 51
84.7932660699
  0
ARC
  5
8A
330
1F
100
AcDbEntity
  8
0
  6
Continuous
 62
     7
100
AcDbCircle
 10
6274.3697668865
 20
5199.7646443774
 30
0.0
 40
3.165492494765779
100
AcDbArc
 50
7.5861612157
 51
67.1343042928
  0
ARC
  5
8B
330
1F
100
AcDbEntity
  8
0
  6
Continuous
 62
     7
100
AcDbCircle
 10
6263.5017387416
 20
5199.3165169715
 30
0.0
 40
2.243717124436537
100
AcDbArc
 50
160.4720419443
 51
199.5279580557
  0
ARC
  5
8C
330
1F
100
AcDbEntity
  8
0
  6
Continuous
 62
     7
100
AcDbCircle
 10
6276.5133681287
 20
5199.3165169715
 30
0.0
 40
2.243717124434823
100
AcDbArc
 50
340.4720419443
 51
19.5279580557
  0
ARC
  5
8D
330
1F
100
AcDbEntity
  8
0
  6
Continuous
 62
     7
100
AcDbCircle
 10
6267.7217548124
 20
5203.8883044698
 30
0.0
 40
8.601095495848405
100
AcDbArc
 50
235.5101794049
 51
251.3596880551
  0
ARC
  5
8E
330
1F
100
AcDbEntity
  8
0
  6
Continuous
 62
     7
100
AcDbCircle
 10
6272.2933598957
 20
5203.8882869313
 30
0.0
 40
8.601076074466357
100
AcDbArc
 50
288.6402939356
 51
304.4898386043
  0
ARC
  5
8F
330
1F
100
AcDbEntity
  8
0
  6
Continuous
 62
     7
100
AcDbCircle
 10
6270.0075530859
 20
5212.3279418252
 30
0.0
 40
17.3864851230892
100
AcDbArc
 50
265.0507164672
 51
274.9492835328
  0
CIRCLE
  5
90
330
1F
100
AcDbEntity
  8
0
  6
Continuous
 62
     7
100
AcDbCircle
 10
6350.5672969533
 20
5239.1994545926
 30
0.0
 40
12.5
  0
CIRCLE
  5
91
330
1F
100
AcDbEntity
  8
0
  6
Continuous
 62
     7
100
AcDbCircle
 10
6350.5672969533
 20
5239.1994545926
 30
0.0
 40
14.00000000000091
  0
ARC
  5
92
330
1F
100
AcDbEntity
  8
0
  6
Continuous
 62
     7
100
AcDbCircle
 10
6348.5603285201
 20
5247.9415684811
 30
0.0
 40
1.617040485100915
100
AcDbArc
 50
0.0
 51
180.0
  0
ARC
  5
93
330
1F
100
AcDbEntity
  8
0
  6
Continuous
 62
     7
100
AcDbCircle
 10
6345.0982352525
 20
5238.6154895348
 30
0.0
 40
2.569012885871756
100
AcDbArc
 50
44.0943249669
 51
105.494227733
  0
ARC
  5
94
330
1F
100
AcDbEntity
  8
0
  6
Continuous
 62
     7
100
AcDbCircle
 10
6350.7344761543
 20
5235.6700219518
 30
0.0
 40
6.322530327734578
100
AcDbArc
 50
179.9999936396
 51
270.0000232396
  0
ARC
  5
95
330
1F
100
AcDbEntity
  8
0
  6
Continuous
 62
     7
100
AcDbCircle
 10
6353.1017043391
 20
5233.9030921747
 30
0.0
 40
4.555600550637918
100
AcDbArc
 50
270.0000333207
 51
0.0000135324
  0
ARC
  5
96
330
1F
100
AcDbEntity
  8
0
  6
Continuous
 62
     7
100
AcDbCircle
 10
6356.3036936435
 20
5241.7398625778
 30
0.0
 40
1.353611246208273
100
AcDbArc
 50
0.0000397548
 51
90.0001179299
  0
ARC
  5
97
330
1F
100
AcDbEntity
  8
0
  6
Continuous
 62
     7
100
AcDbCircle
 10
6355.8094664863
 20
5241.7398625778
 30
0.0
 40
1.353611246209507
100
AcDbArc
 50
90.0001033723
 51
118.7365193215
  0
ARC
  5
98
330
1F
100
AcDbEntity
  8
0
  6
Continuous
 62
     7
100
AcDbCircle
 10
6353.8262074799
 20
5242.6884425597
 30
0.0
 40
1.353611246208688
100
AcDbArc
 50
10.1405030148
 51
89.9999400504
  0
ARC
  5
99
330
1F
100
AcDbEntity
  8
0
  6
Continuous
 62
     7
100
AcDbCircle
 10
6353.2468895853
 20
5242.6884425597
 30
0.0
 40
1.353611246208982
100
AcDbArc
 50
90.0000246956
 51
124.7439741579
  0
ARC
  5
9A
330
1F
100
AcDbEntity
  8
0
  6
Continuous
 62
     7
100
AcDbCircle
 10
6351.26363054
 20
5243.1975966113
 30
0.0
 40
1.353611246209276
100
AcDbArc
 50
26.4592957076
 51
89.999859723
  0
ARC
  5
9B
330
1F
100
AcDbEntity
  8
0
  6
Continuous
 62
     7
100
AcDbCircle
 10
6350.8070166643
 20
5243.1975966113
 30
0.0
 40
1.353611246209161
100
AcDbArc
 50
89.9999616005
 51
117.7206660119
  0
ARC
  5
9C
330
1F
100
AcDbEntity
  8
0
  6
Continuous
 62
     7
100
AcDbCircle
 10
6349.8153899976
 20
5240.2707282326
 30
0.0
 40
0.6676167249506761
100
AcDbArc
 50
180.0
 51
0.0
  0
ARC
  5
9D
330
1F
100
AcDbEntity
  8
0
  6
Continuous
 62
     7
100
AcDbCircle
 10
6350.7231168388
 20
5243.2117589861
 30
0.0
 40
0.2401101162869503
100
AcDbArc
 50
90.0000609412
 51
179.999939059
  0
ARC
  5
9E
330
1F
100
AcDbEntity
  8
0
  6
Continuous
 62
     7
100
AcDbCircle
 10
6351.3475345867
 20
5243.2117589861
 30
0.0
 40
0.2401101162878598
100
AcDbArc
 50
0.0000609412
 51
89.9999390588
  0
ARC
  5
9F
330
1F
100
AcDbEntity
  8
0
  6
Continuous
 62
     7
100
AcDbCircle
 10
6352.255261428
 20
5240.2707282326
 30
0.0
 40
0.6676167249506761
100
AcDbArc
 50
180.0
 51
0.0
  0
ARC
  5
A0
330
1F
100
AcDbEntity
  8
0
  6
Continuous
 62
     7
100
AcDbCircle
 10
6353.1629882692
 20
5242.7026049346
 30
0.0
 40
0.2401101162869503
100
AcDbArc
 50
90.0000609412
 51
179.9999390588
  0
ARC
  5
A1
330
1F
100
AcDbEntity
  8
0
  6
Continuous
 62
     7
100
AcDbCircle
 10
6353.9101096289
 20
5242.7026049346
 30
0.0
 40
0.2401101162860408
100
AcDbArc
 50
0.000060941
 51
89.9999390588
  0
ARC
  5
A2
330
1F
100
AcDbEntity
  8
0
  6
Continuous
 62
     7
100
AcDbCircle
 10
6354.8178364702
 20
5240.2707282326
 30
0.0
 40
0.6676167249506761
100
AcDbArc
 50
180.0
 51
0.0
  0
ARC
  5
A3
330
1F
100
AcDbEntity
  8
0
  6
Continuous
 62
     7
100
AcDbCircle
 10
6355.7255633114
 20
5241.7862543017
 30
0.0
 40
0.2401101162878597
100
AcDbArc
 50
90.0000609412
 51
179.999939059
  0
ARC
  5
A4
330
1F
100
AcDbEntity
  8
0
  6
Continuous
 62
     7
100
AcDbCircle
 10
6356.3875915901
 20
5241.7862543017
 30
0.0
 40
0.2401101162869504
100
AcDbArc
 50
0.000060941
 51
89.9999390351
  0
ARC
  5
A5
330
1F
100
AcDbEntity
  8
0
  6
Continuous
 62
     7
100
AcDbCircle
 10
6353.1017043391
 20
5233.9030921747
 30
0.0
 40
3.526001092637757
100
AcDbArc
 50
270.0000430504
 51
0.0000174839
  0
ARC
  5
A6
330
1F
100
AcDbEntity
  8
0
  6
Continuous
 62
     7
100
AcDbCircle
 10
6350.7344761543
 20
5235.6700219518
 30
0.0
 40
5.292930869734558
100
AcDbArc
 50
179.9999924023
 51
270.0000277603
  0
ARC
  5
A7
330
1F
100
AcDbEntity
  8
0
  6
Continuous
 62
     7
100
AcDbCircle
 10
6345.0982352525
 20
5238.6154895348
 30
0.0
 40
1.539415065211645
100
AcDbArc
 50
359.9998966552
 51
77.1137470209
  0
ARC
  5
A8
330
1F
100
AcDbEntity
  8
0
  6
Continuous
 62
     7
100
AcDbCircle
 10
6347.3052670426
 20
5236.6610672197
 30
0.0
 40
0.6676167249515856
100
AcDbArc
 50
180.0
 51
0.0
  0
ARC
  5
A9
330
1F
100
AcDbEntity
  8
0
  6
Continuous
 62
     7
100
AcDbCircle
 10
6348.5603285201
 20
5247.9415684811
 30
0.0
 40
0.5874447525002324
100
AcDbArc
 50
0.0
 51
180.0
  0
ARC
  5
AA
330
1F
100
AcDbEntity
  8
0
  6
Continuous
 62
     7
100
AcDbCircle
 10
6665.5976379637
 20
5109.5394546262
 30
0.0
 40
1.000000000000461
100
AcDbArc
 50
269.9999160076
 51
314.9997208553
  0
ARC
  5
AB
330
1F
100
AcDbEntity
  8
0
  6
Continuous
 62
     7
100
AcDbCircle
 10
6614.9837990535
 20
5317.8594579569
 30
0.0
 40
0.9999999999998944
100
AcDbArc
 50
62.0623577474
 51
89.9995658024
  0
ARC
  5
AC
330
1F
100
AcDbEntity
  8
0
  6
Continuous
 62
     7
100
AcDbCircle
 10
6665.6576355231
 20
5109.3994528047
 30
0.0
 40
2.200000000001694
100
AcDbArc
 50
270.0000130275
 51
314.9999403892
  0
ARC
  5
AD
330
1F
100
AcDbEntity
  8
0
  6
Continuous
 62
     7
100
AcDbCircle
 10
6665.6576355231
 20
5109.3994528047
 30
0.0
 40
0.9999975634144889
100
AcDbArc
 50
270.0000286606
 51
315.0000197839
  0
ARC
  5
AE
330
1F
100
AcDbEntity
  8
0
  6
Continuous
 62
     7
100
AcDbCircle
 10
6615.0216713659
 20
5317.9994543663
 30
0.0
 40
1.000000000000083
100
AcDbArc
 50
62.0632689221
 51
90.0003707904
  0
ARC
  5
AF
330
1F
100
AcDbEntity
  8
0
  6
Continuous
 62
     7
100
AcDbCircle
 10
6615.0216713659
 20
5317.9994543663
 30
0.0
 40
2.19999796148883
100
AcDbArc
 50
62.0629969303
 51
90.0001685412
  0
ARC
  5
B0
330
1F
100
AcDbEntity
  8
0
  6
Continuous
 62
     7
100
AcDbCircle
 10
6378.5075530954
 20
4874.3594150169
 30
0.0
 40
22.0000000000001
100
AcDbArc
 50
353.4999498213
 51
6.5000501787
  0
CIRCLE
  5
B1
330
1F
100
AcDbEntity
  8
0
  6
Continuous
 62
     7
100
AcDbCircle
 10
6205.2075530954
 20
4893.3594150169
 30
0.0
 40
1.999999999999091
  0
CIRCLE
  5
B2
330
1F
100
AcDbEntity
  8
0
  6
Continuous
 62
     7
100
AcDbCircle
 10
6335.2075530954
 20
4893.3594150169
 30
0.0
 40
2.0
  0
CIRCLE
  5
B3
330
1F
100
AcDbEntity
  8
0
  6
Continuous
 62
     7
100
AcDbCircle
 10
6335.2075530954
 20
4893.3594150169
 30
0.0
 40
2.050000000001091
  0
CIRCLE
  5
B4
330
1F
100
AcDbEntity
  8
0
  6
Continuous
 62
     7
100
AcDbCircle
 10
6205.2075530954
 20
4893.3594150169
 30
0.0
 40
2.049999999999272
  0
ELLIPSE
  5
B5
330
1F
100
AcDbEntity
  8
0
  6
Continuous
 62
     7
100
AcDbEllipse
 10
6270.0075530954
 20
5236.6483747456
 30
0.0
 11
0.0
 21
18.27570205065149
 31
0.0
210
0.0
220
0.0
230
1.0
 40
0.7660444431
 41
0.0
 42
1.570796326794897
  0
ELLIPSE
  5
B6
330
1F
100
AcDbEntity
  8
0
  6
Continuous
 62
     7
100
AcDbEllipse
 10
6270.0075530954
 20
5236.6483747456
 30
0.0
 11
0.0
 21
18.27570205065149
 31
0.0
210
0.0
220
0.0
230
1.0
 40
0.7660444431
 41
4.7123889803847
 42
6.283185307179586
  0
LINE
  5
B7
330
1F
100
AcDbEntity
  8
0
  6
Continuous
 62
     7
100
AcDbLine
 10
6260.7575533159
 20
5200.0794270879
 30
0.0
 11
6260.7575533159
 21
5199.3165174371
 31
0.0
  0
LINE
  5
B8
330
1F
100
AcDbEntity
  8
0
  6
Continuous
 62
     7
100
AcDbLine
 10
6279.2575535543
 20
5199.3165174371
 30
0.0
 11
6279.2575535543
 21
5200.0794270879
 31
0.0
  0
LINE
  5
B9
330
1F
100
AcDbEntity
  8
0
  6
Continuous
 62
     7
100
AcDbLine
 10
6277.5075532675
 20
5200.1825431234
 30
0.0
 11
6277.5075532675
 21
5201.0485678783
 31
0.0
  0
LINE
  5
BA
330
1F
100
AcDbEntity
  8
0
  6
Continuous
 62
     7
100
AcDbLine
 10
6262.5075531371
 20
5201.0485678783
 30
0.0
 11
6262.5075531371
 21
5200.1825431234
 31
0.0
  0
LINE
  5
BB
330
1F
100
AcDbEntity
  8
0
  6
Continuous
 62
     7
100
AcDbLine
 10
6256.0075530957
 20
5236.6483747456
 30
0.0
 11
6256.007553003
 21
5200.4137178755
 31
0.0
  0
LINE
  5
BC
330
1F
100
AcDbEntity
  8
0
  6
Continuous
 62
     7
100
AcDbLine
 10
6284.0075529359
 20
5200.4137178755
 30
0.0
 11
6284.0075530951
 21
5236.6483747456
 31
0.0
  0
LINE
  5
BD
330
1F
100
AcDbEntity
  8
0
  6
Continuous
 62
     7
100
AcDbLine
 10
6347.0912640162
 20
5248.8971650473
 30
0.0
 11
6346.977448947
 21
5248.2107356063
 31
0.0
  0
LINE
  5
BE
330
1F
100
AcDbEntity
  8
0
  6
Continuous
 62
     7
100
AcDbLine
 10
6399.9763866134
 20
5122.8933408729
 30
0.0
 11
6400.5504240461
 21
5122.8933408729
 31
0.0
  0
LINE
  5
BF
330
1F
100
AcDbEntity
  8
0
  6
Continuous
 62
     7
100
AcDbLine
 10
6139.8686011501
 20
5122.8920072189
 30
0.0
 11
6140.4395838447
 21
5122.8919997683
 31
0.0
  0
LINE
  5
C0
330
1F
100
AcDbEntity
  8
0
  6
Continuous
 62
     7
100
AcDbLine
 10
6400.5075534053
 20
5108.3994582168
 30
0.0
 11
6400.5075534053
 21
5108.5394546262
 31
0.0
  0
LINE
  5
C1
330
1F
100
AcDbEntity
  8
0
  6
Continuous
 62
     7
100
AcDbLine
 10
6400.5075534053
 20
5121.8965127936
 30
0.0
 11
6400.5075534053
 21
5122.8385493031
 31
0.0
  0
LINE
  5
C2
330
1F
100
AcDbEntity
  8
0
  6
Continuous
 62
     7
100
AcDbLine
 10
6400.3661264844
 20
5108.3994582168
 30
0.0
 11
6400.5075534053
 21
5108.3994582168
 31
0.0
  0
LINE
  5
C3
330
1F
100
AcDbEntity
  8
0
  6
Continuous
 62
     7
100
AcDbLine
 10
6271.5075530989
 20
5203.9436278737
 30
0.0
 11
6271.5075530989
 21
5203.8803016639
 31
0.0
  0
LINE
  5
C4
330
1F
100
AcDbEntity
  8
0
  6
Continuous
 62
     7
100
AcDbLine
 10
6268.5075530728
 20
5203.9436278737
 30
0.0
 11
6268.5075530728
 21
5203.8803016639
 31
0.0
  0
LINE
  5
C5
330
1F
100
AcDbEntity
  8
0
  6
Continuous
 62
     7
100
AcDbLine
 10
6264.614047873
 20
5203.1505992508
 30
0.0
 11
6264.614047873
 21
5203.0739299825
 31
0.0
  0
LINE
  5
C6
330
1F
100
AcDbEntity
  8
0
  6
Continuous
 62
     7
100
AcDbLine
 10
6262.492727413
 20
5202.119106414
 30
0.0
 11
6262.492727413
 21
5202.0132699853
 31
0.0
  0
LINE
  5
C7
330
1F
100
AcDbEntity
  8
0
  6
Continuous
 62
     7
100
AcDbLine
 10
6260.8799849816
 20
5200.3863453737
 30
0.0
 11
6260.8799849816
 21
5200.0665170944
 31
0.0
  0
LINE
  5
C8
330
1F
100
AcDbEntity
  8
0
  6
Continuous
 62
     7
100
AcDbLine
 10
6262.492727413
 20
5197.4857896439
 30
0.0
 11
6262.492727413
 21
5196.6197639576
 31
0.0
  0
LINE
  5
C9
330
1F
100
AcDbEntity
  8
0
  6
Continuous
 62
     7
100
AcDbLine
 10
6277.5223785259
 20
5197.4857896439
 30
0.0
 11
6277.5223785259
 21
5196.6197639576
 31
0.0
  0
LINE
  5
CA
330
1F
100
AcDbEntity
  8
0
  6
Continuous
 62
     7
100
AcDbLine
 10
6279.1351209574
 20
5200.3863453737
 30
0.0
 11
6279.1351209574
 21
5200.0665170944
 31
0.0
  0
LINE
  5
CB
330
1F
100
AcDbEntity
  8
0
  6
Continuous
 62
     7
100
AcDbLine
 10
6277.5223785259
 20
5202.119106414
 30
0.0
 11
6277.5223785259
 21
5202.0132699853
 31
0.0
  0
LINE
  5
CC
330
1F
100
AcDbEntity
  8
0
  6
Continuous
 62
     7
100
AcDbLine
 10
6275.4010580659
 20
5203.1505992508
 30
0.0
 11
6275.4010580659
 21
5203.0739299825
 31
0.0
  0
LINE
  5
CD
330
1F
100
AcDbEntity
  8
0
  6
Continuous
 62
     7
100
AcDbLine
 10
6268.5075530728
 20
5203.8803016639
 30
0.0
 11
6268.5075530728
 21
5203.6267518869
 31
0.0
  0
LINE
  5
CE
330
1F
100
AcDbEntity
  8
0
  6
Continuous
 62
     7
100
AcDbLine
 10
6271.5075530989
 20
5203.8803016639
 30
0.0
 11
6271.5075530989
 21
5203.6267518869
 31
0.0
  0
LINE
  5
CF
330
1F
100
AcDbEntity
  8
0
  6
Continuous
 62
     7
100
AcDbLine
 10
6278.2575533904
 20
5200.1825431234
 30
0.0
 11
6278.1249721713
 21
5199.4459954894
 31
0.0
  0
LINE
  5
D0
330
1F
100
AcDbEntity
  8
0
  6
Continuous
 62
     7
100
AcDbLine
 10
6278.1249721713
 20
5199.4459954894
 30
0.0
 11
6277.7314907119
 21
5198.7331211439
 31
0.0
  0
LINE
  5
D1
330
1F
100
AcDbEntity
  8
0
  6
Continuous
 62
     7
100
AcDbLine
 10
6277.7314907119
 20
5198.7331211439
 30
0.0
 11
6277.0897554413
 21
5198.0668324849
 31
0.0
  0
LINE
  5
D2
330
1F
100
AcDbEntity
  8
0
  6
Continuous
 62
     7
100
AcDbLine
 10
6277.0897554413
 20
5198.0668324849
 30
0.0
 11
6276.2203928262
 21
5197.4685452751
 31
0.0
  0
LINE
  5
D3
330
1F
100
AcDbEntity
  8
0
  6
Continuous
 62
     7
100
AcDbLine
 10
6276.2203928262
 20
5197.4685452751
 30
0.0
 11
6275.151343941
 21
5196.9574876002
 31
0.0
  0
LINE
  5
D4
330
1F
100
AcDbEntity
  8
0
  6
Continuous
 62
     7
100
AcDbLine
 10
6275.151343941
 20
5196.9574876002
 30
0.0
 11
6273.9169694662
 21
5196.5500861278
 31
0.0
  0
LINE
  5
D5
330
1F
100
AcDbEntity
  8
0
  6
Continuous
 62
     7
100
AcDbLine
 10
6273.9169694662
 20
5196.5500861278
 30
0.0
 11
6272.556943278
 21
5196.2594352535
 31
0.0
  0
LINE
  5
D6
330
1F
100
AcDbEntity
  8
0
  6
Continuous
 62
     7
100
AcDbLine
 10
6272.556943278
 20
5196.2594352535
 30
0.0
 11
6271.1149775253
 21
5196.0948742798
 31
0.0
  0
LINE
  5
D7
330
1F
100
AcDbEntity
  8
0
  6
Continuous
 62
     7
100
AcDbLine
 10
6271.1149775253
 20
5196.0948742798
 30
0.0
 11
6269.6374182535
 21
5196.0616968444
 31
0.0
  0
LINE
  5
D8
330
1F
100
AcDbEntity
  8
0
  6
Continuous
 62
     7
100
AcDbLine
 10
6269.6374182535
 20
5196.0616968444
 30
0.0
 11
6268.1717552889
 21
5196.160964655
 31
0.0
  0
LINE
  5
D9
330
1F
100
AcDbEntity
  8
0
  6
Continuous
 62
     7
100
AcDbLine
 10
6268.1717552889
 20
5196.160964655
 30
0.0
 11
6266.7650966153
 21
5196.3894907257
 31
0.0
  0
LINE
  5
DA
330
1F
100
AcDbEntity
  8
0
  6
Continuous
 62
     7
100
AcDbLine
 10
6266.7650966153
 20
5196.3894907257
 30
0.0
 11
6265.4626531705
 21
5196.7399287841
 31
0.0
  0
LINE
  5
DB
330
1F
100
AcDbEntity
  8
0
  6
Continuous
 62
     7
100
AcDbLine
 10
6265.4626531705
 20
5196.7399287841
 30
0.0
 11
6264.3062862747
 21
5197.2010135523
 31
0.0
  0
LINE
  5
DC
330
1F
100
AcDbEntity
  8
0
  6
Continuous
 62
     7
100
AcDbLine
 10
6264.3062862747
 20
5197.2010135523
 30
0.0
 11
6263.3331626833
 21
5197.7579276881
 31
0.0
  0
LINE
  5
DD
330
1F
100
AcDbEntity
  8
0
  6
Continuous
 62
     7
100
AcDbLine
 10
6263.3331626833
 20
5197.7579276881
 30
0.0
 11
6262.5745599337
 21
5198.3927730343
 31
0.0
  0
LINE
  5
DE
330
1F
100
AcDbEntity
  8
0
  6
Continuous
 62
     7
100
AcDbLine
 10
6262.5745599337
 20
5198.3927730343
 30
0.0
 11
6262.0548595853
 21
5199.085140588
 31
0.0
  0
LINE
  5
DF
330
1F
100
AcDbEntity
  8
0
  6
Continuous
 62
     7
100
AcDbLine
 10
6262.0548595853
 20
5199.085140588
 30
0.0
 11
6261.7907653742
 21
5199.8127801216
 31
0.0
  0
LINE
  5
E0
330
1F
100
AcDbEntity
  8
0
  6
Continuous
 62
     7
100
AcDbLine
 10
6261.7907653742
 20
5199.8127801216
 30
0.0
 11
6261.7907653742
 21
5200.5523051939
 31
0.0
  0
LINE
  5
E1
330
1F
100
AcDbEntity
  8
0
  6
Continuous
 62
     7
100
AcDbLine
 10
6261.7907653742
 20
5200.5523051939
 30
0.0
 11
6262.0548595853
 21
5201.2799447274
 31
0.0
  0
LINE
  5
E2
330
1F
100
AcDbEntity
  8
0
  6
Continuous
 62
     7
100
AcDbLine
 10
6262.0548595853
 20
5201.2799447274
 30
0.0
 11
6262.5745599337
 21
5201.9723132125
 31
0.0
  0
LINE
  5
E3
330
1F
100
AcDbEntity
  8
0
  6
Continuous
 62
     7
100
AcDbLine
 10
6261.2072992317
 20
5200.9325427807
 30
0.0
 11
6261.3870836042
 21
5200.9325427807
 31
0.0
  0
LINE
  5
E4
330
1F
100
AcDbEntity
  8
0
  6
Continuous
 62
     7
100
AcDbLine
 10
6278.8078076385
 20
5200.9325427807
 30
0.0
 11
6278.6280232661
 21
5200.9325427807
 31
0.0
  0
LINE
  5
E5
330
1F
100
AcDbEntity
  8
0
  6
Continuous
 62
     7
100
AcDbLine
 10
6278.7145906307
 20
5199.7495302803
 30
0.0
 11
6278.6846132197
 21
5199.6188219509
 31
0.0
  0
LINE
  5
E6
330
1F
100
AcDbEntity
  8
0
  6
Continuous
 62
     7
100
AcDbLine
 10
6278.6846132197
 20
5199.6188219509
 30
0.0
 11
6278.6280232661
 21
5199.4325425348
 31
0.0
  0
LINE
  5
E7
330
1F
100
AcDbEntity
  8
0
  6
Continuous
 62
     7
100
AcDbLine
 10
6277.1638058305
 20
5197.66507669
 30
0.0
 11
6277.5223785259
 21
5197.4857896439
 31
0.0
  0
LINE
  5
E8
330
1F
100
AcDbEntity
  8
0
  6
Continuous
 62
     7
100
AcDbLine
 10
6262.8513001084
 20
5197.66507669
 30
0.0
 11
6262.492727413
 21
5197.4857896439
 31
0.0
  0
LINE
  5
E9
330
1F
100
AcDbEntity
  8
0
  6
Continuous
 62
     7
100
AcDbLine
 10
6261.3870836042
 20
5199.4325425348
 30
0.0
 11
6261.3304927193
 21
5199.6188219509
 31
0.0
  0
LINE
  5
EA
330
1F
100
AcDbEntity
  8
0
  6
Continuous
 62
     7
100
AcDbLine
 10
6261.3304927193
 20
5199.6188219509
 30
0.0
 11
6261.3005153082
 21
5199.7495302803
 31
0.0
  0
LINE
  5
EB
330
1F
100
AcDbEntity
  8
0
  6
Continuous
 62
     7
100
AcDbLine
 10
6264.9726205684
 20
5203.2706318295
 30
0.0
 11
6264.9726205684
 21
5202.8946438676
 31
0.0
  0
LINE
  5
EC
330
1F
100
AcDbEntity
  8
0
  6
Continuous
 62
     7
100
AcDbLine
 10
6264.9726205684
 20
5202.8946438676
 30
0.0
 11
6264.614047873
 21
5203.0739299825
 31
0.0
  0
LINE
  5
ED
330
1F
100
AcDbEntity
  8
0
  6
Continuous
 62
     7
100
AcDbLine
 10
6262.8513001084
 20
5201.8339838705
 30
0.0
 11
6262.492727413
 21
5202.0132699853
 31
0.0
  0
LINE
  5
EE
330
1F
100
AcDbEntity
  8
0
  6
Continuous
 62
     7
100
AcDbLine
 10
6275.0424853705
 20
5203.2706318295
 30
0.0
 11
6275.0424853705
 21
5202.8946438676
 31
0.0
  0
LINE
  5
EF
330
1F
100
AcDbEntity
  8
0
  6
Continuous
 62
     7
100
AcDbLine
 10
6275.0424853705
 20
5202.8946438676
 30
0.0
 11
6275.4010580659
 21
5203.0739299825
 31
0.0
  0
LINE
  5
F0
330
1F
100
AcDbEntity
  8
0
  6
Continuous
 62
     7
100
AcDbLine
 10
6277.1638058305
 20
5201.8339838705
 30
0.0
 11
6277.5223785259
 21
5202.0132699853
 31
0.0
  0
LINE
  5
F1
330
1F
100
AcDbEntity
  8
0
  6
Continuous
 62
     7
100
AcDbLine
 10
6262.5075531371
 20
5201.0485678783
 30
0.0
 11
6262.5415138148
 21
5201.4050278685
 31
0.0
  0
LINE
  5
F2
330
1F
100
AcDbEntity
  8
0
  6
Continuous
 62
     7
100
AcDbLine
 10
6262.5415138148
 20
5201.4050278685
 30
0.0
 11
6262.706431485
 21
5201.9064174837
 31
0.0
  0
LINE
  5
F3
330
1F
100
AcDbEntity
  8
0
  6
Continuous
 62
     7
100
AcDbLine
 10
6277.308674454
 20
5201.9064174837
 30
0.0
 11
6277.3720183589
 21
5201.7582598946
 31
0.0
  0
LINE
  5
F4
330
1F
100
AcDbEntity
  8
0
  6
Continuous
 62
     7
100
AcDbLine
 10
6277.3720183589
 20
5201.7582598946
 30
0.0
 11
6277.5075532675
 21
5201.0485678783
 31
0.0
  0
LINE
  5
F5
330
1F
100
AcDbEntity
  8
0
  6
Continuous
 62
     7
100
AcDbLine
 10
6277.5075532675
 20
5200.1825431234
 30
0.0
 11
6277.3720183589
 21
5199.4728501758
 31
0.0
  0
LINE
  5
F6
330
1F
100
AcDbEntity
  8
0
  6
Continuous
 62
     7
100
AcDbLine
 10
6277.3720183589
 20
5199.4728501758
 30
0.0
 11
6276.9703123897
 21
5198.7888086459
 31
0.0
  0
LINE
  5
F7
330
1F
100
AcDbEntity
  8
0
  6
Continuous
 62
     7
100
AcDbLine
 10
6276.9703123897
 20
5198.7888086459
 30
0.0
 11
6276.3169546791
 21
5198.1551404915
 31
0.0
  0
LINE
  5
F8
330
1F
100
AcDbEntity
  8
0
  6
Continuous
 62
     7
100
AcDbLine
 10
6276.3169546791
 20
5198.1551404915
 30
0.0
 11
6275.435558445
 21
5197.5947469345
 31
0.0
  0
LINE
  5
F9
330
1F
100
AcDbEntity
  8
0
  6
Continuous
 62
     7
100
AcDbLine
 10
6275.435558445
 20
5197.5947469345
 30
0.0
 11
6274.357980042
 21
5197.1278823784
 31
0.0
  0
LINE
  5
FA
330
1F
100
AcDbEntity
  8
0
  6
Continuous
 62
     7
100
AcDbLine
 10
6274.357980042
 20
5197.1278823784
 30
0.0
 11
6273.1231657501
 21
5196.7714223883
 31
0.0
  0
LINE
  5
FB
330
1F
100
AcDbEntity
  8
0
  6
Continuous
 62
     7
100
AcDbLine
 10
6273.1231657501
 20
5196.7714223883
 30
0.0
 11
6271.7757451294
 21
5196.5382490179
 31
0.0
  0
LINE
  5
FC
330
1F
100
AcDbEntity
  8
0
  6
Continuous
 62
     7
100
AcDbLine
 10
6271.7757451294
 20
5196.5382490179
 30
0.0
 11
6270.3644174592
 21
5196.4367907366
 31
0.0
  0
LINE
  5
FD
330
1F
100
AcDbEntity
  8
0
  6
Continuous
 62
     7
100
AcDbLine
 10
6270.3644174592
 20
5196.4367907366
 30
0.0
 11
6268.9401917571
 21
5196.4707113675
 31
0.0
  0
LINE
  5
FE
330
1F
100
AcDbEntity
  8
0
  6
Continuous
 62
     7
100
AcDbLine
 10
6268.9401917571
 20
5196.4707113675
 30
0.0
 11
6267.5545433715
 21
5196.6387890151
 31
0.0
  0
LINE
  5
FF
330
1F
100
AcDbEntity
  8
0
  6
Continuous
 62
     7
100
AcDbLine
 10
6267.5545433715
 20
5196.6387890151
 30
0.0
 11
6266.2575532861
 21
5196.9349477312
 31
0.0
  0
LINE
  5
100
330
1F
100
AcDbEntity
  8
0
  6
Continuous
 62
     7
100
AcDbLine
 10
6266.2575532861
 20
5196.9349477312
 30
0.0
 11
6265.0960976437
 21
5197.3484810314
 31
0.0
  0
LINE
  5
101
330
1F
100
AcDbEntity
  8
0
  6
Continuous
 62
     7
100
AcDbLine
 10
6265.0960976437
 20
5197.3484810314
 30
0.0
 11
6264.1121548779
 21
5197.8644467762
 31
0.0
  0
LINE
  5
102
330
1F
100
AcDbEntity
  8
0
  6
Continuous
 62
     7
100
AcDbLine
 10
6264.1121548779
 20
5197.8644467762
 30
0.0
 11
6263.3412870757
 21
5198.4641924373
 31
0.0
  0
LINE
  5
103
330
1F
100
AcDbEntity
  8
0
  6
Continuous
 62
     7
100
AcDbLine
 10
6263.3412870757
 20
5198.4641924373
 30
0.0
 11
6262.8113556832
 21
5199.1260452068
 31
0.0
  0
LINE
  5
104
330
1F
100
AcDbEntity
  8
0
  6
Continuous
 62
     7
100
AcDbLine
 10
6262.8113556832
 20
5199.1260452068
 30
0.0
 11
6262.5415138148
 21
5199.8260822019
 31
0.0
  0
LINE
  5
105
330
1F
100
AcDbEntity
  8
0
  6
Continuous
 62
     7
100
AcDbLine
 10
6262.5415138148
 20
5199.8260822019
 30
0.0
 11
6262.5415138148
 21
5200.5390031135
 31
0.0
  0
LINE
  5
106
330
1F
100
AcDbEntity
  8
0
  6
Continuous
 62
     7
100
AcDbLine
 10
6262.5415138148
 20
5200.5390031135
 30
0.0
 11
6262.8113556832
 21
5201.2390401086
 31
0.0
  0
LINE
  5
107
330
1F
100
AcDbEntity
  8
0
  6
Continuous
 62
     7
100
AcDbLine
 10
6262.8113556832
 20
5201.2390401086
 30
0.0
 11
6263.3412870757
 21
5201.9008919469
 31
0.0
  0
LINE
  5
108
330
1F
100
AcDbEntity
  8
0
  6
Continuous
 62
     7
100
AcDbLine
 10
6263.3412870757
 20
5201.9008919469
 30
0.0
 11
6264.1121548779
 21
5202.5006385392
 31
0.0
  0
LINE
  5
109
330
1F
100
AcDbEntity
  8
0
  6
Continuous
 62
     7
100
AcDbLine
 10
6264.1121548779
 20
5202.5006385392
 30
0.0
 11
6264.4153162085
 21
5202.6813868305
 31
0.0
  0
LINE
  5
10A
330
1F
100
AcDbEntity
  8
0
  6
Continuous
 62
     7
100
AcDbLine
 10
6261.3870836042
 20
5200.9325427807
 30
0.0
 11
6261.3870836042
 21
5200.0665170944
 31
0.0
  0
LINE
  5
10B
330
1F
100
AcDbEntity
  8
0
  6
Continuous
 62
     7
100
AcDbLine
 10
6260.8799849816
 20
5200.0665170944
 30
0.0
 11
6261.3870836042
 21
5200.0665170944
 31
0.0
  0
LINE
  5
10C
330
1F
100
AcDbEntity
  8
0
  6
Continuous
 62
     7
100
AcDbLine
 10
6260.8799849816
 20
5198.5665168485
 30
0.0
 11
6261.3870836042
 21
5198.5665168485
 31
0.0
  0
LINE
  5
10D
330
1F
100
AcDbEntity
  8
0
  6
Continuous
 62
     7
100
AcDbLine
 10
6261.3870836042
 20
5199.4325425348
 30
0.0
 11
6261.3870836042
 21
5198.5665168485
 31
0.0
  0
LINE
  5
10E
330
1F
100
AcDbEntity
  8
0
  6
Continuous
 62
     7
100
AcDbLine
 10
6279.1351209574
 20
5198.5665168485
 30
0.0
 11
6278.6280232661
 21
5198.5665168485
 31
0.0
  0
LINE
  5
10F
330
1F
100
AcDbEntity
  8
0
  6
Continuous
 62
     7
100
AcDbLine
 10
6279.1351209574
 20
5200.0665170944
 30
0.0
 11
6278.6280232661
 21
5200.0665170944
 31
0.0
  0
LINE
  5
110
330
1F
100
AcDbEntity
  8
0
  6
Continuous
 62
     7
100
AcDbLine
 10
6278.6280232661
 20
5200.9325427807
 30
0.0
 11
6278.6280232661
 21
5200.0665170944
 31
0.0
  0
LINE
  5
111
330
1F
100
AcDbEntity
  8
0
  6
Continuous
 62
     7
100
AcDbLine
 10
6278.6280232661
 20
5199.4325425348
 30
0.0
 11
6278.6280232661
 21
5198.5665168485
 31
0.0
  0
LINE
  5
112
330
1F
100
AcDbEntity
  8
0
  6
Continuous
 62
     7
100
AcDbLine
 10
6262.8513001084
 20
5196.7990510038
 30
0.0
 11
6262.492727413
 21
5196.6197639576
 31
0.0
  0
LINE
  5
113
330
1F
100
AcDbEntity
  8
0
  6
Continuous
 62
     7
100
AcDbLine
 10
6264.9726205684
 20
5195.7383900753
 30
0.0
 11
6264.614047873
 21
5195.5591048917
 31
0.0
  0
LINE
  5
114
330
1F
100
AcDbEntity
  8
0
  6
Continuous
 62
     7
100
AcDbLine
 10
6262.8513001084
 20
5197.66507669
 30
0.0
 11
6262.8513001084
 21
5196.7990510038
 31
0.0
  0
LINE
  5
115
330
1F
100
AcDbEntity
  8
0
  6
Continuous
 62
     7
100
AcDbLine
 10
6264.9726205684
 20
5196.6044157616
 30
0.0
 11
6264.9726205684
 21
5195.7383900753
 31
0.0
  0
LINE
  5
116
330
1F
100
AcDbEntity
  8
0
  6
Continuous
 62
     7
100
AcDbLine
 10
6277.1638058305
 20
5197.66507669
 30
0.0
 11
6277.1638058305
 21
5196.7990510038
 31
0.0
  0
LINE
  5
117
330
1F
100
AcDbEntity
  8
0
  6
Continuous
 62
     7
100
AcDbLine
 10
6275.0424853705
 20
5196.6044157616
 30
0.0
 11
6275.0424853705
 21
5195.7383900753
 31
0.0
  0
LINE
  5
118
330
1F
100
AcDbEntity
  8
0
  6
Continuous
 62
     7
100
AcDbLine
 10
6277.1638058305
 20
5196.7990510038
 30
0.0
 11
6277.5223785259
 21
5196.6197639576
 31
0.0
  0
LINE
  5
119
330
1F
100
AcDbEntity
  8
0
  6
Continuous
 62
     7
100
AcDbLine
 10
6275.0424853705
 20
5195.7383900753
 30
0.0
 11
6275.4010580659
 21
5195.5591048917
 31
0.0
  0
LINE
  5
11A
330
1F
100
AcDbEntity
  8
0
  6
Continuous
 62
     7
100
AcDbLine
 10
6268.5075530728
 20
5194.752732279
 30
0.0
 11
6268.5075530728
 21
5195.0062829873
 31
0.0
  0
LINE
  5
11B
330
1F
100
AcDbEntity
  8
0
  6
Continuous
 62
     7
100
AcDbLine
 10
6271.5075530989
 20
5194.752732279
 30
0.0
 11
6271.5075530989
 21
5195.0062829873
 31
0.0
  0
LINE
  5
11C
330
1F
100
AcDbEntity
  8
0
  6
Continuous
 62
     7
100
AcDbLine
 10
6271.5075530989
 20
5195.8723086736
 30
0.0
 11
6271.5075530989
 21
5195.0062829873
 31
0.0
  0
LINE
  5
11D
330
1F
100
AcDbEntity
  8
0
  6
Continuous
 62
     7
100
AcDbLine
 10
6268.5075530728
 20
5195.8723086736
 30
0.0
 11
6268.5075530728
 21
5195.0062829873
 31
0.0
  0
LINE
  5
11E
330
1F
100
AcDbEntity
  8
0
  6
Continuous
 62
     7
100
AcDbLine
 10
6270.0075531004
 20
5194.6290172509
 30
0.0
 11
6271.5919358136
 21
5194.6964431426
 31
0.0
  0
LINE
  5
11F
330
1F
100
AcDbEntity
  8
0
  6
Continuous
 62
     7
100
AcDbLine
 10
6271.5919358136
 20
5194.6964431426
 30
0.0
 11
6273.1307385668
 21
5194.8967799416
 31
0.0
  0
LINE
  5
120
330
1F
100
AcDbEntity
  8
0
  6
Continuous
 62
     7
100
AcDbLine
 10
6273.1307385668
 20
5194.8967799416
 30
0.0
 11
6274.5796930224
 21
5195.2242627612
 31
0.0
  0
LINE
  5
121
330
1F
100
AcDbEntity
  8
0
  6
Continuous
 62
     7
100
AcDbLine
 10
6274.5796930224
 20
5195.2242627612
 30
0.0
 11
6275.8971153937
 21
5195.6694740674
 31
0.0
  0
LINE
  5
122
330
1F
100
AcDbEntity
  8
0
  6
Continuous
 62
     7
100
AcDbLine
 10
6275.8971153937
 20
5195.6694740674
 30
0.0
 11
6277.0451059744
 21
5196.2196044496
 31
0.0
  0
LINE
  5
123
330
1F
100
AcDbEntity
  8
0
  6
Continuous
 62
     7
100
AcDbLine
 10
6277.0451059744
 20
5196.2196044496
 30
0.0
 11
6277.9906386688
 21
5196.8588270119
 31
0.0
  0
LINE
  5
124
330
1F
100
AcDbEntity
  8
0
  6
Continuous
 62
     7
100
AcDbLine
 10
6277.9906386688
 20
5196.8588270119
 30
0.0
 11
6278.7065123387
 21
5197.5687518588
 31
0.0
  0
LINE
  5
125
330
1F
100
AcDbEntity
  8
0
  6
Continuous
 62
     7
100
AcDbLine
 10
6278.7065123387
 20
5197.5687518588
 30
0.0
 11
6279.1721335791
 21
5198.3289588115
 31
0.0
  0
LINE
  5
126
330
1F
100
AcDbEntity
  8
0
  6
Continuous
 62
     7
100
AcDbLine
 10
6279.1721335791
 20
5198.3289588115
 30
0.0
 11
6279.3741057806
 21
5199.1175738967
 31
0.0
  0
LINE
  5
127
330
1F
100
AcDbEntity
  8
0
  6
Continuous
 62
     7
100
AcDbLine
 10
6279.3741057806
 20
5199.1175738967
 30
0.0
 11
6279.3066193529
 21
5199.9119128904
 31
0.0
  0
LINE
  5
128
330
1F
100
AcDbEntity
  8
0
  6
Continuous
 62
     7
100
AcDbLine
 10
6279.3066193529
 20
5199.9119128904
 30
0.0
 11
6278.9716161035
 21
5200.6891239307
 31
0.0
  0
LINE
  5
129
330
1F
100
AcDbEntity
  8
0
  6
Continuous
 62
     7
100
AcDbLine
 10
6278.9716161035
 20
5200.6891239307
 30
0.0
 11
6278.3787333585
 21
5201.4268468938
 31
0.0
  0
LINE
  5
12A
330
1F
100
AcDbEntity
  8
0
  6
Continuous
 62
     7
100
AcDbLine
 10
6278.3787333585
 20
5201.4268468938
 30
0.0
 11
6277.5450259626
 21
5202.1038606635
 31
0.0
  0
LINE
  5
12B
330
1F
100
AcDbEntity
  8
0
  6
Continuous
 62
     7
100
AcDbLine
 10
6277.5450259626
 20
5202.1038606635
 30
0.0
 11
6276.4944801286
 21
5202.7006866282
 31
0.0
  0
LINE
  5
12C
330
1F
100
AcDbEntity
  8
0
  6
Continuous
 62
     7
100
AcDbLine
 10
6276.4944801286
 20
5202.7006866282
 30
0.0
 11
6275.2573168084
 21
5203.2001558563
 31
0.0
  0
LINE
  5
12D
330
1F
100
AcDbEntity
  8
0
  6
Continuous
 62
     7
100
AcDbLine
 10
6275.2573168084
 20
5203.2001558563
 30
0.0
 11
6273.8691271927
 21
5203.5879008344
 31
0.0
  0
LINE
  5
12E
330
1F
100
AcDbEntity
  8
0
  6
Continuous
 62
     7
100
AcDbLine
 10
6273.8691271927
 20
5203.5879008344
 30
0.0
 11
6272.3698473249
 21
5203.8527652493
 31
0.0
  0
LINE
  5
12F
330
1F
100
AcDbEntity
  8
0
  6
Continuous
 62
     7
100
AcDbLine
 10
6272.3698473249
 20
5203.8527652493
 30
0.0
 11
6270.8026086159
 21
5203.9871308825
 31
0.0
  0
LINE
  5
130
330
1F
100
AcDbEntity
  8
0
  6
Continuous
 62
     7
100
AcDbLine
 10
6270.8026086159
 20
5203.9871308825
 30
0.0
 11
6269.2124975558
 21
5203.9871308825
 31
0.0
  0
LINE
  5
131
330
1F
100
AcDbEntity
  8
0
  6
Continuous
 62
     7
100
AcDbLine
 10
6269.2124975558
 20
5203.9871308825
 30
0.0
 11
6267.6452588469
 21
5203.8527652493
 31
0.0
  0
LINE
  5
132
330
1F
100
AcDbEntity
  8
0
  6
Continuous
 62
     7
100
AcDbLine
 10
6267.6452588469
 20
5203.8527652493
 30
0.0
 11
6266.145978979
 21
5203.5879008344
 31
0.0
  0
LINE
  5
133
330
1F
100
AcDbEntity
  8
0
  6
Continuous
 62
     7
100
AcDbLine
 10
6266.145978979
 20
5203.5879008344
 30
0.0
 11
6264.7577895962
 21
5203.2001558563
 31
0.0
  0
LINE
  5
134
330
1F
100
AcDbEntity
  8
0
  6
Continuous
 62
     7
100
AcDbLine
 10
6264.7577895962
 20
5203.2001558563
 30
0.0
 11
6263.520626276
 21
5202.7006866282
 31
0.0
  0
LINE
  5
135
330
1F
100
AcDbEntity
  8
0
  6
Continuous
 62
     7
100
AcDbLine
 10
6263.520626276
 20
5202.7006866282
 30
0.0
 11
6262.4700799763
 21
5202.1038606635
 31
0.0
  0
LINE
  5
136
330
1F
100
AcDbEntity
  8
0
  6
Continuous
 62
     7
100
AcDbLine
 10
6262.4700799763
 20
5202.1038606635
 30
0.0
 11
6261.6363735117
 21
5201.4268468938
 31
0.0
  0
LINE
  5
137
330
1F
100
AcDbEntity
  8
0
  6
Continuous
 62
     7
100
AcDbLine
 10
6261.6363735117
 20
5201.4268468938
 30
0.0
 11
6261.0434898354
 21
5200.6891239307
 31
0.0
  0
LINE
  5
138
330
1F
100
AcDbEntity
  8
0
  6
Continuous
 62
     7
100
AcDbLine
 10
6261.0434898354
 20
5200.6891239307
 30
0.0
 11
6260.7084865861
 21
5199.9119128904
 31
0.0
  0
LINE
  5
139
330
1F
100
AcDbEntity
  8
0
  6
Continuous
 62
     7
100
AcDbLine
 10
6260.7084865861
 20
5199.9119128904
 30
0.0
 11
6260.6410001583
 21
5199.1175738967
 31
0.0
  0
LINE
  5
13A
330
1F
100
AcDbEntity
  8
0
  6
Continuous
 62
     7
100
AcDbLine
 10
6260.6410001583
 20
5199.1175738967
 30
0.0
 11
6260.8429723598
 21
5198.3289588115
 31
0.0
  0
LINE
  5
13B
330
1F
100
AcDbEntity
  8
0
  6
Continuous
 62
     7
100
AcDbLine
 10
6260.8429723598
 20
5198.3289588115
 30
0.0
 11
6261.3085936003
 21
5197.5687518588
 31
0.0
  0
LINE
  5
13C
330
1F
100
AcDbEntity
  8
0
  6
Continuous
 62
     7
100
AcDbLine
 10
6261.3085936003
 20
5197.5687518588
 30
0.0
 11
6262.0244677357
 21
5196.8588270119
 31
0.0
  0
LINE
  5
13D
330
1F
100
AcDbEntity
  8
0
  6
Continuous
 62
     7
100
AcDbLine
 10
6262.0244677357
 20
5196.8588270119
 30
0.0
 11
6262.9700004302
 21
5196.2196044496
 31
0.0
  0
LINE
  5
13E
330
1F
100
AcDbEntity
  8
0
  6
Continuous
 62
     7
100
AcDbLine
 10
6262.9700004302
 20
5196.2196044496
 30
0.0
 11
6264.1179905452
 21
5195.6694740674
 31
0.0
  0
LINE
  5
13F
330
1F
100
AcDbEntity
  8
0
  6
Continuous
 62
     7
100
AcDbLine
 10
6264.1179905452
 20
5195.6694740674
 30
0.0
 11
6265.4354129166
 21
5195.2242627612
 31
0.0
  0
LINE
  5
140
330
1F
100
AcDbEntity
  8
0
  6
Continuous
 62
     7
100
AcDbLine
 10
6265.4354129166
 20
5195.2242627612
 30
0.0
 11
6266.8843676049
 21
5194.8967799416
 31
0.0
  0
LINE
  5
141
330
1F
100
AcDbEntity
  8
0
  6
Continuous
 62
     7
100
AcDbLine
 10
6266.8843676049
 20
5194.8967799416
 30
0.0
 11
6268.4231703581
 21
5194.6964431426
 31
0.0
  0
LINE
  5
142
330
1F
100
AcDbEntity
  8
0
  6
Continuous
 62
     7
100
AcDbLine
 10
6268.4231703581
 20
5194.6964431426
 30
0.0
 11
6270.0075531004
 21
5194.6290172509
 31
0.0
  0
LINE
  5
143
330
1F
100
AcDbEntity
  8
0
  6
Continuous
 62
     7
100
AcDbLine
 10
6350.1773690052
 20
5244.3958483508
 30
0.0
 11
6350.1773690052
 21
5247.9415684811
 31
0.0
  0
LINE
  5
144
330
1F
100
AcDbEntity
  8
0
  6
Continuous
 62
     7
100
AcDbLine
 10
6346.943288035
 20
5247.9415684811
 30
0.0
 11
6346.943288035
 21
5240.4031157366
 31
0.0
  0
LINE
  5
145
330
1F
100
AcDbEntity
  8
0
  6
Continuous
 62
     7
100
AcDbLine
 10
6344.4119458266
 20
5241.0911377391
 30
0.0
 11
6344.4119458266
 21
5235.6700226537
 31
0.0
  0
LINE
  5
146
330
1F
100
AcDbEntity
  8
0
  6
Continuous
 62
     7
100
AcDbLine
 10
6350.7344787188
 20
5229.3474916241
 30
0.0
 11
6353.1017069884
 21
5229.3474916241
 31
0.0
  0
LINE
  5
147
330
1F
100
AcDbEntity
  8
0
  6
Continuous
 62
     7
100
AcDbLine
 10
6357.6573048897
 20
5233.9030932507
 30
0.0
 11
6357.6573048897
 21
5241.739863517
 31
0.0
  0
LINE
  5
148
330
1F
100
AcDbEntity
  8
0
  6
Continuous
 62
     7
100
AcDbLine
 10
6356.3036908574
 20
5243.093473824
 30
0.0
 11
6355.8094640441
 21
5243.093473824
 31
0.0
  0
LINE
  5
149
330
1F
100
AcDbEntity
  8
0
  6
Continuous
 62
     7
100
AcDbLine
 10
6353.8262088962
 20
5244.0420538059
 30
0.0
 11
6353.2468890019
 21
5244.0420538059
 31
0.0
  0
LINE
  5
14A
330
1F
100
AcDbEntity
  8
0
  6
Continuous
 62
     7
100
AcDbLine
 10
6351.263633854
 20
5244.5512078575
 30
0.0
 11
6350.8070175715
 21
5244.5512078575
 31
0.0
  0
LINE
  5
14B
330
1F
100
AcDbEntity
  8
0
  6
Continuous
 62
     7
100
AcDbLine
 10
6350.4830067225
 20
5243.2117592415
 30
0.0
 11
6350.4830067225
 21
5240.2707282326
 31
0.0
  0
LINE
  5
14C
330
1F
100
AcDbEntity
  8
0
  6
Continuous
 62
     7
100
AcDbLine
 10
6351.3475348421
 20
5243.4518691024
 30
0.0
 11
6350.7231165834
 21
5243.4518691024
 31
0.0
  0
LINE
  5
14D
330
1F
100
AcDbEntity
  8
0
  6
Continuous
 62
     7
100
AcDbLine
 10
6351.587644703
 20
5240.2707282326
 30
0.0
 11
6351.587644703
 21
5243.2117592415
 31
0.0
  0
LINE
  5
14E
330
1F
100
AcDbEntity
  8
0
  6
Continuous
 62
     7
100
AcDbLine
 10
6352.9228781529
 20
5242.70260519
 30
0.0
 11
6352.9228781529
 21
5240.2707282326
 31
0.0
  0
LINE
  5
14F
330
1F
100
AcDbEntity
  8
0
  6
Continuous
 62
     7
100
AcDbLine
 10
6353.9101098843
 20
5242.9427150509
 30
0.0
 11
6353.1629880138
 21
5242.9427150509
 31
0.0
  0
LINE
  5
150
330
1F
100
AcDbEntity
  8
0
  6
Continuous
 62
     7
100
AcDbLine
 10
6354.1502197452
 20
5240.2707282326
 30
0.0
 11
6354.1502197452
 21
5242.70260519
 31
0.0
  0
LINE
  5
151
330
1F
100
AcDbEntity
  8
0
  6
Continuous
 62
     7
100
AcDbLine
 10
6355.4854531951
 20
5241.7862545571
 30
0.0
 11
6355.4854531951
 21
5240.2707282326
 31
0.0
  0
LINE
  5
152
330
1F
100
AcDbEntity
  8
0
  6
Continuous
 62
     7
100
AcDbLine
 10
6356.3875918456
 20
5242.026364418
 30
0.0
 11
6355.725563056
 21
5242.026364418
 31
0.0
  0
LINE
  5
153
330
1F
100
AcDbEntity
  8
0
  6
Continuous
 62
     7
100
AcDbLine
 10
6356.6277017064
 20
5233.9030932507
 30
0.0
 11
6356.6277017064
 21
5241.7862545571
 31
0.0
  0
LINE
  5
154
330
1F
100
AcDbEntity
  8
0
  6
Continuous
 62
     7
100
AcDbLine
 10
6350.7344787188
 20
5230.3770910821
 30
0.0
 11
6353.1017069884
 21
5230.3770910821
 31
0.0
  0
LINE
  5
155
330
1F
100
AcDbEntity
  8
0
  6
Continuous
 62
     7
100
AcDbLine
 10
6345.4415490098
 20
5240.1161305478
 30
0.0
 11
6345.4415490098
 21
5235.6700226537
 31
0.0
  0
LINE
  5
156
330
1F
100
AcDbEntity
  8
0
  6
Continuous
 62
     7
100
AcDbLine
 10
6346.6376503177
 20
5236.6610672197
 30
0.0
 11
6346.6376503177
 21
5238.6154867581
 31
0.0
  0
LINE
  5
157
330
1F
100
AcDbEntity
  8
0
  6
Continuous
 62
     7
100
AcDbLine
 10
6347.9728837676
 20
5247.9415684811
 30
0.0
 11
6347.9728837676
 21
5236.6610672197
 31
0.0
  0
LINE
  5
158
330
1F
100
AcDbEntity
  8
0
  6
Continuous
 62
     7
100
AcDbLine
 10
6349.1477732726
 20
5240.2707282326
 30
0.0
 11
6349.1477732726
 21
5247.9415684811
 31
0.0
  0
LINE
  5
159
330
1F
100
AcDbEntity
  8
0
  6
Continuous
 62
     7
100
AcDbLine
 10
6140.907554812
 20
5283.8759198657
 30
0.0
 11
6399.5075513788
 21
5283.8759198657
 31
0.0
  0
LINE
  5
15A
330
1F
100
AcDbEntity
  8
0
  6
Continuous
 62
     7
100
AcDbLine
 10
6140.1880671449
 20
5285.8195379249
 30
0.0
 11
6400.2270390458
 21
5285.8195379249
 31
0.0
  0
LINE
  5
15B
330
1F
100
AcDbEntity
  8
0
  6
Continuous
 62
     7
100
AcDbLine
 10
6400.2270390458
 20
5285.8195379249
 30
0.0
 11
6400.2270390458
 21
5284.7593799106
 31
0.0
  0
LINE
  5
15C
330
1F
100
AcDbEntity
  8
0
  6
Continuous
 62
     7
100
AcDbLine
 10
6140.1880671449
 20
5285.8195379249
 30
0.0
 11
6140.1880671449
 21
5284.7593799106
 31
0.0
  0
LINE
  5
15D
330
1F
100
AcDbEntity
  8
0
  6
Continuous
 62
     7
100
AcDbLine
 10
6401.6035934158
 20
5284.5858782402
 30
0.0
 11
6401.7075588174
 21
5284.847751247
 31
0.0
  0
LINE
  5
15E
330
1F
100
AcDbEntity
  8
0
  6
Continuous
 62
     7
100
AcDbLine
 10
6401.7075588174
 20
5284.847751247
 30
0.0
 11
6401.7075588174
 21
5121.8965127936
 31
0.0
  0
LINE
  5
15F
330
1F
100
AcDbEntity
  8
0
  6
Continuous
 62
     7
100
AcDbLine
 10
6399.5075513788
 20
5123.1107264629
 30
0.0
 11
6399.5075513788
 21
5283.8759198657
 31
0.0
  0
LINE
  5
160
330
1F
100
AcDbEntity
  8
0
  6
Continuous
 62
     7
100
AcDbLine
 10
6138.7075473733
 20
5121.8965127936
 30
0.0
 11
6138.7075473733
 21
5284.847751247
 31
0.0
  0
LINE
  5
161
330
1F
100
AcDbEntity
  8
0
  6
Continuous
 62
     7
100
AcDbLine
 10
6138.7075473733
 20
5284.847751247
 30
0.0
 11
6138.811512775
 21
5284.5858782402
 31
0.0
  0
LINE
  5
162
330
1F
100
AcDbEntity
  8
0
  6
Continuous
 62
     7
100
AcDbLine
 10
6140.907554812
 20
5123.1107264629
 30
0.0
 11
6140.907554812
 21
5283.8759198657
 31
0.0
  0
LINE
  5
163
330
1F
100
AcDbEntity
  8
0
  6
Continuous
 62
     7
100
AcDbLine
 10
6401.6035934158
 20
5284.5858782402
 30
0.0
 11
6400.4603018232
 21
5284.5858782402
 31
0.0
  0
LINE
  5
164
330
1F
100
AcDbEntity
  8
0
  6
Continuous
 62
     7
100
AcDbLine
 10
6138.811512775
 20
5284.5858782402
 30
0.0
 11
6139.9548043676
 21
5284.5858782402
 31
0.0
  0
LINE
  5
165
330
1F
100
AcDbEntity
  8
0
  6
Continuous
 62
     7
100
AcDbLine
 10
6140.907554812
 20
5123.1107264629
 30
0.0
 11
6399.5075513788
 21
5123.1107264629
 31
0.0
  0
LINE
  5
166
330
1F
100
AcDbEntity
  8
0
  6
Continuous
 62
     7
100
AcDbLine
 10
6399.9945362277
 20
5121.5550899378
 30
0.0
 11
6399.9945362277
 21
5122.4036142102
 31
0.0
  0
LINE
  5
167
330
1F
100
AcDbEntity
  8
0
  6
Continuous
 62
     7
100
AcDbLine
 10
6140.420569963
 20
5121.5550899378
 30
0.0
 11
6399.9945362277
 21
5121.5550899378
 31
0.0
  0
LINE
  5
168
330
1F
100
AcDbEntity
  8
0
  6
Continuous
 62
     7
100
AcDbLine
 10
6140.420569963
 20
5121.5550899378
 30
0.0
 11
6140.420569963
 21
5122.4036142102
 31
0.0
  0
LINE
  5
169
330
1F
100
AcDbEntity
  8
0
  6
Continuous
 62
     7
100
AcDbLine
 10
6400.3661264844
 20
5120.8479851356
 30
0.0
 11
6400.3661264844
 21
5121.6965094081
 31
0.0
  0
LINE
  5
16A
330
1F
100
AcDbEntity
  8
0
  6
Continuous
 62
     7
100
AcDbLine
 10
6140.0489797063
 20
5120.8479851356
 30
0.0
 11
6140.0489797063
 21
5121.6965094081
 31
0.0
  0
LINE
  5
16B
330
1F
100
AcDbEntity
  8
0
  6
Continuous
 62
     7
100
AcDbLine
 10
6400.3661264844
 20
5120.8479851356
 30
0.0
 11
6400.3661264844
 21
5107.8438162676
 31
0.0
  0
LINE
  5
16C
330
1F
100
AcDbEntity
  8
0
  6
Continuous
 62
     7
100
AcDbLine
 10
6400.3661264844
 20
5107.8438162676
 30
0.0
 11
6140.0489797063
 21
5107.8438162676
 31
0.0
  0
LINE
  5
16D
330
1F
100
AcDbEntity
  8
0
  6
Continuous
 62
     7
100
AcDbLine
 10
6140.0489797063
 20
5120.8479851356
 30
0.0
 11
6140.0489797063
 21
5107.8438162676
 31
0.0
  0
LINE
  5
16E
330
1F
100
AcDbEntity
  8
0
  6
Continuous
 62
     7
100
AcDbLine
 10
6140.0951584049
 20
5122.7968558541
 30
0.0
 11
6139.9075527854
 21
5121.8965127936
 31
0.0
  0
LINE
  5
16F
330
1F
100
AcDbEntity
  8
0
  6
Continuous
 62
     7
100
AcDbLine
 10
6138.7075473733
 20
5121.8965127936
 30
0.0
 11
6139.9075527854
 21
5121.8965127936
 31
0.0
  0
LINE
  5
170
330
1F
100
AcDbEntity
  8
0
  6
Continuous
 62
     7
100
AcDbLine
 10
6400.5075534053
 20
5121.8965127936
 30
0.0
 11
6400.2761234708
 21
5123.0072304479
 31
0.0
  0
LINE
  5
171
330
1F
100
AcDbEntity
  8
0
  6
Continuous
 62
     7
100
AcDbLine
 10
6401.7075588174
 20
5121.8965127936
 30
0.0
 11
6400.5075534053
 21
5121.8965127936
 31
0.0
  0
LINE
  5
172
330
1F
100
AcDbEntity
  8
0
  6
Continuous
 62
     7
100
AcDbLine
 10
6140.0489797063
 20
5286.0679849854
 30
0.0
 11
6140.0489797063
 21
5319.9430703989
 31
0.0
  0
LINE
  5
173
330
1F
100
AcDbEntity
  8
0
  6
Continuous
 62
     7
100
AcDbLine
 10
6140.0489797063
 20
5319.9430703989
 30
0.0
 11
6400.3661264844
 21
5319.9430703989
 31
0.0
  0
LINE
  5
174
330
1F
100
AcDbEntity
  8
0
  6
Continuous
 62
     7
100
AcDbLine
 10
6400.3661264844
 20
5286.0679849854
 30
0.0
 11
6400.3661264844
 21
5319.9430703989
 31
0.0
  0
LINE
  5
175
330
1F
100
AcDbEntity
  8
0
  6
Continuous
 62
     7
100
AcDbLine
 10
6400.3661264844
 20
5286.0679849854
 30
0.0
 11
6400.3661264844
 21
5285.0078269711
 31
0.0
  0
LINE
  5
176
330
1F
100
AcDbEntity
  8
0
  6
Continuous
 62
     7
100
AcDbLine
 10
6140.0489797063
 20
5286.0679849854
 30
0.0
 11
6140.0489797063
 21
5285.0078269711
 31
0.0
  0
LINE
  5
177
330
1F
100
AcDbEntity
  8
0
  6
Continuous
 62
     7
100
AcDbLine
 10
6400.4603018232
 20
5284.5858782402
 30
0.0
 11
6400.5075534053
 21
5284.847751247
 31
0.0
  0
LINE
  5
178
330
1F
100
AcDbEntity
  8
0
  6
Continuous
 62
     7
100
AcDbLine
 10
6139.9075527854
 20
5284.847751247
 30
0.0
 11
6139.9548043676
 21
5284.5858782402
 31
0.0
  0
LINE
  5
179
330
1F
100
AcDbEntity
  8
0
  6
Continuous
 62
     7
100
AcDbLine
 10
6401.7075588174
 20
5284.847751247
 30
0.0
 11
6400.5075534053
 21
5284.847751247
 31
0.0
  0
LINE
  5
17A
330
1F
100
AcDbEntity
  8
0
  6
Continuous
 62
     7
100
AcDbLine
 10
6138.7075473733
 20
5284.847751247
 30
0.0
 11
6139.9075527854
 21
5284.847751247
 31
0.0
  0
LINE
  5
17B
330
1F
100
AcDbEntity
  8
0
  6
Continuous
 62
     7
100
AcDbLine
 10
6401.7075588174
 20
5318.7429159752
 30
0.0
 11
6400.5075534053
 21
5318.7429159752
 31
0.0
  0
LINE
  5
17C
330
1F
100
AcDbEntity
  8
0
  6
Continuous
 62
     7
100
AcDbLine
 10
6401.7075588174
 20
5284.847751247
 30
0.0
 11
6401.7075588174
 21
5318.7429159752
 31
0.0
  0
LINE
  5
17D
330
1F
100
AcDbEntity
  8
0
  6
Continuous
 62
     7
100
AcDbLine
 10
6400.5075534053
 20
5284.847751247
 30
0.0
 11
6400.5075534053
 21
5318.7429159752
 31
0.0
  0
LINE
  5
17E
330
1F
100
AcDbEntity
  8
0
  6
Continuous
 62
     7
100
AcDbLine
 10
6139.9075527854
 20
5318.7429159752
 30
0.0
 11
6138.7075473733
 21
5318.7429159752
 31
0.0
  0
LINE
  5
17F
330
1F
100
AcDbEntity
  8
0
  6
Continuous
 62
     7
100
AcDbLine
 10
6138.7075473733
 20
5284.847751247
 30
0.0
 11
6138.7075473733
 21
5318.7429159752
 31
0.0
  0
LINE
  5
180
330
1F
100
AcDbEntity
  8
0
  6
Continuous
 62
     7
100
AcDbLine
 10
6139.9075527854
 20
5284.847751247
 30
0.0
 11
6139.9075527854
 21
5318.7429159752
 31
0.0
  0
LINE
  5
181
330
1F
100
AcDbEntity
  8
0
  6
Continuous
 62
     7
100
AcDbLine
 10
6400.5075534053
 20
5108.8323444
 30
0.0
 11
6401.7075588174
 21
5108.8323444
 31
0.0
  0
LINE
  5
182
330
1F
100
AcDbEntity
  8
0
  6
Continuous
 62
     7
100
AcDbLine
 10
6401.7075588174
 20
5121.8965127936
 30
0.0
 11
6401.7075588174
 21
5108.8323444
 31
0.0
  0
LINE
  5
183
330
1F
100
AcDbEntity
  8
0
  6
Continuous
 62
     7
100
AcDbLine
 10
6400.5075534053
 20
5121.8965127936
 30
0.0
 11
6400.5075534053
 21
5108.8323444
 31
0.0
  0
LINE
  5
184
330
1F
100
AcDbEntity
  8
0
  6
Continuous
 62
     7
100
AcDbLine
 10
6138.7075473733
 20
5108.8323444
 30
0.0
 11
6139.9075527854
 21
5108.8323444
 31
0.0
  0
LINE
  5
185
330
1F
100
AcDbEntity
  8
0
  6
Continuous
 62
     7
100
AcDbLine
 10
6138.7075473733
 20
5121.8965127936
 30
0.0
 11
6138.7075473733
 21
5108.8323444
 31
0.0
  0
LINE
  5
186
330
1F
100
AcDbEntity
  8
0
  6
Continuous
 62
     7
100
AcDbLine
 10
6139.9075527854
 20
5121.8965127936
 30
0.0
 11
6139.9075527854
 21
5108.8323444
 31
0.0
  0
LINE
  5
187
330
1F
100
AcDbEntity
  8
0
  6
Continuous
 62
     7
100
AcDbLine
 10
6140.0489797063
 20
5107.1994528047
 30
0.0
 11
6400.3661264844
 21
5107.1994528047
 31
0.0
  0
LINE
  5
188
330
1F
100
AcDbEntity
  8
0
  6
Continuous
 62
     7
100
AcDbLine
 10
6140.0489797063
 20
5107.8438162676
 30
0.0
 11
6140.0489797063
 21
5107.1994528047
 31
0.0
  0
LINE
  5
189
330
1F
100
AcDbEntity
  8
0
  6
Continuous
 62
     7
100
AcDbLine
 10
6400.3661264844
 20
5107.8438162676
 30
0.0
 11
6400.3661264844
 21
5107.1994528047
 31
0.0
  0
LINE
  5
18A
330
1F
100
AcDbEntity
  8
0
  6
Continuous
 62
     7
100
AcDbLine
 10
6139.9075527854
 20
5108.5394546262
 30
0.0
 11
6138.7075473733
 21
5108.5394546262
 31
0.0
  0
LINE
  5
18B
330
1F
100
AcDbEntity
  8
0
  6
Continuous
 62
     7
100
AcDbLine
 10
6138.7075473733
 20
5108.5394546262
 30
0.0
 11
6138.7075473733
 21
5108.8323444
 31
0.0
  0
LINE
  5
18C
330
1F
100
AcDbEntity
  8
0
  6
Continuous
 62
     7
100
AcDbLine
 10
6139.9075527854
 20
5108.8323444
 30
0.0
 11
6139.9075527854
 21
5108.5394546262
 31
0.0
  0
LINE
  5
18D
330
1F
100
AcDbEntity
  8
0
  6
Continuous
 62
     7
100
AcDbLine
 10
6401.7075588174
 20
5108.5394546262
 30
0.0
 11
6400.5075534053
 21
5108.5394546262
 31
0.0
  0
LINE
  5
18E
330
1F
100
AcDbEntity
  8
0
  6
Continuous
 62
     7
100
AcDbLine
 10
6401.7075588174
 20
5108.8323444
 30
0.0
 11
6401.7075588174
 21
5108.5394546262
 31
0.0
  0
LINE
  5
18F
330
1F
100
AcDbEntity
  8
0
  6
Continuous
 62
     7
100
AcDbLine
 10
6400.5075534053
 20
5108.5394546262
 30
0.0
 11
6400.5075534053
 21
5108.8323444
 31
0.0
  0
LINE
  5
190
330
1F
100
AcDbEntity
  8
0
  6
Continuous
 62
     7
100
AcDbLine
 10
6140.0489797063
 20
5320.1994523278
 30
0.0
 11
6400.3661264844
 21
5320.1994523278
 31
0.0
  0
LINE
  5
191
330
1F
100
AcDbEntity
  8
0
  6
Continuous
 62
     7
100
AcDbLine
 10
6140.0489797063
 20
5319.9430703989
 30
0.0
 11
6140.0489797063
 21
5320.1994523278
 31
0.0
  0
LINE
  5
192
330
1F
100
AcDbEntity
  8
0
  6
Continuous
 62
     7
100
AcDbLine
 10
6400.3661264844
 20
5319.9430703989
 30
0.0
 11
6400.3661264844
 21
5320.1994523278
 31
0.0
  0
LINE
  5
193
330
1F
100
AcDbEntity
  8
0
  6
Continuous
 62
     7
100
AcDbLine
 10
6400.5075534053
 20
5318.8594579569
 30
0.0
 11
6401.7075588174
 21
5318.8594579569
 31
0.0
  0
LINE
  5
194
330
1F
100
AcDbEntity
  8
0
  6
Continuous
 62
     7
100
AcDbLine
 10
6401.7075588174
 20
5318.8594579569
 30
0.0
 11
6401.7075588174
 21
5318.7429159752
 31
0.0
  0
LINE
  5
195
330
1F
100
AcDbEntity
  8
0
  6
Continuous
 62
     7
100
AcDbLine
 10
6400.5075534053
 20
5318.7429159752
 30
0.0
 11
6400.5075534053
 21
5318.8594579569
 31
0.0
  0
LINE
  5
196
330
1F
100
AcDbEntity
  8
0
  6
Continuous
 62
     7
100
AcDbLine
 10
6138.7075473733
 20
5318.8594579569
 30
0.0
 11
6139.9075527854
 21
5318.8594579569
 31
0.0
  0
LINE
  5
197
330
1F
100
AcDbEntity
  8
0
  6
Continuous
 62
     7
100
AcDbLine
 10
6138.7075473733
 20
5318.7429159752
 30
0.0
 11
6138.7075473733
 21
5318.8594579569
 31
0.0
  0
LINE
  5
198
330
1F
100
AcDbEntity
  8
0
  6
Continuous
 62
     7
100
AcDbLine
 10
6139.9075527854
 20
5318.8594579569
 30
0.0
 11
6139.9075527854
 21
5318.7429159752
 31
0.0
  0
LINE
  5
199
330
1F
100
AcDbEntity
  8
0
  6
Continuous
 62
     7
100
AcDbLine
 10
6605.4834110669
 20
5122.1611425153
 30
0.0
 11
6605.5689046748
 21
5122.0144554845
 31
0.0
  0
LINE
  5
19A
330
1F
100
AcDbEntity
  8
0
  6
Continuous
 62
     7
100
AcDbLine
 10
6605.4834110669
 20
5285.1611450187
 30
0.0
 11
6605.5689046747
 21
5285.0144579879
 31
0.0
  0
LINE
  5
19B
330
1F
100
AcDbEntity
  8
0
  6
Continuous
 62
     7
100
AcDbLine
 10
6594.3191361271
 20
5172.9262098542
 30
0.0
 11
6594.0907870077
 21
5173.3210682741
 31
0.0
  0
LINE
  5
19C
330
1F
100
AcDbEntity
  8
0
  6
Continuous
 62
     7
100
AcDbLine
 10
6604.1925210862
 20
5153.9994552604
 30
0.0
 11
6605.2136598569
 21
5153.9994552604
 31
0.0
  0
LINE
  5
19D
330
1F
100
AcDbEntity
  8
0
  6
Continuous
 62
     7
100
AcDbLine
 10
6602.2386748932
 20
5153.9994552604
 30
0.0
 11
6602.4830155198
 21
5153.9994552604
 31
0.0
  0
LINE
  5
19E
330
1F
100
AcDbEntity
  8
0
  6
Continuous
 62
     7
100
AcDbLine
 10
6600.2848290496
 20
5153.9994552604
 30
0.0
 11
6600.5291694433
 21
5153.9994552604
 31
0.0
  0
LINE
  5
19F
330
1F
100
AcDbEntity
  8
0
  6
Continuous
 62
     7
100
AcDbLine
 10
6598.3309827402
 20
5153.9994552604
 30
0.0
 11
6598.5753231339
 21
5153.9994552604
 31
0.0
  0
LINE
  5
1A0
330
1F
100
AcDbEntity
  8
0
  6
Continuous
 62
     7
100
AcDbLine
 10
6596.3771364309
 20
5153.9994552604
 30
0.0
 11
6596.6214772903
 21
5153.9994552604
 31
0.0
  0
LINE
  5
1A1
330
1F
100
AcDbEntity
  8
0
  6
Continuous
 62
     7
100
AcDbLine
 10
6595.644417464
 20
5173.9994548133
 30
0.0
 11
6595.4001939513
 21
5173.9994548133
 31
0.0
  0
LINE
  5
1A2
330
1F
100
AcDbEntity
  8
0
  6
Continuous
 62
     7
100
AcDbLine
 10
6597.5982633077
 20
5173.9994548133
 30
0.0
 11
6597.3540407263
 21
5173.9994548133
 31
0.0
  0
LINE
  5
1A3
330
1F
100
AcDbEntity
  8
0
  6
Continuous
 62
     7
100
AcDbLine
 10
6599.552109617
 20
5173.9994548133
 30
0.0
 11
6599.30788657
 21
5173.9994548133
 31
0.0
  0
LINE
  5
1A4
330
1F
100
AcDbEntity
  8
0
  6
Continuous
 62
     7
100
AcDbLine
 10
6601.5059559263
 20
5173.9994548133
 30
0.0
 11
6601.2617328793
 21
5173.9994548133
 31
0.0
  0
LINE
  5
1A5
330
1F
100
AcDbEntity
  8
0
  6
Continuous
 62
     7
100
AcDbLine
 10
6605.2136598569
 20
5173.9994548133
 30
0.0
 11
6603.2155789558
 21
5173.9994548133
 31
0.0
  0
LINE
  5
1A6
330
1F
100
AcDbEntity
  8
0
  6
Continuous
 62
     7
100
AcDbLine
 10
6605.2136598569
 20
5153.7994556001
 30
0.0
 11
6605.5689046748
 21
5153.7994556001
 31
0.0
  0
LINE
  5
1A7
330
1F
100
AcDbEntity
  8
0
  6
Continuous
 62
     7
100
AcDbLine
 10
6605.5689046748
 20
5174.1994544736
 30
0.0
 11
6605.2136598569
 21
5174.1994544736
 31
0.0
  0
LINE
  5
1A8
330
1F
100
AcDbEntity
  8
0
  6
Continuous
 62
     7
100
AcDbLine
 10
6594.0581376322
 20
5173.343934106
 30
0.0
 11
6593.2136599563
 21
5172.4994554988
 31
0.0
  0
LINE
  5
1A9
330
1F
100
AcDbEntity
  8
0
  6
Continuous
 62
     7
100
AcDbLine
 10
6594.0266021185
 20
5154.6865105501
 30
0.0
 11
6594.6444759734
 21
5154.0686376265
 31
0.0
  0
LINE
  5
1AA
330
1F
100
AcDbEntity
  8
0
  6
Continuous
 62
     7
100
AcDbLine
 10
6593.2136599563
 20
5155.4994545749
 30
0.0
 11
6593.6561098911
 21
5155.0570055715
 31
0.0
  0
LINE
  5
1AB
330
1F
100
AcDbEntity
  8
0
  6
Continuous
 62
     7
100
AcDbLine
 10
6595.2780826606
 20
5155.0570055715
 30
0.0
 11
6595.7665445872
 21
5155.0570055715
 31
0.0
  0
LINE
  5
1AC
330
1F
100
AcDbEntity
  8
0
  6
Continuous
 62
     7
100
AcDbLine
 10
6597.2319294356
 20
5155.0570055715
 30
0.0
 11
6597.7203904308
 21
5155.0570055715
 31
0.0
  0
LINE
  5
1AD
330
1F
100
AcDbEntity
  8
0
  6
Continuous
 62
     7
100
AcDbLine
 10
6599.1857752793
 20
5155.0570055715
 30
0.0
 11
6599.6742367402
 21
5155.0570055715
 31
0.0
  0
LINE
  5
1AE
330
1F
100
AcDbEntity
  8
0
  6
Continuous
 62
     7
100
AcDbLine
 10
6601.1396215886
 20
5155.0570055715
 30
0.0
 11
6601.6280830495
 21
5155.0570055715
 31
0.0
  0
LINE
  5
1AF
330
1F
100
AcDbEntity
  8
0
  6
Continuous
 62
     7
100
AcDbLine
 10
6603.0934674323
 20
5155.0570055715
 30
0.0
 11
6603.581929126
 21
5155.0570055715
 31
0.0
  0
LINE
  5
1B0
330
1F
100
AcDbEntity
  8
0
  6
Continuous
 62
     7
100
AcDbLine
 10
6597.2319294356
 20
5155.0570055715
 30
0.0
 11
6597.7203904308
 21
5155.0570055715
 31
0.0
  0
LINE
  5
1B1
330
1F
100
AcDbEntity
  8
0
  6
Continuous
 62
     7
100
AcDbLine
 10
6599.1857752793
 20
5155.0570055715
 30
0.0
 11
6599.6742367402
 21
5155.0570055715
 31
0.0
  0
LINE
  5
1B2
330
1F
100
AcDbEntity
  8
0
  6
Continuous
 62
     7
100
AcDbLine
 10
6601.1396215886
 20
5155.0570055715
 30
0.0
 11
6601.6280830495
 21
5155.0570055715
 31
0.0
  0
LINE
  5
1B3
330
1F
100
AcDbEntity
  8
0
  6
Continuous
 62
     7
100
AcDbLine
 10
6603.0934674323
 20
5155.0570055715
 30
0.0
 11
6603.581929126
 21
5155.0570055715
 31
0.0
  0
LINE
  5
1B4
330
1F
100
AcDbEntity
  8
0
  6
Continuous
 62
     7
100
AcDbLine
 10
6596.743467509
 20
5172.9419045022
 30
0.0
 11
6596.2639071636
 21
5172.9419045022
 31
0.0
  0
LINE
  5
1B5
330
1F
100
AcDbEntity
  8
0
  6
Continuous
 62
     7
100
AcDbLine
 10
6598.6973138183
 20
5172.9419045022
 30
0.0
 11
6598.2177530073
 21
5172.9419045022
 31
0.0
  0
LINE
  5
1B6
330
1F
100
AcDbEntity
  8
0
  6
Continuous
 62
     7
100
AcDbLine
 10
6600.651159662
 20
5172.9419045022
 30
0.0
 11
6600.1715988509
 21
5172.9419045022
 31
0.0
  0
LINE
  5
1B7
330
1F
100
AcDbEntity
  8
0
  6
Continuous
 62
     7
100
AcDbLine
 10
6602.6050059714
 20
5172.9419045022
 30
0.0
 11
6602.1254451603
 21
5172.9419045022
 31
0.0
  0
LINE
  5
1B8
330
1F
100
AcDbEntity
  8
0
  6
Continuous
 62
     7
100
AcDbLine
 10
6594.7896216653
 20
5172.9419045022
 30
0.0
 11
6594.3100603886
 21
5172.9419045022
 31
0.0
  0
LINE
  5
1B9
330
1F
100
AcDbEntity
  8
0
  6
Continuous
 62
     7
100
AcDbLine
 10
6595.2780826606
 20
5155.0570055715
 30
0.0
 11
6595.7665445872
 21
5155.0570055715
 31
0.0
  0
LINE
  5
1BA
330
1F
100
AcDbEntity
  8
0
  6
Continuous
 62
     7
100
AcDbLine
 10
6615.5689044513
 20
5108.3994582168
 30
0.0
 11
6615.4289043166
 21
5108.5394546262
 31
0.0
  0
LINE
  5
1BB
330
1F
100
AcDbEntity
  8
0
  6
Continuous
 62
     7
100
AcDbLine
 10
6611.7089048617
 20
5108.5394546262
 30
0.0
 11
6611.568904727
 21
5108.3994582168
 31
0.0
  0
LINE
  5
1BC
330
1F
100
AcDbEntity
  8
0
  6
Continuous
 62
     7
100
AcDbLine
 10
6681.568902231
 20
5218.3726727835
 30
0.0
 11
6712.2131849296
 21
5192.6590651146
 31
0.0
  0
LINE
  5
1BD
330
1F
100
AcDbEntity
  8
0
  6
Continuous
 62
     7
100
AcDbLine
 10
6737.2901926406
 20
5208.1683692394
 30
0.0
 11
6681.568902231
 21
5254.9240775278
 31
0.0
  0
LINE
  5
1BE
330
1F
100
AcDbEntity
  8
0
  6
Continuous
 62
     7
100
AcDbLine
 10
6712.2131849296
 20
5192.6590651146
 30
0.0
 11
6713.0522842176
 21
5192.4323849252
 31
0.0
  0
LINE
  5
1BF
330
1F
100
AcDbEntity
  8
0
  6
Continuous
 62
     7
100
AcDbLine
 10
6713.0522842176
 20
5192.4323849252
 30
0.0
 11
6713.8913909562
 21
5192.2057028732
 31
0.0
  0
LINE
  5
1C0
330
1F
100
AcDbEntity
  8
0
  6
Continuous
 62
     7
100
AcDbLine
 10
6737.2901926406
 20
5205.7150062046
 30
0.0
 11
6737.2901926406
 21
5208.1683692394
 31
0.0
  0
LINE
  5
1C1
330
1F
100
AcDbEntity
  8
0
  6
Continuous
 62
     7
100
AcDbLine
 10
6648.3189056285
 20
5108.3994582168
 30
0.0
 11
6648.3189056285
 21
5108.5394546262
 31
0.0
  0
LINE
  5
1C2
330
1F
100
AcDbEntity
  8
0
  6
Continuous
 62
     7
100
AcDbLine
 10
6608.8189047419
 20
5108.5394546262
 30
0.0
 11
6608.8189047419
 21
5108.3994582168
 31
0.0
  0
LINE
  5
1C3
330
1F
100
AcDbEntity
  8
0
  6
Continuous
 62
     7
100
AcDbLine
 10
6680.6396583684
 20
5122.8920146695
 30
0.0
 11
6681.3056434162
 21
5122.8920072189
 31
0.0
  0
LINE
  5
1C4
330
1F
100
AcDbEntity
  8
0
  6
Continuous
 62
     7
100
AcDbLine
 10
6605.2136598569
 20
5163.9994531742
 30
0.0
 11
6605.2136598569
 21
5174.1994544736
 31
0.0
  0
LINE
  5
1C5
330
1F
100
AcDbEntity
  8
0
  6
Continuous
 62
     7
100
AcDbLine
 10
6605.2136598569
 20
5153.7994556001
 30
0.0
 11
6605.2136598569
 21
5163.9994531742
 31
0.0
  0
LINE
  5
1C6
330
1F
100
AcDbEntity
  8
0
  6
Continuous
 62
     7
100
AcDbLine
 10
6594.0266021185
 20
5154.6865105501
 30
0.0
 11
6593.6561098911
 21
5155.0570055715
 31
0.0
  0
LINE
  5
1C7
330
1F
100
AcDbEntity
  8
0
  6
Continuous
 62
     7
100
AcDbLine
 10
6593.2136599563
 20
5155.4994545749
 30
0.0
 11
6593.2136599563
 21
5172.4994554988
 31
0.0
  0
LINE
  5
1C8
330
1F
100
AcDbEntity
  8
0
  6
Continuous
 62
     7
100
AcDbLine
 10
6734.1123859055
 20
5203.8803016639
 30
0.0
 11
6734.1587136157
 21
5203.9070501796
 31
0.0
  0
LINE
  5
1C9
330
1F
100
AcDbEntity
  8
0
  6
Continuous
 62
     7
100
AcDbLine
 10
6734.1587136157
 20
5203.9070501796
 30
0.0
 11
6734.1918686994
 21
5203.9261879272
 31
0.0
  0
LINE
  5
1CA
330
1F
100
AcDbEntity
  8
0
  6
Continuous
 62
     7
100
AcDbLine
 10
6734.1918686994
 20
5203.9261879272
 30
0.0
 11
6734.2117766507
 21
5203.9376832417
 31
0.0
  0
LINE
  5
1CB
330
1F
100
AcDbEntity
  8
0
  6
Continuous
 62
     7
100
AcDbLine
 10
6734.2117766507
 20
5203.9376832417
 30
0.0
 11
6734.2184076674
 21
5203.9415174967
 31
0.0
  0
LINE
  5
1CC
330
1F
100
AcDbEntity
  8
0
  6
Continuous
 62
     7
100
AcDbLine
 10
6718.1969473727
 20
5194.6915164462
 30
0.0
 11
6718.20358584
 21
5194.6953516326
 31
0.0
  0
LINE
  5
1CD
330
1F
100
AcDbEntity
  8
0
  6
Continuous
 62
     7
100
AcDbLine
 10
6718.20358584
 20
5194.6953516326
 30
0.0
 11
6718.2234937914
 21
5194.7068460158
 31
0.0
  0
LINE
  5
1CE
330
1F
100
AcDbEntity
  8
0
  6
Continuous
 62
     7
100
AcDbLine
 10
6718.2234937914
 20
5194.7068460158
 30
0.0
 11
6718.2566414245
 21
5194.7259846947
 31
0.0
  0
LINE
  5
1CF
330
1F
100
AcDbEntity
  8
0
  6
Continuous
 62
     7
100
AcDbLine
 10
6718.2566414245
 20
5194.7259846947
 30
0.0
 11
6718.3029765852
 21
5194.752732279
 31
0.0
  0
LINE
  5
1D0
330
1F
100
AcDbEntity
  8
0
  6
Continuous
 62
     7
100
AcDbLine
 10
6679.3689022429
 20
5121.8965127936
 30
0.0
 11
6679.3689022429
 21
5284.847751247
 31
0.0
  0
LINE
  5
1D1
330
1F
100
AcDbEntity
  8
0
  6
Continuous
 62
     7
100
AcDbLine
 10
6679.3689022429
 20
5121.8965127936
 30
0.0
 11
6666.3047412999
 21
5108.8323444
 31
0.0
  0
LINE
  5
1D2
330
1F
100
AcDbEntity
  8
0
  6
Continuous
 62
     7
100
AcDbLine
 10
6665.5976364978
 20
5108.5394546262
 30
0.0
 11
6605.5689046742
 21
5108.5394546262
 31
0.0
  0
LINE
  5
1D3
330
1F
100
AcDbEntity
  8
0
  6
Continuous
 62
     7
100
AcDbLine
 10
6605.5689046742
 20
5108.5394546262
 30
0.0
 11
6605.5689046748
 21
5318.8594579569
 31
0.0
  0
LINE
  5
1D4
330
1F
100
AcDbEntity
  8
0
  6
Continuous
 62
     7
100
AcDbLine
 10
6605.5689046748
 20
5318.8594579569
 30
0.0
 11
6614.9838066317
 21
5318.8594579569
 31
0.0
  0
LINE
  5
1D5
330
1F
100
AcDbEntity
  8
0
  6
Continuous
 62
     7
100
AcDbLine
 10
6679.3689022429
 20
5284.847751247
 30
0.0
 11
6615.4523093842
 21
5318.7429159752
 31
0.0
  0
LINE
  5
1D6
330
1F
100
AcDbEntity
  8
0
  6
Continuous
 62
     7
100
AcDbLine
 10
6679.3689022429
 20
5284.847751247
 30
0.0
 11
6680.037174619
 21
5284.5858782402
 31
0.0
  0
LINE
  5
1D7
330
1F
100
AcDbEntity
  8
0
  6
Continuous
 62
     7
100
AcDbLine
 10
6681.568902231
 20
5123.1107264629
 30
0.0
 11
6681.568902231
 21
5283.8759198657
 31
0.0
  0
LINE
  5
1D8
330
1F
100
AcDbEntity
  8
0
  6
Continuous
 62
     7
100
AcDbLine
 10
6680.0690333016
 20
5284.5802083484
 30
0.0
 11
6679.837409652
 21
5284.7593799106
 31
0.0
  0
LINE
  5
1D9
330
1F
100
AcDbEntity
  8
0
  6
Continuous
 62
     7
100
AcDbLine
 10
6680.3996081121
 20
5285.8195379249
 30
0.0
 11
6679.837409652
 21
5284.7593799106
 31
0.0
  0
LINE
  5
1DA
330
1F
100
AcDbEntity
  8
0
  6
Continuous
 62
     7
100
AcDbLine
 10
6679.9311081536
 20
5286.0679849854
 30
0.0
 11
6679.3689022429
 21
5285.0078269711
 31
0.0
  0
LINE
  5
1DB
330
1F
100
AcDbEntity
  8
0
  6
Continuous
 62
     7
100
AcDbLine
 10
6680.9245387681
 20
5121.5550899378
 30
0.0
 11
6680.0760144957
 21
5122.4036142102
 31
0.0
  0
LINE
  5
1DC
330
1F
100
AcDbEntity
  8
0
  6
Continuous
 62
     7
100
AcDbLine
 10
6680.217433966
 20
5120.8479851356
 30
0.0
 11
6679.3689022429
 21
5121.6965094081
 31
0.0
  0
LINE
  5
1DD
330
1F
100
AcDbEntity
  8
0
  6
Continuous
 62
     7
100
AcDbLine
 10
6665.6576360233
 20
5107.1994528047
 30
0.0
 11
6605.5689046742
 21
5107.1994528047
 31
0.0
  0
LINE
  5
1DE
330
1F
100
AcDbEntity
  8
0
  6
Continuous
 62
     7
100
AcDbLine
 10
6605.5689046742
 20
5107.1994528047
 30
0.0
 11
6605.5689046742
 21
5108.3994582168
 31
0.0
  0
LINE
  5
1DF
330
1F
100
AcDbEntity
  8
0
  6
Continuous
 62
     7
100
AcDbLine
 10
6605.5689046742
 20
5108.3994582168
 30
0.0
 11
6665.6576360233
 21
5108.3994582168
 31
0.0
  0
LINE
  5
1E0
330
1F
100
AcDbEntity
  8
0
  6
Continuous
 62
     7
100
AcDbLine
 10
6680.217433966
 20
5120.8479851356
 30
0.0
 11
6667.2132688232
 21
5107.8438162676
 31
0.0
  0
LINE
  5
1E1
330
1F
100
AcDbEntity
  8
0
  6
Continuous
 62
     7
100
AcDbLine
 10
6679.3689022429
 20
5121.6965094081
 30
0.0
 11
6666.3647408255
 21
5108.6923479906
 31
0.0
  0
LINE
  5
1E2
330
1F
100
AcDbEntity
  8
0
  6
Continuous
 62
     7
100
AcDbLine
 10
6615.0216648944
 20
5320.1994523278
 30
0.0
 11
6605.5689046748
 21
5320.1994523278
 31
0.0
  0
LINE
  5
1E3
330
1F
100
AcDbEntity
  8
0
  6
Continuous
 62
     7
100
AcDbLine
 10
6605.5689046748
 20
5318.9994543663
 30
0.0
 11
6615.0216648944
 21
5318.9994543663
 31
0.0
  0
LINE
  5
1E4
330
1F
100
AcDbEntity
  8
0
  6
Continuous
 62
     7
100
AcDbLine
 10
6605.5689046748
 20
5320.1994523278
 30
0.0
 11
6605.5689046748
 21
5318.9994543663
 31
0.0
  0
LINE
  5
1E5
330
1F
100
AcDbEntity
  8
0
  6
Continuous
 62
     7
100
AcDbLine
 10
6679.3689022429
 20
5285.0078269711
 30
0.0
 11
6615.4901676469
 21
5318.8829198352
 31
0.0
  0
LINE
  5
1E6
330
1F
100
AcDbEntity
  8
0
  6
Continuous
 62
     7
100
AcDbLine
 10
6679.9311081536
 20
5286.0679849854
 30
0.0
 11
6616.0523707636
 21
5319.9430703989
 31
0.0
  0
LINE
  5
1E7
330
1F
100
AcDbEntity
  8
0
  6
Continuous
 62
     7
100
AcDbLine
 10
6680.037174619
 20
5284.5858782402
 30
0.0
 11
6679.3689022429
 21
5284.847751247
 31
0.0
  0
LINE
  5
1E8
330
1F
100
AcDbEntity
  8
0
  6
Continuous
 62
     7
100
AcDbLine
 10
6606.8337856682
 20
5318.8594579569
 30
0.0
 11
6607.178724034
 21
5318.9610242716
 31
0.0
  0
LINE
  5
1E9
330
1F
100
AcDbEntity
  8
0
  6
Continuous
 62
     7
100
AcDbLine
 10
6607.178724034
 20
5318.9610242716
 30
0.0
 11
6607.5689047698
 21
5318.9994543663
 31
0.0
  0
LINE
  5
1EA
330
1F
100
AcDbEntity
  8
0
  6
Continuous
 62
     7
100
AcDbLine
 10
6613.5689050548
 20
5318.9994543663
 30
0.0
 11
6613.5689050548
 21
5318.8594579569
 31
0.0
  0
LINE
  5
1EB
330
1F
100
AcDbEntity
  8
0
  6
Continuous
 62
     7
100
AcDbLine
 10
6609.5689048648
 20
5318.8594579569
 30
0.0
 11
6609.5689048648
 21
5318.9994543663
 31
0.0
  0
LINE
  5
1EC
330
1F
100
AcDbEntity
  8
0
  6
Continuous
 62
     7
100
AcDbLine
 10
6195.0075541802
 20
4897.7146598348
 30
0.0
 11
6195.0075541802
 21
4897.3594150169
 31
0.0
  0
LINE
  5
1ED
330
1F
100
AcDbEntity
  8
0
  6
Continuous
 62
     7
100
AcDbLine
 10
6215.4075530537
 20
4897.3594150169
 30
0.0
 11
6215.4075530537
 21
4897.7146598348
 31
0.0
  0
LINE
  5
1EE
330
1F
100
AcDbEntity
  8
0
  6
Continuous
 62
     7
100
AcDbLine
 10
6195.2075501151
 20
4899.2241550599
 30
0.0
 11
6195.2075501151
 21
4897.7146598348
 31
0.0
  0
LINE
  5
1EF
330
1F
100
AcDbEntity
  8
0
  6
Continuous
 62
     7
100
AcDbLine
 10
6195.2075501151
 20
4901.1780012528
 30
0.0
 11
6195.2075501151
 21
4900.9337693582
 31
0.0
  0
LINE
  5
1F0
330
1F
100
AcDbEntity
  8
0
  6
Continuous
 62
     7
100
AcDbLine
 10
6195.2075501151
 20
4903.1318473293
 30
0.0
 11
6195.2075501151
 21
4902.8876154347
 31
0.0
  0
LINE
  5
1F1
330
1F
100
AcDbEntity
  8
0
  6
Continuous
 62
     7
100
AcDbLine
 10
6195.2075501151
 20
4905.0856936386
 30
0.0
 11
6195.2075501151
 21
4904.841461744
 31
0.0
  0
LINE
  5
1F2
330
1F
100
AcDbEntity
  8
0
  6
Continuous
 62
     7
100
AcDbLine
 10
6195.2075501151
 20
4907.039539948
 30
0.0
 11
6195.2075501151
 21
4906.7953080534
 31
0.0
  0
LINE
  5
1F3
330
1F
100
AcDbEntity
  8
0
  6
Continuous
 62
     7
100
AcDbLine
 10
6215.2075533934
 20
4907.7724693938
 30
0.0
 11
6215.2075533934
 21
4908.0167022197
 31
0.0
  0
LINE
  5
1F4
330
1F
100
AcDbEntity
  8
0
  6
Continuous
 62
     7
100
AcDbLine
 10
6215.2075533934
 20
4905.8186235501
 30
0.0
 11
6215.2075533934
 21
4906.0628554447
 31
0.0
  0
LINE
  5
1F5
330
1F
100
AcDbEntity
  8
0
  6
Continuous
 62
     7
100
AcDbLine
 10
6215.2075533934
 20
4903.8647772408
 30
0.0
 11
6215.2075533934
 21
4904.109009601
 31
0.0
  0
LINE
  5
1F6
330
1F
100
AcDbEntity
  8
0
  6
Continuous
 62
     7
100
AcDbLine
 10
6215.2075533934
 20
4901.9109309314
 30
0.0
 11
6215.2075533934
 21
4902.1551632917
 31
0.0
  0
LINE
  5
1F7
330
1F
100
AcDbEntity
  8
0
  6
Continuous
 62
     7
100
AcDbLine
 10
6215.2075533934
 20
4897.7146598348
 30
0.0
 11
6215.2075533934
 21
4900.2013172152
 31
0.0
  0
LINE
  5
1F8
330
1F
100
AcDbEntity
  8
0
  6
Continuous
 62
     7
100
AcDbLine
 10
6214.2410678037
 20
4909.1811450793
 30
0.0
 11
6213.7075540789
 21
4909.7146597354
 31
0.0
  0
LINE
  5
1F9
330
1F
100
AcDbEntity
  8
0
  6
Continuous
 62
     7
100
AcDbLine
 10
6196.707553155
 20
4909.7146597354
 30
0.0
 11
6195.5618848272
 21
4908.5689914076
 31
0.0
  0
LINE
  5
1FA
330
1F
100
AcDbEntity
  8
0
  6
Continuous
 62
     7
100
AcDbLine
 10
6196.2651004262
 20
4906.1848521827
 30
0.0
 11
6196.2651004262
 21
4905.7060350327
 31
0.0
  0
LINE
  5
1FB
330
1F
100
AcDbEntity
  8
0
  6
Continuous
 62
     7
100
AcDbLine
 10
6196.2651004262
 20
4904.2310058734
 30
0.0
 11
6196.2651004262
 21
4903.7521887234
 31
0.0
  0
LINE
  5
1FC
330
1F
100
AcDbEntity
  8
0
  6
Continuous
 62
     7
100
AcDbLine
 10
6196.2651004262
 20
4902.2771600297
 30
0.0
 11
6196.2651004262
 21
4901.7983424141
 31
0.0
  0
LINE
  5
1FD
330
1F
100
AcDbEntity
  8
0
  6
Continuous
 62
     7
100
AcDbLine
 10
6196.2651004262
 20
4900.3233137204
 30
0.0
 11
6196.2651004262
 21
4899.8444965704
 31
0.0
  0
LINE
  5
1FE
330
1F
100
AcDbEntity
  8
0
  6
Continuous
 62
     7
100
AcDbLine
 10
6214.1500030823
 20
4906.6733141093
 30
0.0
 11
6214.1500030823
 21
4907.1521256714
 31
0.0
  0
LINE
  5
1FF
330
1F
100
AcDbEntity
  8
0
  6
Continuous
 62
     7
100
AcDbLine
 10
6214.1500030823
 20
4904.7194673343
 30
0.0
 11
6214.1500030823
 21
4905.1982798277
 31
0.0
  0
LINE
  5
200
330
1F
100
AcDbEntity
  8
0
  6
Continuous
 62
     7
100
AcDbLine
 10
6214.1500030823
 20
4902.7656214906
 30
0.0
 11
6214.1500030823
 21
4903.2444335184
 31
0.0
  0
LINE
  5
201
330
1F
100
AcDbEntity
  8
0
  6
Continuous
 62
     7
100
AcDbLine
 10
6214.1500030823
 20
4900.8117751813
 30
0.0
 11
6214.1500030823
 21
4901.290587209
 31
0.0
  0
LINE
  5
202
330
1F
100
AcDbEntity
  8
0
  6
Continuous
 62
     7
100
AcDbLine
 10
6214.1500030823
 20
4908.627159953
 30
0.0
 11
6214.1500030823
 21
4909.1156209482
 31
0.0
  0
LINE
  5
203
330
1F
100
AcDbEntity
  8
0
  6
Continuous
 62
     7
100
AcDbLine
 10
6196.2651004262
 20
4908.1386980264
 30
0.0
 11
6196.2651004262
 21
4907.6598808764
 31
0.0
  0
LINE
  5
204
330
1F
100
AcDbEntity
  8
0
  6
Continuous
 62
     7
100
AcDbLine
 10
6325.0075531371
 20
4897.7146598348
 30
0.0
 11
6325.0075531371
 21
4897.3594150169
 31
0.0
  0
LINE
  5
205
330
1F
100
AcDbEntity
  8
0
  6
Continuous
 62
     7
100
AcDbLine
 10
6345.4075520106
 20
4897.3594150169
 30
0.0
 11
6345.4075520106
 21
4897.7146598348
 31
0.0
  0
LINE
  5
206
330
1F
100
AcDbEntity
  8
0
  6
Continuous
 62
     7
100
AcDbLine
 10
6325.2075527974
 20
4899.2241550599
 30
0.0
 11
6325.2075527974
 21
4897.7146598348
 31
0.0
  0
LINE
  5
207
330
1F
100
AcDbEntity
  8
0
  6
Continuous
 62
     7
100
AcDbLine
 10
6325.2075527974
 20
4901.1780012528
 30
0.0
 11
6325.2075527974
 21
4900.9337693582
 31
0.0
  0
LINE
  5
208
330
1F
100
AcDbEntity
  8
0
  6
Continuous
 62
     7
100
AcDbLine
 10
6325.2075527974
 20
4903.1318473293
 30
0.0
 11
6325.2075527974
 21
4902.8876154347
 31
0.0
  0
LINE
  5
209
330
1F
100
AcDbEntity
  8
0
  6
Continuous
 62
     7
100
AcDbLine
 10
6325.2075527974
 20
4905.0856936386
 30
0.0
 11
6325.2075527974
 21
4904.841461744
 31
0.0
  0
LINE
  5
20A
330
1F
100
AcDbEntity
  8
0
  6
Continuous
 62
     7
100
AcDbLine
 10
6325.2075527974
 20
4907.039539948
 30
0.0
 11
6325.2075527974
 21
4906.7953080534
 31
0.0
  0
LINE
  5
20B
330
1F
100
AcDbEntity
  8
0
  6
Continuous
 62
     7
100
AcDbLine
 10
6345.2075560756
 20
4907.7724693938
 30
0.0
 11
6345.2075560756
 21
4908.0167022197
 31
0.0
  0
LINE
  5
20C
330
1F
100
AcDbEntity
  8
0
  6
Continuous
 62
     7
100
AcDbLine
 10
6345.2075560756
 20
4905.8186235501
 30
0.0
 11
6345.2075560756
 21
4906.0628554447
 31
0.0
  0
LINE
  5
20D
330
1F
100
AcDbEntity
  8
0
  6
Continuous
 62
     7
100
AcDbLine
 10
6345.2075560756
 20
4903.8647772408
 30
0.0
 11
6345.2075560756
 21
4904.109009601
 31
0.0
  0
LINE
  5
20E
330
1F
100
AcDbEntity
  8
0
  6
Continuous
 62
     7
100
AcDbLine
 10
6345.2075560756
 20
4901.9109309314
 30
0.0
 11
6345.2075560756
 21
4902.1551632917
 31
0.0
  0
LINE
  5
20F
330
1F
100
AcDbEntity
  8
0
  6
Continuous
 62
     7
100
AcDbLine
 10
6345.2075560756
 20
4897.7146598348
 30
0.0
 11
6345.2075560756
 21
4900.2013172152
 31
0.0
  0
LINE
  5
210
330
1F
100
AcDbEntity
  8
0
  6
Continuous
 62
     7
100
AcDbLine
 10
6344.2410667606
 20
4909.1811450793
 30
0.0
 11
6343.7075530358
 21
4909.7146597354
 31
0.0
  0
LINE
  5
211
330
1F
100
AcDbEntity
  8
0
  6
Continuous
 62
     7
100
AcDbLine
 10
6326.7075521119
 20
4909.7146597354
 30
0.0
 11
6325.5618837841
 21
4908.5689914076
 31
0.0
  0
LINE
  5
212
330
1F
100
AcDbEntity
  8
0
  6
Continuous
 62
     7
100
AcDbLine
 10
6326.2651031084
 20
4906.1848521827
 30
0.0
 11
6326.2651031084
 21
4905.7060350327
 31
0.0
  0
LINE
  5
213
330
1F
100
AcDbEntity
  8
0
  6
Continuous
 62
     7
100
AcDbLine
 10
6326.2651031084
 20
4904.2310058734
 30
0.0
 11
6326.2651031084
 21
4903.7521887234
 31
0.0
  0
LINE
  5
214
330
1F
100
AcDbEntity
  8
0
  6
Continuous
 62
     7
100
AcDbLine
 10
6326.2651031084
 20
4902.2771600297
 30
0.0
 11
6326.2651031084
 21
4901.7983424141
 31
0.0
  0
LINE
  5
215
330
1F
100
AcDbEntity
  8
0
  6
Continuous
 62
     7
100
AcDbLine
 10
6326.2651031084
 20
4900.3233137204
 30
0.0
 11
6326.2651031084
 21
4899.8444965704
 31
0.0
  0
LINE
  5
216
330
1F
100
AcDbEntity
  8
0
  6
Continuous
 62
     7
100
AcDbLine
 10
6344.1500057645
 20
4906.6733141093
 30
0.0
 11
6344.1500057645
 21
4907.1521256714
 31
0.0
  0
LINE
  5
217
330
1F
100
AcDbEntity
  8
0
  6
Continuous
 62
     7
100
AcDbLine
 10
6344.1500057645
 20
4904.7194673343
 30
0.0
 11
6344.1500057645
 21
4905.1982798277
 31
0.0
  0
LINE
  5
218
330
1F
100
AcDbEntity
  8
0
  6
Continuous
 62
     7
100
AcDbLine
 10
6344.1500057645
 20
4902.7656214906
 30
0.0
 11
6344.1500057645
 21
4903.2444335184
 31
0.0
  0
LINE
  5
219
330
1F
100
AcDbEntity
  8
0
  6
Continuous
 62
     7
100
AcDbLine
 10
6344.1500057645
 20
4900.8117751813
 30
0.0
 11
6344.1500057645
 21
4901.290587209
 31
0.0
  0
LINE
  5
21A
330
1F
100
AcDbEntity
  8
0
  6
Continuous
 62
     7
100
AcDbLine
 10
6344.1500057645
 20
4908.627159953
 30
0.0
 11
6344.1500057645
 21
4909.1156209482
 31
0.0
  0
LINE
  5
21B
330
1F
100
AcDbEntity
  8
0
  6
Continuous
 62
     7
100
AcDbLine
 10
6326.2651031084
 20
4908.1386980264
 30
0.0
 11
6326.2651031084
 21
4907.6598808764
 31
0.0
  0
LINE
  5
21C
330
1F
100
AcDbEntity
  8
0
  6
Continuous
 62
     7
100
AcDbLine
 10
6256.007553003
 20
4821.3594174607
 30
0.0
 11
6256.007553003
 21
4778.1766346319
 31
0.0
  0
LINE
  5
21D
330
1F
100
AcDbEntity
  8
0
  6
Continuous
 62
     7
100
AcDbLine
 10
6284.0075529359
 20
4778.1766346319
 30
0.0
 11
6284.0075529359
 21
4821.3594174607
 31
0.0
  0
LINE
  5
21E
330
1F
100
AcDbEntity
  8
0
  6
Continuous
 62
     7
100
AcDbLine
 10
6336.5672965713
 20
4821.3594174607
 30
0.0
 11
6336.5672965713
 21
4820.8594164474
 31
0.0
  0
LINE
  5
21F
330
1F
100
AcDbEntity
  8
0
  6
Continuous
 62
     7
100
AcDbLine
 10
6364.5672937103
 20
4820.8594164474
 30
0.0
 11
6364.5672937103
 21
4821.3594174607
 31
0.0
  0
LINE
  5
220
330
1F
100
AcDbEntity
  8
0
  6
Continuous
 62
     7
100
AcDbLine
 10
6336.5672965713
 20
4820.8594164474
 30
0.0
 11
6338.0672996111
 21
4819.3594134076
 31
0.0
  0
LINE
  5
221
330
1F
100
AcDbEntity
  8
0
  6
Continuous
 62
     7
100
AcDbLine
 10
6363.067298121
 20
4819.3594134076
 30
0.0
 11
6364.5672937103
 21
4820.8594164474
 31
0.0
  0
LINE
  5
222
330
1F
100
AcDbEntity
  8
0
  6
Continuous
 62
     7
100
AcDbLine
 10
6195.0075541802
 20
4897.7146598348
 30
0.0
 11
6215.4075530537
 21
4897.7146598348
 31
0.0
  0
LINE
  5
223
330
1F
100
AcDbEntity
  8
0
  6
Continuous
 62
     7
100
AcDbLine
 10
6196.707553155
 20
4909.7146597354
 30
0.0
 11
6213.7075540789
 21
4909.7146597354
 31
0.0
  0
LINE
  5
224
330
1F
100
AcDbEntity
  8
0
  6
Continuous
 62
     7
100
AcDbLine
 10
6325.0075531371
 20
4897.7146598348
 30
0.0
 11
6345.4075520106
 21
4897.7146598348
 31
0.0
  0
LINE
  5
225
330
1F
100
AcDbEntity
  8
0
  6
Continuous
 62
     7
100
AcDbLine
 10
6326.7075521119
 20
4909.7146597354
 30
0.0
 11
6343.7075530358
 21
4909.7146597354
 31
0.0
  0
LINE
  5
226
330
1F
100
AcDbEntity
  8
0
  6
Continuous
 62
     7
100
AcDbLine
 10
6400.3661264844
 20
4886.3594150765
 30
0.0
 11
6400.5075534053
 21
4886.3594150765
 31
0.0
  0
LINE
  5
227
330
1F
100
AcDbEntity
  8
0
  6
Continuous
 62
     7
100
AcDbLine
 10
6400.3661264844
 20
4861.3594165667
 30
0.0
 11
6400.5075534053
 21
4861.3594165667
 31
0.0
  0
LINE
  5
228
330
1F
100
AcDbEntity
  8
0
  6
Continuous
 62
     7
100
AcDbLine
 10
6205.217211432
 20
4891.3094378671
 30
0.0
 11
6205.3081606694
 21
4891.3619472309
 31
0.0
  0
LINE
  5
229
330
1F
100
AcDbEntity
  8
0
  6
Continuous
 62
     7
100
AcDbLine
 10
6206.8871100612
 20
4892.2735523096
 30
0.0
 11
6206.9780592986
 21
4892.3260616733
 31
0.0
  0
LINE
  5
22A
330
1F
100
AcDbEntity
  8
0
  6
Continuous
 62
     7
100
AcDbLine
 10
6256.007553003
 20
4778.1766346319
 30
0.0
 11
6256.0749667876
 21
4776.9476464613
 31
0.0
  0
LINE
  5
22B
330
1F
100
AcDbEntity
  8
0
  6
Continuous
 62
     7
100
AcDbLine
 10
6256.0749667876
 20
4776.9476464613
 30
0.0
 11
6256.2765590094
 21
4775.7304898127
 31
0.0
  0
LINE
  5
22C
330
1F
100
AcDbEntity
  8
0
  6
Continuous
 62
     7
100
AcDbLine
 10
6256.2765590094
 20
4775.7304898127
 30
0.0
 11
6256.6103887923
 21
4774.5368993504
 31
0.0
  0
LINE
  5
22D
330
1F
100
AcDbEntity
  8
0
  6
Continuous
 62
     7
100
AcDbLine
 10
6256.6103887923
 20
4774.5368993504
 30
0.0
 11
6257.0732393481
 21
4773.3783564194
 31
0.0
  0
LINE
  5
22E
330
1F
100
AcDbEntity
  8
0
  6
Continuous
 62
     7
100
AcDbLine
 10
6257.0732393481
 20
4773.3783564194
 30
0.0
 11
6258.366978652
 21
4771.2106099947
 31
0.0
  0
LINE
  5
22F
330
1F
100
AcDbEntity
  8
0
  6
Continuous
 62
     7
100
AcDbLine
 10
6258.366978652
 20
4771.2106099947
 30
0.0
 11
6260.1080582656
 21
4769.310577832
 31
0.0
  0
LINE
  5
230
330
1F
100
AcDbEntity
  8
0
  6
Continuous
 62
     7
100
AcDbLine
 10
6260.1080582656
 20
4769.310577832
 30
0.0
 11
6262.2295701124
 21
4767.7512458189
 31
0.0
  0
LINE
  5
231
330
1F
100
AcDbEntity
  8
0
  6
Continuous
 62
     7
100
AcDbLine
 10
6262.2295701124
 20
4767.7512458189
 30
0.0
 11
6264.6499848172
 21
4766.5925762279
 31
0.0
  0
LINE
  5
232
330
1F
100
AcDbEntity
  8
0
  6
Continuous
 62
     7
100
AcDbLine
 10
6264.6499848172
 20
4766.5925762279
 30
0.0
 11
6267.2762886334
 21
4765.8790490253
 31
0.0
  0
LINE
  5
233
330
1F
100
AcDbEntity
  8
0
  6
Continuous
 62
     7
100
AcDbLine
 10
6267.2762886334
 20
4765.8790490253
 30
0.0
 11
6270.0075531004
 21
4765.6381270512
 31
0.0
  0
LINE
  5
234
330
1F
100
AcDbEntity
  8
0
  6
Continuous
 62
     7
100
AcDbLine
 10
6270.0075531004
 20
4765.6381270512
 30
0.0
 11
6272.7388175383
 21
4765.8790490253
 31
0.0
  0
LINE
  5
235
330
1F
100
AcDbEntity
  8
0
  6
Continuous
 62
     7
100
AcDbLine
 10
6272.7388175383
 20
4765.8790490253
 30
0.0
 11
6275.3651211217
 21
4766.5925762279
 31
0.0
  0
LINE
  5
236
330
1F
100
AcDbEntity
  8
0
  6
Continuous
 62
     7
100
AcDbLine
 10
6275.3651211217
 20
4766.5925762279
 30
0.0
 11
6277.7855362922
 21
4767.7512458189
 31
0.0
  0
LINE
  5
237
330
1F
100
AcDbEntity
  8
0
  6
Continuous
 62
     7
100
AcDbLine
 10
6277.7855362922
 20
4767.7512458189
 30
0.0
 11
6279.9070476733
 21
4769.310577832
 31
0.0
  0
LINE
  5
238
330
1F
100
AcDbEntity
  8
0
  6
Continuous
 62
     7
100
AcDbLine
 10
6279.9070476733
 20
4769.310577832
 30
0.0
 11
6281.6481272869
 21
4771.2106099947
 31
0.0
  0
LINE
  5
239
330
1F
100
AcDbEntity
  8
0
  6
Continuous
 62
     7
100
AcDbLine
 10
6281.6481272869
 20
4771.2106099947
 30
0.0
 11
6282.9418665908
 21
4773.3783564194
 31
0.0
  0
LINE
  5
23A
330
1F
100
AcDbEntity
  8
0
  6
Continuous
 62
     7
100
AcDbLine
 10
6282.9418665908
 20
4773.3783564194
 30
0.0
 11
6283.4047180779
 21
4774.5368993504
 31
0.0
  0
LINE
  5
23B
330
1F
100
AcDbEntity
  8
0
  6
Continuous
 62
     7
100
AcDbLine
 10
6283.4047180779
 20
4774.5368993504
 30
0.0
 11
6283.7385469295
 21
4775.7304898127
 31
0.0
  0
LINE
  5
23C
330
1F
100
AcDbEntity
  8
0
  6
Continuous
 62
     7
100
AcDbLine
 10
6283.7385469295
 20
4775.7304898127
 30
0.0
 11
6283.9401391514
 21
4776.9476464613
 31
0.0
  0
LINE
  5
23D
330
1F
100
AcDbEntity
  8
0
  6
Continuous
 62
     7
100
AcDbLine
 10
6283.9401391514
 20
4776.9476464613
 30
0.0
 11
6284.0075529359
 21
4778.1766346319
 31
0.0
  0
LINE
  5
23E
330
1F
100
AcDbEntity
  8
0
  6
Continuous
 62
     7
100
AcDbLine
 10
6203.6372338601
 20
4894.6772155481
 30
0.0
 11
6203.6372338601
 21
4894.5980021393
 31
0.0
  0
LINE
  5
23F
330
1F
100
AcDbEntity
  8
0
  6
Continuous
 62
     7
100
AcDbLine
 10
6203.2710601755
 20
4892.8594152106
 30
0.0
 11
6203.2194649048
 21
4892.8594152106
 31
0.0
  0
LINE
  5
240
330
1F
100
AcDbEntity
  8
0
  6
Continuous
 62
     7
100
AcDbLine
 10
6336.5672965713
 20
4820.8594164474
 30
0.0
 11
6364.5672937103
 21
4820.8594164474
 31
0.0
  0
LINE
  5
241
330
1F
100
AcDbEntity
  8
0
  6
Continuous
 62
     7
100
AcDbLine
 10
6363.067298121
 20
4819.3594134076
 30
0.0
 11
6338.0672996111
 21
4819.3594134076
 31
0.0
  0
LINE
  5
242
330
1F
100
AcDbEntity
  8
0
  6
Continuous
 62
     7
100
AcDbLine
 10
6140.0489797063
 20
4887.9066547974
 30
0.0
 11
6140.0489797063
 21
4897.3594150169
 31
0.0
  0
LINE
  5
243
330
1F
100
AcDbEntity
  8
0
  6
Continuous
 62
     7
100
AcDbLine
 10
6140.0489797063
 20
4897.3594150169
 30
0.0
 11
6400.3661264844
 21
4897.3594150169
 31
0.0
  0
LINE
  5
244
330
1F
100
AcDbEntity
  8
0
  6
Continuous
 62
     7
100
AcDbLine
 10
6400.3661264844
 20
4887.9066547974
 30
0.0
 11
6400.3661264844
 21
4897.3594150169
 31
0.0
  0
LINE
  5
245
330
1F
100
AcDbEntity
  8
0
  6
Continuous
 62
     7
100
AcDbLine
 10
6140.0489797063
 20
4887.9066547974
 30
0.0
 11
6400.3661264844
 21
4887.9066547974
 31
0.0
  0
LINE
  5
246
330
1F
100
AcDbEntity
  8
0
  6
Continuous
 62
     7
100
AcDbLine
 10
6140.0489797063
 20
4886.8759489282
 30
0.0
 11
6400.3661264844
 21
4886.8759489282
 31
0.0
  0
LINE
  5
247
330
1F
100
AcDbEntity
  8
0
  6
Continuous
 62
     7
100
AcDbLine
 10
6140.0489797063
 20
4886.8759489282
 30
0.0
 11
6140.0489797063
 21
4887.9066547974
 31
0.0
  0
LINE
  5
248
330
1F
100
AcDbEntity
  8
0
  6
Continuous
 62
     7
100
AcDbLine
 10
6400.3661264844
 20
4886.8759489282
 30
0.0
 11
6400.3661264844
 21
4887.9066547974
 31
0.0
  0
LINE
  5
249
330
1F
100
AcDbEntity
  8
0
  6
Continuous
 62
     7
100
AcDbLine
 10
6140.1880671449
 20
4822.5287115796
 30
0.0
 11
6400.2270390458
 21
4822.5287115796
 31
0.0
  0
LINE
  5
24A
330
1F
100
AcDbEntity
  8
0
  6
Continuous
 62
     7
100
AcDbLine
 10
6140.0489797063
 20
4822.9972115381
 30
0.0
 11
6140.0489797063
 21
4886.8759489282
 31
0.0
  0
LINE
  5
24B
330
1F
100
AcDbEntity
  8
0
  6
Continuous
 62
     7
100
AcDbLine
 10
6400.3661264844
 20
4822.9972115381
 30
0.0
 11
6400.3661264844
 21
4886.8759489282
 31
0.0
  0
LINE
  5
24C
330
1F
100
AcDbEntity
  8
0
  6
Continuous
 62
     7
100
AcDbLine
 10
6401.7075588174
 20
4897.3594150169
 30
0.0
 11
6400.5075534053
 21
4897.3594150169
 31
0.0
  0
LINE
  5
24D
330
1F
100
AcDbEntity
  8
0
  6
Continuous
 62
     7
100
AcDbLine
 10
6401.7075588174
 20
4887.94451306
 30
0.0
 11
6401.7075588174
 21
4897.3594150169
 31
0.0
  0
LINE
  5
24E
330
1F
100
AcDbEntity
  8
0
  6
Continuous
 62
     7
100
AcDbLine
 10
6400.5075534053
 20
4887.94451306
 30
0.0
 11
6401.7075588174
 21
4887.94451306
 31
0.0
  0
LINE
  5
24F
330
1F
100
AcDbEntity
  8
0
  6
Continuous
 62
     7
100
AcDbLine
 10
6400.5075534053
 20
4887.94451306
 30
0.0
 11
6400.5075534053
 21
4897.3594150169
 31
0.0
  0
LINE
  5
250
330
1F
100
AcDbEntity
  8
0
  6
Continuous
 62
     7
100
AcDbLine
 10
6138.7075473733
 20
4897.3594150169
 30
0.0
 11
6139.9075527854
 21
4897.3594150169
 31
0.0
  0
LINE
  5
251
330
1F
100
AcDbEntity
  8
0
  6
Continuous
 62
     7
100
AcDbLine
 10
6139.9075527854
 20
4897.3594150169
 30
0.0
 11
6139.9075527854
 21
4887.94451306
 31
0.0
  0
LINE
  5
252
330
1F
100
AcDbEntity
  8
0
  6
Continuous
 62
     7
100
AcDbLine
 10
6138.7075473733
 20
4887.94451306
 30
0.0
 11
6139.9075527854
 21
4887.94451306
 31
0.0
  0
LINE
  5
253
330
1F
100
AcDbEntity
  8
0
  6
Continuous
 62
     7
100
AcDbLine
 10
6138.7075473733
 20
4897.3594150169
 30
0.0
 11
6138.7075473733
 21
4887.94451306
 31
0.0
  0
LINE
  5
254
330
1F
100
AcDbEntity
  8
0
  6
Continuous
 62
     7
100
AcDbLine
 10
6401.7075588174
 20
4887.4760103075
 30
0.0
 11
6400.5075534053
 21
4887.4760103075
 31
0.0
  0
LINE
  5
255
330
1F
100
AcDbEntity
  8
0
  6
Continuous
 62
     7
100
AcDbLine
 10
6400.5075534053
 20
4887.4760103075
 30
0.0
 11
6400.5075534053
 21
4887.94451306
 31
0.0
  0
LINE
  5
256
330
1F
100
AcDbEntity
  8
0
  6
Continuous
 62
     7
100
AcDbLine
 10
6401.7075588174
 20
4887.94451306
 30
0.0
 11
6401.7075588174
 21
4887.4760103075
 31
0.0
  0
LINE
  5
257
330
1F
100
AcDbEntity
  8
0
  6
Continuous
 62
     7
100
AcDbLine
 10
6139.9075527854
 20
4887.4760103075
 30
0.0
 11
6138.7075473733
 21
4887.4760103075
 31
0.0
  0
LINE
  5
258
330
1F
100
AcDbEntity
  8
0
  6
Continuous
 62
     7
100
AcDbLine
 10
6139.9075527854
 20
4887.94451306
 30
0.0
 11
6139.9075527854
 21
4887.4760103075
 31
0.0
  0
LINE
  5
259
330
1F
100
AcDbEntity
  8
0
  6
Continuous
 62
     7
100
AcDbLine
 10
6138.7075473733
 20
4887.4760103075
 30
0.0
 11
6138.7075473733
 21
4887.94451306
 31
0.0
  0
LINE
  5
25A
330
1F
100
AcDbEntity
  8
0
  6
Continuous
 62
     7
100
AcDbLine
 10
6401.7075588174
 20
4823.5594174488
 30
0.0
 11
6400.5075534053
 21
4823.5594174488
 31
0.0
  0
LINE
  5
25B
330
1F
100
AcDbEntity
  8
0
  6
Continuous
 62
     7
100
AcDbLine
 10
6400.5075534053
 20
4823.5594174488
 30
0.0
 11
6400.5075534053
 21
4887.4760103075
 31
0.0
  0
LINE
  5
25C
330
1F
100
AcDbEntity
  8
0
  6
Continuous
 62
     7
100
AcDbLine
 10
6401.7075588174
 20
4823.5594174488
 30
0.0
 11
6401.7075588174
 21
4887.4760103075
 31
0.0
  0
LINE
  5
25D
330
1F
100
AcDbEntity
  8
0
  6
Continuous
 62
     7
100
AcDbLine
 10
6138.7075473733
 20
4823.5594174488
 30
0.0
 11
6139.9075527854
 21
4823.5594174488
 31
0.0
  0
LINE
  5
25E
330
1F
100
AcDbEntity
  8
0
  6
Continuous
 62
     7
100
AcDbLine
 10
6139.9075527854
 20
4823.5594174488
 30
0.0
 11
6139.9075527854
 21
4887.4760103075
 31
0.0
  0
LINE
  5
25F
330
1F
100
AcDbEntity
  8
0
  6
Continuous
 62
     7
100
AcDbLine
 10
6138.7075473733
 20
4823.5594174488
 30
0.0
 11
6138.7075473733
 21
4887.4760103075
 31
0.0
  0
LINE
  5
260
330
1F
100
AcDbEntity
  8
0
  6
Continuous
 62
     7
100
AcDbLine
 10
6140.907554812
 20
4821.3594174607
 30
0.0
 11
6399.5075513788
 21
4821.3594174607
 31
0.0
  0
LINE
  5
261
330
1F
100
AcDbEntity
  8
0
  6
Continuous
 62
     7
100
AcDbLine
 10
6401.6035934158
 20
4822.8911450727
 30
0.0
 11
6400.4603018232
 21
4823.2556572779
 31
0.0
  0
LINE
  5
262
330
1F
100
AcDbEntity
  8
0
  6
Continuous
 62
     7
100
AcDbLine
 10
6401.6035934158
 20
4822.8911450727
 30
0.0
 11
6401.7075588174
 21
4823.5594174488
 31
0.0
  0
LINE
  5
263
330
1F
100
AcDbEntity
  8
0
  6
Continuous
 62
     7
100
AcDbLine
 10
6400.4603018232
 20
4823.2556572779
 30
0.0
 11
6400.5075534053
 21
4823.5594174488
 31
0.0
  0
LINE
  5
264
330
1F
100
AcDbEntity
  8
0
  6
Continuous
 62
     7
100
AcDbLine
 10
6138.811512775
 20
4822.8911450727
 30
0.0
 11
6139.9548043676
 21
4823.2556572779
 31
0.0
  0
LINE
  5
265
330
1F
100
AcDbEntity
  8
0
  6
Continuous
 62
     7
100
AcDbLine
 10
6139.9075527854
 20
4823.5594174488
 30
0.0
 11
6139.9548043676
 21
4823.2556572779
 31
0.0
  0
LINE
  5
266
330
1F
100
AcDbEntity
  8
0
  6
Continuous
 62
     7
100
AcDbLine
 10
6138.7075473733
 20
4823.5594174488
 30
0.0
 11
6138.811512775
 21
4822.8911450727
 31
0.0
  0
LINE
  5
267
330
1F
100
AcDbEntity
  8
0
  6
Continuous
 62
     7
100
AcDbLine
 10
6139.9548043676
 20
4823.2556572779
 30
0.0
 11
6140.0489797063
 21
4823.0693778618
 31
0.0
  0
LWPOLYLINE
  5
268
330
1F
100
AcDbEntity
  8
0
  6
Continuous
 62
     7
100
AcDbPolyline
 90
        3
 70
   128
 43
0.0
 10
6258.373260498
 20
5196.0979867599
 10
6258.8982294898
 20
5195.6655459954
 10
6259.3151395388
 20
5195.3193414828
  0
LWPOLYLINE
  5
269
330
1F
100
AcDbEntity
  8
0
  6
Continuous
 62
     7
100
AcDbPolyline
 90
        3
 70
   128
 43
0.0
 10
6280.6968688965
 20
5195.3193414828
 10
6281.2295737153
 20
5195.7589842413
 10
6281.6390962519
 20
5196.0979867599
  0
LWPOLYLINE
  5
26A
330
1F
100
AcDbEntity
  8
0
  6
Continuous
 62
     7
100
AcDbPolyline
 90
        9
 70
   128
 43
0.0
 10
6258.3770751953
 20
5196.0985381028
 10
6256.0307201902
 20
5199.967139288
 10
6256.8085803616
 20
5202.9991879133
 10
6259.6940726384
 20
5205.6577572796
 10
6270.0075527991
 20
5208.1683692394
 10
6280.3210330494
 20
5205.6577574329
 10
6283.2065260333
 20
5202.999188214
 10
6283.9843857699
 20
5199.9671395517
 10
6281.6378659748
 20
5196.0985381028
  0
LWPOLYLINE
  5
26B
330
1F
100
AcDbEntity
  8
0
  6
Continuous
 62
     7
100
AcDbPolyline
 90
        7
 70
   128
 43
0.0
 10
6270.0042724609
 20
5205.7150062046
 10
6260.8919448919
 20
5203.6613930532
 10
6258.227700658
 20
5201.4779700582
 10
6257.3129608475
 20
5198.9603562644
 10
6258.2276982285
 20
5196.4427436225
 10
6260.8919408457
 20
5194.2593464859
 10
6270.0075531004
 20
5192.2057028732
  0
LWPOLYLINE
  5
26C
330
1F
100
AcDbEntity
  8
0
  6
Continuous
 62
     7
100
AcDbPolyline
 90
        7
 70
   128
 43
0.0
 10
6270.0042724609
 20
5192.2057028732
 10
6279.1231656792
 20
5194.2593463083
 10
6281.7874077343
 20
5196.4427436598
 10
6282.7021460228
 20
5198.9603562644
 10
6281.7874053048
 20
5201.4779700209
 10
6279.123161633
 20
5203.6613932307
 10
6270.0075531004
 20
5205.7150062046
  0
LWPOLYLINE
  5
26D
330
1F
100
AcDbEntity
  8
0
  6
Continuous
 62
     7
100
AcDbPolyline
 90
        3
 70
   128
 43
0.0
 10
6400.2265930176
 20
5285.8195379249
 10
6399.870569875
 20
5284.8719992369
 10
6399.5075513788
 20
5283.8759198657
  0
LWPOLYLINE
  5
26E
330
1F
100
AcDbEntity
  8
0
  6
Continuous
 62
     7
100
AcDbPolyline
 90
        3
 70
   128
 43
0.0
 10
6140.9072875977
 20
5283.8759198657
 10
6140.4299104121
 20
5285.1152143737
 10
6140.1880671449
 20
5285.8195379249
  0
LWPOLYLINE
  5
26F
330
1F
100
AcDbEntity
  8
0
  6
Continuous
 62
     7
100
AcDbPolyline
 90
        3
 70
   128
 43
0.0
 10
6400.2265930176
 20
5284.7593799106
 10
6399.8588570496
 20
5284.3134864388
 10
6399.5075513788
 20
5283.8759198657
  0
LWPOLYLINE
  5
270
330
1F
100
AcDbEntity
  8
0
  6
Continuous
 62
     7
100
AcDbPolyline
 90
        3
 70
   128
 43
0.0
 10
6140.9072875977
 20
5283.8759198657
 10
6140.4470158618
 20
5284.4169476115
 10
6140.1880671449
 20
5284.7593799106
  0
LWPOLYLINE
  5
271
330
1F
100
AcDbEntity
  8
0
  6
Continuous
 62
     7
100
AcDbPolyline
 90
        3
 70
   128
 43
0.0
 10
6401.7066955566
 20
5121.8965127936
 10
6401.5432468513
 20
5122.5185136165
 10
6401.1984010406
 20
5123.0072304479
  0
LWPOLYLINE
  5
272
330
1F
100
AcDbEntity
  8
0
  6
Continuous
 62
     7
100
AcDbPolyline
 90
        3
 70
   128
 43
0.0
 10
6401.195526123
 20
5123.0072304479
 10
6400.3252525314
 20
5122.9041022576
 10
6399.5075513788
 20
5123.1107264629
  0
LWPOLYLINE
  5
273
330
1F
100
AcDbEntity
  8
0
  6
Continuous
 62
     7
100
AcDbPolyline
 90
        3
 70
   128
 43
0.0
 10
6399.5056152344
 20
5283.8759198657
 10
6400.9210003814
 20
5284.3558141999
 10
6401.6035934158
 20
5284.5858782402
  0
LWPOLYLINE
  5
274
330
1F
100
AcDbEntity
  8
0
  6
Continuous
 62
     7
100
AcDbPolyline
 90
        3
 70
   128
 43
0.0
 10
6140.9072875977
 20
5123.1107264629
 10
6139.876560408
 20
5122.8917306167
 10
6139.2167051502
 20
5123.0072304479
  0
LWPOLYLINE
  5
275
330
1F
100
AcDbEntity
  8
0
  6
Continuous
 62
     7
100
AcDbPolyline
 90
        3
 70
   128
 43
0.0
 10
6139.2135620117
 20
5123.0072304479
 10
6138.8107604541
 20
5122.385227498
 10
6138.7075473733
 20
5121.8965127936
  0
LWPOLYLINE
  5
276
330
1F
100
AcDbEntity
  8
0
  6
Continuous
 62
     7
100
AcDbPolyline
 90
        3
 70
   128
 43
0.0
 10
6138.8092041016
 20
5284.5858782402
 10
6139.7673251215
 20
5284.2724456675
 10
6140.907554812
 20
5283.8759198657
  0
LWPOLYLINE
  5
277
330
1F
100
AcDbEntity
  8
0
  6
Continuous
 62
     7
100
AcDbPolyline
 90
        3
 70
   128
 43
0.0
 10
6399.5056152344
 20
5283.8759198657
 10
6400.1282364225
 20
5284.3409775018
 10
6400.4603018232
 20
5284.5858782402
  0
LWPOLYLINE
  5
278
330
1F
100
AcDbEntity
  8
0
  6
Continuous
 62
     7
100
AcDbPolyline
 90
        3
 70
   128
 43
0.0
 10
6139.9536132812
 20
5284.5858782402
 10
6140.4138002037
 20
5284.2552365026
 10
6140.907554812
 20
5283.8759198657
  0
LWPOLYLINE
  5
279
330
1F
100
AcDbEntity
  8
0
  6
Continuous
 62
     7
100
AcDbPolyline
 90
        3
 70
   128
 43
0.0
 10
6399.5056152344
 20
5123.1107264629
 10
6399.81772777
 20
5122.1871064199
 10
6399.9945362277
 20
5121.5550899378
  0
LWPOLYLINE
  5
27A
330
1F
100
AcDbEntity
  8
0
  6
Continuous
 62
     7
100
AcDbPolyline
 90
        3
 70
   128
 43
0.0
 10
6140.4190063477
 20
5121.5550899378
 10
6140.6381196301
 20
5122.378692027
 10
6140.907554812
 20
5123.1107264629
  0
LWPOLYLINE
  5
27B
330
1F
100
AcDbEntity
  8
0
  6
Continuous
 62
     7
100
AcDbPolyline
 90
        3
 70
   128
 43
0.0
 10
6399.9938964844
 20
5121.5550899378
 10
6400.2800491404
 20
5121.1782865031
 10
6400.3661264844
 20
5120.8479851356
  0
LWPOLYLINE
  5
27C
330
1F
100
AcDbEntity
  8
0
  6
Continuous
 62
     7
100
AcDbPolyline
 90
        3
 70
   128
 43
0.0
 10
6399.9938964844
 20
5122.4036142102
 10
6400.2800515675
 20
5122.0268130173
 10
6400.3661264844
 20
5121.6965094081
  0
LWPOLYLINE
  5
27D
330
1F
100
AcDbEntity
  8
0
  6
Continuous
 62
     7
100
AcDbPolyline
 90
        3
 70
   128
 43
0.0
 10
6140.4190063477
 20
5121.5550899378
 10
6140.1350570503
 20
5121.1782865031
 10
6140.0489797063
 20
5120.8479851356
  0
LWPOLYLINE
  5
27E
330
1F
100
AcDbEntity
  8
0
  6
Continuous
 62
     7
100
AcDbPolyline
 90
        3
 70
   128
 43
0.0
 10
6140.4190063477
 20
5122.4036142102
 10
6140.1350546232
 20
5122.0268130173
 10
6140.0489797063
 20
5121.6965094081
  0
LWPOLYLINE
  5
27F
330
1F
100
AcDbEntity
  8
0
  6
Continuous
 62
     7
100
AcDbPolyline
 90
        3
 70
   128
 43
0.0
 10
6140.1863098145
 20
5285.8195379249
 10
6140.0783372555
 20
5285.9549849005
 10
6140.0489797063
 20
5286.0679849854
  0
LWPOLYLINE
  5
280
330
1F
100
AcDbEntity
  8
0
  6
Continuous
 62
     7
100
AcDbPolyline
 90
        3
 70
   128
 43
0.0
 10
6400.2265930176
 20
5285.8195379249
 10
6400.3367689353
 20
5285.9549849005
 10
6400.3661264844
 20
5286.0679849854
  0
LWPOLYLINE
  5
281
330
1F
100
AcDbEntity
  8
0
  6
Continuous
 62
     7
100
AcDbPolyline
 90
        3
 70
   128
 43
0.0
 10
6400.2265930176
 20
5284.7593799106
 10
6400.3367697542
 20
5284.8948285445
 10
6400.3661264844
 20
5285.0078269711
  0
LWPOLYLINE
  5
282
330
1F
100
AcDbEntity
  8
0
  6
Continuous
 62
     7
100
AcDbPolyline
 90
        3
 70
   128
 43
0.0
 10
6140.1863098145
 20
5284.7593799106
 10
6140.0783364366
 20
5284.8948285445
 10
6140.0489797063
 20
5285.0078269711
  0
LWPOLYLINE
  5
283
330
1F
100
AcDbEntity
  8
0
  6
Continuous
 62
     7
100
AcDbPolyline
 90
        3
 70
   128
 43
0.0
 10
6596.6339111328
 20
5154.0134400001
 10
6596.9752937378
 20
5154.5978473353
 10
6597.2408300854
 20
5155.0570055715
  0
LWPOLYLINE
  5
284
330
1F
100
AcDbEntity
  8
0
  6
Continuous
 62
     7
100
AcDbPolyline
 90
        3
 70
   128
 43
0.0
 10
6598.5908508301
 20
5154.0134400001
 10
6598.9291395815
 20
5154.5978473353
 10
6599.1946759291
 20
5155.0570055715
  0
LWPOLYLINE
  5
285
330
1F
100
AcDbEntity
  8
0
  6
Continuous
 62
     7
100
AcDbPolyline
 90
        3
 70
   128
 43
0.0
 10
6600.5439758301
 20
5154.0134400001
 10
6600.8829855485
 20
5154.5978475332
 10
6601.1485222384
 20
5155.0570055715
  0
LWPOLYLINE
  5
286
330
1F
100
AcDbEntity
  8
0
  6
Continuous
 62
     7
100
AcDbPolyline
 90
        3
 70
   128
 43
0.0
 10
6602.4971008301
 20
5154.0134400001
 10
6602.8368317961
 20
5154.5978474343
 10
6603.1023683149
 20
5155.0570055715
  0
LWPOLYLINE
  5
287
330
1F
100
AcDbEntity
  8
0
  6
Continuous
 62
     7
100
AcDbPolyline
 90
        3
 70
   128
 43
0.0
 10
6596.2715148926
 20
5172.9262098542
 10
6595.9299499308
 20
5173.5193847477
 10
6595.6604622893
 20
5173.9854700735
  0
LWPOLYLINE
  5
288
330
1F
100
AcDbEntity
  8
0
  6
Continuous
 62
     7
100
AcDbPolyline
 90
        3
 70
   128
 43
0.0
 10
6598.2246398926
 20
5172.9262098542
 10
6597.8837961502
 20
5173.5193848465
 10
6597.614308133
 20
5173.9854700735
  0
LWPOLYLINE
  5
289
330
1F
100
AcDbEntity
  8
0
  6
Continuous
 62
     7
100
AcDbPolyline
 90
        3
 70
   128
 43
0.0
 10
6600.1777648926
 20
5172.9262098542
 10
6599.8376424596
 20
5173.5193848465
 10
6599.5681544423
 20
5173.9854700735
  0
LWPOLYLINE
  5
28A
330
1F
100
AcDbEntity
  8
0
  6
Continuous
 62
     7
100
AcDbPolyline
 90
        3
 70
   128
 43
0.0
 10
6602.1308898926
 20
5172.9262098542
 10
6601.7914885081
 20
5173.5193848465
 10
6601.522000286
 20
5173.9854700735
  0
LWPOLYLINE
  5
28B
330
1F
100
AcDbEntity
  8
0
  6
Continuous
 62
     7
100
AcDbPolyline
 90
        3
 70
   128
 43
0.0
 10
6594.6807861328
 20
5154.0134400001
 10
6595.0265285157
 20
5154.6066347323
 10
6595.2960590489
 20
5155.0726964942
  0
LWPOLYLINE
  5
28C
330
1F
100
AcDbEntity
  8
0
  6
Continuous
 62
     7
100
AcDbPolyline
 90
        3
 70
   128
 43
0.0
 10
6597.6524353027
 20
5155.2715636662
 10
6597.9949656179
 20
5154.6905227039
 10
6598.263975478
 20
5154.2337536684
  0
LWPOLYLINE
  5
28D
330
1F
100
AcDbEntity
  8
0
  6
Continuous
 62
     7
100
AcDbPolyline
 90
        3
 70
   128
 43
0.0
 10
6599.6055603027
 20
5155.2715636662
 10
6599.9488118374
 20
5154.6905228008
 10
6600.2178213216
 20
5154.2337536684
  0
LWPOLYLINE
  5
28E
330
1F
100
AcDbEntity
  8
0
  6
Continuous
 62
     7
100
AcDbPolyline
 90
        3
 70
   128
 43
0.0
 10
6601.5586853027
 20
5155.2715636662
 10
6601.9026579758
 20
5154.6905227039
 10
6602.171667631
 20
5154.2337536684
  0
LWPOLYLINE
  5
28F
330
1F
100
AcDbEntity
  8
0
  6
Continuous
 62
     7
100
AcDbPolyline
 90
        3
 70
   128
 43
0.0
 10
6603.5118103027
 20
5155.2715636662
 10
6603.8565041378
 20
5154.6905227524
 10
6604.1255137075
 20
5154.2337536684
  0
LWPOLYLINE
  5
290
330
1F
100
AcDbEntity
  8
0
  6
Continuous
 62
     7
100
AcDbPolyline
 90
        3
 70
   128
 43
0.0
 10
6597.3358154297
 20
5173.9857308439
 10
6596.995196318
 20
5173.3925776411
 10
6596.7256876297
 20
5172.9265488556
  0
LWPOLYLINE
  5
291
330
1F
100
AcDbEntity
  8
0
  6
Continuous
 62
     7
100
AcDbPolyline
 90
        3
 70
   128
 43
0.0
 10
6599.2889404297
 20
5173.9857308439
 10
6598.9490422856
 20
5173.3925778387
 10
6598.6795339391
 20
5172.9265488556
  0
LWPOLYLINE
  5
292
330
1F
100
AcDbEntity
  8
0
  6
Continuous
 62
     7
100
AcDbPolyline
 90
        3
 70
   128
 43
0.0
 10
6601.2420654297
 20
5173.9857308439
 10
6600.902888595
 20
5173.3925778387
 10
6600.6333802484
 20
5172.9265488556
  0
LWPOLYLINE
  5
293
330
1F
100
AcDbEntity
  8
0
  6
Continuous
 62
     7
100
AcDbPolyline
 90
        3
 70
   128
 43
0.0
 10
6603.199005127
 20
5173.9857308439
 10
6602.8567346715
 20
5173.3925778387
 10
6602.5872263249
 20
5172.9265488556
  0
LWPOLYLINE
  5
294
330
1F
100
AcDbEntity
  8
0
  6
Continuous
 62
     7
100
AcDbPolyline
 90
        3
 70
   128
 43
0.0
 10
6595.3826904297
 20
5173.9857308439
 10
6595.0413497909
 20
5173.3925780363
 10
6594.7718417861
 20
5172.9265488556
  0
LWPOLYLINE
  5
295
330
1F
100
AcDbEntity
  8
0
  6
Continuous
 62
     7
100
AcDbPolyline
 90
        3
 70
   128
 43
0.0
 10
6595.6954956055
 20
5155.2715636662
 10
6596.0411195945
 20
5154.6905228977
 10
6596.310128703
 20
5154.2337536684
  0
LWPOLYLINE
  5
296
330
1F
100
AcDbEntity
  8
0
  6
Continuous
 62
     7
100
AcDbPolyline
 90
       11
 70
   128
 43
0.0
 10
6594.6807861328
 20
5154.1085690132
 10
6594.6775023986
 20
5154.0958266865
 10
6594.6740435712
 20
5154.0922767772
 10
6594.6723112623
 20
5154.0917008555
 10
6594.6705765692
 20
5154.0921123727
 10
6594.665936474
 20
5154.0991100039
 10
6594.6088206974
 20
5154.8212734565
 10
6594.3797503234
 20
5163.757803441
 10
6594.1449938833
 20
5172.670533353
 10
6594.0847099241
 20
5173.3116605533
 10
6594.0651048564
 20
5173.3369640878
  0
LWPOLYLINE
  5
297
330
1F
100
AcDbEntity
  8
0
  6
Continuous
 62
     7
100
AcDbPolyline
 90
        8
 70
   128
 43
0.0
 10
6594.3183898926
 20
5172.804001706
 10
6594.3343813618
 20
5172.8034253908
 10
6594.3492003766
 20
5172.7907806173
 10
6594.4399129991
 20
5172.0934623431
 10
6594.7992847922
 20
5163.7270440987
 10
6595.1580103698
 20
5155.6987877227
 10
6595.2185779458
 20
5155.2495141349
 10
6595.2778954648
 20
5155.1475673786
  0
LWPOLYLINE
  5
298
330
1F
100
AcDbEntity
  8
0
  6
Continuous
 62
     7
100
AcDbPolyline
 90
        8
 70
   128
 43
0.0
 10
6596.2715148926
 20
5172.804001706
 10
6596.2882271692
 20
5172.80342539
 10
6596.3030461735
 20
5172.7907806163
 10
6596.3937596533
 20
5172.0934623594
 10
6596.7531306065
 20
5163.7270440987
 10
6597.1118573094
 20
5155.6987877373
 10
6597.1724245499
 20
5155.2495141388
 10
6597.2317413084
 20
5155.1475673786
  0
LWPOLYLINE
  5
299
330
1F
100
AcDbEntity
  8
0
  6
Continuous
 62
     7
100
AcDbPolyline
 90
        8
 70
   128
 43
0.0
 10
6598.2246398926
 20
5172.804001706
 10
6598.2420733091
 20
5172.8034253897
 10
6598.2568921568
 20
5172.7907806154
 10
6598.3476053649
 20
5172.0934623504
 10
6598.7069773632
 20
5163.7270441142
 10
6599.0657030768
 20
5155.6987877303
 10
6599.1262704774
 20
5155.2495141368
 10
6599.1855876178
 20
5155.1475673786
  0
LWPOLYLINE
  5
29A
330
1F
100
AcDbEntity
  8
0
  6
Continuous
 62
     7
100
AcDbPolyline
 90
        8
 70
   128
 43
0.0
 10
6600.1777648926
 20
5172.804001706
 10
6600.1959196136
 20
5172.8034253896
 10
6600.2107384599
 20
5172.7907806153
 10
6600.3014517388
 20
5172.0934623521
 10
6600.6608232176
 20
5163.7270440984
 10
6601.019548837
 20
5155.698787723
 10
6601.0801164068
 20
5155.2495141349
 10
6601.1394339271
 20
5155.1475673786
  0
LWPOLYLINE
  5
29B
330
1F
100
AcDbEntity
  8
0
  6
Continuous
 62
     7
100
AcDbPolyline
 90
        8
 70
   128
 43
0.0
 10
6602.1347045898
 20
5172.804001706
 10
6602.1497657942
 20
5172.8034253902
 10
6602.1645847244
 20
5172.7907806162
 10
6602.2552976924
 20
5172.0934623481
 10
6602.6146695035
 20
5163.7270441055
 10
6602.9733951858
 20
5155.6987877265
 10
6603.0339626739
 20
5155.2495141359
 10
6603.0932800036
 20
5155.1475673786
  0
LWPOLYLINE
  5
29C
330
1F
100
AcDbEntity
  8
0
  6
Continuous
 62
     7
100
AcDbPolyline
 90
       11
 70
   128
 43
0.0
 10
6595.6573486328
 20
5173.9236377052
 10
6595.6753985029
 20
5173.9308474664
 10
6595.6902958669
 20
5173.905514021
 10
6595.7814247714
 20
5173.0422926791
 10
6596.1413553762
 20
5163.7327328698
 10
6596.500964221
 20
5154.741310071
 10
6596.5919017015
 20
5154.0312393711
 10
6596.5993382126
 20
5154.0222500409
 10
6596.6048925165
 20
5154.0228738261
 10
6596.6104300885
 20
5154.0288209898
 10
6596.6214772903
 20
5154.0496051184
  0
LWPOLYLINE
  5
29D
330
1F
100
AcDbEntity
  8
0
  6
Continuous
 62
     7
100
AcDbPolyline
 90
       11
 70
   128
 43
0.0
 10
6597.6142883301
 20
5173.9236377052
 10
6597.6292450562
 20
5173.9308474671
 10
6597.6441428302
 20
5173.9055140229
 10
6597.7352704011
 20
5173.0422926782
 10
6598.0952012751
 20
5163.7327328707
 10
6598.4548103411
 20
5154.7413100728
 10
6598.5457475893
 20
5154.0312393715
 10
6598.5531840621
 20
5154.022250041
 10
6598.5587383516
 20
5154.0228738261
 10
6598.5642759204
 20
5154.0288209897
 10
6598.5753231339
 20
5154.0496051184
  0
LWPOLYLINE
  5
29E
330
1F
100
AcDbEntity
  8
0
  6
Continuous
 62
     7
100
AcDbPolyline
 90
       11
 70
   128
 43
0.0
 10
6599.5674133301
 20
5173.9236377052
 10
6599.5830910199
 20
5173.9308474668
 10
6599.5979885462
 20
5173.9055140215
 10
6599.6891164372
 20
5173.0422926745
 10
6600.0490475216
 20
5163.7327328692
 10
6600.4086566506
 20
5154.7413100729
 10
6600.4995938986
 20
5154.0312393715
 10
6600.5070303714
 20
5154.022250041
 10
6600.5125846609
 20
5154.0228738261
 10
6600.5181222297
 20
5154.0288209897
 10
6600.5291694433
 20
5154.0496051184
  0
LWPOLYLINE
  5
29F
330
1F
100
AcDbEntity
  8
0
  6
Continuous
 62
     7
100
AcDbPolyline
 90
       11
 70
   128
 43
0.0
 10
6601.5205383301
 20
5173.9236377052
 10
6601.536937328
 20
5173.9308474668
 10
6601.5518348599
 20
5173.9055140216
 10
6601.6429626773
 20
5173.0422926736
 10
6602.002893405
 20
5163.7327328593
 10
6602.3625026727
 20
5154.7413100724
 10
6602.4534402509
 20
5154.0312393716
 10
6602.4608766921
 20
5154.022250041
 10
6602.466430938
 20
5154.022873826
 10
6602.4719684482
 20
5154.0288209897
 10
6602.4830155198
 20
5154.0496051184
  0
LWPOLYLINE
  5
2A0
330
1F
100
AcDbEntity
  8
0
  6
Continuous
 62
     7
100
AcDbPolyline
 90
       13
 70
   128
 43
0.0
 10
6595.3979492188
 20
5173.9219054452
 10
6595.4151391571
 20
5173.9371280556
 10
6595.4226375671
 20
5173.9395732236
 10
6595.4301669455
 20
5173.935819027
 10
6595.5226678254
 20
5173.2361614667
 10
6595.8887011168
 20
5163.9994518138
 10
6596.2546538687
 20
5154.7730595815
 10
6596.3468103962
 20
5153.9953012662
 10
6596.3543847763
 20
5153.9769189255
 10
6596.3581722109
 20
5153.972343402
 10
6596.3619606293
 20
5153.9710592034
 10
6596.3695428793
 20
5153.9790074627
 10
6596.3771364309
 20
5154.002029436
  0
LWPOLYLINE
  5
2A1
330
1F
100
AcDbEntity
  8
0
  6
Continuous
 62
     7
100
AcDbPolyline
 90
       13
 70
   128
 43
0.0
 10
6597.3510742188
 20
5173.9219054452
 10
6597.3689859637
 20
5173.9371280559
 10
6597.3764843783
 20
5173.939573224
 10
6597.3840137481
 20
5173.9358190273
 10
6597.4765136187
 20
5173.2361614553
 10
6597.8425470496
 20
5163.9994517938
 10
6598.2084995451
 20
5154.7730595728
 10
6598.3006566014
 20
5153.9953012654
 10
6598.3082310245
 20
5153.976918925
 10
6598.3120184771
 20
5153.9723434016
 10
6598.3158069106
 20
5153.9710592032
 10
6598.3233891817
 20
5153.9790074627
 10
6598.3309827402
 20
5154.002029436
  0
LWPOLYLINE
  5
2A2
330
1F
100
AcDbEntity
  8
0
  6
Continuous
 62
     7
100
AcDbPolyline
 90
       13
 70
   128
 43
0.0
 10
6599.3041992188
 20
5173.9219054452
 10
6599.3228318138
 20
5173.937128056
 10
6599.3303302294
 20
5173.9395732241
 10
6599.3378595974
 20
5173.9358190274
 10
6599.4303594911
 20
5173.2361614551
 10
6599.7963932318
 20
5163.9994517976
 10
6600.1623459168
 20
5154.7730595748
 10
6600.2545029022
 20
5153.9953012653
 10
6600.2620773283
 20
5153.9769189249
 10
6600.2658647823
 20
5153.9723434016
 10
6600.2696532172
 20
5153.9710592032
 10
6600.2772354903
 20
5153.9790074626
 10
6600.2848290496
 20
5154.002029436
  0
LWPOLYLINE
  5
2A3
330
1F
100
AcDbEntity
  8
0
  6
Continuous
 62
     7
100
AcDbPolyline
 90
       13
 70
   128
 43
0.0
 10
6601.261138916
 20
5173.9219054452
 10
6601.2766781247
 20
5173.937128056
 10
6601.2841765405
 20
5173.9395732242
 10
6601.2917059081
 20
5173.9358190275
 10
6601.3842058075
 20
5173.236161456
 10
6601.7502393769
 20
5163.9994517997
 10
6602.11619086
 20
5154.7730595806
 10
6602.2083537057
 20
5153.9953012478
 10
6602.2159278871
 20
5153.976918908
 10
6602.2197150055
 20
5153.9723433857
 10
6602.2235029436
 20
5153.971059189
 10
6602.2310836826
 20
5153.979007454
 10
6602.2386748932
 20
5154.002029436
  0
LWPOLYLINE
  5
2A4
330
1F
100
AcDbEntity
  8
0
  6
Continuous
 62
     7
100
AcDbPolyline
 90
       13
 70
   128
 43
0.0
 10
6603.214263916
 20
5173.9219054452
 10
6603.2305241893
 20
5173.9371280559
 10
6603.2380226034
 20
5173.939573224
 10
6603.2455519742
 20
5173.9358190273
 10
6603.3380521115
 20
5173.2361614585
 10
6603.704085481
 20
5163.9994517987
 10
6604.0700375611
 20
5154.7730595779
 10
6604.1621974558
 20
5153.9953012569
 10
6604.1697717449
 20
5153.9769189167
 10
6604.1735590247
 20
5153.9723433938
 10
6604.1773472057
 20
5153.9710591962
 10
6604.1849287039
 20
5153.9790074583
 10
6604.1925210862
 20
5154.002029436
  0
LWPOLYLINE
  5
2A5
330
1F
100
AcDbEntity
  8
0
  6
Continuous
 62
     7
100
AcDbPolyline
 90
        6
 70
   128
 43
0.0
 10
6594.7875976562
 20
5172.8257052472
 10
6594.8177301883
 20
5172.8282647015
 10
6594.8601450647
 20
5172.7192605946
 10
6594.9032720309
 20
5172.3788551822
 10
6595.2436243855
 20
5164.9740213608
 10
6595.6984416239
 20
5155.3042754403
  0
ARC
  5
2A6
330
1F
100
AcDbEntity
  8
0
  6
Continuous
 62
     7
100
AcDbCircle
 10
6320.5429538634
 20
5149.6718931491
 30
0.0
 40
277.1665681514261
100
AcDbArc
 50
1.1644043186
 51
4.7919327226
  0
ARC
  5
2A7
330
1F
100
AcDbEntity
  8
0
  6
Continuous
 62
     7
100
AcDbCircle
 10
6324.7451707549
 20
5149.7775884906
 30
0.0
 40
274.9165205331286
100
AcDbArc
 50
1.1519030172
 51
4.8091387009
  0
LWPOLYLINE
  5
2A8
330
1F
100
AcDbEntity
  8
0
  6
Continuous
 62
     7
100
AcDbPolyline
 90
        6
 70
   128
 43
0.0
 10
6600.6507873535
 20
5172.8257052472
 10
6600.6792684243
 20
5172.8282647022
 10
6600.7216835507
 20
5172.7192605975
 10
6600.7648105628
 20
5172.3788551878
 10
6601.1051626842
 20
5164.9740213709
 10
6601.5599796206
 20
5155.3042754403
  0
LWPOLYLINE
  5
2A9
330
1F
100
AcDbEntity
  8
0
  6
Continuous
 62
     7
100
AcDbPolyline
 90
        6
 70
   128
 43
0.0
 10
6602.6039123535
 20
5172.8257052472
 10
6602.6331147528
 20
5172.8282647026
 10
6602.6755298477
 20
5172.7192605972
 10
6602.7186567345
 20
5172.3788551851
 10
6603.059009023
 20
5164.9740213718
 10
6603.5138259299
 20
5155.3042754403
  0
LWPOLYLINE
  5
2AA
330
1F
100
AcDbEntity
  8
0
  6
Continuous
 62
     7
100
AcDbPolyline
 90
        3
 70
   128
 43
0.0
 10
6712.2116088867
 20
5192.6590651146
 10
6727.0420990143
 20
5201.8302605038
 10
6737.2901926406
 20
5208.1683692394
  0
LWPOLYLINE
  5
2AB
330
1F
100
AcDbEntity
  8
0
  6
Continuous
 62
     7
100
AcDbPolyline
 90
        3
 70
   128
 43
0.0
 10
6737.2894287109
 20
5205.7150062046
 10
6723.4624099744
 20
5197.7315330579
 10
6713.8913909562
 20
5192.2057028732
  0
LWPOLYLINE
  5
2AC
330
1F
100
AcDbEntity
  8
0
  6
Continuous
 62
     7
100
AcDbPolyline
 90
        4
 70
   128
 43
0.0
 10
6681.568145752
 20
5123.1107264629
 10
6681.5174686256
 20
5122.9625643179
 10
6681.3657854199
 20
5122.8943321045
 10
6680.7763988741
 20
5123.0072304479
  0
LWPOLYLINE
  5
2AD
330
1F
100
AcDbEntity
  8
0
  6
Continuous
 62
     7
100
AcDbPolyline
 90
        3
 70
   128
 43
0.0
 10
6680.0346374512
 20
5284.5858782402
 10
6681.2509719498
 20
5284.2724456675
 10
6681.568902231
 20
5283.8759198657
  0
LWPOLYLINE
  5
2AE
330
1F
100
AcDbEntity
  8
0
  6
Continuous
 62
     7
100
AcDbPolyline
 90
        3
 70
   128
 43
0.0
 10
6680.7746887207
 20
5123.0072304479
 10
6680.0319066036
 20
5122.385227498
 10
6679.3689022429
 20
5121.8965127936
  0
LWPOLYLINE
  5
2AF
330
1F
100
AcDbEntity
  8
0
  6
Continuous
 62
     7
100
AcDbPolyline
 90
        3
 70
   128
 43
0.0
 10
6681.568145752
 20
5283.8759198657
 10
6681.1932687451
 20
5285.1152143737
 10
6680.3996081121
 20
5285.8195379249
  0
LWPOLYLINE
  5
2B0
330
1F
100
AcDbEntity
  8
0
  6
Continuous
 62
     7
100
AcDbPolyline
 90
        3
 70
   128
 43
0.0
 10
6679.8362731934
 20
5284.7593799106
 10
6679.5819869063
 20
5284.8948285445
 10
6679.3689022429
 20
5285.0078269711
  0
LWPOLYLINE
  5
2B1
330
1F
100
AcDbEntity
  8
0
  6
Continuous
 62
     7
100
AcDbPolyline
 90
        3
 70
   128
 43
0.0
 10
6680.3970336914
 20
5285.8195379249
 10
6680.1441884932
 20
5285.9549849005
 10
6679.9311081536
 20
5286.0679849854
  0
LWPOLYLINE
  5
2B2
330
1F
100
AcDbEntity
  8
0
  6
Continuous
 62
     7
100
AcDbPolyline
 90
        3
 70
   128
 43
0.0
 10
6680.9234619141
 20
5121.5550899378
 10
6680.5477353335
 20
5121.1782865031
 10
6680.217433966
 20
5120.8479851356
  0
LWPOLYLINE
  5
2B3
330
1F
100
AcDbEntity
  8
0
  6
Continuous
 62
     7
100
AcDbPolyline
 90
        3
 70
   128
 43
0.0
 10
6680.0727844238
 20
5122.4036142102
 10
6679.6992058548
 20
5122.0268130173
 10
6679.3689022429
 20
5121.6965094081
  0
LWPOLYLINE
  5
2B4
330
1F
100
AcDbEntity
  8
0
  6
Continuous
 62
     7
100
AcDbPolyline
 90
        3
 70
   128
 43
0.0
 10
6680.9234619141
 20
5121.5550899378
 10
6681.4405997038
 20
5122.378692027
 10
6681.568902231
 20
5123.1107264629
  0
LWPOLYLINE
  5
2B5
330
1F
100
AcDbEntity
  8
0
  6
Continuous
 62
     7
100
AcDbPolyline
 90
        3
 70
   128
 43
0.0
 10
6195.2209472656
 20
4906.7785973324
 10
6195.806028727
 20
4906.4407186907
 10
6196.2651004262
 20
4906.1752027495
  0
LWPOLYLINE
  5
2B6
330
1F
100
AcDbEntity
  8
0
  6
Continuous
 62
     7
100
AcDbPolyline
 90
        3
 70
   128
 43
0.0
 10
6195.2209472656
 20
4904.8247510231
 10
6195.806028925
 20
4904.4868727237
 10
6196.2651004262
 20
4904.2213564402
  0
LWPOLYLINE
  5
2B7
330
1F
100
AcDbEntity
  8
0
  6
Continuous
 62
     7
100
AcDbPolyline
 90
        3
 70
   128
 43
0.0
 10
6195.2209472656
 20
4902.8709047137
 10
6195.8060288245
 20
4902.5330265013
 10
6196.2651004262
 20
4902.2675105965
  0
LWPOLYLINE
  5
2B8
330
1F
100
AcDbEntity
  8
0
  6
Continuous
 62
     7
100
AcDbPolyline
 90
        3
 70
   128
 43
0.0
 10
6195.2209472656
 20
4900.9170586372
 10
6195.8060288747
 20
4900.5791803813
 10
6196.2651004262
 20
4900.3136642872
  0
LWPOLYLINE
  5
2B9
330
1F
100
AcDbEntity
  8
0
  6
Continuous
 62
     7
100
AcDbPolyline
 90
        3
 70
   128
 43
0.0
 10
6214.1304016113
 20
4907.1428580804
 10
6214.7272297228
 20
4907.4859701949
 10
6215.1933712132
 20
4907.7555202542
  0
LWPOLYLINE
  5
2BA
330
1F
100
AcDbEntity
  8
0
  6
Continuous
 62
     7
100
AcDbPolyline
 90
        3
 70
   128
 43
0.0
 10
6214.1304016113
 20
4905.1890122368
 10
6214.7272297228
 20
4905.5321243513
 10
6215.1933712132
 20
4905.8016744106
  0
LWPOLYLINE
  5
2BB
330
1F
100
AcDbEntity
  8
0
  6
Continuous
 62
     7
100
AcDbPolyline
 90
        3
 70
   128
 43
0.0
 10
6214.1304016113
 20
4903.2351654618
 10
6214.727229624
 20
4903.5782780079
 10
6215.1933712132
 20
4903.8478281012
  0
LWPOLYLINE
  5
2BC
330
1F
100
AcDbEntity
  8
0
  6
Continuous
 62
     7
100
AcDbPolyline
 90
        3
 70
   128
 43
0.0
 10
6214.1304016113
 20
4901.2813196181
 10
6214.7272295252
 20
4901.6244320743
 10
6215.1933712132
 20
4901.8939817919
  0
LWPOLYLINE
  5
2BD
330
1F
100
AcDbEntity
  8
0
  6
Continuous
 62
     7
100
AcDbPolyline
 90
        3
 70
   128
 43
0.0
 10
6195.5718994141
 20
4908.5298665463
 10
6195.9601655036
 20
4908.3054217487
 10
6196.2651004262
 20
4908.1290485932
  0
LWPOLYLINE
  5
2BE
330
1F
100
AcDbEntity
  8
0
  6
Continuous
 62
     7
100
AcDbPolyline
 90
        3
 70
   128
 43
0.0
 10
6196.2814331055
 20
4905.7162525727
 10
6195.689527121
 20
4905.3731442563
 10
6195.2233825989
 20
4905.1035950555
  0
LWPOLYLINE
  5
2BF
330
1F
100
AcDbEntity
  8
0
  6
Continuous
 62
     7
100
AcDbPolyline
 90
        3
 70
   128
 43
0.0
 10
6196.2814331055
 20
4903.7624062634
 10
6195.6895270222
 20
4903.4192983786
 10
6195.2233825989
 20
4903.1497492118
  0
LWPOLYLINE
  5
2C0
330
1F
100
AcDbEntity
  8
0
  6
Continuous
 62
     7
100
AcDbPolyline
 90
        3
 70
   128
 43
0.0
 10
6196.2814331055
 20
4901.8085604197
 10
6195.689527121
 20
4901.4654521033
 10
6195.2233825989
 20
4901.1959029025
  0
LWPOLYLINE
  5
2C1
330
1F
100
AcDbEntity
  8
0
  6
Continuous
 62
     7
100
AcDbPolyline
 90
        3
 70
   128
 43
0.0
 10
6196.2814331055
 20
4899.8547141104
 10
6195.6895270716
 20
4899.5116060097
 10
6195.2233825989
 20
4899.242056826
  0
LWPOLYLINE
  5
2C2
330
1F
100
AcDbEntity
  8
0
  6
Continuous
 62
     7
100
AcDbPolyline
 90
        3
 70
   128
 43
0.0
 10
6215.1908874512
 20
4906.0805179773
 10
6214.6083456453
 20
4906.4178631565
 10
6214.1500030823
 20
4906.6829579546
  0
LWPOLYLINE
  5
2C3
330
1F
100
AcDbEntity
  8
0
  6
Continuous
 62
     7
100
AcDbPolyline
 90
        3
 70
   128
 43
0.0
 10
6215.1908874512
 20
4904.1266721337
 10
6214.608345746
 20
4904.4640172262
 10
6214.1500030823
 20
4904.7291116452
  0
LWPOLYLINE
  5
2C4
330
1F
100
AcDbEntity
  8
0
  6
Continuous
 62
     7
100
AcDbPolyline
 90
        3
 70
   128
 43
0.0
 10
6215.1908874512
 20
4902.1728258243
 10
6214.6083458433
 20
4902.5101713459
 10
6214.1500030823
 20
4902.7752658016
  0
LWPOLYLINE
  5
2C5
330
1F
100
AcDbEntity
  8
0
  6
Continuous
 62
     7
100
AcDbPolyline
 90
        3
 70
   128
 43
0.0
 10
6215.1908874512
 20
4900.2189799807
 10
6214.608345746
 20
4900.5563250731
 10
6214.1500030823
 20
4900.8214194922
  0
LWPOLYLINE
  5
2C6
330
1F
100
AcDbEntity
  8
0
  6
Continuous
 62
     7
100
AcDbPolyline
 90
        3
 70
   128
 43
0.0
 10
6215.1908874512
 20
4908.0343647523
 10
6214.6083458467
 20
4908.3717097581
 10
6214.1500030823
 20
4908.6368037982
  0
LWPOLYLINE
  5
2C7
330
1F
100
AcDbEntity
  8
0
  6
Continuous
 62
     7
100
AcDbPolyline
 90
        3
 70
   128
 43
0.0
 10
6196.2814331055
 20
4907.6700984164
 10
6195.6895269233
 20
4907.3269909632
 10
6195.2233825989
 20
4907.0574418305
  0
LWPOLYLINE
  5
2C8
330
1F
100
AcDbEntity
  8
0
  6
Continuous
 62
     7
100
AcDbPolyline
 90
        3
 70
   128
 43
0.0
 10
6325.2182006836
 20
4906.7785973324
 10
6325.806029305
 20
4906.4407178867
 10
6326.2651031084
 20
4906.1752027495
  0
LWPOLYLINE
  5
2C9
330
1F
100
AcDbEntity
  8
0
  6
Continuous
 62
     7
100
AcDbPolyline
 90
        3
 70
   128
 43
0.0
 10
6325.2182006836
 20
4904.8247510231
 10
6325.806029503
 20
4904.4868719196
 10
6326.2651031084
 20
4904.2213564402
  0
LWPOLYLINE
  5
2CA
330
1F
100
AcDbEntity
  8
0
  6
Continuous
 62
     7
100
AcDbPolyline
 90
        3
 70
   128
 43
0.0
 10
6325.2182006836
 20
4902.8709047137
 10
6325.8060294025
 20
4902.5330256973
 10
6326.2651031084
 20
4902.2675105965
  0
LWPOLYLINE
  5
2CB
330
1F
100
AcDbEntity
  8
0
  6
Continuous
 62
     7
100
AcDbPolyline
 90
        3
 70
   128
 43
0.0
 10
6325.2182006836
 20
4900.9170586372
 10
6325.8060294527
 20
4900.5791795773
 10
6326.2651031084
 20
4900.3136642872
  0
LWPOLYLINE
  5
2CC
330
1F
100
AcDbEntity
  8
0
  6
Continuous
 62
     7
100
AcDbPolyline
 90
        3
 70
   128
 43
0.0
 10
6344.1314697266
 20
4907.1428580804
 10
6344.7272298616
 20
4907.4859709855
 10
6345.1933701702
 20
4907.7555202542
  0
LWPOLYLINE
  5
2CD
330
1F
100
AcDbEntity
  8
0
  6
Continuous
 62
     7
100
AcDbPolyline
 90
        3
 70
   128
 43
0.0
 10
6344.1314697266
 20
4905.1890122368
 10
6344.7272298616
 20
4905.5321251418
 10
6345.1933701702
 20
4905.8016744106
  0
LWPOLYLINE
  5
2CE
330
1F
100
AcDbEntity
  8
0
  6
Continuous
 62
     7
100
AcDbPolyline
 90
        3
 70
   128
 43
0.0
 10
6344.1314697266
 20
4903.2351654618
 10
6344.7272297628
 20
4903.5782787984
 10
6345.1933701702
 20
4903.8478281012
  0
LWPOLYLINE
  5
2CF
330
1F
100
AcDbEntity
  8
0
  6
Continuous
 62
     7
100
AcDbPolyline
 90
        3
 70
   128
 43
0.0
 10
6344.1314697266
 20
4901.2813196181
 10
6344.727229664
 20
4901.6244328648
 10
6345.1933701702
 20
4901.8939817919
  0
LWPOLYLINE
  5
2D0
330
1F
100
AcDbEntity
  8
0
  6
Continuous
 62
     7
100
AcDbPolyline
 90
        3
 70
   128
 43
0.0
 10
6325.569152832
 20
4908.5298665463
 10
6325.9601662702
 20
4908.3054212706
 10
6326.2651031084
 20
4908.1290485932
  0
LWPOLYLINE
  5
2D1
330
1F
100
AcDbEntity
  8
0
  6
Continuous
 62
     7
100
AcDbPolyline
 90
        3
 70
   128
 43
0.0
 10
6326.2825012207
 20
4905.7162525727
 10
6325.6895274394
 20
4905.3731426753
 10
6325.2233852811
 20
4905.1035950555
  0
LWPOLYLINE
  5
2D2
330
1F
100
AcDbEntity
  8
0
  6
Continuous
 62
     7
100
AcDbPolyline
 90
        3
 70
   128
 43
0.0
 10
6326.2825012207
 20
4903.7624062634
 10
6325.6895273405
 20
4903.4192967976
 10
6325.2233852811
 20
4903.1497492118
  0
LWPOLYLINE
  5
2D3
330
1F
100
AcDbEntity
  8
0
  6
Continuous
 62
     7
100
AcDbPolyline
 90
        3
 70
   128
 43
0.0
 10
6326.2825012207
 20
4901.8085604197
 10
6325.6895274394
 20
4901.4654505223
 10
6325.2233852811
 20
4901.1959029025
  0
LWPOLYLINE
  5
2D4
330
1F
100
AcDbEntity
  8
0
  6
Continuous
 62
     7
100
AcDbPolyline
 90
        3
 70
   128
 43
0.0
 10
6326.2825012207
 20
4899.8547141104
 10
6325.68952739
 20
4899.5116044287
 10
6325.2233852811
 20
4899.242056826
  0
LWPOLYLINE
  5
2D5
330
1F
100
AcDbEntity
  8
0
  6
Continuous
 62
     7
100
AcDbPolyline
 90
        3
 70
   128
 43
0.0
 10
6345.1881408691
 20
4906.0805179773
 10
6344.6083483275
 20
4906.4178631565
 10
6344.1500057645
 20
4906.6829579546
  0
LWPOLYLINE
  5
2D6
330
1F
100
AcDbEntity
  8
0
  6
Continuous
 62
     7
100
AcDbPolyline
 90
        3
 70
   128
 43
0.0
 10
6345.1881408691
 20
4904.1266721337
 10
6344.6083484282
 20
4904.4640172262
 10
6344.1500057645
 20
4904.7291116452
  0
LWPOLYLINE
  5
2D7
330
1F
100
AcDbEntity
  8
0
  6
Continuous
 62
     7
100
AcDbPolyline
 90
        3
 70
   128
 43
0.0
 10
6345.1881408691
 20
4902.1728258243
 10
6344.6083485255
 20
4902.5101713459
 10
6344.1500057645
 20
4902.7752658016
  0
LWPOLYLINE
  5
2D8
330
1F
100
AcDbEntity
  8
0
  6
Continuous
 62
     7
100
AcDbPolyline
 90
        3
 70
   128
 43
0.0
 10
6345.1881408691
 20
4900.2189799807
 10
6344.6083484282
 20
4900.5563250731
 10
6344.1500057645
 20
4900.8214194922
  0
LWPOLYLINE
  5
2D9
330
1F
100
AcDbEntity
  8
0
  6
Continuous
 62
     7
100
AcDbPolyline
 90
        3
 70
   128
 43
0.0
 10
6345.1881408691
 20
4908.0343647523
 10
6344.6083485289
 20
4908.3717097581
 10
6344.1500057645
 20
4908.6368037982
  0
LWPOLYLINE
  5
2DA
330
1F
100
AcDbEntity
  8
0
  6
Continuous
 62
     7
100
AcDbPolyline
 90
        3
 70
   128
 43
0.0
 10
6326.2825012207
 20
4907.6700984164
 10
6325.6895272417
 20
4907.3269893822
 10
6325.2233852811
 20
4907.0574418305
  0
LWPOLYLINE
  5
2DB
330
1F
100
AcDbEntity
  8
0
  6
Continuous
 62
     7
100
AcDbPolyline
 90
       14
 70
   128
 43
0.0
 10
6195.5757141113
 20
4908.5536264478
 10
6195.5727138424
 20
4908.5583777144
 10
6195.5717726904
 20
4908.5607535783
 10
6195.5724226051
 20
4908.5631297191
 10
6195.5984900029
 20
4908.5726357448
 10
6196.3118050118
 20
4908.6285375592
 10
6204.9651287165
 20
4908.8582062942
 10
6213.5943933331
 20
4909.0935802858
 10
6214.2397856767
 20
4909.1526422556
 10
6214.2550710543
 20
4909.1577074541
 10
6214.2595885069
 20
4909.1615138605
 10
6214.259596054
 20
4909.16294224
 10
6214.2586303233
 20
4909.1643709121
 10
6214.2328647144
 20
4909.1729419901
  0
LWPOLYLINE
  5
2DC
330
1F
100
AcDbEntity
  8
0
  6
Continuous
 62
     7
100
AcDbPolyline
 90
       11
 70
   128
 43
0.0
 10
6214.0426635742
 20
4909.1154942884
 10
6214.0723312544
 20
4909.0999742399
 10
6214.0855458721
 20
4909.0845255191
 10
6214.0830730642
 20
4909.078765196
 10
6214.0752605111
 20
4909.0730285022
 10
6214.0430286329
 20
4909.0616237224
 10
6213.477364805
 20
4908.9939227717
 10
6205.2107473916
 20
4908.6269794644
 10
6196.9395565653
 20
4908.2601871288
 10
6196.3443263804
 20
4908.1696356777
 10
6196.3176046677
 20
4908.1385778858
  0
LWPOLYLINE
  5
2DD
330
1F
100
AcDbEntity
  8
0
  6
Continuous
 62
     7
100
AcDbPolyline
 90
        9
 70
   128
 43
0.0
 10
6214.0579223633
 20
4907.1427574976
 10
6214.080676394
 20
4907.1256867563
 10
6214.0787662448
 20
4907.120034085
 10
6214.0663928904
 20
4907.1125392555
 10
6213.2751054817
 20
4907.0238323043
 10
6204.9421596598
 20
4906.6639387521
 10
6196.9133717502
 20
4906.3040460692
 10
6196.3434206632
 20
4906.2151993837
 10
6196.3176046677
 20
4906.1847320421
  0
LWPOLYLINE
  5
2DE
330
1F
100
AcDbEntity
  8
0
  6
Continuous
 62
     7
100
AcDbPolyline
 90
        9
 70
   128
 43
0.0
 10
6214.0579223633
 20
4905.1889116539
 10
6214.080676394
 20
4905.1718409113
 10
6214.0787662448
 20
4905.1661882427
 10
6214.0663928902
 20
4905.1586934206
 10
6213.275105481
 20
4905.0699864485
 10
6204.9421596636
 20
4904.7100925684
 10
6196.9133717436
 20
4904.3502002957
 10
6196.3434206625
 20
4904.2613533378
 10
6196.3176046677
 20
4904.2308857328
  0
LWPOLYLINE
  5
2DF
330
1F
100
AcDbEntity
  8
0
  6
Continuous
 62
     7
100
AcDbPolyline
 90
        9
 70
   128
 43
0.0
 10
6214.0579223633
 20
4903.2350653446
 10
6214.0806763939
 20
4903.2179950057
 10
6214.0787662445
 20
4903.2123424369
 10
6214.0663928895
 20
4903.2048477081
 10
6213.2751054808
 20
4903.1161401223
 10
6204.9421596629
 20
4902.7562462749
 10
6196.9133717447
 20
4902.3963539392
 10
6196.3434206623
 20
4902.3075070404
 10
6196.3176046677
 20
4902.2770394234
  0
LWPOLYLINE
  5
2E0
330
1F
100
AcDbEntity
  8
0
  6
Continuous
 62
     7
100
AcDbPolyline
 90
        9
 70
   128
 43
0.0
 10
6214.0579223633
 20
4901.2812195009
 10
6214.080676394
 20
4901.2641487577
 10
6214.0787662448
 20
4901.2584960903
 10
6214.0663928901
 20
4901.2510012711
 10
6213.2751054811
 20
4901.1622942907
 10
6204.9421596768
 20
4900.8024000396
 10
6196.9133717471
 20
4900.4425078803
 10
6196.3434206629
 20
4900.3536610517
 10
6196.3176046677
 20
4900.3231935798
  0
LWPOLYLINE
  5
2E1
330
1F
100
AcDbEntity
  8
0
  6
Continuous
 62
     7
100
AcDbPolyline
 90
        5
 70
   128
 43
0.0
 10
6215.1107788086
 20
4907.7555128037
 10
6204.9381858733
 20
4907.2757076523
 10
6195.9366581604
 20
4906.914983748
 10
6195.2954932813
 20
4906.8258602971
 10
6195.2648450799
 20
4906.7953080534
  0
LWPOLYLINE
  5
2E2
330
1F
100
AcDbEntity
  8
0
  6
Continuous
 62
     7
100
AcDbPolyline
 90
        5
 70
   128
 43
0.0
 10
6215.1107788086
 20
4905.80166696
 10
6204.9381858978
 20
4905.3218608068
 10
6195.9366581562
 20
4904.9611378115
 10
6195.2954932818
 20
4904.8720139478
 10
6195.2648450799
 20
4904.841461744
  0
LWPOLYLINE
  5
2E3
330
1F
100
AcDbEntity
  8
0
  6
Continuous
 62
     7
100
AcDbPolyline
 90
        5
 70
   128
 43
0.0
 10
6215.1107788086
 20
4903.8478206506
 10
6204.9381858839
 20
4903.3680149319
 10
6195.9366581566
 20
4903.0072915607
 10
6195.2954932801
 20
4902.9181679666
 10
6195.2648450799
 20
4902.8876154347
  0
LWPOLYLINE
  5
2E4
330
1F
100
AcDbEntity
  8
0
  6
Continuous
 62
     7
100
AcDbPolyline
 90
        5
 70
   128
 43
0.0
 10
6215.1107788086
 20
4901.8939743413
 10
6204.9381858871
 20
4901.4141686445
 10
6195.9366581561
 20
4901.0534454549
 10
6195.295493281
 20
4900.964321726
 10
6195.2648450799
 20
4900.9337693582
  0
LWPOLYLINE
  5
2E5
330
1F
100
AcDbEntity
  8
0
  6
Continuous
 62
     7
100
AcDbPolyline
 90
        7
 70
   128
 43
0.0
 10
6215.145111084
 20
4908.0167022197
 10
6215.1191540741
 20
4907.9856150764
 10
6214.4517460564
 20
4907.8949786817
 10
6205.2075456371
 20
4907.5281263489
 10
6195.963184381
 20
4907.1612696359
 10
6195.2962107746
 20
4907.0706249317
 10
6195.2662681408
 20
4907.039539948
  0
LWPOLYLINE
  5
2E6
330
1F
100
AcDbEntity
  8
0
  6
Continuous
 62
     7
100
AcDbPolyline
 90
        7
 70
   128
 43
0.0
 10
6215.145111084
 20
4906.0628554447
 10
6215.1191540729
 20
4906.031768841
 10
6214.4517460438
 20
4905.9411329695
 10
6205.2075456503
 20
4905.5742794075
 10
6195.9631843733
 20
4905.2074238133
 10
6195.2962107756
 20
4905.1167785558
 10
6195.2662681408
 20
4905.0856936386
  0
LWPOLYLINE
  5
2E7
330
1F
100
AcDbEntity
  8
0
  6
Continuous
 62
     7
100
AcDbPolyline
 90
        7
 70
   128
 43
0.0
 10
6215.145111084
 20
4904.109009601
 10
6215.1191540735
 20
4904.0779227275
 10
6214.4517460497
 20
4903.9872865944
 10
6205.2075456418
 20
4903.6204335881
 10
6195.9631843744
 20
4903.2535775472
 10
6195.2962107739
 20
4903.162932581
 10
6195.2662681408
 20
4903.1318473293
  0
LWPOLYLINE
  5
2E8
330
1F
100
AcDbEntity
  8
0
  6
Continuous
 62
     7
100
AcDbPolyline
 90
        7
 70
   128
 43
0.0
 10
6215.145111084
 20
4902.1551632917
 10
6215.1191540735
 20
4902.1240764182
 10
6214.4517460501
 20
4902.0334402851
 10
6205.2075456454
 20
4901.6665872747
 10
6195.9631843779
 20
4901.2997311793
 10
6195.2962107741
 20
4901.2090863777
 10
6195.2662681408
 20
4901.1780012528
  0
LWPOLYLINE
  5
2E9
330
1F
100
AcDbEntity
  8
0
  6
Continuous
 62
     7
100
AcDbPolyline
 90
        7
 70
   128
 43
0.0
 10
6215.145111084
 20
4900.2013172152
 10
6215.1191540735
 20
4900.1702303412
 10
6214.4517460499
 20
4900.0795942103
 10
6205.2075456418
 20
4899.7127412586
 10
6195.9631843763
 20
4899.3458851102
 10
6195.2962107744
 20
4899.2552401676
 10
6195.2662681408
 20
4899.2241550599
  0
LWPOLYLINE
  5
2EA
330
1F
100
AcDbEntity
  8
0
  6
Continuous
 62
     7
100
AcDbPolyline
 90
        8
 70
   128
 43
0.0
 10
6214.038848877
 20
4908.6269634439
 10
6214.1007942268
 20
4908.5966983323
 10
6214.0993146058
 20
4908.5910699057
 10
6214.0920461065
 20
4908.5854620531
 10
6214.0609864838
 20
4908.5742993096
 10
6213.5074239211
 20
4908.5078530577
 10
6205.4907661529
 20
4908.1481233817
 10
6196.3537548848
 20
4907.6698544099
  0
LWPOLYLINE
  5
2EB
330
1F
100
AcDbEntity
  8
0
  6
Continuous
 62
     7
100
AcDbPolyline
 90
        8
 70
   128
 43
0.0
 10
6214.038848877
 20
4906.6731176002
 10
6214.1007942269
 20
4906.642852485
 10
6214.0993146057
 20
4906.6372240672
 10
6214.0920461061
 20
4906.6316162272
 10
6214.0609864827
 20
4906.6204535174
 10
6213.5074239183
 20
4906.5540073374
 10
6205.4907661834
 20
4906.1942766777
 10
6196.3537548848
 20
4905.7160085662
  0
LWPOLYLINE
  5
2EC
330
1F
100
AcDbEntity
  8
0
  6
Continuous
 62
     7
100
AcDbPolyline
 90
        8
 70
   128
 43
0.0
 10
6214.038848877
 20
4904.7192712909
 10
6214.1007942268
 20
4904.6890066174
 10
6214.0993146055
 20
4904.6833782447
 10
6214.0920461059
 20
4904.6777704329
 10
6214.0609864826
 20
4904.6666077354
 10
6213.5074239193
 20
4904.6001610822
 10
6205.4907661699
 20
4904.240430751
 10
6196.3537548848
 20
4903.7621622568
  0
LWPOLYLINE
  5
2ED
330
1F
100
AcDbEntity
  8
0
  6
Continuous
 62
     7
100
AcDbPolyline
 90
        8
 70
   128
 43
0.0
 10
6214.038848877
 20
4902.7654249816
 10
6214.1007942268
 20
4902.7351603082
 10
6214.0993146055
 20
4902.7295319351
 10
6214.0920461059
 20
4902.7239241229
 10
6214.0609864827
 20
4902.7127614241
 10
6213.5074239194
 20
4902.6463147682
 10
6205.4907661676
 20
4902.286584499
 10
6196.3537548848
 20
4901.8083159475
  0
LWPOLYLINE
  5
2EE
330
1F
100
AcDbEntity
  8
0
  6
Continuous
 62
     7
100
AcDbPolyline
 90
        8
 70
   128
 43
0.0
 10
6214.038848877
 20
4900.8115786722
 10
6214.1007942268
 20
4900.781313997
 10
6214.0993146055
 20
4900.7756856286
 10
6214.0920461058
 20
4900.7700778233
 10
6214.0609864823
 20
4900.758915144
 10
6213.5074239171
 20
4900.6924686638
 10
6205.4907661688
 20
4900.3327383938
 10
6196.3537548848
 20
4899.8544701038
  0
LWPOLYLINE
  5
2EF
330
1F
100
AcDbEntity
  8
0
  6
Continuous
 62
     7
100
AcDbPolyline
 90
       14
 70
   128
 43
0.0
 10
6325.5767822266
 20
4908.5536264478
 10
6325.5727148632
 20
4908.5583777143
 10
6325.5717729376
 20
4908.5607535783
 10
6325.5724221473
 20
4908.5631297192
 10
6325.5984877244
 20
4908.5726357467
 10
6326.3118072393
 20
4908.6285375387
 10
6334.9651293455
 20
4908.8582064325
 10
6343.5943932061
 20
4909.0935803035
 10
6344.2397922604
 20
4909.1526422659
 10
6344.2550775104
 20
4909.1577074655
 10
6344.2595941941
 20
4909.1615138715
 10
6344.2596012766
 20
4909.1629422505
 10
6344.2586349753
 20
4909.1643709219
 10
6344.2328636713
 20
4909.1729419901
  0
LWPOLYLINE
  5
2F0
330
1F
100
AcDbEntity
  8
0
  6
Continuous
 62
     7
100
AcDbPolyline
 90
       11
 70
   128
 43
0.0
 10
6344.0399169922
 20
4909.1154942884
 10
6344.0723322741
 20
4909.0999742375
 10
6344.0855454419
 20
4909.0845255146
 10
6344.0830721886
 20
4909.0787651909
 10
6344.0752592607
 20
4909.0730284966
 10
6344.0430268477
 20
4909.0616237162
 10
6343.4773633965
 20
4908.9939227649
 10
6335.2107463662
 20
4908.6269793311
 10
6326.9395525712
 20
4908.2601871799
 10
6326.3443271718
 20
4908.1696356785
 10
6326.3176073499
 20
4908.1385778858
  0
LWPOLYLINE
  5
2F1
330
1F
100
AcDbEntity
  8
0
  6
Continuous
 62
     7
100
AcDbPolyline
 90
        9
 70
   128
 43
0.0
 10
6344.0589904785
 20
4907.1427574976
 10
6344.0806753511
 20
4907.1256867558
 10
6344.078765201
 20
4907.1200340843
 10
6344.0663918444
 20
4907.1125392548
 10
6343.2751043939
 20
4907.0238323006
 10
6334.942158713
 20
4906.6639386189
 10
6326.9133678116
 20
4906.3040461201
 10
6326.3434214909
 20
4906.2151993846
 10
6326.3176073499
 20
4906.1847320421
  0
LWPOLYLINE
  5
2F2
330
1F
100
AcDbEntity
  8
0
  6
Continuous
 62
     7
100
AcDbPolyline
 90
        9
 70
   128
 43
0.0
 10
6344.0589904785
 20
4905.1889116539
 10
6344.0806753512
 20
4905.1718409107
 10
6344.078765201
 20
4905.1661882421
 10
6344.0663918442
 20
4905.1586934198
 10
6343.2751043932
 20
4905.0699864448
 10
6334.9421587168
 20
4904.7100924352
 10
6326.9133678051
 20
4904.3502003467
 10
6326.3434214903
 20
4904.2613533386
 10
6326.3176073499
 20
4904.2308857328
  0
LWPOLYLINE
  5
2F3
330
1F
100
AcDbEntity
  8
0
  6
Continuous
 62
     7
100
AcDbPolyline
 90
        9
 70
   128
 43
0.0
 10
6344.0589904785
 20
4903.2350653446
 10
6344.080675351
 20
4903.2179950052
 10
6344.0787652006
 20
4903.2123424363
 10
6344.0663918435
 20
4903.2048477074
 10
6343.275104393
 20
4903.1161401186
 10
6334.9421587161
 20
4902.7562461417
 10
6326.9133678061
 20
4902.3963539901
 10
6326.34342149
 20
4902.3075070412
 10
6326.3176073499
 20
4902.2770394234
  0
LWPOLYLINE
  5
2F4
330
1F
100
AcDbEntity
  8
0
  6
Continuous
 62
     7
100
AcDbPolyline
 90
        9
 70
   128
 43
0.0
 10
6344.0589904785
 20
4901.2812195009
 10
6344.0806753512
 20
4901.2641487572
 10
6344.078765201
 20
4901.2584960897
 10
6344.0663918441
 20
4901.2510012703
 10
6343.2751043933
 20
4901.162294287
 10
6334.9421587301
 20
4900.8023999064
 10
6326.9133678086
 20
4900.4425079312
 10
6326.3434214907
 20
4900.3536610526
 10
6326.3176073499
 20
4900.3231935798
  0
LWPOLYLINE
  5
2F5
330
1F
100
AcDbEntity
  8
0
  6
Continuous
 62
     7
100
AcDbPolyline
 90
        5
 70
   128
 43
0.0
 10
6345.1118469238
 20
4907.7555128037
 10
6334.938187443
 20
4907.2757076018
 10
6325.9366596354
 20
4906.9149837271
 10
6325.2954935052
 20
4906.8258603052
 10
6325.2648477621
 20
4906.7953080534
  0
LWPOLYLINE
  5
2F6
330
1F
100
AcDbEntity
  8
0
  6
Continuous
 62
     7
100
AcDbPolyline
 90
        5
 70
   128
 43
0.0
 10
6345.1118469238
 20
4905.80166696
 10
6334.9381874676
 20
4905.3218607563
 10
6325.9366596313
 20
4904.9611377906
 10
6325.2954935057
 20
4904.8720139558
 10
6325.2648477621
 20
4904.841461744
  0
LWPOLYLINE
  5
2F7
330
1F
100
AcDbEntity
  8
0
  6
Continuous
 62
     7
100
AcDbPolyline
 90
        5
 70
   128
 43
0.0
 10
6345.1118469238
 20
4903.8478206506
 10
6334.9381874536
 20
4903.3680148814
 10
6325.9366596317
 20
4903.0072915398
 10
6325.2954935041
 20
4902.9181679747
 10
6325.2648477621
 20
4902.8876154347
  0
LWPOLYLINE
  5
2F8
330
1F
100
AcDbEntity
  8
0
  6
Continuous
 62
     7
100
AcDbPolyline
 90
        5
 70
   128
 43
0.0
 10
6345.1118469238
 20
4901.8939743413
 10
6334.9381874568
 20
4901.4141685941
 10
6325.9366596311
 20
4901.053445434
 10
6325.2954935049
 20
4900.9643217341
 10
6325.2648477621
 20
4900.9337693582
  0
LWPOLYLINE
  5
2F9
330
1F
100
AcDbEntity
  8
0
  6
Continuous
 62
     7
100
AcDbPolyline
 90
        7
 70
   128
 43
0.0
 10
6345.1461791992
 20
4908.0167022197
 10
6345.1191555471
 20
4907.9856150692
 10
6344.4517460669
 20
4907.8949786996
 10
6335.2075460666
 20
4907.5281262327
 10
6325.9631831658
 20
4907.1612696417
 10
6325.2962097874
 20
4907.0706249312
 10
6325.2662670978
 20
4907.039539948
  0
LWPOLYLINE
  5
2FA
330
1F
100
AcDbEntity
  8
0
  6
Continuous
 62
     7
100
AcDbPolyline
 90
        7
 70
   128
 43
0.0
 10
6345.1461791992
 20
4906.0628554447
 10
6345.1191555458
 20
4906.0317688338
 10
6344.4517460543
 20
4905.9411329874
 10
6335.2075460798
 20
4905.5742792912
 10
6325.963183158
 20
4905.207423819
 10
6325.2962097884
 20
4905.1167785553
 10
6325.2662670978
 20
4905.0856936386
  0
LWPOLYLINE
  5
2FB
330
1F
100
AcDbEntity
  8
0
  6
Continuous
 62
     7
100
AcDbPolyline
 90
        7
 70
   128
 43
0.0
 10
6345.1461791992
 20
4904.109009601
 10
6345.1191555464
 20
4904.0779227203
 10
6344.4517460602
 20
4903.9872866124
 10
6335.2075460713
 20
4903.6204334718
 10
6325.9631831591
 20
4903.2535775529
 10
6325.2962097868
 20
4903.1629325805
 10
6325.2662670978
 20
4903.1318473293
  0
LWPOLYLINE
  5
2FC
330
1F
100
AcDbEntity
  8
0
  6
Continuous
 62
     7
100
AcDbPolyline
 90
        7
 70
   128
 43
0.0
 10
6345.1461791992
 20
4902.1551632917
 10
6345.1191555464
 20
4902.124076411
 10
6344.4517460606
 20
4902.0334403031
 10
6335.2075460749
 20
4901.6665871584
 10
6325.9631831626
 20
4901.2997311851
 10
6325.296209787
 20
4901.2090863773
 10
6325.2662670978
 20
4901.1780012528
  0
LWPOLYLINE
  5
2FD
330
1F
100
AcDbEntity
  8
0
  6
Continuous
 62
     7
100
AcDbPolyline
 90
        7
 70
   128
 43
0.0
 10
6345.1461791992
 20
4900.2013172152
 10
6345.1191555464
 20
4900.170230334
 10
6344.4517460604
 20
4900.0795942282
 10
6335.2075460713
 20
4899.7127411424
 10
6325.963183161
 20
4899.3458851159
 10
6325.2962097872
 20
4899.2552401671
 10
6325.2662670978
 20
4899.2241550599
  0
LWPOLYLINE
  5
2FE
330
1F
100
AcDbEntity
  8
0
  6
Continuous
 62
     7
100
AcDbPolyline
 90
        8
 70
   128
 43
0.0
 10
6344.0399169922
 20
4908.6269634439
 10
6344.1007931839
 20
4908.5966983323
 10
6344.0993135625
 20
4908.5910699058
 10
6344.0920450627
 20
4908.5854620533
 10
6344.0609854386
 20
4908.5742993101
 10
6343.5074228742
 20
4908.5078530587
 10
6335.4907655729
 20
4908.1481232677
 10
6326.353757567
 20
4907.6698544099
  0
LWPOLYLINE
  5
2FF
330
1F
100
AcDbEntity
  8
0
  6
Continuous
 62
     7
100
AcDbPolyline
 90
        8
 70
   128
 43
0.0
 10
6344.0399169922
 20
4906.6731176002
 10
6344.100793184
 20
4906.642852485
 10
6344.0993135624
 20
4906.6372240673
 10
6344.0920450623
 20
4906.6316162274
 10
6344.0609854375
 20
4906.6204535179
 10
6343.5074228714
 20
4906.5540073385
 10
6335.4907656034
 20
4906.1942765636
 10
6326.353757567
 20
4905.7160085662
  0
LWPOLYLINE
  5
300
330
1F
100
AcDbEntity
  8
0
  6
Continuous
 62
     7
100
AcDbPolyline
 90
        8
 70
   128
 43
0.0
 10
6344.0399169922
 20
4904.7192712909
 10
6344.1007931839
 20
4904.6890066174
 10
6344.0993135622
 20
4904.6833782447
 10
6344.0920450621
 20
4904.6777704331
 10
6344.0609854374
 20
4904.6666077358
 10
6343.5074228724
 20
4904.6001610833
 10
6335.4907655899
 20
4904.240430637
 10
6326.353757567
 20
4903.7621622568
  0
LWPOLYLINE
  5
301
330
1F
100
AcDbEntity
  8
0
  6
Continuous
 62
     7
100
AcDbPolyline
 90
        8
 70
   128
 43
0.0
 10
6344.0399169922
 20
4902.7654249816
 10
6344.1007931839
 20
4902.7351603082
 10
6344.0993135622
 20
4902.7295319352
 10
6344.0920450621
 20
4902.7239241231
 10
6344.0609854374
 20
4902.7127614245
 10
6343.5074228725
 20
4902.6463147692
 10
6335.4907655876
 20
4902.2865843849
 10
6326.353757567
 20
4901.8083159475
  0
LWPOLYLINE
  5
302
330
1F
100
AcDbEntity
  8
0
  6
Continuous
 62
     7
100
AcDbPolyline
 90
        8
 70
   128
 43
0.0
 10
6344.0399169922
 20
4900.8115786722
 10
6344.1007931839
 20
4900.781313997
 10
6344.0993135622
 20
4900.7756856287
 10
6344.092045062
 20
4900.7700778235
 10
6344.0609854371
 20
4900.7589151445
 10
6343.5074228702
 20
4900.6924686648
 10
6335.4907655888
 20
4900.3327382797
 10
6326.353757567
 20
4899.8544701038
  0
LWPOLYLINE
  5
303
330
1F
100
AcDbEntity
  8
0
  6
Continuous
 62
     7
100
AcDbPolyline
 90
        3
 70
   128
 43
0.0
 10
6140.1863098145
 20
4822.5287115796
 10
6140.0783372555
 20
4822.7841311985
 10
6140.0489797063
 20
4822.9972115381
  0
LWPOLYLINE
  5
304
330
1F
100
AcDbEntity
  8
0
  6
Continuous
 62
     7
100
AcDbPolyline
 90
        3
 70
   128
 43
0.0
 10
6400.2265930176
 20
4822.5287115796
 10
6400.3367689353
 20
4822.7841311985
 10
6400.3661264844
 20
4822.9972115381
  0
LWPOLYLINE
  5
305
330
1F
100
AcDbEntity
  8
0
  6
Continuous
 62
     7
100
AcDbPolyline
 90
        3
 70
   128
 43
0.0
 10
6400.2265930176
 20
4822.5287115796
 10
6399.870569875
 20
4821.5973265198
 10
6399.5075513788
 20
4821.3594174607
  0
LWPOLYLINE
  5
306
330
1F
100
AcDbEntity
  8
0
  6
Continuous
 62
     7
100
AcDbPolyline
 90
        3
 70
   128
 43
0.0
 10
6140.9072875977
 20
4821.3594174607
 10
6140.4299104121
 20
4821.7350509467
 10
6140.1880671449
 20
4822.5287115796
  0
LWPOLYLINE
  5
307
330
1F
100
AcDbEntity
  8
0
  6
Continuous
 62
     7
100
AcDbPolyline
 90
        3
 70
   128
 43
0.0
 10
6399.5056152344
 20
4821.3594174607
 10
6400.9210003814
 20
4821.8735072708
 10
6401.6035934158
 20
4822.8911450727
  0
LWPOLYLINE
  5
308
330
1F
100
AcDbEntity
  8
0
  6
Continuous
 62
     7
100
AcDbPolyline
 90
        3
 70
   128
 43
0.0
 10
6400.3639221191
 20
4823.0743101461
 10
6400.4289758646
 20
4823.1684951596
 10
6400.4603018232
 20
4823.2556572779
  0
LWPOLYLINE
  5
309
330
1F
100
AcDbEntity
  8
0
  6
Continuous
 62
     7
100
AcDbPolyline
 90
        3
 70
   128
 43
0.0
 10
6138.8092041016
 20
4822.8911450727
 10
6139.7673251215
 20
4821.677347742
 10
6140.907554812
 20
4821.3594174607
  0
ENDSEC
  0
SECTION
  2
OBJECTS
  0
DICTIONARY
  5
C
330
0
100
AcDbDictionary
281
     1
  3
ACAD_GROUP
350
D
  3
ACAD_LAYOUT
350
1A
  3
ACAD_MLINESTYLE
350
17
  3
ACAD_PLOTSETTINGS
350
19
  3
ACAD_PLOTSTYLENAME
350
E
  3
ACAD_SCALELIST
350
47
  3
DWGPROPS
350
30A
  0
DICTIONARY
  5
D
102
{ACAD_REACTORS
330
C
102
}
330
C
100
AcDbDictionary
281
     1
  0
DICTIONARY
  5
1A
102
{ACAD_REACTORS
330
C
102
}
330
C
100
AcDbDictionary
281
     1
  3
Layout1
350
1E
  3
Layout2
350
26
  3
Model
350
22
  0
DICTIONARY
  5
17
102
{ACAD_REACTORS
330
C
102
}
330
C
100
AcDbDictionary
281
     1
  3
Standard
350
18
  0
DICTIONARY
  5
19
102
{ACAD_REACTORS
330
C
102
}
330
C
100
AcDbDictionary
281
     1
  0
ACDBDICTIONARYWDFLT
  5
E
102
{ACAD_REACTORS
330
C
102
}
330
C
100
AcDbDictionary
281
     1
  3
Normal
350
F
100
AcDbDictionaryWithDefault
340
F
  0
DICTIONARY
  5
47
102
{ACAD_REACTORS
330
C
102
}
330
C
100
AcDbDictionary
281
     1
  3
A0
350
48
  3
A1
350
49
  3
A2
350
4A
  3
A3
350
4B
  3
A4
350
4C
  3
A5
350
4D
  3
A6
350
4E
  3
A7
350
4F
  3
A8
350
50
  3
A9
350
51
  3
B0
350
52
  3
B1
350
53
  3
B2
350
54
  3
B3
350
55
  3
B4
350
56
  3
B5
350
57
  3
B6
350
58
  3
B7
350
59
  3
B8
350
5A
  3
B9
350
5B
  3
C0
350
5C
  3
C1
350
5D
  3
C2
350
5E
  3
C3
350
5F
  3
C4
350
60
  3
C5
350
61
  3
C6
350
62
  3
C7
350
63
  3
C8
350
64
  3
C9
350
65
  3
D0
350
66
  3
D1
350
67
  3
D2
350
68
  0
XRECORD
  5
30A
102
{ACAD_REACTORS
330
C
102
}
330
C
100
AcDbXrecord
280
     1
  1
DWGPROPS COOKIE
  2

  3

  4

  6

  7

  8
radek.stransky
  9

300
=
301
=
302
=
303
=
304
=
305
=
306
=
307
=
308
=
309
=
 40
0.0
 41
2459342.469553183
 42
2459342.469620093
  1

 90
        0
  0
LAYOUT
  5
1E
102
{ACAD_REACTORS
330
1A
102
}
330
1A
100
AcDbPlotSettings
  1

  2
none_device
  4

  6

 40
0.0
 41
0.0
 42
0.0
 43
0.0
 44
0.0
 45
0.0
 46
0.0
 47
0.0
 48
0.0
 49
0.0
140
0.0
141
0.0
142
1.0
143
1.0
 70
   688
 72
     1
 73
     0
 74
     5
  7

 75
    16
147
1.0
148
0.0
149
0.0
100
AcDbLayout
  1
Layout1
 70
     1
 71
     1
 10
0.0
 20
0.0
 11
420.0
 21
297.0
 12
0.0
 22
0.0
 32
0.0
 14
1.0000000000E+20
 24
1.0000000000E+20
 34
1.0000000000E+20
 15
-1.0000000000E+20
 25
-1.0000000000E+20
 35
-1.0000000000E+20
146
0.0
 13
0.0
 23
0.0
 33
0.0
 16
1.0
 26
0.0
 36
0.0
 17
0.0
 27
1.0
 37
0.0
 76
     0
330
1B
  0
LAYOUT
  5
26
102
{ACAD_REACTORS
330
1A
102
}
330
1A
100
AcDbPlotSettings
  1

  2
none_device
  4

  6

 40
0.0
 41
0.0
 42
0.0
 43
0.0
 44
0.0
 45
0.0
 46
0.0
 47
0.0
 48
0.0
 49
0.0
140
0.0
141
0.0
142
1.0
143
1.0
 70
   688
 72
     1
 73
     0
 74
     5
  7

 75
    16
147
1.0
148
0.0
149
0.0
100
AcDbLayout
  1
Layout2
 70
     1
 71
     2
 10
0.0
 20
0.0
 11
0.0
 21
0.0
 12
0.0
 22
0.0
 32
0.0
 14
0.0
 24
0.0
 34
0.0
 15
0.0
 25
0.0
 35
0.0
146
0.0
 13
0.0
 23
0.0
 33
0.0
 16
1.0
 26
0.0
 36
0.0
 17
0.0
 27
1.0
 37
0.0
 76
     0
330
23
  0
LAYOUT
  5
22
102
{ACAD_REACTORS
330
1A
102
}
330
1A
100
AcDbPlotSettings
  1

  2
none_device
  4
ANSI_A_(11.00_x_8.50_Inches)
  6

 40
6.35
 41
19.05
 42
6.35000508
 43
19.05000254
 44
279.4
 45
215.9
 46
-2348.0064436654
 47
-1854.759711924
 48
0.0
 49
0.0
140
0.0
141
0.0
142
0.0151741559
143
1.0
 70
  1696
 72
     0
 73
     0
 74
     0
  7

 75
     0
147
0.0179189148
148
-1300.4909072572
149
0.0
100
AcDbLayout
  1
Model
 70
     1
 71
     0
 10
0.0
 20
0.0
 11
420.0
 21
297.0
 12
0.0
 22
0.0
 32
0.0
 14
6138.7075473733
 24
4765.6381270512
 34
0.0
 15
6737.2901926406
 25
5320.1994523278
 35
0.0
146
0.0
 13
0.0
 23
0.0
 33
0.0
 16
1.0
 26
0.0
 36
0.0
 17
0.0
 27
1.0
 37
0.0
 76
     0
330
1F
331
29
  0
MLINESTYLE
  5
18
102
{ACAD_REACTORS
330
17
102
}
330
17
100
AcDbMlineStyle
  2
Standard
 70
     0
  3

 62
   256
 51
90.0
 52
90.0
 71
     2
 49
0.5
 62
   256
  6
BYLAYER
 49
-0.5
 62
   256
  6
BYLAYER
  0
ACDBPLACEHOLDER
  5
F
102
{ACAD_REACTORS
330
E
102
}
330
E
  0
SCALE
  5
48
102
{ACAD_REACTORS
330
47
102
}
330
47
100
AcDbScale
 70
     0
300
1:1
140
1.0
141
1.0
290
     1
  0
SCALE
  5
49
102
{ACAD_REACTORS
330
47
102
}
330
47
100
AcDbScale
 70
     0
300
1:2
140
1.0
141
2.0
290
     0
  0
SCALE
  5
4A
102
{ACAD_REACTORS
330
47
102
}
330
47
100
AcDbScale
 70
     0
300
1:4
140
1.0
141
4.0
290
     0
  0
SCALE
  5
4B
102
{ACAD_REACTORS
330
47
102
}
330
47
100
AcDbScale
 70
     0
300
1:5
140
1.0
141
5.0
290
     0
  0
SCALE
  5
4C
102
{ACAD_REACTORS
330
47
102
}
330
47
100
AcDbScale
 70
     0
300
1:8
140
1.0
141
8.0
290
     0
  0
SCALE
  5
4D
102
{ACAD_REACTORS
330
47
102
}
330
47
100
AcDbScale
 70
     0
300
1:10
140
1.0
141
10.0
290
     0
  0
SCALE
  5
4E
102
{ACAD_REACTORS
330
47
102
}
330
47
100
AcDbScale
 70
     0
300
1:16
140
1.0
141
16.0
290
     0
  0
SCALE
  5
4F
102
{ACAD_REACTORS
330
47
102
}
330
47
100
AcDbScale
 70
     0
300
1:20
140
1.0
141
20.0
290
     0
  0
SCALE
  5
50
102
{ACAD_REACTORS
330
47
102
}
330
47
100
AcDbScale
 70
     0
300
1:30
140
1.0
141
30.0
290
     0
  0
SCALE
  5
51
102
{ACAD_REACTORS
330
47
102
}
330
47
100
AcDbScale
 70
     0
300
1:40
140
1.0
141
40.0
290
     0
  0
SCALE
  5
52
102
{ACAD_REACTORS
330
47
102
}
330
47
100
AcDbScale
 70
     0
300
1:50
140
1.0
141
50.0
290
     0
  0
SCALE
  5
53
102
{ACAD_REACTORS
330
47
102
}
330
47
100
AcDbScale
 70
     0
300
1:100
140
1.0
141
100.0
290
     0
  0
SCALE
  5
54
102
{ACAD_REACTORS
330
47
102
}
330
47
100
AcDbScale
 70
     0
300
2:1
140
2.0
141
1.0
290
     0
  0
SCALE
  5
55
102
{ACAD_REACTORS
330
47
102
}
330
47
100
AcDbScale
 70
     0
300
4:1
140
4.0
141
1.0
290
     0
  0
SCALE
  5
56
102
{ACAD_REACTORS
330
47
102
}
330
47
100
AcDbScale
 70
     0
300
8:1
140
8.0
141
1.0
290
     0
  0
SCALE
  5
57
102
{ACAD_REACTORS
330
47
102
}
330
47
100
AcDbScale
 70
     0
300
10:1
140
10.0
141
1.0
290
     0
  0
SCALE
  5
58
102
{ACAD_REACTORS
330
47
102
}
330
47
100
AcDbScale
 70
     0
300
100:1
140
100.0
141
1.0
290
     0
  0
SCALE
  5
59
102
{ACAD_REACTORS
330
47
102
}
330
47
100
AcDbScale
 70
     0
300
1/128" = 1'-0"
140
0.0078125
141
12.0
290
     0
  0
SCALE
  5
5A
102
{ACAD_REACTORS
330
47
102
}
330
47
100
AcDbScale
 70
     0
300
1/64" = 1'-0"
140
0.015625
141
12.0
290
     0
  0
SCALE
  5
5B
102
{ACAD_REACTORS
330
47
102
}
330
47
100
AcDbScale
 70
     0
300
1/32" = 1'-0"
140
0.03125
141
12.0
290
     0
  0
SCALE
  5
5C
102
{ACAD_REACTORS
330
47
102
}
330
47
100
AcDbScale
 70
     0
300
1/16" = 1'-0"
140
0.0625
141
12.0
290
     0
  0
SCALE
  5
5D
102
{ACAD_REACTORS
330
47
102
}
330
47
100
AcDbScale
 70
     0
300
3/32" = 1'-0"
140
0.09375
141
12.0
290
     0
  0
SCALE
  5
5E
102
{ACAD_REACTORS
330
47
102
}
330
47
100
AcDbScale
 70
     0
300
1/8" = 1'-0"
140
0.125
141
12.0
290
     0
  0
SCALE
  5
5F
102
{ACAD_REACTORS
330
47
102
}
330
47
100
AcDbScale
 70
     0
300
3/16" = 1'-0"
140
0.1875
141
12.0
290
     0
  0
SCALE
  5
60
102
{ACAD_REACTORS
330
47
102
}
330
47
100
AcDbScale
 70
     0
300
1/4" = 1'-0"
140
0.25
141
12.0
290
     0
  0
SCALE
  5
61
102
{ACAD_REACTORS
330
47
102
}
330
47
100
AcDbScale
 70
     0
300
3/8" = 1'-0"
140
0.375
141
12.0
290
     0
  0
SCALE
  5
62
102
{ACAD_REACTORS
330
47
102
}
330
47
100
AcDbScale
 70
     0
300
1/2" = 1'-0"
140
0.5
141
12.0
290
     0
  0
SCALE
  5
63
102
{ACAD_REACTORS
330
47
102
}
330
47
100
AcDbScale
 70
     0
300
3/4" = 1'-0"
140
0.75
141
12.0
290
     0
  0
SCALE
  5
64
102
{ACAD_REACTORS
330
47
102
}
330
47
100
AcDbScale
 70
     0
300
1" = 1'-0"
140
1.0
141
12.0
290
     0
  0
SCALE
  5
65
102
{ACAD_REACTORS
330
47
102
}
330
47
100
AcDbScale
 70
     0
300
1-1/2" = 1'-0"
140
1.5
141
12.0
290
     0
  0
SCALE
  5
66
102
{ACAD_REACTORS
330
47
102
}
330
47
100
AcDbScale
 70
     0
300
3" = 1'-0"
140
3.0
141
12.0
290
     0
  0
SCALE
  5
67
102
{ACAD_REACTORS
330
47
102
}
330
47
100
AcDbScale
 70
     0
300
6" = 1'-0"
140
6.0
141
12.0
290
     0
  0
SCALE
  5
68
102
{ACAD_REACTORS
330
47
102
}
330
47
100
AcDbScale
 70
     0
300
1'-0" = 1'-0"
140
12.0
141
12.0
290
     0
  0
ENDSEC
  0
EOF
