  0
SECTION
  2
HEADER
  9
$ACADVER
  1
AC1015
  9
$ACADMAINTVER
 70
     6
  9
$DWGCODEPAGE
  3
ANSI_1250
  9
$INSBASE
 10
0.0
 20
0.0
 30
0.0
  9
$EXTMIN
 10
0.0
 20
0.0
 30
0.0
  9
$EXTMAX
 10
20000.0
 20
10000.0
 30
0.0
  9
$LIMMIN
 10
0.0
 20
0.0
  9
$LIMMAX
 10
20000.0
 20
10000.0
  9
$ORTHOMODE
 70
     0
  9
$REGENMODE
 70
     1
  9
$FILLMODE
 70
     1
  9
$QTEXTMODE
 70
     0
  9
$MIRRTEXT
 70
     1
  9
$LTSCALE
 40
1.0
  9
$ATTMODE
 70
     1
  9
$TEXTSIZE
 40
2.0
  9
$TRACEWID
 40
1.0
  9
$TEXTSTYLE
  7
Standard
  9
$CLAYER
  8
0
  9
$CELTYPE
  6
ByLayer
  9
$CECOLOR
 62
   256
  9
$CELTSCALE
 40
1.0
  9
$DISPSILH
 70
     0
  9
$DIMSCALE
 40
1.0
  9
$DIMASZ
 40
2.0
  9
$DIMEXO
 40
1.0
  9
$DIMDLI
 40
3.75
  9
$DIMRND
 40
0.0
  9
$DIMDLE
 40
0.0
  9
$DIMEXE
 40
1.0
  9
$DIMTP
 40
0.0
  9
$DIMTM
 40
0.0
  9
$DIMTXT
 40
2.0
  9
$DIMCEN
 40
2.5
  9
$DIMTSZ
 40
0.0
  9
$DIMTOL
 70
     0
  9
$DIMLIM
 70
     0
  9
$DIMTIH
 70
     1
  9
$DIMTOH
 70
     1
  9
$DIMSE1
 70
     0
  9
$DIMSE2
 70
     0
  9
$DIMTAD
 70
     1
  9
$DIMZIN
 70
     0
  9
$DIMBLK
  1

  9
$DIMASO
 70
     1
  9
$DIMSHO
 70
     1
  9
$DIMPOST
  1

  9
$DIMAPOST
  1

  9
$DIMALT
 70
     0
  9
$DIMALTD
 70
     3
  9
$DIMALTF
 40
0.0393700787
  9
$DIMLFAC
 40
1.0
  9
$DIMTOFL
 70
     1
  9
$DIMTVP
 40
0.0
  9
$DIMTIX
 70
     0
  9
$DIMSOXD
 70
     0
  9
$DIMSAH
 70
     0
  9
$DIMBLK1
  1

  9
$DIMBLK2
  1

  9
$DIMSTYLE
  2
ISO-25
  9
$DIMCLRD
 70
     0
  9
$DIMCLRE
 70
     0
  9
$DIMCLRT
 70
     0
  9
$DIMTFAC
 40
1.0
  9
$DIMGAP
 40
1.524
  9
$DIMJUST
 70
     0
  9
$DIMSD1
 70
     0
  9
$DIMSD2
 70
     0
  9
$DIMTOLJ
 70
     0
  9
$DIMTZIN
 70
     0
  9
$DIMALTZ
 70
     0
  9
$DIMALTTZ
 70
     0
  9
$DIMUPT
 70
     0
  9
$DIMDEC
 70
     2
  9
$DIMTDEC
 70
     0
  9
$DIMALTU
 70
     2
  9
$DIMALTTD
 70
     3
  9
$DIMTXSTY
  7
Standard
  9
$DIMAUNIT
 70
     0
  9
$DIMADEC
 70
     2
  9
$DIMALTRND
 40
0.0
  9
$DIMAZIN
 70
     0
  9
$DIMDSEP
 70
    44
  9
$DIMATFIT
 70
     3
  9
$DIMFRAC
 70
     0
  9
$DIMLDRBLK
  1

  9
$DIMLUNIT
 70
     2
  9
$DIMLWD
 70
    -2
  9
$DIMLWE
 70
    -2
  9
$DIMTMOVE
 70
     0
  9
$LUNITS
 70
     2
  9
$LUPREC
 70
     3
  9
$SKETCHINC
 40
1.0
  9
$FILLETRAD
 40
10.0
  9
$AUNITS
 70
     0
  9
$AUPREC
 70
     2
  9
$MENU
  1
.
  9
$ELEVATION
 40
0.0
  9
$PELEVATION
 40
0.0
  9
$THICKNESS
 40
0.0
  9
$LIMCHECK
 70
     0
  9
$CHAMFERA
 40
0.0
  9
$CHAMFERB
 40
0.0
  9
$CHAMFERC
 40
0.0
  9
$CHAMFERD
 40
0.0
  9
$SKPOLY
 70
     0
  9
$TDCREATE
 40
2459345.505110544
  9
$TDUCREATE
 40
2459345.421777211
  9
$TDUPDATE
 40
2459345.50511081
  9
$TDUUPDATE
 40
2459345.421777477
  9
$TDINDWG
 40
0.0000000116
  9
$TDUSRTIMER
 40
0.0000000116
  9
$USRTIMER
 70
     1
  9
$ANGBASE
 50
0.0
  9
$ANGDIR
 70
     0
  9
$PDMODE
 70
     0
  9
$PDSIZE
 40
-1.0
  9
$PLINEWID
 40
0.0
  9
$SPLFRAME
 70
     0
  9
$SPLINETYPE
 70
     6
  9
$SPLINESEGS
 70
     8
  9
$HANDSEED
  5
16B
  9
$SURFTAB1
 70
     6
  9
$SURFTAB2
 70
     6
  9
$SURFTYPE
 70
     6
  9
$SURFU
 70
     6
  9
$SURFV
 70
     6
  9
$UCSBASE
  2

  9
$UCSNAME
  2

  9
$UCSORG
 10
0.0
 20
0.0
 30
0.0
  9
$UCSXDIR
 10
1.0
 20
0.0
 30
0.0
  9
$UCSYDIR
 10
0.0
 20
1.0
 30
0.0
  9
$UCSORTHOREF
  2

  9
$UCSORTHOVIEW
 70
     0
  9
$UCSORGTOP
 10
0.0
 20
0.0
 30
0.0
  9
$UCSORGBOTTOM
 10
0.0
 20
0.0
 30
0.0
  9
$UCSORGLEFT
 10
0.0
 20
0.0
 30
0.0
  9
$UCSORGRIGHT
 10
0.0
 20
0.0
 30
0.0
  9
$UCSORGFRONT
 10
0.0
 20
0.0
 30
0.0
  9
$UCSORGBACK
 10
0.0
 20
0.0
 30
0.0
  9
$PUCSBASE
  2

  9
$PUCSNAME
  2

  9
$PUCSORG
 10
0.0
 20
0.0
 30
0.0
  9
$PUCSXDIR
 10
1.0
 20
0.0
 30
0.0
  9
$PUCSYDIR
 10
0.0
 20
1.0
 30
0.0
  9
$PUCSORTHOREF
  2

  9
$PUCSORTHOVIEW
 70
     0
  9
$PUCSORGTOP
 10
0.0
 20
0.0
 30
0.0
  9
$PUCSORGBOTTOM
 10
0.0
 20
0.0
 30
0.0
  9
$PUCSORGLEFT
 10
0.0
 20
0.0
 30
0.0
  9
$PUCSORGRIGHT
 10
0.0
 20
0.0
 30
0.0
  9
$PUCSORGFRONT
 10
0.0
 20
0.0
 30
0.0
  9
$PUCSORGBACK
 10
0.0
 20
0.0
 30
0.0
  9
$USERI1
 70
     0
  9
$USERI2
 70
     0
  9
$USERI3
 70
     0
  9
$USERI4
 70
     0
  9
$USERI5
 70
     0
  9
$USERR1
 40
0.0
  9
$USERR2
 40
0.0
  9
$USERR3
 40
0.0
  9
$USERR4
 40
0.0
  9
$USERR5
 40
0.0
  9
$WORLDVIEW
 70
     1
  9
$SHADEDGE
 70
     3
  9
$SHADEDIF
 70
    70
  9
$TILEMODE
 70
     1
  9
$MAXACTVP
 70
    64
  9
$PINSBASE
 10
0.0
 20
0.0
 30
0.0
  9
$PLIMCHECK
 70
     0
  9
$PEXTMIN
 10
1.0000000000E+20
 20
1.0000000000E+20
 30
1.0000000000E+20
  9
$PEXTMAX
 10
-1.0000000000E+20
 20
-1.0000000000E+20
 30
-1.0000000000E+20
  9
$PLIMMIN
 10
0.0
 20
0.0
  9
$PLIMMAX
 10
420.0
 20
297.0
  9
$UNITMODE
 70
     0
  9
$VISRETAIN
 70
     1
  9
$PLINEGEN
 70
     0
  9
$PSLTSCALE
 70
     1
  9
$TREEDEPTH
 70
  3020
  9
$CMLSTYLE
  2
Standard
  9
$CMLJUST
 70
     0
  9
$CMLSCALE
 40
20.0
  9
$PROXYGRAPHICS
 70
     1
  9
$MEASUREMENT
 70
     1
  9
$CELWEIGHT
370
    -1
  9
$ENDCAPS
280
     0
  9
$JOINSTYLE
280
     0
  9
$LWDISPLAY
290
     1
  9
$INSUNITS
 70
     4
  9
$HYPERLINKBASE
  1

  9
$STYLESHEET
  1

  9
$XEDIT
290
     1
  9
$CEPSNTYPE
380
     0
  9
$PSTYLEMODE
290
     1
  9
$FINGERPRINTGUID
  2
{8a99ab19-b1b2-40d2-9454-4609a0cdeb5c}
  9
$VERSIONGUID
  2
{FAEB1C32-E019-11D5-929B-00C0DF256EC4}
  9
$EXTNAMES
290
     1
  9
$PSVPSCALE
 40
0.0
  9
$OLESTARTUP
290
     0
  0
ENDSEC
  0
SECTION
  2
CLASSES
  0
CLASS
  1
ACDBDICTIONARYWDFLT
  2
AcDbDictionaryWithDefault
  3
ObjectDBX Classes
 90
        0
280
     0
281
     0
  0
CLASS
  1
VISUALSTYLE
  2
AcDbVisualStyle
  3
ObjectDBX Classes
 90
     4095
280
     0
281
     0
  0
CLASS
  1
MATERIAL
  2
AcDbMaterial
  3
ObjectDBX Classes
 90
     1153
280
     0
281
     0
  0
CLASS
  1
SCALE
  2
AcDbScale
  3
ObjectDBX Classes
 90
     1153
280
     0
281
     0
  0
CLASS
  1
TABLESTYLE
  2
AcDbTableStyle
  3
ObjectDBX Classes
 90
     4095
280
     0
281
     0
  0
CLASS
  1
MLEADERSTYLE
  2
AcDbMLeaderStyle
  3
ACDB_MLEADERSTYLE_CLASS
 90
     4095
280
     0
281
     0
  0
CLASS
  1
SUN
  2
AcDbSun
  3
SCENEOE
 90
     1153
280
     0
281
     0
  0
CLASS
  1
ACDBPLACEHOLDER
  2
AcDbPlaceHolder
  3
ObjectDBX Classes
 90
        0
280
     0
281
     0
  0
CLASS
  1
LAYOUT
  2
AcDbLayout
  3
ObjectDBX Classes
 90
        0
280
     0
281
     0
  0
ENDSEC
  0
SECTION
  2
TABLES
  0
TABLE
  2
VPORT
  5
8
330
0
100
AcDbSymbolTable
 70
     1
  0
VPORT
  5
29
330
8
100
AcDbSymbolTableRecord
100
AcDbViewportTableRecord
  2
*Active
 70
     0
 10
0.0
 20
0.0
 11
1.0
 21
1.0
 12
10000.0
 22
5000.0
 13
0.0
 23
0.0
 14
10.0
 24
10.0
 15
10.0
 25
10.0
 16
0.0
 26
0.0
 36
1.0
 17
0.0
 27
0.0
 37
0.0
 40
10000.0
 41
2.0
 42
50.0
 43
0.0
 44
0.0
 50
0.0
 51
0.0
 71
     0
 72
  2000
 73
     1
 74
     3
 75
     0
 76
     0
 77
     0
 78
     0
281
     0
 65
     1
110
0.0
120
0.0
130
0.0
111
1.0
121
0.0
131
0.0
112
0.0
122
1.0
132
0.0
 79
     0
146
0.0
  0
ENDTAB
  0
TABLE
  2
LTYPE
  5
5
330
0
100
AcDbSymbolTable
 70
     6
  0
LTYPE
  5
14
330
5
100
AcDbSymbolTableRecord
100
AcDbLinetypeTableRecord
  2
ByBlock
 70
     0
  3

 72
    65
 73
     0
 40
0.0
  0
LTYPE
  5
15
330
5
100
AcDbSymbolTableRecord
100
AcDbLinetypeTableRecord
  2
ByLayer
 70
     0
  3

 72
    65
 73
     0
 40
0.0
  0
LTYPE
  5
16
330
5
100
AcDbSymbolTableRecord
100
AcDbLinetypeTableRecord
  2
Continuous
 70
     0
  3
Solid line
 72
    65
 73
     0
 40
0.0
  0
LTYPE
  5
6E
330
5
100
AcDbSymbolTableRecord
100
AcDbLinetypeTableRecord
  2
HIDDEN
 70
     0
  3
Hidden __ __ __ __ __ __ __ __ __ __ __ __ __ __
 72
    65
 73
     2
 40
1.905
 49
1.27
 74
     0
 49
-0.635
 74
     0
  0
LTYPE
  5
6F
330
5
100
AcDbSymbolTableRecord
100
AcDbLinetypeTableRecord
  2
PHANTOM
 70
     0
  3
Phantom ______  __  __  ______  __  __  ______
 72
    65
 73
     6
 40
12.7
 49
6.35
 74
     0
 49
-1.27
 74
     0
 49
1.27
 74
     0
 49
-1.27
 74
     0
 49
1.27
 74
     0
 49
-1.27
 74
     0
  0
LTYPE
  5
70
330
5
100
AcDbSymbolTableRecord
100
AcDbLinetypeTableRecord
  2
CENTER
 70
     0
  3
Center ____ _ ____ _ ____ _ ____ _ ____ _ ____
 72
    65
 73
     4
 40
10.16
 49
6.35
 74
     0
 49
-1.27
 74
     0
 49
1.27
 74
     0
 49
-1.27
 74
     0
  0
LTYPE
  5
71
330
5
100
AcDbSymbolTableRecord
100
AcDbLinetypeTableRecord
  2
CENTERX2
 70
     0
  3
Center (2x) ________  __  ________  __  _____
 72
    65
 73
     4
 40
20.32
 49
12.7
 74
     0
 49
-2.54
 74
     0
 49
2.54
 74
     0
 49
-2.54
 74
     0
  0
LTYPE
  5
72
330
5
100
AcDbSymbolTableRecord
100
AcDbLinetypeTableRecord
  2
DOT2
 70
     0
  3
Dot (.5x) ........................................
 72
    65
 73
     2
 40
0.635
 49
0.0
 74
     0
 49
-0.635
 74
     0
  0
ENDTAB
  0
TABLE
  2
LAYER
  5
2
330
0
100
AcDbSymbolTable
 70
    13
  0
LAYER
  5
10
330
2
100
AcDbSymbolTableRecord
100
AcDbLayerTableRecord
  2
0
 70
     0
 62
     7
  6
Continuous
370
    -3
390
F
  0
LAYER
  5
73
330
2
100
AcDbSymbolTableRecord
100
AcDbLayerTableRecord
  2
FORMAT
 70
     0
 62
     7
  6
Continuous
370
    -3
390
F
  0
LAYER
  5
74
330
2
100
AcDbSymbolTableRecord
100
AcDbLayerTableRecord
  2
OSA
 70
     0
 62
     7
  6
CENTER
370
    -3
390
F
  0
LAYER
  5
75
330
2
100
AcDbSymbolTableRecord
100
AcDbLayerTableRecord
  2
0_35
 70
     0
 62
     7
  6
Continuous
370
    35
390
F
  0
LAYER
  5
76
330
2
100
AcDbSymbolTableRecord
100
AcDbLayerTableRecord
  2
0_5
 70
     0
 62
     7
  6
Continuous
370
    50
390
F
  0
LAYER
  5
77
330
2
100
AcDbSymbolTableRecord
100
AcDbLayerTableRecord
  2
0_25
 70
     0
 62
     7
  6
Continuous
370
    25
390
F
  0
LAYER
  5
78
330
2
100
AcDbSymbolTableRecord
100
AcDbLayerTableRecord
  2
0_18
 70
     0
 62
     7
  6
Continuous
370
    -3
390
F
  0
LAYER
  5
79
330
2
100
AcDbSymbolTableRecord
100
AcDbLayerTableRecord
  2
SLD-0
 70
     0
 62
   179
  6
Continuous
370
    -3
390
F
  0
LAYER
  5
7A
330
2
100
AcDbSymbolTableRecord
100
AcDbLayerTableRecord
  2
KOTY
 70
     0
 62
     7
  6
Continuous
370
    -3
390
F
  0
LAYER
  5
7B
330
2
100
AcDbSymbolTableRecord
100
AcDbLayerTableRecord
  2
SILNA
 70
     0
 62
   179
  6
Continuous
370
    -3
390
F
  0
LAYER
  5
7C
330
2
100
AcDbSymbolTableRecord
100
AcDbLayerTableRecord
  2
0_18_1
 70
     0
 62
   179
  6
Continuous
370
    -3
390
F
  0
LAYER
  5
7D
330
2
100
AcDbSymbolTableRecord
100
AcDbLayerTableRecord
  2
0_35_1
 70
     0
 62
   179
  6
Continuous
370
    35
390
F
  0
LAYER
  5
7E
330
2
100
AcDbSymbolTableRecord
100
AcDbLayerTableRecord
  2
0_5_1
 70
     0
 62
   179
  6
Continuous
370
    50
390
F
  0
ENDTAB
  0
TABLE
  2
STYLE
  5
3
330
0
100
AcDbSymbolTable
 70
     1
  0
STYLE
  5
11
330
3
100
AcDbSymbolTableRecord
100
AcDbTextStyleTableRecord
  2
Standard
 70
     0
 40
0.0
 41
1.0
 50
0.0
 71
     0
 42
2.0
  3
txt
  4

  0
ENDTAB
  0
TABLE
  2
VIEW
  5
6
330
0
100
AcDbSymbolTable
 70
     0
  0
ENDTAB
  0
TABLE
  2
UCS
  5
7
330
0
100
AcDbSymbolTable
 70
     0
  0
ENDTAB
  0
TABLE
  2
APPID
  5
9
330
0
100
AcDbSymbolTable
 70
     1
  0
APPID
  5
12
330
9
100
AcDbSymbolTableRecord
100
AcDbRegAppTableRecord
  2
ACAD
 70
     0
  0
ENDTAB
  0
TABLE
  2
DIMSTYLE
  5
A
330
0
100
AcDbSymbolTable
 70
     1
100
AcDbDimStyleTable
  0
DIMSTYLE
105
27
330
A
100
AcDbSymbolTableRecord
100
AcDbDimStyleTableRecord
  2
ISO-25
 70
     0
 41
2.5
 42
0.625
 43
3.75
 44
1.25
 73
     0
 74
     0
 77
     1
 78
     8
140
2.5
141
2.5
143
0.0393700787
147
0.625
171
     3
172
     1
178
     0
271
     2
272
     2
274
     3
278
    44
283
     0
284
     8
340
11
  0
ENDTAB
  0
TABLE
  2
BLOCK_RECORD
  5
1
330
0
100
AcDbSymbolTable
 70
     1
  0
BLOCK_RECORD
  5
1F
330
1
100
AcDbSymbolTableRecord
100
AcDbBlockTableRecord
  2
*Model_Space
340
22
  0
BLOCK_RECORD
  5
1B
330
1
100
AcDbSymbolTableRecord
100
AcDbBlockTableRecord
  2
*Paper_Space
340
1E
  0
BLOCK_RECORD
  5
23
330
1
100
AcDbSymbolTableRecord
100
AcDbBlockTableRecord
  2
*Paper_Space0
340
26
  0
ENDTAB
  0
ENDSEC
  0
SECTION
  2
BLOCKS
  0
BLOCK
  5
20
330
1F
100
AcDbEntity
  8
0
100
AcDbBlockBegin
  2
*Model_Space
 70
     0
 10
0.0
 20
0.0
 30
0.0
  3
*Model_Space
  1

  0
ENDBLK
  5
21
330
1F
100
AcDbEntity
  8
0
100
AcDbBlockEnd
  0
BLOCK
  5
1C
330
1B
100
AcDbEntity
 67
     1
  8
0
100
AcDbBlockBegin
  2
*Paper_Space
 70
     0
 10
0.0
 20
0.0
 30
0.0
  3
*Paper_Space
  1

  0
ENDBLK
  5
1D
330
1B
100
AcDbEntity
 67
     1
  8
0
100
AcDbBlockEnd
  0
BLOCK
  5
24
330
23
100
AcDbEntity
  8
0
100
AcDbBlockBegin
  2
*Paper_Space0
 70
     0
 10
0.0
 20
0.0
 30
0.0
  3
*Paper_Space0
  1

  0
ENDBLK
  5
25
330
23
100
AcDbEntity
  8
0
100
AcDbBlockEnd
  0
ENDSEC
  0
SECTION
  2
ENTITIES
  0
LINE
  5
7F
330
1F
100
AcDbEntity
  8
0
  6
Continuous
 62
     7
370
    25
100
AcDbLine
 10
6398.0947638982
 20
5029.2109192864
 30
0.0
 11
6398.0947638982
 21
5028.8573658958
 31
0.0
  0
LINE
  5
80
330
1F
100
AcDbEntity
  8
0
  6
Continuous
 62
     7
370
    25
100
AcDbLine
 10
6416.5947638982
 20
5028.8573658958
 30
0.0
 11
6416.5947638982
 21
5029.2109192864
 31
0.0
  0
LINE
  5
81
330
1F
100
AcDbEntity
  8
0
  6
Continuous
 62
     7
370
    25
100
AcDbLine
 10
6414.8447638982
 20
5028.8573658958
 30
0.0
 11
6414.8447638982
 21
5029.564472677
 31
0.0
  0
LINE
  5
82
330
1F
100
AcDbEntity
  8
0
  6
Continuous
 62
     7
370
    25
100
AcDbLine
 10
6399.8447638982
 20
5029.564472677
 30
0.0
 11
6399.8447638982
 21
5028.8573658958
 31
0.0
  0
LINE
  5
83
330
1F
100
AcDbEntity
  8
0
  6
Continuous
 62
     7
370
    25
100
AcDbLine
 10
6382.4447638982
 20
5072.0997540512
 30
0.0
 11
6382.7447638982
 21
5071.7997540512
 31
0.0
  0
LINE
  5
84
330
1F
100
AcDbEntity
  8
0
  6
Continuous
 62
     7
370
    25
100
AcDbLine
 10
6431.9447638982
 20
5071.7997540512
 30
0.0
 11
6432.2447638982
 21
5072.0997540512
 31
0.0
  0
LINE
  5
85
330
1F
100
AcDbEntity
  8
0
  6
Continuous
 62
     7
370
    25
100
AcDbLine
 10
6432.2447638982
 20
5073.7997540512
 30
0.0
 11
6431.2447638982
 21
5074.7997540512
 31
0.0
  0
LINE
  5
86
330
1F
100
AcDbEntity
  8
0
  6
Continuous
 62
     7
370
    25
100
AcDbLine
 10
6383.4447638982
 20
5074.7997540512
 30
0.0
 11
6382.4447638982
 21
5073.7997540512
 31
0.0
  0
LINE
  5
87
330
1F
100
AcDbEntity
  8
0
  6
Continuous
 62
     7
370
    25
100
AcDbLine
 10
6382.4447638982
 20
5073.7997540512
 30
0.0
 11
6382.4447638982
 21
5072.0997540512
 31
0.0
  0
LINE
  5
88
330
1F
100
AcDbEntity
  8
0
  6
Continuous
 62
     7
370
    25
100
AcDbLine
 10
6432.2447638982
 20
5072.0997540512
 30
0.0
 11
6432.2447638982
 21
5073.7997540512
 31
0.0
  0
LINE
  5
89
330
1F
100
AcDbEntity
  8
0
  6
Continuous
 62
     7
370
    25
100
AcDbLine
 10
6445.2483537367
 20
4989.3997540512
 30
0.0
 11
6445.7483537367
 21
4989.8997540512
 31
0.0
  0
LINE
  5
8A
330
1F
100
AcDbEntity
  8
0
  6
Continuous
 62
     7
370
    25
100
AcDbLine
 10
6445.7483537367
 20
5004.6997540512
 30
0.0
 11
6445.2483537367
 21
5005.1997540512
 31
0.0
  0
LINE
  5
8B
330
1F
100
AcDbEntity
  8
0
  6
Continuous
 62
     7
370
    25
100
AcDbLine
 10
6438.7537344055
 20
5005.1997540512
 30
0.0
 11
6432.0304010218
 21
5005.1997540512
 31
0.0
  0
LINE
  5
8C
330
1F
100
AcDbEntity
  8
0
  6
Continuous
 62
     7
370
    25
100
AcDbLine
 10
6445.2483537367
 20
5005.1997540512
 30
0.0
 11
6442.7429730678
 21
5005.1997540512
 31
0.0
  0
LINE
  5
8D
330
1F
100
AcDbEntity
  8
0
  6
Continuous
 62
     7
370
    25
100
AcDbLine
 10
6432.0303780713
 20
4989.3997540512
 30
0.0
 11
6445.2483537367
 21
4989.3997540512
 31
0.0
  0
LINE
  5
8E
330
1F
100
AcDbEntity
  8
0
  6
Continuous
 62
     7
370
    25
100
AcDbLine
 10
6442.7483537367
 20
5005.1997540512
 30
0.0
 11
6442.7483537367
 21
5020.6957242768
 31
0.0
  0
LINE
  5
8F
330
1F
100
AcDbEntity
  8
0
  6
Continuous
 62
     7
370
    25
100
AcDbLine
 10
6438.7483537367
 20
5020.6957242768
 30
0.0
 11
6438.7483537367
 21
5005.1997540512
 31
0.0
  0
ARC
  5
90
330
1F
100
AcDbEntity
  8
0
  6
Continuous
 62
     7
370
    25
100
AcDbCircle
 10
6440.7483537367
 20
5017.6629133216
 30
0.0
 40
3.633333333334201
100
AcDbArc
 50
56.6164821083
 51
123.3835178917
  0
LINE
  5
91
330
1F
100
AcDbEntity
  8
0
  6
Continuous
 62
     7
370
    25
100
AcDbLine
 10
6382.5947638982
 20
5071.5997540512
 30
0.0
 11
6382.5947638982
 21
4938.9997540512
 31
0.0
  0
LINE
  5
92
330
1F
100
AcDbEntity
  8
0
  6
Continuous
 62
     7
370
    25
100
AcDbLine
 10
6432.0947638982
 20
5005.3997540512
 30
0.0
 11
6432.0947638982
 21
5071.5997540512
 31
0.0
  0
LINE
  5
93
330
1F
100
AcDbEntity
  8
0
  6
Continuous
 62
     7
370
    25
100
AcDbLine
 10
6432.0947638982
 20
4938.9997540512
 30
0.0
 11
6432.0947638982
 21
4989.2031055827
 31
0.0
  0
LINE
  5
94
330
1F
100
AcDbEntity
  8
0
  6
Continuous
 62
     7
370
    25
100
AcDbLine
 10
6432.0947638982
 20
5071.5997540512
 30
0.0
 11
6431.8947638982
 21
5071.7997540512
 31
0.0
  0
LINE
  5
95
330
1F
100
AcDbEntity
  8
0
  6
Continuous
 62
     7
370
    25
100
AcDbLine
 10
6382.7947638982
 20
5071.7997540512
 30
0.0
 11
6382.5947638982
 21
5071.5997540512
 31
0.0
  0
LINE
  5
96
330
1F
100
AcDbEntity
  8
0
  6
Continuous
 62
     7
370
    25
100
AcDbLine
 10
6382.5947638982
 20
4938.9997540512
 30
0.0
 11
6382.7947638982
 21
4938.7997540512
 31
0.0
  0
LINE
  5
97
330
1F
100
AcDbEntity
  8
0
  6
Continuous
 62
     7
370
    25
100
AcDbLine
 10
6431.8947638982
 20
4938.7997540512
 30
0.0
 11
6432.0947638982
 21
4938.9997540512
 31
0.0
  0
LINE
  5
98
330
1F
100
AcDbEntity
  8
0
  6
Continuous
 62
     7
370
    25
100
AcDbLine
 10
6437.3447638982
 20
4936.8600809848
 30
0.0
 11
6436.861800985
 21
4937.6965972886
 31
0.0
  0
LINE
  5
99
330
1F
100
AcDbEntity
  8
0
  6
Continuous
 62
     7
370
    25
100
AcDbLine
 10
6377.8277268113
 20
4937.6965972886
 30
0.0
 11
6377.3447638982
 21
4936.8600809848
 31
0.0
  0
LINE
  5
9A
330
1F
100
AcDbEntity
  8
0
  6
Continuous
 62
     7
370
    25
100
AcDbLine
 10
6437.3447638982
 20
4934.7997540512
 30
0.0
 11
6437.3447638982
 21
4936.8600809848
 31
0.0
  0
LINE
  5
9B
330
1F
100
AcDbEntity
  8
0
  6
Continuous
 62
     7
370
    25
100
AcDbLine
 10
6377.3447638982
 20
4936.8600809848
 30
0.0
 11
6377.3447638982
 21
4934.7997540512
 31
0.0
  0
LINE
  5
9C
330
1F
100
AcDbEntity
  8
0
  6
Continuous
 62
     7
370
    25
100
AcDbLine
 10
6436.861800985
 20
4937.6965972886
 30
0.0
 11
6432.7447638982
 21
4938.7997540512
 31
0.0
  0
LINE
  5
9D
330
1F
100
AcDbEntity
  8
0
  6
Continuous
 62
     7
370
    25
100
AcDbLine
 10
6381.9447638982
 20
4938.7997540512
 30
0.0
 11
6377.8277268113
 21
4937.6965972886
 31
0.0
  0
CIRCLE
  5
9E
330
1F
100
AcDbEntity
  8
0
  6
Continuous
 62
     7
370
    25
100
AcDbCircle
 10
6407.3447638982
 20
4968.0077936173
 30
0.0
 40
10.99999999999727
  0
LWPOLYLINE
  5
9F
330
1F
100
AcDbEntity
  8
0
  6
Continuous
 62
     7
370
    25
100
AcDbPolyline
 90
        3
 70
   128
 43
0.0
 10
6398.0947638982
 20
5029.2109192864
 10
6398.1468805607
 20
5029.904259791
 10
6398.331224278
 20
5030.680375566
  0
ARC
  5
A0
330
1F
100
AcDbEntity
  8
0
  6
Continuous
 62
     7
370
    25
100
AcDbCircle
 10
6411.8414853932
 20
5029.1997897234
 30
0.0
 40
4.753291534645695
100
AcDbArc
 50
0.134154946
 51
18.1488329175
  0
ARC
  5
A1
330
1F
100
AcDbEntity
  8
0
  6
Continuous
 62
     7
370
    25
100
AcDbCircle
 10
6407.3375237302
 20
5035.1224796092
 30
0.0
 40
12.80655589293304
100
AcDbArc
 50
255.8536949078
 51
272.9335791868
  0
ARC
  5
A2
330
1F
100
AcDbEntity
  8
0
  6
Continuous
 62
     7
370
    25
100
AcDbCircle
 10
6407.4055310203
 20
5034.0677987349
 30
0.0
 40
12.45578059468542
100
AcDbArc
 50
273.2728416265
 51
286.8978847609
  0
LINE
  5
A3
330
1F
100
AcDbEntity
  8
0
  6
Continuous
 62
     7
370
    25
100
AcDbLine
 10
6411.0260137774
 20
5022.8569117744
 30
0.0
 11
6411.0260137774
 21
5022.1498049932
 31
0.0
  0
ARC
  5
A4
330
1F
100
AcDbEntity
  8
0
  6
Continuous
 62
     7
370
    25
100
AcDbCircle
 10
6408.1423092444
 20
5032.5044373305
 30
0.0
 40
10.06928503868291
100
AcDbArc
 50
286.6417277582
 51
305.3861985819
  0
ARC
  5
A5
330
1F
100
AcDbEntity
  8
0
  6
Continuous
 62
     7
370
    25
100
AcDbCircle
 10
6410.2401147921
 20
5029.0141522557
 30
0.0
 40
6.576558404969453
100
AcDbArc
 50
309.3327489519
 51
330.2215658006
  0
LINE
  5
A6
330
1F
100
AcDbEntity
  8
0
  6
Continuous
 62
     7
370
    25
100
AcDbLine
 10
6415.9482547725
 20
5026.455029036
 30
0.0
 11
6415.9482547725
 21
5025.7479222548
 31
0.0
  0
ARC
  5
A7
330
1F
100
AcDbEntity
  8
0
  6
Continuous
 62
     7
370
    25
100
AcDbCircle
 10
6411.7533871092
 20
5028.8670925943
 30
0.0
 40
4.838901251540671
100
AcDbArc
 50
330.100947763
 51
6.3605162397
  0
LINE
  5
A8
330
1F
100
AcDbEntity
  8
0
  6
Continuous
 62
     7
370
    25
100
AcDbLine
 10
6416.5625024984
 20
5029.4031658121
 30
0.0
 11
6416.5625024984
 21
5028.6960590309
 31
0.0
  0
ARC
  5
A9
330
1F
100
AcDbEntity
  8
0
  6
Continuous
 62
     7
370
    25
100
AcDbCircle
 10
6411.5290962916
 20
5028.0643214264
 30
0.0
 40
5.072895666575668
100
AcDbArc
 50
7.1537274672
 51
32.0099799122
  0
LINE
  5
AA
330
1F
100
AcDbEntity
  8
0
  6
Continuous
 62
     7
370
    25
100
AcDbLine
 10
6415.8306874971
 20
5031.4604026487
 30
0.0
 11
6415.8306874971
 21
5030.7532958675
 31
0.0
  0
ARC
  5
AB
330
1F
100
AcDbEntity
  8
0
  6
Continuous
 62
     7
370
    25
100
AcDbCircle
 10
6410.0358591672
 20
5027.8153861131
 30
0.0
 40
6.845887883719675
100
AcDbArc
 50
32.1703853282
 51
52.8521803244
  0
LINE
  5
AC
330
1F
100
AcDbEntity
  8
0
  6
Continuous
 62
     7
370
    25
100
AcDbLine
 10
6413.3168894534
 20
5033.7797791756
 30
0.0
 11
6413.3168894534
 21
5033.1450672367
 31
0.0
  0
ARC
  5
AD
330
1F
100
AcDbEntity
  8
0
  6
Continuous
 62
     7
370
    25
100
AcDbCircle
 10
6407.9556285965
 20
5024.0556146126
 30
0.0
 40
10.55278479740075
100
AcDbArc
 50
59.4664851876
 51
74.6889829522
  0
LINE
  5
AE
330
1F
100
AcDbEntity
  8
0
  6
Continuous
 62
     7
370
    25
100
AcDbLine
 10
6410.7421812667
 20
5034.7648955787
 30
0.0
 11
6410.7421812667
 21
5034.2338458537
 31
0.0
  0
LINE
  5
AF
330
1F
100
AcDbEntity
  8
0
  6
Continuous
 62
     7
370
    25
100
AcDbLine
 10
6406.5728862542
 20
5035.1664361642
 30
0.0
 11
6406.5728862542
 21
5034.668184586
 31
0.0
  0
ARC
  5
B0
330
1F
100
AcDbEntity
  8
0
  6
Continuous
 62
     7
370
    25
100
AcDbCircle
 10
6407.2839967761
 20
5022.2327194943
 30
0.0
 40
12.45578059465412
100
AcDbArc
 50
93.2728416264
 51
106.8978847609
  0
LINE
  5
B1
330
1F
100
AcDbEntity
  8
0
  6
Continuous
 62
     7
370
    25
100
AcDbLine
 10
6403.6635140189
 20
5034.6885186386
 30
0.0
 11
6403.6635140189
 21
5034.150713236
 31
0.0
  0
LINE
  5
B2
330
1F
100
AcDbEntity
  8
0
  6
Continuous
 62
     7
370
    25
100
AcDbLine
 10
6400.2810385105
 20
5033.080296374
 30
0.0
 11
6400.5196186963
 21
5033.272107846
 31
0.0
  0
LINE
  5
B3
330
1F
100
AcDbEntity
  8
0
  6
Continuous
 62
     7
370
    25
100
AcDbLine
 10
6400.2810385105
 20
5033.080296374
 30
0.0
 11
6400.2810385105
 21
5032.3731895928
 31
0.0
  0
ARC
  5
B4
330
1F
100
AcDbEntity
  8
0
  6
Continuous
 62
     7
370
    25
100
AcDbCircle
 10
6404.4494130042
 20
5027.2863659735
 30
0.0
 40
6.576558404981571
100
AcDbArc
 50
129.3327489519
 51
150.2215658006
  0
LINE
  5
B5
330
1F
100
AcDbEntity
  8
0
  6
Continuous
 62
     7
370
    25
100
AcDbLine
 10
6398.7412730239
 20
5031.2597027556
 30
0.0
 11
6398.7412730239
 21
5030.5525959744
 31
0.0
  0
ARC
  5
B6
330
1F
100
AcDbEntity
  8
0
  6
Continuous
 62
     7
370
    25
100
AcDbCircle
 10
6402.9361406872
 20
5028.8476391972
 30
0.0
 40
4.838901251561071
100
AcDbArc
 50
150.100947763
 51
186.3605162396
  0
LINE
  5
B7
330
1F
100
AcDbEntity
  8
0
  6
Continuous
 62
     7
370
    25
100
AcDbLine
 10
6398.1270252979
 20
5028.3115659795
 30
0.0
 11
6398.1270252979
 21
5027.6044591983
 31
0.0
  0
ARC
  5
B8
330
1F
100
AcDbEntity
  8
0
  6
Continuous
 62
     7
370
    25
100
AcDbCircle
 10
6403.1604315047
 20
5028.2361968028
 30
0.0
 40
5.072895666557062
100
AcDbArc
 50
187.1537274672
 51
212.0099799123
  0
ARC
  5
B9
330
1F
100
AcDbEntity
  8
0
  6
Continuous
 62
     7
370
    25
100
AcDbCircle
 10
6405.173835051
 20
5030.4218739588
 30
0.0
 40
7.581142739034472
100
AcDbArc
 50
219.2415880112
 51
239.907230903
  0
LINE
  5
BA
330
1F
100
AcDbEntity
  8
0
  6
Continuous
 62
     7
370
    25
100
AcDbLine
 10
6401.372638343
 20
5023.8625577737
 30
0.0
 11
6401.372638343
 21
5023.1554509925
 31
0.0
  0
ARC
  5
BB
330
1F
100
AcDbEntity
  8
0
  6
Continuous
 62
     7
370
    25
100
AcDbCircle
 10
6406.7338991999
 20
5032.2449036167
 30
0.0
 40
10.55278479751657
100
AcDbArc
 50
239.4664851876
 51
254.6889829521
  0
ARC
  5
BC
330
1F
100
AcDbEntity
  8
0
  6
Continuous
 62
     7
370
    25
100
AcDbCircle
 10
6403.4963231083
 20
5028.8591476712
 30
0.0
 40
4.389988946857481
100
AcDbArc
 50
142.8706663064
 51
198.9391016613
  0
ARC
  5
BD
330
1F
100
AcDbEntity
  8
0
  6
Continuous
 62
     7
370
    25
100
AcDbCircle
 10
6406.3387795644
 20
5026.2084075127
 30
0.0
 40
8.312210239364529
100
AcDbArc
 50
108.6074780032
 51
132.5643853029
  0
ARC
  5
BE
330
1F
100
AcDbEntity
  8
0
  6
Continuous
 62
     7
370
    25
100
AcDbCircle
 10
6407.3565255541
 20
5023.3578192339
 30
0.0
 40
11.33437355804267
100
AcDbArc
 50
73.9936466239
 51
93.3379076722
  0
LWPOLYLINE
  5
BF
330
1F
100
AcDbEntity
  8
0
  6
Continuous
 62
     7
370
    25
100
AcDbPolyline
 90
       30
 70
   128
 43
0.0
 10
6413.1789518142
 20
5032.98197202
 10
6413.5779511595
 20
5032.6790066799
 10
6414.2427003142
 20
5032.0574419262
 10
6414.7843556302
 20
5031.3787717398
 10
6415.1932512555
 20
5030.6551070065
 10
6415.4620904379
 20
5029.8993615404
 10
6415.586075736
 20
5029.1250216374
 10
6415.562994629
 20
5028.3459054114
 10
6415.393259
 20
5027.5759162098
 10
6415.0798977852
 20
5026.8287945082
 10
6414.628502923
 20
5026.117872711
 10
6414.0471295653
 20
5025.4558372347
 10
6413.3461523335
 20
5024.8545021179
 10
6412.5380801828
 20
5024.3245982
 10
6411.6373331801
 20
5023.8755816291
 10
6410.6599851768
 20
5023.5154651164
 10
6409.6234769713
 20
5023.2506749497
 10
6408.546305077
 20
5023.0859363157
 10
6407.4476916519
 20
5023.0241889793
 10
6406.3472414786
 20
5023.0665348232
 10
6405.2645921165
 20
5023.2122181848
 10
6404.2190634691
 20
5023.458639341
 10
6403.2293130199
 20
5023.8014009004
 10
6402.3130028892
 20
5024.234386275
 10
6401.4864846528
 20
5024.7498688305
 10
6400.7645075484
 20
5025.3386497683
 10
6400.1599552744
 20
5025.9902222789
 10
6399.6836160806
 20
5026.6929590352
 10
6399.343990251
 20
5027.4343196832
 10
6399.343990251
 20
5027.4343196832
  0
LINE
  5
C0
330
1F
100
AcDbEntity
  8
0
  6
Continuous
 62
     7
370
    25
100
AcDbLine
 10
6415.5130447183
 20
5026.6390683004
 30
0.0
 11
6415.9482547725
 21
5026.455029036
 31
0.0
  0
ARC
  5
C1
330
1F
100
AcDbEntity
  8
0
  6
Continuous
 62
     7
370
    25
100
AcDbCircle
 10
6410.0804335066
 20
5029.6722700824
 30
0.0
 40
6.222023595891032
100
AcDbArc
 50
308.7303444164
 51
330.8239703362
  0
LINE
  5
C2
330
1F
100
AcDbEntity
  8
0
  6
Continuous
 62
     7
370
    25
100
AcDbLine
 10
6411.0260137774
 20
5022.8569117744
 30
0.0
 11
6410.9023130614
 21
5023.2046522133
 31
0.0
  0
ARC
  5
C3
330
1F
100
AcDbEntity
  8
0
  6
Continuous
 62
     7
370
    25
100
AcDbCircle
 10
6407.4015330856
 20
5034.4496426115
 30
0.0
 40
11.77732013211875
100
AcDbArc
 50
272.8783648798
 51
287.2923615075
  0
ARC
  5
C4
330
1F
100
AcDbEntity
  8
0
  6
Continuous
 62
     7
370
    25
100
AcDbCircle
 10
6406.7685396218
 20
5032.7261869582
 30
0.0
 40
9.978874698157437
100
AcDbArc
 50
239.0259192753
 51
255.1295488645
  0
LINE
  5
C5
330
1F
100
AcDbEntity
  8
0
  6
Continuous
 62
     7
370
    25
100
AcDbLine
 10
6401.6329091668
 20
5024.1702977542
 30
0.0
 11
6401.372638343
 21
5023.8625577737
 31
0.0
  0
ARC
  5
C6
330
1F
100
AcDbEntity
  8
0
  6
Continuous
 62
     7
370
    25
100
AcDbCircle
 10
6403.3904271102
 20
5028.9376496506
 30
0.0
 40
4.801925345768094
100
AcDbArc
 50
186.4402066724
 51
212.7235007071
  0
LINE
  5
C7
330
1F
100
AcDbEntity
  8
0
  6
Continuous
 62
     7
370
    25
100
AcDbLine
 10
6398.1270252979
 20
5028.3115659795
 30
0.0
 11
6398.6188045429
 21
5028.3990355947
 31
0.0
  0
LINE
  5
C8
330
1F
100
AcDbEntity
  8
0
  6
Continuous
 62
     7
370
    25
100
AcDbLine
 10
6400.7162485646
 20
5032.8962571095
 30
0.0
 11
6400.2810385105
 21
5033.080296374
 31
0.0
  0
LINE
  5
C9
330
1F
100
AcDbEntity
  8
0
  6
Continuous
 62
     7
370
    25
100
AcDbLine
 10
6406.6458223436
 20
5035.1702575684
 30
0.0
 11
6406.6965869703
 21
5035.0275509283
 31
0.0
  0
LINE
  5
CA
330
1F
100
AcDbEntity
  8
0
  6
Continuous
 62
     7
370
    25
100
AcDbLine
 10
6410.4819104429
 20
5034.6332126543
 30
0.0
 11
6410.619405003
 21
5034.7957839816
 31
0.0
  0
LINE
  5
CB
330
1F
100
AcDbEntity
  8
0
  6
Continuous
 62
     7
370
    25
100
AcDbLine
 10
6415.8306874971
 20
5031.4604026487
 30
0.0
 11
6415.3389082521
 21
5031.3729330335
 31
0.0
  0
LINE
  5
CC
330
1F
100
AcDbEntity
  8
0
  6
Continuous
 62
     7
370
    25
100
AcDbLine
 10
6406.5728862542
 20
5034.668184586
 30
0.0
 11
6406.6965869703
 21
5034.3204441471
 31
0.0
  0
ARC
  5
CD
330
1F
100
AcDbEntity
  8
0
  6
Continuous
 62
     7
370
    25
100
AcDbCircle
 10
6407.2879947107
 20
5022.557982399
 30
0.0
 40
11.77732013192243
100
AcDbArc
 50
92.8783648796
 51
107.2923615076
  0
LINE
  5
CE
330
1F
100
AcDbEntity
  8
0
  6
Continuous
 62
     7
370
    25
100
AcDbLine
 10
6403.6635140189
 20
5034.150713236
 30
0.0
 11
6403.787214735
 21
5033.802972797
 31
0.0
  0
LINE
  5
CF
330
1F
100
AcDbEntity
  8
0
  6
Continuous
 62
     7
370
    25
100
AcDbLine
 10
6406.6965869703
 20
5035.0275509283
 30
0.0
 11
6406.6965869703
 21
5034.3204441471
 31
0.0
  0
LINE
  5
D0
330
1F
100
AcDbEntity
  8
0
  6
Continuous
 62
     7
370
    25
100
AcDbLine
 10
6413.0566186296
 20
5032.8373272562
 30
0.0
 11
6413.3168894534
 21
5033.1450672367
 31
0.0
  0
ARC
  5
D1
330
1F
100
AcDbEntity
  8
0
  6
Continuous
 62
     7
370
    25
100
AcDbCircle
 10
6407.9209881745
 20
5024.2814380522
 30
0.0
 40
9.978874698160595
100
AcDbArc
 50
59.0259192753
 51
75.1295488645
  0
LINE
  5
D2
330
1F
100
AcDbEntity
  8
0
  6
Continuous
 62
     7
370
    25
100
AcDbLine
 10
6410.4819104429
 20
5033.9261058732
 30
0.0
 11
6410.7421812667
 21
5034.2338458537
 31
0.0
  0
LWPOLYLINE
  5
D3
330
1F
100
AcDbEntity
  8
0
  6
Continuous
 62
     7
370
    25
100
AcDbPolyline
 90
        3
 70
   128
 43
0.0
 10
6399.343990251
 20
5028.1414264644
 10
6399.1471384167
 20
5028.9081814057
 10
6399.1099293522
 20
5029.2109192864
  0
ARC
  5
D4
330
1F
100
AcDbEntity
  8
0
  6
Continuous
 62
     7
370
    25
100
AcDbCircle
 10
6410.0455182761
 20
5030.0425484925
 30
0.0
 40
5.596217512184182
100
AcDbArc
 50
296.5061651594
 51
351.4538728853
  0
ARC
  5
D5
330
1F
100
AcDbEntity
  8
0
  6
Continuous
 62
     7
370
    25
100
AcDbCircle
 10
6404.9567738432
 20
5030.3869219686
 30
0.0
 40
6.045294840863829
100
AcDbArc
 50
201.8047716281
 51
242.2976877655
  0
LINE
  5
D6
330
1F
100
AcDbEntity
  8
0
  6
Continuous
 62
     7
370
    25
100
AcDbLine
 10
6410.4819104429
 20
5034.6332126543
 30
0.0
 11
6410.4819104429
 21
5033.9261058732
 31
0.0
  0
LINE
  5
D7
330
1F
100
AcDbEntity
  8
0
  6
Continuous
 62
     7
370
    25
100
AcDbLine
 10
6398.1252194409
 20
5029.7412493723
 30
0.0
 11
6398.1042118517
 21
5029.9760309207
 31
0.0
  0
LINE
  5
D8
330
1F
100
AcDbEntity
  8
0
  6
Continuous
 62
     7
370
    25
100
AcDbLine
 10
6416.5853159447
 20
5029.9760309207
 30
0.0
 11
6416.5643083555
 21
5029.7412493723
 31
0.0
  0
LWPOLYLINE
  5
D9
330
1F
100
AcDbEntity
  8
0
  6
Continuous
 62
     7
370
    25
100
AcDbPolyline
 90
       45
 70
   128
 43
0.0
 10
6400.0713333098
 20
5027.5636875207
 10
6399.8849960119
 20
5028.3087936204
 10
6399.8505180759
 20
5029.0650670698
 10
6399.9686013732
 20
5029.8171123222
 10
6400.2368420685
 20
5030.549619905
 10
6400.6497795547
 20
5031.2476780762
 10
6401.1990076153
 20
5031.8970763846
 10
6401.873345551
 20
5032.4845949532
 10
6402.6590657859
 20
5032.9982735983
 10
6403.540173322
 20
5033.4276553039
 10
6404.4987313507
 20
5033.7639990968
 10
6405.5152263948
 20
5034.0004579873
 10
6406.5689655464
 20
5034.1322183543
 10
6407.6384977154
 20
5034.1565979366
 10
6408.7020503108
 20
5034.0731004363
 10
6409.737972469
 20
5033.8834256217
 10
6410.7251758021
 20
5033.591434725
 10
6411.6435636972
 20
5033.2030718389
 10
6412.474440425
 20
5032.7262429118
 10
6413.2008917316
 20
5032.1706548055
 10
6413.8081291631
 20
5031.5476176918
 10
6414.2837911166
 20
5030.8698148096
 10
6414.6181944865
 20
5030.1510442709
 10
6414.8045317845
 20
5029.4059381711
 10
6414.8390097204
 20
5028.6496647218
 10
6414.7209264231
 20
5027.8976194694
 10
6414.4526857278
 20
5027.1651118866
 10
6414.0397482417
 20
5026.4670537153
 10
6413.490520181
 20
5025.817655407
 10
6412.8161822454
 20
5025.2301368384
 10
6412.0304620104
 20
5024.7164581933
 10
6411.1493544743
 20
5024.2870764877
 10
6410.1907964456
 20
5023.9507326948
 10
6409.1743014016
 20
5023.7142738043
 10
6408.1205622499
 20
5023.5825134373
 10
6407.051030081
 20
5023.558133855
 10
6405.9874774855
 20
5023.6416313553
 10
6404.9515553274
 20
5023.8313061699
 10
6403.9643519943
 20
5024.1232970665
 10
6403.0459640992
 20
5024.5116599527
 10
6402.2150873713
 20
5024.9884888798
 10
6401.4886360648
 20
5025.544076986
 10
6400.8813986332
 20
5026.1671140997
 10
6400.4057366797
 20
5026.844916982
 10
6400.0713333098
 20
5027.5636875207
  0
ARC
  5
DA
330
1F
100
AcDbEntity
  8
0
  6
Continuous
 62
     7
370
    25
100
AcDbCircle
 10
6404.6751851822
 20
5029.2604148954
 30
0.0
 40
4.839981499506826
100
AcDbArc
 50
121.4979337488
 51
176.3981872325
  0
ARC
  5
DB
330
1F
100
AcDbEntity
  8
0
  6
Continuous
 62
     7
370
    25
100
AcDbCircle
 10
6410.2822953499
 20
5029.3690124719
 30
0.0
 40
4.566653473393708
100
AcDbArc
 50
2.4531020588
 51
51.3005313243
  0
LINE
  5
DC
330
1F
100
AcDbEntity
  8
0
  6
Continuous
 62
     7
370
    25
100
AcDbLine
 10
6400.7162485646
 20
5032.8962571095
 30
0.0
 11
6400.7162485646
 21
5032.1891503283
 31
0.0
  0
LINE
  5
DD
330
1F
100
AcDbEntity
  8
0
  6
Continuous
 62
     7
370
    25
100
AcDbLine
 10
6400.7162485646
 20
5032.1891503283
 30
0.0
 11
6400.2810385105
 21
5032.3731895928
 31
0.0
  0
ARC
  5
DE
330
1F
100
AcDbEntity
  8
0
  6
Continuous
 62
     7
370
    25
100
AcDbCircle
 10
6404.6090942897
 20
5027.3353549281
 30
0.0
 40
6.222023595854377
100
AcDbArc
 50
128.7303444163
 51
150.8239703363
  0
LINE
  5
DF
330
1F
100
AcDbEntity
  8
0
  6
Continuous
 62
     7
370
    25
100
AcDbLine
 10
6399.176483078
 20
5030.36855671
 30
0.0
 11
6398.7412730239
 21
5030.5525959744
 31
0.0
  0
LINE
  5
E0
330
1F
100
AcDbEntity
  8
0
  6
Continuous
 62
     7
370
    25
100
AcDbLine
 10
6415.8306874971
 20
5030.7532958675
 30
0.0
 11
6415.3389082521
 21
5030.6658262523
 31
0.0
  0
LINE
  5
E1
330
1F
100
AcDbEntity
  8
0
  6
Continuous
 62
     7
370
    25
100
AcDbLine
 10
6416.5625024984
 20
5028.6960590309
 30
0.0
 11
6416.0707232535
 21
5028.6085894157
 31
0.0
  0
ARC
  5
E2
330
1F
100
AcDbEntity
  8
0
  6
Continuous
 62
     7
370
    25
100
AcDbCircle
 10
6411.2991006861
 20
5028.0699753598
 30
0.0
 40
4.801925345780773
100
AcDbArc
 50
6.4402066724
 51
32.723500707
  0
LINE
  5
E3
330
1F
100
AcDbEntity
  8
0
  6
Continuous
 62
     7
370
    25
100
AcDbLine
 10
6415.3389082521
 20
5031.3729330335
 30
0.0
 11
6415.3389082521
 21
5030.6658262523
 31
0.0
  0
ARC
  5
E4
330
1F
100
AcDbEntity
  8
0
  6
Continuous
 62
     7
370
    25
100
AcDbCircle
 10
6403.3904271102
 20
5028.2305428694
 30
0.0
 40
4.801925345766837
100
AcDbArc
 50
186.4402066724
 51
212.7235007071
  0
LINE
  5
E5
330
1F
100
AcDbEntity
  8
0
  6
Continuous
 62
     7
370
    25
100
AcDbLine
 10
6398.6188045429
 20
5028.3990355947
 30
0.0
 11
6398.6188045429
 21
5027.6919288135
 31
0.0
  0
LINE
  5
E6
330
1F
100
AcDbEntity
  8
0
  6
Continuous
 62
     7
370
    25
100
AcDbLine
 10
6399.3506195442
 20
5026.3417987581
 30
0.0
 11
6399.3506195442
 21
5025.6346919769
 31
0.0
  0
LINE
  5
E7
330
1F
100
AcDbEntity
  8
0
  6
Continuous
 62
     7
370
    25
100
AcDbLine
 10
6398.1270252979
 20
5027.6044591983
 30
0.0
 11
6398.6188045429
 21
5027.6919288135
 31
0.0
  0
LINE
  5
E8
330
1F
100
AcDbEntity
  8
0
  6
Continuous
 62
     7
370
    25
100
AcDbLine
 10
6398.8588402993
 20
5025.5472223617
 30
0.0
 11
6399.3506195442
 21
5025.6346919769
 31
0.0
  0
LINE
  5
E9
330
1F
100
AcDbEntity
  8
0
  6
Continuous
 62
     7
370
    25
100
AcDbLine
 10
6415.5130447183
 20
5026.6390683004
 30
0.0
 11
6415.5130447183
 21
5025.9319615192
 31
0.0
  0
LINE
  5
EA
330
1F
100
AcDbEntity
  8
0
  6
Continuous
 62
     7
370
    25
100
AcDbLine
 10
6415.5130447183
 20
5025.9319615192
 30
0.0
 11
6415.9482547725
 21
5025.7479222548
 31
0.0
  0
ARC
  5
EB
330
1F
100
AcDbEntity
  8
0
  6
Continuous
 62
     7
370
    25
100
AcDbCircle
 10
6410.0804335066
 20
5028.9651633012
 30
0.0
 40
6.222023595877796
100
AcDbArc
 50
308.7303444163
 51
330.8239703362
  0
LINE
  5
EC
330
1F
100
AcDbEntity
  8
0
  6
Continuous
 62
     7
370
    25
100
AcDbLine
 10
6413.9732792317
 20
5024.1113679009
 30
0.0
 11
6414.4084892859
 21
5023.9273286364
 31
0.0
  0
LINE
  5
ED
330
1F
100
AcDbEntity
  8
0
  6
Continuous
 62
     7
370
    25
100
AcDbLine
 10
6413.9732792317
 20
5024.8184746821
 30
0.0
 11
6413.9732792317
 21
5024.1113679009
 31
0.0
  0
LINE
  5
EE
330
1F
100
AcDbEntity
  8
0
  6
Continuous
 62
     7
370
    25
100
AcDbLine
 10
6401.6329091668
 20
5024.1702977542
 30
0.0
 11
6401.6329091668
 21
5023.463190973
 31
0.0
  0
LINE
  5
EF
330
1F
100
AcDbEntity
  8
0
  6
Continuous
 62
     7
370
    25
100
AcDbLine
 10
6404.2076173534
 20
5023.0815191372
 30
0.0
 11
6404.2076173534
 21
5022.374412356
 31
0.0
  0
ARC
  5
F0
330
1F
100
AcDbEntity
  8
0
  6
Continuous
 62
     7
370
    25
100
AcDbCircle
 10
6406.7685396219
 20
5032.019080177
 30
0.0
 40
9.978874698195291
100
AcDbArc
 50
239.0259192753
 51
255.1295488644
  0
LINE
  5
F1
330
1F
100
AcDbEntity
  8
0
  6
Continuous
 62
     7
370
    25
100
AcDbLine
 10
6401.6329091668
 20
5023.463190973
 30
0.0
 11
6401.372638343
 21
5023.1554509925
 31
0.0
  0
LINE
  5
F2
330
1F
100
AcDbEntity
  8
0
  6
Continuous
 62
     7
370
    25
100
AcDbLine
 10
6404.2076173534
 20
5022.374412356
 30
0.0
 11
6403.9473465296
 21
5022.0666723755
 31
0.0
  0
LINE
  5
F3
330
1F
100
AcDbEntity
  8
0
  6
Continuous
 62
     7
370
    25
100
AcDbLine
 10
6411.0260137774
 20
5022.1498049932
 30
0.0
 11
6410.9023130614
 21
5022.4975454322
 31
0.0
  0
LINE
  5
F4
330
1F
100
AcDbEntity
  8
0
  6
Continuous
 62
     7
370
    25
100
AcDbLine
 10
6408.1166415421
 20
5021.6323336431
 30
0.0
 11
6407.992940826
 21
5021.9800740821
 31
0.0
  0
ARC
  5
F5
330
1F
100
AcDbEntity
  8
0
  6
Continuous
 62
     7
370
    25
100
AcDbCircle
 10
6407.4015330856
 20
5033.7425358303
 30
0.0
 40
11.77732013210606
100
AcDbArc
 50
272.8783648798
 51
287.2923615075
  0
LINE
  5
F6
330
1F
100
AcDbEntity
  8
0
  6
Continuous
 62
     7
370
    25
100
AcDbLine
 10
6410.9023130614
 20
5023.2046522133
 30
0.0
 11
6410.9023130614
 21
5022.4975454322
 31
0.0
  0
LINE
  5
F7
330
1F
100
AcDbEntity
  8
0
  6
Continuous
 62
     7
370
    25
100
AcDbLine
 10
6407.992940826
 20
5022.6871808633
 30
0.0
 11
6407.992940826
 21
5021.9800740821
 31
0.0
  0
LINE
  5
F8
330
1F
100
AcDbEntity
  8
0
  6
Continuous
 62
     7
370
    25
100
AcDbLine
 10
6382.4447638982
 20
5072.0997540512
 30
0.0
 11
6432.2447638982
 21
5072.0997540512
 31
0.0
  0
LINE
  5
F9
330
1F
100
AcDbEntity
  8
0
  6
Continuous
 62
     7
370
    25
100
AcDbLine
 10
6382.7447638982
 20
5071.7997540512
 30
0.0
 11
6431.9447638982
 21
5071.7997540512
 31
0.0
  0
LINE
  5
FA
330
1F
100
AcDbEntity
  8
0
  6
Continuous
 62
     7
370
    25
100
AcDbLine
 10
6383.4447638982
 20
5074.7997540512
 30
0.0
 11
6431.2447638982
 21
5074.7997540512
 31
0.0
  0
LINE
  5
FB
330
1F
100
AcDbEntity
  8
0
  6
Continuous
 62
     7
370
    25
100
AcDbLine
 10
6382.4447638982
 20
5073.7997540512
 30
0.0
 11
6432.2447638982
 21
5073.7997540512
 31
0.0
  0
LINE
  5
FC
330
1F
100
AcDbEntity
  8
0
  6
Continuous
 62
     7
370
    25
100
AcDbLine
 10
6445.7483537367
 20
5004.6997540512
 30
0.0
 11
6445.7483537367
 21
4989.8997540512
 31
0.0
  0
LINE
  5
FD
330
1F
100
AcDbEntity
  8
0
  6
Continuous
 62
     7
370
    25
100
AcDbLine
 10
6445.2483537367
 20
5005.1997540512
 30
0.0
 11
6445.2483537367
 21
4989.3997540512
 31
0.0
  0
ARC
  5
FE
330
1F
100
AcDbEntity
  8
0
  6
Continuous
 62
     7
370
    25
100
AcDbCircle
 10
6441.1462008968
 20
5010.4516331587
 30
0.0
 40
5.487876045712312
100
AcDbArc
 50
265.8426580168
 51
286.6097752371
  0
ARC
  5
FF
330
1F
100
AcDbEntity
  8
0
  6
Continuous
 62
     7
370
    25
100
AcDbCircle
 10
6436.1356855575
 20
4971.9197208117
 30
0.0
 40
33.37872929332661
100
AcDbArc
 50
82.0567704155
 51
85.4591260988
  0
ARC
  5
100
330
1F
100
AcDbEntity
  8
0
  6
Continuous
 62
     7
370
    25
100
AcDbCircle
 10
6440.7483537367
 20
4978.2367674068
 30
0.0
 40
42.50603508309048
100
AcDbArc
 50
87.3031151121
 51
92.6968848879
  0
ARC
  5
101
330
1F
100
AcDbEntity
  8
0
  6
Continuous
 62
     7
370
    25
100
AcDbCircle
 10
6407.3447638982
 20
5032.2997540512
 30
0.0
 40
13.95000000000102
100
AcDbArc
 50
160.0925511025
 51
19.9074488975
  0
LINE
  5
102
330
1F
100
AcDbEntity
  8
0
  6
Continuous
 62
     7
370
    25
100
AcDbLine
 10
6395.7413161347
 20
5038.0497540512
 30
0.0
 11
6394.2283619525
 21
5037.0497540512
 31
0.0
  0
LINE
  5
103
330
1F
100
AcDbEntity
  8
0
  6
Continuous
 62
     7
370
    25
100
AcDbLine
 10
6395.7413161347
 20
5038.0497540512
 30
0.0
 11
6418.9482116617
 21
5038.0497540512
 31
0.0
  0
LINE
  5
104
330
1F
100
AcDbEntity
  8
0
  6
Continuous
 62
     7
370
    25
100
AcDbLine
 10
6420.4611658438
 20
5037.0497540512
 30
0.0
 11
6418.9482116617
 21
5038.0497540512
 31
0.0
  0
LWPOLYLINE
  5
105
330
1F
100
AcDbEntity
  8
0
  6
Continuous
 62
     7
370
    25
100
AcDbPolyline
 90
       52
 70
   128
 43
0.0
 10
6407.3447638982
 20
5021.1128847505
 10
6408.5677912109
 20
5021.1662244614
 10
6409.7722786762
 20
5021.3254350186
 10
6410.9399674919
 20
5021.5881029522
 10
6412.0531566859
 20
5021.9502464841
 10
6413.0949714447
 20
5022.4063758875
 10
6414.0496189186
 20
5022.9495767057
 10
6414.9026276249
 20
5023.5716145679
 10
6415.6410668211
 20
5024.2630600143
 10
6416.2537425219
 20
5025.0134314366
 10
6416.731367188
 20
5025.811353969
 10
6417.0667005164
 20
5026.6447319192
 10
6417.2546591957
 20
5027.5009321271
 10
6417.2923939638
 20
5028.3669754702
 10
6417.1793328002
 20
5029.2297336143
 10
6416.9171895969
 20
5030.0761280253
 10
6416.5099381776
 20
5030.8933282268
 10
6415.9637520587
 20
5031.6689462966
 10
6415.2869108649
 20
5032.3912246556
 10
6414.4896748189
 20
5033.0492142999
 10
6413.5841292065
 20
5033.6329407773
 10
6412.5840011761
 20
5034.1335553895
 10
6411.5044516491
 20
5034.5434693292
 10
6410.361845496
 20
5034.8564687189
 10
6409.1735034613
 20
5035.0678088069
 10
6407.9574395989
 20
5035.174285893
 10
6406.7320881974
 20
5035.174285893
 10
6405.5160243351
 20
5035.0678088069
 10
6404.3276823004
 20
5034.8564687189
 10
6403.1850761472
 20
5034.5434693292
 10
6402.1055266203
 20
5034.1335553895
 10
6401.1053985898
 20
5033.6329407773
 10
6400.1998529774
 20
5033.0492142999
 10
6399.4026169314
 20
5032.3912246556
 10
6398.7257757377
 20
5031.6689462966
 10
6398.1795896188
 20
5030.8933282268
 10
6397.7723381994
 20
5030.0761280253
 10
6397.5101949961
 20
5029.2297336143
 10
6397.3971338325
 20
5028.3669754702
 10
6397.4348686007
 20
5027.5009321271
 10
6397.62282728
 20
5026.6447319192
 10
6397.9581606084
 20
5025.811353969
 10
6398.4357852745
 20
5025.0134314366
 10
6399.0484609752
 20
5024.2630600143
 10
6399.7869001715
 20
5023.5716145679
 10
6400.6399088778
 20
5022.9495767057
 10
6401.5945563516
 20
5022.4063758875
 10
6402.6363711104
 20
5021.9502464841
 10
6403.7495603045
 20
5021.5881029522
 10
6404.9172491202
 20
5021.3254350186
 10
6406.1217365855
 20
5021.1662244614
 10
6407.3447638982
 20
5021.1128847505
  0
ARC
  5
106
330
1F
100
AcDbEntity
  8
0
  6
Continuous
 62
     7
370
    25
100
AcDbCircle
 10
6407.3447638982
 20
5032.2997540512
 30
0.0
 40
12.95000000000022
100
AcDbArc
 50
26.3603643512
 51
153.6396356488
  0
ARC
  5
107
330
1F
100
AcDbEntity
  8
0
  6
Continuous
 62
     7
370
    25
100
AcDbCircle
 10
6407.3447638982
 20
5032.2997540512
 30
0.0
 40
13.95000000000102
100
AcDbArc
 50
19.9074488975
 51
160.0925511025
  0
LINE
  5
108
330
1F
100
AcDbEntity
  8
0
  6
Continuous
 62
     7
370
    25
100
AcDbLine
 10
6407.3447638982
 20
5022.2282398222
 30
0.0
 11
6407.992940826
 21
5022.2441030222
 31
0.0
  0
ARC
  5
109
330
1F
100
AcDbEntity
  8
0
  6
Continuous
 62
     7
370
    25
100
AcDbCircle
 10
6408.1881560545
 20
5032.4851978142
 30
0.0
 40
10.13013211695217
100
AcDbArc
 50
286.2685753195
 51
304.8256223132
  0
ARC
  5
10A
330
1F
100
AcDbEntity
  8
0
  6
Continuous
 62
     7
370
    25
100
AcDbCircle
 10
6411.604685806
 20
5028.8735371972
 30
0.0
 40
5.087957525389506
100
AcDbArc
 50
328.6159712308
 51
44.6463461013
  0
ARC
  5
10B
330
1F
100
AcDbEntity
  8
0
  6
Continuous
 62
     7
370
    25
100
AcDbCircle
 10
6403.119387642
 20
5028.8437081823
 30
0.0
 40
5.133497915945013
100
AcDbArc
 50
135.3877416032
 51
193.466329585
  0
ARC
  5
10C
330
1F
100
AcDbEntity
  8
0
  6
Continuous
 62
     7
370
    25
100
AcDbCircle
 10
6405.2516964544
 20
5030.5631816636
 30
0.0
 40
7.842354919393007
100
AcDbArc
 50
219.226771776
 51
240.3546945376
  0
ARC
  5
10D
330
1F
100
AcDbEntity
  8
0
  6
Continuous
 62
     7
370
    25
100
AcDbCircle
 10
6407.3244236171
 20
5035.1284382724
 30
0.0
 40
12.90021448593056
100
AcDbArc
 50
256.0184832729
 51
270.0903405711
  0
LINE
  5
10E
330
1F
100
AcDbEntity
  8
0
  6
Continuous
 62
     7
370
    25
100
AcDbLine
 10
6416.5853159447
 20
5029.5064678238
 30
0.0
 11
6416.6360568652
 21
5029.7412493723
 31
0.0
  0
LINE
  5
10F
330
1F
100
AcDbEntity
  8
0
  6
Continuous
 62
     7
370
    25
100
AcDbLine
 10
6398.0534709311
 20
5029.7412493723
 30
0.0
 11
6398.1042118517
 21
5029.5064678238
 31
0.0
  0
LWPOLYLINE
  5
110
330
1F
100
AcDbEntity
  8
0
  6
Continuous
 62
     7
370
    25
100
AcDbPolyline
 90
       21
 70
   128
 43
0.0
 10
6432.0936728984
 20
4989.2031055827
 10
6432.0947273442
 20
4989.1998657446
 10
6432.0555135088
 20
4989.3204905313
 10
6431.9545520542
 20
4989.6388681308
 10
6431.7967512823
 20
4990.1620242278
 10
6431.6003131146
 20
4990.8670899227
 10
6431.3786799204
 20
4991.7611062592
 10
6431.1564502543
 20
4992.8227118219
 10
6430.9565528118
 20
4994.0495116447
 10
6430.8141602207
 20
4995.3350495581
 10
6430.7388401092
 20
4996.7250351916
 10
6430.7429904936
 20
4998.0239831664
 10
6430.82061803
 20
4999.3401528403
 10
6430.9553746714
 20
5000.5414266265
 10
6431.1396943399
 20
5001.6868048517
 10
6431.3541494488
 20
5002.7309688801
 10
6431.5795085863
 20
5003.6535206586
 10
6431.7877032382
 20
5004.4064258166
 10
6431.9584352003
 20
5004.973105012
 10
6432.0587260485
 20
5005.2889608433
 10
6432.0947638982
 20
5005.3997540512
  0
CIRCLE
  5
111
330
1F
100
AcDbEntity
  8
0
  6
Continuous
 62
     7
370
    25
100
AcDbCircle
 10
6407.3447638982
 20
4967.7997540512
 30
0.0
 40
11.04999999999927
  0
ARC
  5
112
330
1F
100
AcDbEntity
  8
0
  6
Continuous
 62
     7
370
    25
100
AcDbCircle
 10
6407.2996245599
 20
5032.255158401
 30
0.0
 40
13.9554773521203
100
AcDbArc
 50
124.857387953
 51
270.1853249457
  0
ARC
  5
113
330
1F
100
AcDbEntity
  8
0
  6
Continuous
 62
     7
370
    25
100
AcDbCircle
 10
6407.3779623024
 20
5032.2787605622
 30
0.0
 40
13.97904593200675
100
AcDbArc
 50
269.8639298957
 51
113.1323909255
  0
LINE
  5
114
330
1F
100
AcDbEntity
  8
0
  6
Continuous
 62
     7
370
    25
100
AcDbLine
 10
6407.3447638982
 20
5071.5997540512
 30
0.0
 11
6382.5947638982
 21
5071.5997540512
 31
0.0
  0
LINE
  5
115
330
1F
100
AcDbEntity
  8
0
  6
Continuous
 62
     7
370
    25
100
AcDbLine
 10
6432.0947638982
 20
5071.5997540512
 30
0.0
 11
6407.3447638982
 21
5071.5997540512
 31
0.0
  0
LINE
  5
116
330
1F
100
AcDbEntity
  8
0
  6
Continuous
 62
     7
370
    25
100
AcDbLine
 10
6382.5947638982
 20
4938.9997540512
 30
0.0
 11
6432.0947638982
 21
4938.9997540512
 31
0.0
  0
LINE
  5
117
330
1F
100
AcDbEntity
  8
0
  6
Continuous
 62
     7
370
    25
100
AcDbLine
 10
6399.3604041868
 20
5043.7997540512
 30
0.0
 11
6399.4484039773
 21
5043.7997540512
 31
0.0
  0
LINE
  5
118
330
1F
100
AcDbEntity
  8
0
  6
Continuous
 62
     7
370
    25
100
AcDbLine
 10
6415.241123819
 20
5043.7997540512
 30
0.0
 11
6415.3291236095
 21
5043.7997540512
 31
0.0
  0
LINE
  5
119
330
1F
100
AcDbEntity
  8
0
  6
Continuous
 62
     7
370
    25
100
AcDbLine
 10
6437.3447638982
 20
4936.8600809848
 30
0.0
 11
6377.3447638982
 21
4936.8600809848
 31
0.0
  0
LINE
  5
11A
330
1F
100
AcDbEntity
  8
0
  6
Continuous
 62
     7
370
    25
100
AcDbLine
 10
6436.8403744256
 20
4937.6965972886
 30
0.0
 11
6436.861800985
 21
4937.6965972886
 31
0.0
  0
LINE
  5
11B
330
1F
100
AcDbEntity
  8
0
  6
Continuous
 62
     7
370
    25
100
AcDbLine
 10
6377.8277268113
 20
4937.6965972886
 30
0.0
 11
6436.8403744256
 21
4937.6965972886
 31
0.0
  0
LINE
  5
11C
330
1F
100
AcDbEntity
  8
0
  6
Continuous
 62
     7
370
    25
100
AcDbLine
 10
6437.3447638982
 20
4934.7997540512
 30
0.0
 11
6377.3447638982
 21
4934.7997540512
 31
0.0
  0
LINE
  5
11D
330
1F
100
AcDbEntity
  8
0
  6
Continuous
 62
     7
370
    25
100
AcDbLine
 10
6432.7447638982
 20
4938.7997540512
 30
0.0
 11
6381.9447638982
 21
4938.7997540512
 31
0.0
  0
LINE
  5
11E
330
1F
100
AcDbEntity
  8
0
  6
Continuous
 62
     7
370
    25
100
AcDbLine
 10
6644.6748240759
 20
4957.0077936173
 30
0.0
 11
6644.8015412599
 21
4957.0077936173
 31
0.0
  0
LINE
  5
11F
330
1F
100
AcDbEntity
  8
0
  6
Continuous
 62
     7
370
    25
100
AcDbLine
 10
6644.8015412599
 20
4979.0077936173
 30
0.0
 11
6644.7883498104
 21
4979.0077936173
 31
0.0
  0
LINE
  5
120
330
1F
100
AcDbEntity
  8
0
  6
Continuous
 62
     7
370
    25
100
AcDbLine
 10
6644.8015412599
 20
4957.0077936173
 30
0.0
 11
6644.8015412599
 21
4979.0077936173
 31
0.0
  0
LINE
  5
121
330
1F
100
AcDbEntity
  8
0
  6
Continuous
 62
     7
370
    25
100
AcDbLine
 10
6595.1383498104
 20
5072.0997540512
 30
0.0
 11
6595.4383498104
 21
5071.7997540512
 31
0.0
  0
LINE
  5
122
330
1F
100
AcDbEntity
  8
0
  6
Continuous
 62
     7
370
    25
100
AcDbLine
 10
6644.6383498104
 20
5071.7997540512
 30
0.0
 11
6644.9383498104
 21
5072.0997540512
 31
0.0
  0
LINE
  5
123
330
1F
100
AcDbEntity
  8
0
  6
Continuous
 62
     7
370
    25
100
AcDbLine
 10
6595.1383498104
 20
5073.7997540512
 30
0.0
 11
6595.1383498104
 21
5072.0997540512
 31
0.0
  0
LINE
  5
124
330
1F
100
AcDbEntity
  8
0
  6
Continuous
 62
     7
370
    25
100
AcDbLine
 10
6644.9383498104
 20
5072.0997540512
 30
0.0
 11
6644.9383498104
 21
5073.7997540512
 31
0.0
  0
LINE
  5
125
330
1F
100
AcDbEntity
  8
0
  6
Continuous
 62
     7
370
    25
100
AcDbLine
 10
6644.9383498104
 20
5073.7997540512
 30
0.0
 11
6643.9383498104
 21
5074.7997540512
 31
0.0
  0
LINE
  5
126
330
1F
100
AcDbEntity
  8
0
  6
Continuous
 62
     7
370
    25
100
AcDbLine
 10
6596.1383498104
 20
5074.7997540512
 30
0.0
 11
6595.1383498104
 21
5073.7997540512
 31
0.0
  0
LINE
  5
127
330
1F
100
AcDbEntity
  8
0
  6
Continuous
 62
     7
370
    25
100
AcDbLine
 10
6644.7601792725
 20
5018.3497540512
 30
0.0
 11
6715.3383498104
 21
5018.3497540512
 31
0.0
  0
LINE
  5
128
330
1F
100
AcDbEntity
  8
0
  6
Continuous
 62
     7
370
    25
100
AcDbLine
 10
6734.0383498104
 20
5046.2497540512
 30
0.0
 11
6644.7601795796
 21
5046.2497540512
 31
0.0
  0
LINE
  5
129
330
1F
100
AcDbEntity
  8
0
  6
Continuous
 62
     7
370
    25
100
AcDbLine
 10
6735.0383498104
 20
5045.2497540512
 30
0.0
 11
6734.0383498104
 21
5046.2497540512
 31
0.0
  0
LINE
  5
12A
330
1F
100
AcDbEntity
  8
0
  6
Continuous
 62
     7
370
    25
100
AcDbLine
 10
6595.2883498104
 20
5067.3650947326
 30
0.0
 11
6595.2883498104
 21
4938.9997540512
 31
0.0
  0
LINE
  5
12B
330
1F
100
AcDbEntity
  8
0
  6
Continuous
 62
     7
370
    25
100
AcDbLine
 10
6595.2883498104
 20
5071.5997540512
 30
0.0
 11
6595.2883498104
 21
5069.8497540512
 31
0.0
  0
LINE
  5
12C
330
1F
100
AcDbEntity
  8
0
  6
Continuous
 62
     7
370
    25
100
AcDbLine
 10
6644.7883498104
 20
5046.2941437279
 30
0.0
 11
6644.7883498104
 21
5071.5997540512
 31
0.0
  0
LINE
  5
12D
330
1F
100
AcDbEntity
  8
0
  6
Continuous
 62
     7
370
    25
100
AcDbLine
 10
6644.7883498104
 20
4979.0077936173
 30
0.0
 11
6644.7883498104
 21
5018.2997540512
 31
0.0
  0
LINE
  5
12E
330
1F
100
AcDbEntity
  8
0
  6
Continuous
 62
     7
370
    25
100
AcDbLine
 10
6644.7883498104
 20
4938.9997540512
 30
0.0
 11
6644.7883498104
 21
4956.7497540512
 31
0.0
  0
LINE
  5
12F
330
1F
100
AcDbEntity
  8
0
  6
Continuous
 62
     7
370
    25
100
AcDbLine
 10
6644.7883498104
 20
5071.5997540512
 30
0.0
 11
6644.5883498104
 21
5071.7997540512
 31
0.0
  0
LINE
  5
130
330
1F
100
AcDbEntity
  8
0
  6
Continuous
 62
     7
370
    25
100
AcDbLine
 10
6595.4883498104
 20
5071.7997540512
 30
0.0
 11
6595.2883498104
 21
5071.5997540512
 31
0.0
  0
LINE
  5
131
330
1F
100
AcDbEntity
  8
0
  6
Continuous
 62
     7
370
    25
100
AcDbLine
 10
6595.2883498104
 20
4938.9997540512
 30
0.0
 11
6595.4883498104
 21
4938.7997540512
 31
0.0
  0
LINE
  5
132
330
1F
100
AcDbEntity
  8
0
  6
Continuous
 62
     7
370
    25
100
AcDbLine
 10
6644.5883498104
 20
4938.7997540512
 30
0.0
 11
6644.7883498104
 21
4938.9997540512
 31
0.0
  0
LINE
  5
133
330
1F
100
AcDbEntity
  8
0
  6
Continuous
 62
     7
370
    25
100
AcDbLine
 10
6650.0383498104
 20
4936.8600809848
 30
0.0
 11
6649.5553868973
 21
4937.6965972886
 31
0.0
  0
LINE
  5
134
330
1F
100
AcDbEntity
  8
0
  6
Continuous
 62
     7
370
    25
100
AcDbLine
 10
6590.5213127236
 20
4937.6965972886
 30
0.0
 11
6590.0383498104
 21
4936.8600809848
 31
0.0
  0
LINE
  5
135
330
1F
100
AcDbEntity
  8
0
  6
Continuous
 62
     7
370
    25
100
AcDbLine
 10
6650.0383498104
 20
4934.7997540512
 30
0.0
 11
6650.0383498104
 21
4936.8600809848
 31
0.0
  0
LINE
  5
136
330
1F
100
AcDbEntity
  8
0
  6
Continuous
 62
     7
370
    25
100
AcDbLine
 10
6590.0383498104
 20
4936.8600809848
 30
0.0
 11
6590.0383498104
 21
4934.7997540512
 31
0.0
  0
LINE
  5
137
330
1F
100
AcDbEntity
  8
0
  6
Continuous
 62
     7
370
    25
100
AcDbLine
 10
6649.5553868973
 20
4937.6965972886
 30
0.0
 11
6645.4383498104
 21
4938.7997540512
 31
0.0
  0
LINE
  5
138
330
1F
100
AcDbEntity
  8
0
  6
Continuous
 62
     7
370
    25
100
AcDbLine
 10
6594.6383498104
 20
4938.7997540512
 30
0.0
 11
6590.5213127236
 21
4937.6965972886
 31
0.0
  0
ARC
  5
139
330
1F
100
AcDbEntity
  8
0
  6
Continuous
 62
     7
370
    25
100
AcDbCircle
 10
6667.487634334
 20
4968.0724607674
 30
0.0
 40
25.1840145221922
100
AcDbArc
 50
154.3507610351
 51
155.2640816904
  0
ARC
  5
13A
330
1F
100
AcDbEntity
  8
0
  6
Continuous
 62
     7
370
    25
100
AcDbCircle
 10
6675.8408660668
 20
4971.9276490946
 30
0.0
 40
34.43895718418124
100
AcDbArc
 50
199.8469321573
 51
205.6724721536
  0
LINE
  5
13B
330
1F
100
AcDbEntity
  8
0
  6
Continuous
 62
     7
370
    25
100
AcDbLine
 10
6595.1383498104
 20
5072.0997540512
 30
0.0
 11
6644.9383498104
 21
5072.0997540512
 31
0.0
  0
LINE
  5
13C
330
1F
100
AcDbEntity
  8
0
  6
Continuous
 62
     7
370
    25
100
AcDbLine
 10
6595.4383498104
 20
5071.7997540512
 30
0.0
 11
6644.6383498104
 21
5071.7997540512
 31
0.0
  0
LINE
  5
13D
330
1F
100
AcDbEntity
  8
0
  6
Continuous
 62
     7
370
    25
100
AcDbLine
 10
6595.1383498104
 20
5073.7997540512
 30
0.0
 11
6644.9383498104
 21
5073.7997540512
 31
0.0
  0
LINE
  5
13E
330
1F
100
AcDbEntity
  8
0
  6
Continuous
 62
     7
370
    25
100
AcDbLine
 10
6596.1383498104
 20
5074.7997540512
 30
0.0
 11
6643.9383498104
 21
5074.7997540512
 31
0.0
  0
LINE
  5
13F
330
1F
100
AcDbEntity
  8
0
  6
Continuous
 62
     7
370
    25
100
AcDbLine
 10
6734.0383498104
 20
5037.0497540512
 30
0.0
 11
6734.0383498104
 21
5046.2497540512
 31
0.0
  0
LINE
  5
140
330
1F
100
AcDbEntity
  8
0
  6
Continuous
 62
     7
370
    25
100
AcDbLine
 10
6734.0383498104
 20
5037.0497540512
 30
0.0
 11
6715.3383498104
 21
5018.3497540512
 31
0.0
  0
LINE
  5
141
330
1F
100
AcDbEntity
  8
0
  6
Continuous
 62
     7
370
    25
100
AcDbLine
 10
6735.0383498104
 20
5038.0497540512
 30
0.0
 11
6735.0383498104
 21
5045.2497540512
 31
0.0
  0
LINE
  5
142
330
1F
100
AcDbEntity
  8
0
  6
Continuous
 62
     7
370
    25
100
AcDbLine
 10
6735.0383498104
 20
5038.0497540512
 30
0.0
 11
6734.0383498104
 21
5037.0497540512
 31
0.0
  0
ARC
  5
143
330
1F
100
AcDbEntity
  8
0
  6
Continuous
 62
     7
370
    25
100
AcDbCircle
 10
6667.7838306431
 20
4967.7848161391
 30
0.0
 40
25.50617050849196
100
AcDbArc
 50
155.3552717051
 51
205.6353988062
  0
LWPOLYLINE
  5
144
330
1F
100
AcDbEntity
  8
0
  6
Continuous
 62
     7
370
    25
100
AcDbPolyline
 90
       21
 70
   128
 43
0.0
 10
6644.7883498104
 20
5018.2997540512
 10
6644.6965890944
 20
5018.4626205118
 10
6644.4192349122
 20
5018.9631480982
 10
6643.9990721341
 20
5019.7477138079
 10
6643.4510083019
 20
5020.8284822108
 10
6642.7992274981
 20
5022.2252787243
 10
6642.1068481566
 20
5023.9059397064
 10
6641.4087080711
 20
5025.9649523818
 10
6640.8315696499
 20
5028.3253998531
 10
6640.5522816502
 20
5030.2360439148
 10
6640.4482510125
 20
5032.2601677403
 10
6640.5394010386
 20
5034.2312305481
 10
6640.8181838175
 20
5036.2034704035
 10
6641.2352051261
 20
5038.0220066909
 10
6641.7640526245
 20
5039.7458041965
 10
6642.4287906156
 20
5041.5067806858
 10
6643.1171010691
 20
5043.0731592538
 10
6643.7966802046
 20
5044.4609942478
 10
6644.3551892728
 20
5045.5189136855
 10
6644.6757579218
 20
5046.0997315311
 10
6644.7851913604
 20
5046.2941437279
  0
ARC
  5
145
330
1F
100
AcDbEntity
  8
0
  6
Continuous
 62
     7
370
    25
100
AcDbCircle
 10
6570.5564776676
 20
5068.5997888334
 30
0.0
 40
24.76343903289196
100
AcDbArc
 50
357.1420728559
 51
2.8933048526
  0
LINE
  5
146
330
1F
100
AcDbEntity
  8
0
  6
Continuous
 62
     7
370
    25
100
AcDbLine
 10
6644.7883498104
 20
5071.5997540512
 30
0.0
 11
6595.2883498104
 21
5071.5997540512
 31
0.0
  0
LINE
  5
147
330
1F
100
AcDbEntity
  8
0
  6
Continuous
 62
     7
370
    25
100
AcDbLine
 10
6595.2883498104
 20
4938.9997540512
 30
0.0
 11
6644.7883498104
 21
4938.9997540512
 31
0.0
  0
LINE
  5
148
330
1F
100
AcDbEntity
  8
0
  6
Continuous
 62
     7
370
    25
100
AcDbLine
 10
6650.0383498104
 20
4936.8600809848
 30
0.0
 11
6590.0383498104
 21
4936.8600809848
 31
0.0
  0
LINE
  5
149
330
1F
100
AcDbEntity
  8
0
  6
Continuous
 62
     7
370
    25
100
AcDbLine
 10
6590.5213127236
 20
4937.6965972886
 30
0.0
 11
6649.5553868973
 21
4937.6965972886
 31
0.0
  0
LINE
  5
14A
330
1F
100
AcDbEntity
  8
0
  6
Continuous
 62
     7
370
    25
100
AcDbLine
 10
6618.8954786775
 20
4934.7997540512
 30
0.0
 11
6590.0383498104
 21
4934.7997540512
 31
0.0
  0
LINE
  5
14B
330
1F
100
AcDbEntity
  8
0
  6
Continuous
 62
     7
370
    25
100
AcDbLine
 10
6650.0383498104
 20
4934.7997540512
 30
0.0
 11
6618.8954786775
 21
4934.7997540512
 31
0.0
  0
LINE
  5
14C
330
1F
100
AcDbEntity
  8
0
  6
Continuous
 62
     7
370
    25
100
AcDbLine
 10
6619.0707189179
 20
4938.7997540512
 30
0.0
 11
6594.6383498104
 21
4938.7997540512
 31
0.0
  0
LINE
  5
14D
330
1F
100
AcDbEntity
  8
0
  6
Continuous
 62
     7
370
    25
100
AcDbLine
 10
6645.4383498104
 20
4938.7997540512
 30
0.0
 11
6619.0707189179
 21
4938.7997540512
 31
0.0
  0
LINE
  5
14E
330
1F
100
AcDbEntity
  8
0
  6
Continuous
 62
     7
370
    25
100
AcDbLine
 10
6445.2483537367
 20
4776.2375225564
 30
0.0
 11
6430.9583193272
 21
4776.2375225564
 31
0.0
  0
LINE
  5
14F
330
1F
100
AcDbEntity
  8
0
  6
Continuous
 62
     7
370
    25
100
AcDbLine
 10
6430.9583193272
 20
4760.4375225564
 30
0.0
 11
6445.2483537367
 21
4760.4375225564
 31
0.0
  0
LINE
  5
150
330
1F
100
AcDbEntity
  8
0
  6
Continuous
 62
     7
370
    25
100
AcDbLine
 10
6445.2483537367
 20
4760.4375225564
 30
0.0
 11
6445.7483537367
 21
4760.9375225564
 31
0.0
  0
LINE
  5
151
330
1F
100
AcDbEntity
  8
0
  6
Continuous
 62
     7
370
    25
100
AcDbLine
 10
6445.7483537367
 20
4775.7375225564
 30
0.0
 11
6445.2483537367
 21
4776.2375225564
 31
0.0
  0
LINE
  5
152
330
1F
100
AcDbEntity
  8
0
  6
Continuous
 62
     7
370
    25
100
AcDbLine
 10
6442.7483537367
 20
4768.4841299361
 30
0.0
 11
6442.7483537367
 21
4768.7717773267
 31
0.0
  0
LINE
  5
153
330
1F
100
AcDbEntity
  8
0
  6
Continuous
 62
     7
370
    25
100
AcDbLine
 10
6438.7483537367
 20
4768.7717773267
 30
0.0
 11
6438.7483537367
 21
4768.4841299361
 31
0.0
  0
LINE
  5
154
330
1F
100
AcDbEntity
  8
0
  6
Continuous
 62
     7
370
    25
100
AcDbLine
 10
6393.3947638982
 20
4747.7121134696
 30
0.0
 11
6393.3947638982
 21
4659.0875225564
 31
0.0
  0
LINE
  5
155
330
1F
100
AcDbEntity
  8
0
  6
Continuous
 62
     7
370
    25
100
AcDbLine
 10
6421.2947638982
 20
4659.0875225564
 30
0.0
 11
6421.2947638982
 21
4747.7121134696
 31
0.0
  0
CIRCLE
  5
156
330
1F
100
AcDbEntity
  8
0
  6
Continuous
 62
     7
370
    25
100
AcDbCircle
 10
6407.3447638982
 20
4768.3375225564
 30
0.0
 40
23.90000000000055
  0
CIRCLE
  5
157
330
1F
100
AcDbEntity
  8
0
  6
Continuous
 62
     7
370
    25
100
AcDbCircle
 10
6407.3447638982
 20
4768.3375225564
 30
0.0
 40
24.90000000000055
  0
LINE
  5
158
330
1F
100
AcDbEntity
  8
0
  6
Continuous
 62
     7
370
    25
100
AcDbLine
 10
6445.2483537367
 20
4776.2375225564
 30
0.0
 11
6445.2483537367
 21
4760.4375225564
 31
0.0
  0
ARC
  5
159
330
1F
100
AcDbEntity
  8
0
  6
Continuous
 62
     7
370
    25
100
AcDbCircle
 10
6440.7833710454
 20
4768.4218922304
 30
0.0
 40
1.942509515259645
100
AcDbArc
 50
268.9670821858
 51
1.8793020113
  0
ARC
  5
15A
330
1F
100
AcDbEntity
  8
0
  6
Continuous
 62
     7
370
    25
100
AcDbCircle
 10
6440.7384049288
 20
4768.4586610813
 30
0.0
 40
1.978987722392964
100
AcDbArc
 50
179.222952198
 51
270.2880397371
  0
LINE
  5
15B
330
1F
100
AcDbEntity
  8
0
  6
Continuous
 62
     7
370
    25
100
AcDbLine
 10
6445.7483537367
 20
4775.7375225564
 30
0.0
 11
6445.7483537367
 21
4760.9375225564
 31
0.0
  0
CIRCLE
  5
15C
330
1F
100
AcDbEntity
  8
0
  6
Continuous
 62
     7
370
    25
100
AcDbCircle
 10
6440.7481361016
 20
4768.7715439661
 30
0.0
 40
1.999836855545553
  0
LINE
  5
15D
330
1F
100
AcDbEntity
  8
0
  6
Continuous
 62
     7
370
    25
100
AcDbLine
 10
6394.2283619525
 20
4654.3375225564
 30
0.0
 11
6420.4611658438
 21
4654.3375225564
 31
0.0
  0
ARC
  5
15E
330
1F
100
AcDbEntity
  8
0
  6
Continuous
 62
     7
370
    25
100
AcDbCircle
 10
6407.3447638982
 20
4659.0875225564
 30
0.0
 40
13.94999999999986
100
AcDbArc
 50
180.0
 51
199.9074488975
  0
ARC
  5
15F
330
1F
100
AcDbEntity
  8
0
  6
Continuous
 62
     7
370
    25
100
AcDbCircle
 10
6407.3447638982
 20
4659.0875225564
 30
0.0
 40
13.95000000000073
100
AcDbArc
 50
340.0925511025
 51
0.0
  0
LINE
  5
160
330
1F
100
AcDbEntity
  8
0
  6
Continuous
 62
     7
370
    25
100
AcDbLine
 10
6395.7413161347
 20
4653.3375225564
 30
0.0
 11
6418.9482116617
 21
4653.3375225564
 31
0.0
  0
LINE
  5
161
330
1F
100
AcDbEntity
  8
0
  6
Continuous
 62
     7
370
    25
100
AcDbLine
 10
6395.7413161347
 20
4653.3375225564
 30
0.0
 11
6394.2283619525
 21
4654.3375225564
 31
0.0
  0
LINE
  5
162
330
1F
100
AcDbEntity
  8
0
  6
Continuous
 62
     7
370
    25
100
AcDbLine
 10
6420.4611658438
 20
4654.3375225564
 30
0.0
 11
6418.9482116617
 21
4653.3375225564
 31
0.0
  0
ARC
  5
163
330
1F
100
AcDbEntity
  8
0
  6
Continuous
 62
     7
370
    25
100
AcDbCircle
 10
6407.3447638982
 20
4768.3375225564
 30
0.0
 40
25.40000000000068
100
AcDbArc
 50
18.1209295307
 51
177.8167486155
  0
ARC
  5
164
330
1F
100
AcDbEntity
  8
0
  6
Continuous
 62
     7
370
    25
100
AcDbCircle
 10
6407.3447638982
 20
4768.3375225564
 30
0.0
 40
25.40000000000061
100
AcDbArc
 50
303.3130106878
 51
341.8790704693
  0
ARC
  5
165
330
1F
100
AcDbEntity
  8
0
  6
Continuous
 62
     7
370
    25
100
AcDbCircle
 10
6407.3447638982
 20
4768.3375225564
 30
0.0
 40
25.40000000000011
100
AcDbArc
 50
177.8167486155
 51
236.6869893122
  0
ARC
  5
166
330
1F
100
AcDbEntity
  8
0
  6
Continuous
 62
     7
370
    25
100
AcDbCircle
 10
6407.3447638982
 20
4768.3375225564
 30
0.0
 40
29.51703708685595
100
AcDbArc
 50
15.5240025033
 51
241.7962522017
  0
ARC
  5
167
330
1F
100
AcDbEntity
  8
0
  6
Continuous
 62
     7
370
    25
100
AcDbCircle
 10
6407.3447638982
 20
4768.3375225564
 30
0.0
 40
29.51703708685619
100
AcDbArc
 50
298.2037477983
 51
344.4759974967
  0
ARC
  5
168
330
1F
100
AcDbEntity
  8
0
  6
Continuous
 62
     7
370
    25
100
AcDbCircle
 10
6407.3447638982
 20
4768.3375225564
 30
0.0
 40
30.00000000000016
100
AcDbArc
 50
297.7102220493
 51
344.7320573143
  0
ARC
  5
169
330
1F
100
AcDbEntity
  8
0
  6
Continuous
 62
     7
370
    25
100
AcDbCircle
 10
6407.3447638982
 20
4768.3375225564
 30
0.0
 40
30.00000000000079
100
AcDbArc
 50
15.2679426857
 51
242.2897779507
  0
ENDSEC
  0
SECTION
  2
OBJECTS
  0
DICTIONARY
  5
C
330
0
100
AcDbDictionary
281
     1
  3
ACAD_GROUP
350
D
  3
ACAD_LAYOUT
350
1A
  3
ACAD_MLINESTYLE
350
17
  3
ACAD_PLOTSETTINGS
350
19
  3
ACAD_PLOTSTYLENAME
350
E
  3
ACAD_SCALELIST
350
47
  3
DWGPROPS
350
16A
  0
DICTIONARY
  5
D
102
{ACAD_REACTORS
330
C
102
}
330
C
100
AcDbDictionary
281
     1
  0
DICTIONARY
  5
1A
102
{ACAD_REACTORS
330
C
102
}
330
C
100
AcDbDictionary
281
     1
  3
Layout1
350
1E
  3
Layout2
350
26
  3
Model
350
22
  0
DICTIONARY
  5
17
102
{ACAD_REACTORS
330
C
102
}
330
C
100
AcDbDictionary
281
     1
  3
Standard
350
18
  0
DICTIONARY
  5
19
102
{ACAD_REACTORS
330
C
102
}
330
C
100
AcDbDictionary
281
     1
  0
ACDBDICTIONARYWDFLT
  5
E
102
{ACAD_REACTORS
330
C
102
}
330
C
100
AcDbDictionary
281
     1
  3
Normal
350
F
100
AcDbDictionaryWithDefault
340
F
  0
DICTIONARY
  5
47
102
{ACAD_REACTORS
330
C
102
}
330
C
100
AcDbDictionary
281
     1
  3
A0
350
48
  3
A1
350
49
  3
A2
350
4A
  3
A3
350
4B
  3
A4
350
4C
  3
A5
350
4D
  3
A6
350
4E
  3
A7
350
4F
  3
A8
350
50
  3
A9
350
51
  3
B0
350
52
  3
B1
350
53
  3
B2
350
54
  3
B3
350
55
  3
B4
350
56
  3
B5
350
57
  3
B6
350
58
  3
B7
350
59
  3
B8
350
5A
  3
B9
350
5B
  3
C0
350
5C
  3
C1
350
5D
  3
C2
350
5E
  3
C3
350
5F
  3
C4
350
60
  3
C5
350
61
  3
C6
350
62
  3
C7
350
63
  3
C8
350
64
  3
C9
350
65
  3
D0
350
66
  3
D1
350
67
  3
D2
350
68
  0
XRECORD
  5
16A
102
{ACAD_REACTORS
330
C
102
}
330
C
100
AcDbXrecord
280
     1
  1
DWGPROPS COOKIE
  2

  3

  4

  6

  7

  8
radek.stransky
  9

300
=
301
=
302
=
303
=
304
=
305
=
306
=
307
=
308
=
309
=
 40
0.0
 41
2459345.421777211
 42
2459345.421777477
  1

 90
        0
  0
LAYOUT
  5
1E
102
{ACAD_REACTORS
330
1A
102
}
330
1A
100
AcDbPlotSettings
  1

  2
none_device
  4

  6

 40
0.0
 41
0.0
 42
0.0
 43
0.0
 44
0.0
 45
0.0
 46
0.0
 47
0.0
 48
0.0
 49
0.0
140
0.0
141
0.0
142
1.0
143
1.0
 70
   688
 72
     1
 73
     0
 74
     5
  7

 75
    16
147
1.0
148
0.0
149
0.0
100
AcDbLayout
  1
Layout1
 70
     1
 71
     1
 10
0.0
 20
0.0
 11
420.0
 21
297.0
 12
0.0
 22
0.0
 32
0.0
 14
1.0000000000E+20
 24
1.0000000000E+20
 34
1.0000000000E+20
 15
-1.0000000000E+20
 25
-1.0000000000E+20
 35
-1.0000000000E+20
146
0.0
 13
0.0
 23
0.0
 33
0.0
 16
1.0
 26
0.0
 36
0.0
 17
0.0
 27
1.0
 37
0.0
 76
     0
330
1B
  0
LAYOUT
  5
26
102
{ACAD_REACTORS
330
1A
102
}
330
1A
100
AcDbPlotSettings
  1

  2
none_device
  4

  6

 40
0.0
 41
0.0
 42
0.0
 43
0.0
 44
0.0
 45
0.0
 46
0.0
 47
0.0
 48
0.0
 49
0.0
140
0.0
141
0.0
142
1.0
143
1.0
 70
   688
 72
     1
 73
     0
 74
     5
  7

 75
    16
147
1.0
148
0.0
149
0.0
100
AcDbLayout
  1
Layout2
 70
     1
 71
     2
 10
0.0
 20
0.0
 11
0.0
 21
0.0
 12
0.0
 22
0.0
 32
0.0
 14
0.0
 24
0.0
 34
0.0
 15
0.0
 25
0.0
 35
0.0
146
0.0
 13
0.0
 23
0.0
 33
0.0
 16
1.0
 26
0.0
 36
0.0
 17
0.0
 27
1.0
 37
0.0
 76
     0
330
23
  0
LAYOUT
  5
22
102
{ACAD_REACTORS
330
1A
102
}
330
1A
100
AcDbPlotSettings
  1

  2
none_device
  4
Letter_(8.50_x_11.00_Inches)
  6

 40
6.35
 41
6.35
 42
6.35000508
 43
6.35000508
 44
215.9
 45
279.4
 46
0.0
 47
0.0
 48
0.0
 49
0.0
140
0.0
141
0.0
142
1.0
143
1.0
 70
  1712
 72
     1
 73
     0
 74
     0
  7

 75
     0
147
1.0
148
0.0
149
0.0
100
AcDbLayout
  1
Model
 70
     1
 71
     0
 10
0.0
 20
0.0
 11
20000.0
 21
10000.0
 12
0.0
 22
0.0
 32
0.0
 14
0.0
 24
0.0
 34
0.0
 15
20000.0
 25
10000.0
 35
0.0
146
0.0
 13
0.0
 23
0.0
 33
0.0
 16
1.0
 26
0.0
 36
0.0
 17
0.0
 27
1.0
 37
0.0
 76
     0
330
1F
331
29
  0
MLINESTYLE
  5
18
102
{ACAD_REACTORS
330
17
102
}
330
17
100
AcDbMlineStyle
  2
Standard
 70
     0
  3

 62
   256
 51
90.0
 52
90.0
 71
     2
 49
0.5
 62
   256
  6
BYLAYER
 49
-0.5
 62
   256
  6
BYLAYER
  0
ACDBPLACEHOLDER
  5
F
102
{ACAD_REACTORS
330
E
102
}
330
E
  0
SCALE
  5
48
102
{ACAD_REACTORS
330
47
102
}
330
47
100
AcDbScale
 70
     0
300
1:1
140
1.0
141
1.0
290
     1
  0
SCALE
  5
49
102
{ACAD_REACTORS
330
47
102
}
330
47
100
AcDbScale
 70
     0
300
1:2
140
1.0
141
2.0
290
     0
  0
SCALE
  5
4A
102
{ACAD_REACTORS
330
47
102
}
330
47
100
AcDbScale
 70
     0
300
1:4
140
1.0
141
4.0
290
     0
  0
SCALE
  5
4B
102
{ACAD_REACTORS
330
47
102
}
330
47
100
AcDbScale
 70
     0
300
1:5
140
1.0
141
5.0
290
     0
  0
SCALE
  5
4C
102
{ACAD_REACTORS
330
47
102
}
330
47
100
AcDbScale
 70
     0
300
1:8
140
1.0
141
8.0
290
     0
  0
SCALE
  5
4D
102
{ACAD_REACTORS
330
47
102
}
330
47
100
AcDbScale
 70
     0
300
1:10
140
1.0
141
10.0
290
     0
  0
SCALE
  5
4E
102
{ACAD_REACTORS
330
47
102
}
330
47
100
AcDbScale
 70
     0
300
1:16
140
1.0
141
16.0
290
     0
  0
SCALE
  5
4F
102
{ACAD_REACTORS
330
47
102
}
330
47
100
AcDbScale
 70
     0
300
1:20
140
1.0
141
20.0
290
     0
  0
SCALE
  5
50
102
{ACAD_REACTORS
330
47
102
}
330
47
100
AcDbScale
 70
     0
300
1:30
140
1.0
141
30.0
290
     0
  0
SCALE
  5
51
102
{ACAD_REACTORS
330
47
102
}
330
47
100
AcDbScale
 70
     0
300
1:40
140
1.0
141
40.0
290
     0
  0
SCALE
  5
52
102
{ACAD_REACTORS
330
47
102
}
330
47
100
AcDbScale
 70
     0
300
1:50
140
1.0
141
50.0
290
     0
  0
SCALE
  5
53
102
{ACAD_REACTORS
330
47
102
}
330
47
100
AcDbScale
 70
     0
300
1:100
140
1.0
141
100.0
290
     0
  0
SCALE
  5
54
102
{ACAD_REACTORS
330
47
102
}
330
47
100
AcDbScale
 70
     0
300
2:1
140
2.0
141
1.0
290
     0
  0
SCALE
  5
55
102
{ACAD_REACTORS
330
47
102
}
330
47
100
AcDbScale
 70
     0
300
4:1
140
4.0
141
1.0
290
     0
  0
SCALE
  5
56
102
{ACAD_REACTORS
330
47
102
}
330
47
100
AcDbScale
 70
     0
300
8:1
140
8.0
141
1.0
290
     0
  0
SCALE
  5
57
102
{ACAD_REACTORS
330
47
102
}
330
47
100
AcDbScale
 70
     0
300
10:1
140
10.0
141
1.0
290
     0
  0
SCALE
  5
58
102
{ACAD_REACTORS
330
47
102
}
330
47
100
AcDbScale
 70
     0
300
100:1
140
100.0
141
1.0
290
     0
  0
SCALE
  5
59
102
{ACAD_REACTORS
330
47
102
}
330
47
100
AcDbScale
 70
     0
300
1/128" = 1'-0"
140
0.0078125
141
12.0
290
     0
  0
SCALE
  5
5A
102
{ACAD_REACTORS
330
47
102
}
330
47
100
AcDbScale
 70
     0
300
1/64" = 1'-0"
140
0.015625
141
12.0
290
     0
  0
SCALE
  5
5B
102
{ACAD_REACTORS
330
47
102
}
330
47
100
AcDbScale
 70
     0
300
1/32" = 1'-0"
140
0.03125
141
12.0
290
     0
  0
SCALE
  5
5C
102
{ACAD_REACTORS
330
47
102
}
330
47
100
AcDbScale
 70
     0
300
1/16" = 1'-0"
140
0.0625
141
12.0
290
     0
  0
SCALE
  5
5D
102
{ACAD_REACTORS
330
47
102
}
330
47
100
AcDbScale
 70
     0
300
3/32" = 1'-0"
140
0.09375
141
12.0
290
     0
  0
SCALE
  5
5E
102
{ACAD_REACTORS
330
47
102
}
330
47
100
AcDbScale
 70
     0
300
1/8" = 1'-0"
140
0.125
141
12.0
290
     0
  0
SCALE
  5
5F
102
{ACAD_REACTORS
330
47
102
}
330
47
100
AcDbScale
 70
     0
300
3/16" = 1'-0"
140
0.1875
141
12.0
290
     0
  0
SCALE
  5
60
102
{ACAD_REACTORS
330
47
102
}
330
47
100
AcDbScale
 70
     0
300
1/4" = 1'-0"
140
0.25
141
12.0
290
     0
  0
SCALE
  5
61
102
{ACAD_REACTORS
330
47
102
}
330
47
100
AcDbScale
 70
     0
300
3/8" = 1'-0"
140
0.375
141
12.0
290
     0
  0
SCALE
  5
62
102
{ACAD_REACTORS
330
47
102
}
330
47
100
AcDbScale
 70
     0
300
1/2" = 1'-0"
140
0.5
141
12.0
290
     0
  0
SCALE
  5
63
102
{ACAD_REACTORS
330
47
102
}
330
47
100
AcDbScale
 70
     0
300
3/4" = 1'-0"
140
0.75
141
12.0
290
     0
  0
SCALE
  5
64
102
{ACAD_REACTORS
330
47
102
}
330
47
100
AcDbScale
 70
     0
300
1" = 1'-0"
140
1.0
141
12.0
290
     0
  0
SCALE
  5
65
102
{ACAD_REACTORS
330
47
102
}
330
47
100
AcDbScale
 70
     0
300
1-1/2" = 1'-0"
140
1.5
141
12.0
290
     0
  0
SCALE
  5
66
102
{ACAD_REACTORS
330
47
102
}
330
47
100
AcDbScale
 70
     0
300
3" = 1'-0"
140
3.0
141
12.0
290
     0
  0
SCALE
  5
67
102
{ACAD_REACTORS
330
47
102
}
330
47
100
AcDbScale
 70
     0
300
6" = 1'-0"
140
6.0
141
12.0
290
     0
  0
SCALE
  5
68
102
{ACAD_REACTORS
330
47
102
}
330
47
100
AcDbScale
 70
     0
300
1'-0" = 1'-0"
140
12.0
141
12.0
290
     0
  0
ENDSEC
  0
EOF
