  0
SECTION
  2
HEADER
  9
$ACADVER
  1
AC1015
  9
$ACADMAINTVER
 70
     6
  9
$DWGCODEPAGE
  3
ANSI_1250
  9
$INSBASE
 10
0.0
 20
0.0
 30
0.0
  9
$EXTMIN
 10
0.0
 20
0.0
 30
0.0
  9
$EXTMAX
 10
20000.0
 20
10000.0
 30
0.0
  9
$LIMMIN
 10
0.0
 20
0.0
  9
$LIMMAX
 10
20000.0
 20
10000.0
  9
$ORTHOMODE
 70
     0
  9
$REGENMODE
 70
     1
  9
$FILLMODE
 70
     1
  9
$QTEXTMODE
 70
     0
  9
$MIRRTEXT
 70
     1
  9
$LTSCALE
 40
1.0
  9
$ATTMODE
 70
     1
  9
$TEXTSIZE
 40
2.0
  9
$TRACEWID
 40
1.0
  9
$TEXTSTYLE
  7
Standard
  9
$CLAYER
  8
0
  9
$CELTYPE
  6
ByLayer
  9
$CECOLOR
 62
   256
  9
$CELTSCALE
 40
1.0
  9
$DISPSILH
 70
     0
  9
$DIMSCALE
 40
1.0
  9
$DIMASZ
 40
2.0
  9
$DIMEXO
 40
1.0
  9
$DIMDLI
 40
3.75
  9
$DIMRND
 40
0.0
  9
$DIMDLE
 40
0.0
  9
$DIMEXE
 40
1.0
  9
$DIMTP
 40
0.0
  9
$DIMTM
 40
0.0
  9
$DIMTXT
 40
2.0
  9
$DIMCEN
 40
2.5
  9
$DIMTSZ
 40
0.0
  9
$DIMTOL
 70
     0
  9
$DIMLIM
 70
     0
  9
$DIMTIH
 70
     1
  9
$DIMTOH
 70
     1
  9
$DIMSE1
 70
     0
  9
$DIMSE2
 70
     0
  9
$DIMTAD
 70
     1
  9
$DIMZIN
 70
     0
  9
$DIMBLK
  1

  9
$DIMASO
 70
     1
  9
$DIMSHO
 70
     1
  9
$DIMPOST
  1

  9
$DIMAPOST
  1

  9
$DIMALT
 70
     0
  9
$DIMALTD
 70
     3
  9
$DIMALTF
 40
0.0393700787
  9
$DIMLFAC
 40
1.0
  9
$DIMTOFL
 70
     1
  9
$DIMTVP
 40
0.0
  9
$DIMTIX
 70
     0
  9
$DIMSOXD
 70
     0
  9
$DIMSAH
 70
     0
  9
$DIMBLK1
  1

  9
$DIMBLK2
  1

  9
$DIMSTYLE
  2
ISO-25
  9
$DIMCLRD
 70
     0
  9
$DIMCLRE
 70
     0
  9
$DIMCLRT
 70
     0
  9
$DIMTFAC
 40
1.0
  9
$DIMGAP
 40
1.524
  9
$DIMJUST
 70
     0
  9
$DIMSD1
 70
     0
  9
$DIMSD2
 70
     0
  9
$DIMTOLJ
 70
     0
  9
$DIMTZIN
 70
     0
  9
$DIMALTZ
 70
     0
  9
$DIMALTTZ
 70
     0
  9
$DIMUPT
 70
     0
  9
$DIMDEC
 70
     2
  9
$DIMTDEC
 70
     0
  9
$DIMALTU
 70
     2
  9
$DIMALTTD
 70
     3
  9
$DIMTXSTY
  7
Standard
  9
$DIMAUNIT
 70
     0
  9
$DIMADEC
 70
     2
  9
$DIMALTRND
 40
0.0
  9
$DIMAZIN
 70
     0
  9
$DIMDSEP
 70
    44
  9
$DIMATFIT
 70
     3
  9
$DIMFRAC
 70
     0
  9
$DIMLDRBLK
  1

  9
$DIMLUNIT
 70
     2
  9
$DIMLWD
 70
    -2
  9
$DIMLWE
 70
    -2
  9
$DIMTMOVE
 70
     0
  9
$LUNITS
 70
     2
  9
$LUPREC
 70
     3
  9
$SKETCHINC
 40
1.0
  9
$FILLETRAD
 40
10.0
  9
$AUNITS
 70
     0
  9
$AUPREC
 70
     2
  9
$MENU
  1
.
  9
$ELEVATION
 40
0.0
  9
$PELEVATION
 40
0.0
  9
$THICKNESS
 40
0.0
  9
$LIMCHECK
 70
     0
  9
$CHAMFERA
 40
0.0
  9
$CHAMFERB
 40
0.0
  9
$CHAMFERC
 40
0.0
  9
$CHAMFERD
 40
0.0
  9
$SKPOLY
 70
     0
  9
$TDCREATE
 40
2459345.510879306
  9
$TDUCREATE
 40
2459345.427545972
  9
$TDUPDATE
 40
2459345.510879537
  9
$TDUUPDATE
 40
2459345.427546204
  9
$TDINDWG
 40
0.0000000116
  9
$TDUSRTIMER
 40
0.0000000116
  9
$USRTIMER
 70
     1
  9
$ANGBASE
 50
0.0
  9
$ANGDIR
 70
     0
  9
$PDMODE
 70
     0
  9
$PDSIZE
 40
-1.0
  9
$PLINEWID
 40
0.0
  9
$SPLFRAME
 70
     0
  9
$SPLINETYPE
 70
     6
  9
$SPLINESEGS
 70
     8
  9
$HANDSEED
  5
19F
  9
$SURFTAB1
 70
     6
  9
$SURFTAB2
 70
     6
  9
$SURFTYPE
 70
     6
  9
$SURFU
 70
     6
  9
$SURFV
 70
     6
  9
$UCSBASE
  2

  9
$UCSNAME
  2

  9
$UCSORG
 10
0.0
 20
0.0
 30
0.0
  9
$UCSXDIR
 10
1.0
 20
0.0
 30
0.0
  9
$UCSYDIR
 10
0.0
 20
1.0
 30
0.0
  9
$UCSORTHOREF
  2

  9
$UCSORTHOVIEW
 70
     0
  9
$UCSORGTOP
 10
0.0
 20
0.0
 30
0.0
  9
$UCSORGBOTTOM
 10
0.0
 20
0.0
 30
0.0
  9
$UCSORGLEFT
 10
0.0
 20
0.0
 30
0.0
  9
$UCSORGRIGHT
 10
0.0
 20
0.0
 30
0.0
  9
$UCSORGFRONT
 10
0.0
 20
0.0
 30
0.0
  9
$UCSORGBACK
 10
0.0
 20
0.0
 30
0.0
  9
$PUCSBASE
  2

  9
$PUCSNAME
  2

  9
$PUCSORG
 10
0.0
 20
0.0
 30
0.0
  9
$PUCSXDIR
 10
1.0
 20
0.0
 30
0.0
  9
$PUCSYDIR
 10
0.0
 20
1.0
 30
0.0
  9
$PUCSORTHOREF
  2

  9
$PUCSORTHOVIEW
 70
     0
  9
$PUCSORGTOP
 10
0.0
 20
0.0
 30
0.0
  9
$PUCSORGBOTTOM
 10
0.0
 20
0.0
 30
0.0
  9
$PUCSORGLEFT
 10
0.0
 20
0.0
 30
0.0
  9
$PUCSORGRIGHT
 10
0.0
 20
0.0
 30
0.0
  9
$PUCSORGFRONT
 10
0.0
 20
0.0
 30
0.0
  9
$PUCSORGBACK
 10
0.0
 20
0.0
 30
0.0
  9
$USERI1
 70
     0
  9
$USERI2
 70
     0
  9
$USERI3
 70
     0
  9
$USERI4
 70
     0
  9
$USERI5
 70
     0
  9
$USERR1
 40
0.0
  9
$USERR2
 40
0.0
  9
$USERR3
 40
0.0
  9
$USERR4
 40
0.0
  9
$USERR5
 40
0.0
  9
$WORLDVIEW
 70
     1
  9
$SHADEDGE
 70
     3
  9
$SHADEDIF
 70
    70
  9
$TILEMODE
 70
     1
  9
$MAXACTVP
 70
    64
  9
$PINSBASE
 10
0.0
 20
0.0
 30
0.0
  9
$PLIMCHECK
 70
     0
  9
$PEXTMIN
 10
1.0000000000E+20
 20
1.0000000000E+20
 30
1.0000000000E+20
  9
$PEXTMAX
 10
-1.0000000000E+20
 20
-1.0000000000E+20
 30
-1.0000000000E+20
  9
$PLIMMIN
 10
0.0
 20
0.0
  9
$PLIMMAX
 10
420.0
 20
297.0
  9
$UNITMODE
 70
     0
  9
$VISRETAIN
 70
     1
  9
$PLINEGEN
 70
     0
  9
$PSLTSCALE
 70
     1
  9
$TREEDEPTH
 70
  3020
  9
$CMLSTYLE
  2
Standard
  9
$CMLJUST
 70
     0
  9
$CMLSCALE
 40
20.0
  9
$PROXYGRAPHICS
 70
     1
  9
$MEASUREMENT
 70
     1
  9
$CELWEIGHT
370
    -1
  9
$ENDCAPS
280
     0
  9
$JOINSTYLE
280
     0
  9
$LWDISPLAY
290
     1
  9
$INSUNITS
 70
     4
  9
$HYPERLINKBASE
  1

  9
$STYLESHEET
  1

  9
$XEDIT
290
     1
  9
$CEPSNTYPE
380
     0
  9
$PSTYLEMODE
290
     1
  9
$FINGERPRINTGUID
  2
{041e62e7-0dc1-4eb5-b175-857258fdf2e7}
  9
$VERSIONGUID
  2
{FAEB1C32-E019-11D5-929B-00C0DF256EC4}
  9
$EXTNAMES
290
     1
  9
$PSVPSCALE
 40
0.0
  9
$OLESTARTUP
290
     0
  0
ENDSEC
  0
SECTION
  2
CLASSES
  0
CLASS
  1
ACDBDICTIONARYWDFLT
  2
AcDbDictionaryWithDefault
  3
ObjectDBX Classes
 90
        0
280
     0
281
     0
  0
CLASS
  1
VISUALSTYLE
  2
AcDbVisualStyle
  3
ObjectDBX Classes
 90
     4095
280
     0
281
     0
  0
CLASS
  1
MATERIAL
  2
AcDbMaterial
  3
ObjectDBX Classes
 90
     1153
280
     0
281
     0
  0
CLASS
  1
SCALE
  2
AcDbScale
  3
ObjectDBX Classes
 90
     1153
280
     0
281
     0
  0
CLASS
  1
TABLESTYLE
  2
AcDbTableStyle
  3
ObjectDBX Classes
 90
     4095
280
     0
281
     0
  0
CLASS
  1
MLEADERSTYLE
  2
AcDbMLeaderStyle
  3
ACDB_MLEADERSTYLE_CLASS
 90
     4095
280
     0
281
     0
  0
CLASS
  1
SUN
  2
AcDbSun
  3
SCENEOE
 90
     1153
280
     0
281
     0
  0
CLASS
  1
ACDBPLACEHOLDER
  2
AcDbPlaceHolder
  3
ObjectDBX Classes
 90
        0
280
     0
281
     0
  0
CLASS
  1
LAYOUT
  2
AcDbLayout
  3
ObjectDBX Classes
 90
        0
280
     0
281
     0
  0
ENDSEC
  0
SECTION
  2
TABLES
  0
TABLE
  2
VPORT
  5
8
330
0
100
AcDbSymbolTable
 70
     1
  0
VPORT
  5
29
330
8
100
AcDbSymbolTableRecord
100
AcDbViewportTableRecord
  2
*Active
 70
     0
 10
0.0
 20
0.0
 11
1.0
 21
1.0
 12
10000.0
 22
5000.0
 13
0.0
 23
0.0
 14
10.0
 24
10.0
 15
10.0
 25
10.0
 16
0.0
 26
0.0
 36
1.0
 17
0.0
 27
0.0
 37
0.0
 40
10000.0
 41
2.0
 42
50.0
 43
0.0
 44
0.0
 50
0.0
 51
0.0
 71
     0
 72
  2000
 73
     1
 74
     3
 75
     0
 76
     0
 77
     0
 78
     0
281
     0
 65
     1
110
0.0
120
0.0
130
0.0
111
1.0
121
0.0
131
0.0
112
0.0
122
1.0
132
0.0
 79
     0
146
0.0
  0
ENDTAB
  0
TABLE
  2
LTYPE
  5
5
330
0
100
AcDbSymbolTable
 70
     6
  0
LTYPE
  5
14
330
5
100
AcDbSymbolTableRecord
100
AcDbLinetypeTableRecord
  2
ByBlock
 70
     0
  3

 72
    65
 73
     0
 40
0.0
  0
LTYPE
  5
15
330
5
100
AcDbSymbolTableRecord
100
AcDbLinetypeTableRecord
  2
ByLayer
 70
     0
  3

 72
    65
 73
     0
 40
0.0
  0
LTYPE
  5
16
330
5
100
AcDbSymbolTableRecord
100
AcDbLinetypeTableRecord
  2
Continuous
 70
     0
  3
Solid line
 72
    65
 73
     0
 40
0.0
  0
LTYPE
  5
6E
330
5
100
AcDbSymbolTableRecord
100
AcDbLinetypeTableRecord
  2
HIDDEN
 70
     0
  3
Hidden __ __ __ __ __ __ __ __ __ __ __ __ __ __
 72
    65
 73
     2
 40
1.905
 49
1.27
 74
     0
 49
-0.635
 74
     0
  0
LTYPE
  5
6F
330
5
100
AcDbSymbolTableRecord
100
AcDbLinetypeTableRecord
  2
PHANTOM
 70
     0
  3
Phantom ______  __  __  ______  __  __  ______
 72
    65
 73
     6
 40
12.7
 49
6.35
 74
     0
 49
-1.27
 74
     0
 49
1.27
 74
     0
 49
-1.27
 74
     0
 49
1.27
 74
     0
 49
-1.27
 74
     0
  0
LTYPE
  5
70
330
5
100
AcDbSymbolTableRecord
100
AcDbLinetypeTableRecord
  2
CENTER
 70
     0
  3
Center ____ _ ____ _ ____ _ ____ _ ____ _ ____
 72
    65
 73
     4
 40
10.16
 49
6.35
 74
     0
 49
-1.27
 74
     0
 49
1.27
 74
     0
 49
-1.27
 74
     0
  0
LTYPE
  5
71
330
5
100
AcDbSymbolTableRecord
100
AcDbLinetypeTableRecord
  2
CENTERX2
 70
     0
  3
Center (2x) ________  __  ________  __  _____
 72
    65
 73
     4
 40
20.32
 49
12.7
 74
     0
 49
-2.54
 74
     0
 49
2.54
 74
     0
 49
-2.54
 74
     0
  0
LTYPE
  5
72
330
5
100
AcDbSymbolTableRecord
100
AcDbLinetypeTableRecord
  2
DOT2
 70
     0
  3
Dot (.5x) ........................................
 72
    65
 73
     2
 40
0.635
 49
0.0
 74
     0
 49
-0.635
 74
     0
  0
ENDTAB
  0
TABLE
  2
LAYER
  5
2
330
0
100
AcDbSymbolTable
 70
    13
  0
LAYER
  5
10
330
2
100
AcDbSymbolTableRecord
100
AcDbLayerTableRecord
  2
0
 70
     0
 62
     7
  6
Continuous
370
    -3
390
F
  0
LAYER
  5
73
330
2
100
AcDbSymbolTableRecord
100
AcDbLayerTableRecord
  2
FORMAT
 70
     0
 62
     7
  6
Continuous
370
    -3
390
F
  0
LAYER
  5
74
330
2
100
AcDbSymbolTableRecord
100
AcDbLayerTableRecord
  2
OSA
 70
     0
 62
     7
  6
CENTER
370
    -3
390
F
  0
LAYER
  5
75
330
2
100
AcDbSymbolTableRecord
100
AcDbLayerTableRecord
  2
0_35
 70
     0
 62
     7
  6
Continuous
370
    35
390
F
  0
LAYER
  5
76
330
2
100
AcDbSymbolTableRecord
100
AcDbLayerTableRecord
  2
0_5
 70
     0
 62
     7
  6
Continuous
370
    50
390
F
  0
LAYER
  5
77
330
2
100
AcDbSymbolTableRecord
100
AcDbLayerTableRecord
  2
0_25
 70
     0
 62
     7
  6
Continuous
370
    25
390
F
  0
LAYER
  5
78
330
2
100
AcDbSymbolTableRecord
100
AcDbLayerTableRecord
  2
0_18
 70
     0
 62
     7
  6
Continuous
370
    -3
390
F
  0
LAYER
  5
79
330
2
100
AcDbSymbolTableRecord
100
AcDbLayerTableRecord
  2
SLD-0
 70
     0
 62
   179
  6
Continuous
370
    -3
390
F
  0
LAYER
  5
7A
330
2
100
AcDbSymbolTableRecord
100
AcDbLayerTableRecord
  2
KOTY
 70
     0
 62
     7
  6
Continuous
370
    -3
390
F
  0
LAYER
  5
7B
330
2
100
AcDbSymbolTableRecord
100
AcDbLayerTableRecord
  2
SILNA
 70
     0
 62
   179
  6
Continuous
370
    -3
390
F
  0
LAYER
  5
7C
330
2
100
AcDbSymbolTableRecord
100
AcDbLayerTableRecord
  2
0_18_1
 70
     0
 62
   179
  6
Continuous
370
    -3
390
F
  0
LAYER
  5
7D
330
2
100
AcDbSymbolTableRecord
100
AcDbLayerTableRecord
  2
0_35_1
 70
     0
 62
   179
  6
Continuous
370
    35
390
F
  0
LAYER
  5
7E
330
2
100
AcDbSymbolTableRecord
100
AcDbLayerTableRecord
  2
0_5_1
 70
     0
 62
   179
  6
Continuous
370
    50
390
F
  0
ENDTAB
  0
TABLE
  2
STYLE
  5
3
330
0
100
AcDbSymbolTable
 70
     1
  0
STYLE
  5
11
330
3
100
AcDbSymbolTableRecord
100
AcDbTextStyleTableRecord
  2
Standard
 70
     0
 40
0.0
 41
1.0
 50
0.0
 71
     0
 42
2.0
  3
txt
  4

  0
ENDTAB
  0
TABLE
  2
VIEW
  5
6
330
0
100
AcDbSymbolTable
 70
     0
  0
ENDTAB
  0
TABLE
  2
UCS
  5
7
330
0
100
AcDbSymbolTable
 70
     0
  0
ENDTAB
  0
TABLE
  2
APPID
  5
9
330
0
100
AcDbSymbolTable
 70
     1
  0
APPID
  5
12
330
9
100
AcDbSymbolTableRecord
100
AcDbRegAppTableRecord
  2
ACAD
 70
     0
  0
ENDTAB
  0
TABLE
  2
DIMSTYLE
  5
A
330
0
100
AcDbSymbolTable
 70
     1
100
AcDbDimStyleTable
  0
DIMSTYLE
105
27
330
A
100
AcDbSymbolTableRecord
100
AcDbDimStyleTableRecord
  2
ISO-25
 70
     0
 41
2.5
 42
0.625
 43
3.75
 44
1.25
 73
     0
 74
     0
 77
     1
 78
     8
140
2.5
141
2.5
143
0.0393700787
147
0.625
171
     3
172
     1
178
     0
271
     2
272
     2
274
     3
278
    44
283
     0
284
     8
340
11
  0
ENDTAB
  0
TABLE
  2
BLOCK_RECORD
  5
1
330
0
100
AcDbSymbolTable
 70
     1
  0
BLOCK_RECORD
  5
1F
330
1
100
AcDbSymbolTableRecord
100
AcDbBlockTableRecord
  2
*Model_Space
340
22
  0
BLOCK_RECORD
  5
1B
330
1
100
AcDbSymbolTableRecord
100
AcDbBlockTableRecord
  2
*Paper_Space
340
1E
  0
BLOCK_RECORD
  5
23
330
1
100
AcDbSymbolTableRecord
100
AcDbBlockTableRecord
  2
*Paper_Space0
340
26
  0
ENDTAB
  0
ENDSEC
  0
SECTION
  2
BLOCKS
  0
BLOCK
  5
20
330
1F
100
AcDbEntity
  8
0
100
AcDbBlockBegin
  2
*Model_Space
 70
     0
 10
0.0
 20
0.0
 30
0.0
  3
*Model_Space
  1

  0
ENDBLK
  5
21
330
1F
100
AcDbEntity
  8
0
100
AcDbBlockEnd
  0
BLOCK
  5
1C
330
1B
100
AcDbEntity
 67
     1
  8
0
100
AcDbBlockBegin
  2
*Paper_Space
 70
     0
 10
0.0
 20
0.0
 30
0.0
  3
*Paper_Space
  1

  0
ENDBLK
  5
1D
330
1B
100
AcDbEntity
 67
     1
  8
0
100
AcDbBlockEnd
  0
BLOCK
  5
24
330
23
100
AcDbEntity
  8
0
100
AcDbBlockBegin
  2
*Paper_Space0
 70
     0
 10
0.0
 20
0.0
 30
0.0
  3
*Paper_Space0
  1

  0
ENDBLK
  5
25
330
23
100
AcDbEntity
  8
0
100
AcDbBlockEnd
  0
ENDSEC
  0
SECTION
  2
ENTITIES
  0
LINE
  5
7F
330
1F
100
AcDbEntity
  8
0
  6
Continuous
 62
     7
370
    25
100
AcDbLine
 10
6518.9724250516
 20
5179.6787485786
 30
0.0
 11
6517.4724250516
 21
5181.1787485786
 31
0.0
  0
LINE
  5
80
330
1F
100
AcDbEntity
  8
0
  6
Continuous
 62
     7
370
    25
100
AcDbLine
 10
6492.4724250516
 20
5181.1787485786
 30
0.0
 11
6490.9724250516
 21
5179.6787485786
 31
0.0
  0
LINE
  5
81
330
1F
100
AcDbEntity
  8
0
  6
Continuous
 62
     7
370
    25
100
AcDbLine
 10
6518.9724250516
 20
5179.1787485786
 30
0.0
 11
6518.9724250516
 21
5179.6787485786
 31
0.0
  0
LINE
  5
82
330
1F
100
AcDbEntity
  8
0
  6
Continuous
 62
     7
370
    25
100
AcDbLine
 10
6490.9724250516
 20
5179.6787485786
 30
0.0
 11
6490.9724250516
 21
5179.1787485786
 31
0.0
  0
LINE
  5
83
330
1F
100
AcDbEntity
  8
0
  6
Continuous
 62
     7
370
    25
100
AcDbLine
 10
6495.7224250516
 20
5117.5899138138
 30
0.0
 11
6495.7224250516
 21
5117.2363604232
 31
0.0
  0
LINE
  5
84
330
1F
100
AcDbEntity
  8
0
  6
Continuous
 62
     7
370
    25
100
AcDbLine
 10
6514.2224250516
 20
5117.2363604232
 30
0.0
 11
6514.2224250516
 21
5117.5899138138
 31
0.0
  0
LINE
  5
85
330
1F
100
AcDbEntity
  8
0
  6
Continuous
 62
     7
370
    25
100
AcDbLine
 10
6512.4724250516
 20
5117.2363604232
 30
0.0
 11
6512.4724250516
 21
5117.9434672043
 31
0.0
  0
LINE
  5
86
330
1F
100
AcDbEntity
  8
0
  6
Continuous
 62
     7
370
    25
100
AcDbLine
 10
6497.4724250516
 20
5117.9434672043
 30
0.0
 11
6497.4724250516
 21
5117.2363604232
 31
0.0
  0
LINE
  5
87
330
1F
100
AcDbEntity
  8
0
  6
Continuous
 62
     7
370
    25
100
AcDbLine
 10
6480.0724250516
 20
5176.4787485786
 30
0.0
 11
6480.3724250516
 21
5176.1787485786
 31
0.0
  0
LINE
  5
88
330
1F
100
AcDbEntity
  8
0
  6
Continuous
 62
     7
370
    25
100
AcDbLine
 10
6529.5724250516
 20
5176.1787485786
 30
0.0
 11
6529.8724250516
 21
5176.4787485786
 31
0.0
  0
LINE
  5
89
330
1F
100
AcDbEntity
  8
0
  6
Continuous
 62
     7
370
    25
100
AcDbLine
 10
6529.8724250516
 20
5178.1787485786
 30
0.0
 11
6528.8724250516
 21
5179.1787485786
 31
0.0
  0
LINE
  5
8A
330
1F
100
AcDbEntity
  8
0
  6
Continuous
 62
     7
370
    25
100
AcDbLine
 10
6481.0724250516
 20
5179.1787485786
 30
0.0
 11
6480.0724250516
 21
5178.1787485786
 31
0.0
  0
LINE
  5
8B
330
1F
100
AcDbEntity
  8
0
  6
Continuous
 62
     7
370
    25
100
AcDbLine
 10
6480.0724250516
 20
5178.1787485786
 30
0.0
 11
6480.0724250516
 21
5176.4787485786
 31
0.0
  0
LINE
  5
8C
330
1F
100
AcDbEntity
  8
0
  6
Continuous
 62
     7
370
    25
100
AcDbLine
 10
6529.8724250516
 20
5176.4787485786
 30
0.0
 11
6529.8724250516
 21
5178.1787485786
 31
0.0
  0
LINE
  5
8D
330
1F
100
AcDbEntity
  8
0
  6
Continuous
 62
     7
370
    25
100
AcDbLine
 10
6542.8760148901
 20
5077.7787485786
 30
0.0
 11
6543.3760148901
 21
5078.2787485786
 31
0.0
  0
LINE
  5
8E
330
1F
100
AcDbEntity
  8
0
  6
Continuous
 62
     7
370
    25
100
AcDbLine
 10
6543.3760148901
 20
5093.0787485786
 30
0.0
 11
6542.8760148901
 21
5093.5787485786
 31
0.0
  0
LINE
  5
8F
330
1F
100
AcDbEntity
  8
0
  6
Continuous
 62
     7
370
    25
100
AcDbLine
 10
6536.381395559
 20
5093.5787485786
 30
0.0
 11
6529.6580621753
 21
5093.5787485786
 31
0.0
  0
LINE
  5
90
330
1F
100
AcDbEntity
  8
0
  6
Continuous
 62
     7
370
    25
100
AcDbLine
 10
6542.8760148901
 20
5093.5787485786
 30
0.0
 11
6540.3706342213
 21
5093.5787485786
 31
0.0
  0
LINE
  5
91
330
1F
100
AcDbEntity
  8
0
  6
Continuous
 62
     7
370
    25
100
AcDbLine
 10
6529.6580392247
 20
5077.7787485786
 30
0.0
 11
6542.8760148901
 21
5077.7787485786
 31
0.0
  0
LINE
  5
92
330
1F
100
AcDbEntity
  8
0
  6
Continuous
 62
     7
370
    25
100
AcDbLine
 10
6540.3760148901
 20
5093.5787485786
 30
0.0
 11
6540.3760148901
 21
5109.0747188041
 31
0.0
  0
LINE
  5
93
330
1F
100
AcDbEntity
  8
0
  6
Continuous
 62
     7
370
    25
100
AcDbLine
 10
6536.3760148901
 20
5109.0747188041
 30
0.0
 11
6536.3760148901
 21
5093.5787485786
 31
0.0
  0
ARC
  5
94
330
1F
100
AcDbEntity
  8
0
  6
Continuous
 62
     7
370
    25
100
AcDbCircle
 10
6538.3760148901
 20
5106.041907849
 30
0.0
 40
3.633333333333441
100
AcDbArc
 50
56.6164821083
 51
123.3835178917
  0
LINE
  5
95
330
1F
100
AcDbEntity
  8
0
  6
Continuous
 62
     7
370
    25
100
AcDbLine
 10
6529.7224250516
 20
5175.9787485786
 30
0.0
 11
6529.5224250516
 21
5176.1787485786
 31
0.0
  0
LINE
  5
96
330
1F
100
AcDbEntity
  8
0
  6
Continuous
 62
     7
370
    25
100
AcDbLine
 10
6480.4224250516
 20
5176.1787485786
 30
0.0
 11
6480.2224250516
 21
5175.9787485786
 31
0.0
  0
LINE
  5
97
330
1F
100
AcDbEntity
  8
0
  6
Continuous
 62
     7
370
    25
100
AcDbLine
 10
6480.2224250516
 20
5027.3787485786
 30
0.0
 11
6480.4224250516
 21
5027.1787485786
 31
0.0
  0
LINE
  5
98
330
1F
100
AcDbEntity
  8
0
  6
Continuous
 62
     7
370
    25
100
AcDbLine
 10
6529.5224250516
 20
5027.1787485786
 30
0.0
 11
6529.7224250516
 21
5027.3787485786
 31
0.0
  0
LINE
  5
99
330
1F
100
AcDbEntity
  8
0
  6
Continuous
 62
     7
370
    25
100
AcDbLine
 10
6480.2224250516
 20
5175.9787485786
 30
0.0
 11
6480.2224250516
 21
5027.3787485786
 31
0.0
  0
LINE
  5
9A
330
1F
100
AcDbEntity
  8
0
  6
Continuous
 62
     7
370
    25
100
AcDbLine
 10
6529.7224250516
 20
5093.7787485786
 30
0.0
 11
6529.7224250516
 21
5175.9787485786
 31
0.0
  0
LINE
  5
9B
330
1F
100
AcDbEntity
  8
0
  6
Continuous
 62
     7
370
    25
100
AcDbLine
 10
6529.7224250516
 20
5027.3787485786
 30
0.0
 11
6529.7224250516
 21
5077.58210011
 31
0.0
  0
LINE
  5
9C
330
1F
100
AcDbEntity
  8
0
  6
Continuous
 62
     7
370
    25
100
AcDbLine
 10
6534.9724250516
 20
5025.2390755122
 30
0.0
 11
6534.4894621385
 21
5026.075591816
 31
0.0
  0
LINE
  5
9D
330
1F
100
AcDbEntity
  8
0
  6
Continuous
 62
     7
370
    25
100
AcDbLine
 10
6475.4553879648
 20
5026.075591816
 30
0.0
 11
6474.9724250516
 21
5025.2390755122
 31
0.0
  0
LINE
  5
9E
330
1F
100
AcDbEntity
  8
0
  6
Continuous
 62
     7
370
    25
100
AcDbLine
 10
6534.9724250516
 20
5023.1787485786
 30
0.0
 11
6534.9724250516
 21
5025.2390755122
 31
0.0
  0
LINE
  5
9F
330
1F
100
AcDbEntity
  8
0
  6
Continuous
 62
     7
370
    25
100
AcDbLine
 10
6474.9724250516
 20
5025.2390755122
 30
0.0
 11
6474.9724250516
 21
5023.1787485786
 31
0.0
  0
LINE
  5
A0
330
1F
100
AcDbEntity
  8
0
  6
Continuous
 62
     7
370
    25
100
AcDbLine
 10
6534.4894621385
 20
5026.075591816
 30
0.0
 11
6530.3724250516
 21
5027.1787485786
 31
0.0
  0
LINE
  5
A1
330
1F
100
AcDbEntity
  8
0
  6
Continuous
 62
     7
370
    25
100
AcDbLine
 10
6479.5724250516
 20
5027.1787485786
 30
0.0
 11
6475.4553879648
 21
5026.075591816
 31
0.0
  0
LINE
  5
A2
330
1F
100
AcDbEntity
  8
0
  6
Continuous
 62
     7
370
    25
100
AcDbLine
 10
6492.4724250516
 20
5181.1787485786
 30
0.0
 11
6517.4724250516
 21
5181.1787485786
 31
0.0
  0
LINE
  5
A3
330
1F
100
AcDbEntity
  8
0
  6
Continuous
 62
     7
370
    25
100
AcDbLine
 10
6518.9724250516
 20
5179.6787485786
 30
0.0
 11
6490.9724250516
 21
5179.6787485786
 31
0.0
  0
ARC
  5
A4
330
1F
100
AcDbEntity
  8
0
  6
Continuous
 62
     7
370
    25
100
AcDbCircle
 10
6500.4641919609
 20
5117.5806366613
 30
0.0
 40
4.741775984485606
100
AcDbArc
 50
161.8291098021
 51
179.8879023342
  0
ARC
  5
A5
330
1F
100
AcDbEntity
  8
0
  6
Continuous
 62
     7
370
    25
100
AcDbCircle
 10
6509.4859801248
 20
5117.5814930583
 30
0.0
 40
4.736452412313265
100
AcDbArc
 50
0.1018640023
 51
18.1811238612
  0
ARC
  5
A6
330
1F
100
AcDbEntity
  8
0
  6
Continuous
 62
     7
370
    25
100
AcDbCircle
 10
6504.9651848837
 20
5123.5014741365
 30
0.0
 40
12.80655589290517
100
AcDbArc
 50
255.8536949078
 51
272.9335791868
  0
ARC
  5
A7
330
1F
100
AcDbEntity
  8
0
  6
Continuous
 62
     7
370
    25
100
AcDbCircle
 10
6505.0331921737
 20
5122.4467932623
 30
0.0
 40
12.45578059466791
100
AcDbArc
 50
273.2728416264
 51
286.8978847609
  0
LINE
  5
A8
330
1F
100
AcDbEntity
  8
0
  6
Continuous
 62
     7
370
    25
100
AcDbLine
 10
6508.6536749309
 20
5111.2359063018
 30
0.0
 11
6508.6536749309
 21
5110.5287995206
 31
0.0
  0
ARC
  5
A9
330
1F
100
AcDbEntity
  8
0
  6
Continuous
 62
     7
370
    25
100
AcDbCircle
 10
6505.7699703979
 20
5120.8834318579
 30
0.0
 40
10.0692850386298
100
AcDbArc
 50
286.6417277581
 51
305.3861985819
  0
ARC
  5
AA
330
1F
100
AcDbEntity
  8
0
  6
Continuous
 62
     7
370
    25
100
AcDbCircle
 10
6507.8677759456
 20
5117.3931467831
 30
0.0
 40
6.576558404990552
100
AcDbArc
 50
309.3327489519
 51
330.2215658006
  0
LINE
  5
AB
330
1F
100
AcDbEntity
  8
0
  6
Continuous
 62
     7
370
    25
100
AcDbLine
 10
6513.5759159259
 20
5114.8340235634
 30
0.0
 11
6513.5759159259
 21
5114.1269167822
 31
0.0
  0
ARC
  5
AC
330
1F
100
AcDbEntity
  8
0
  6
Continuous
 62
     7
370
    25
100
AcDbCircle
 10
6509.3810482626
 20
5117.2460871217
 30
0.0
 40
4.838901251538811
100
AcDbArc
 50
330.100947763
 51
6.3605162397
  0
LINE
  5
AD
330
1F
100
AcDbEntity
  8
0
  6
Continuous
 62
     7
370
    25
100
AcDbLine
 10
6514.1901636519
 20
5117.7821603394
 30
0.0
 11
6514.1901636519
 21
5117.0750535582
 31
0.0
  0
ARC
  5
AE
330
1F
100
AcDbEntity
  8
0
  6
Continuous
 62
     7
370
    25
100
AcDbCircle
 10
6509.156757445
 20
5116.4433159537
 30
0.0
 40
5.072895666606903
100
AcDbArc
 50
7.1537274673
 51
32.0099799121
  0
LINE
  5
AF
330
1F
100
AcDbEntity
  8
0
  6
Continuous
 62
     7
370
    25
100
AcDbLine
 10
6513.4583486505
 20
5119.839397176
 30
0.0
 11
6513.4583486505
 21
5119.1322903949
 31
0.0
  0
ARC
  5
B0
330
1F
100
AcDbEntity
  8
0
  6
Continuous
 62
     7
370
    25
100
AcDbCircle
 10
6507.6635203207
 20
5116.1943806405
 30
0.0
 40
6.845887883683229
100
AcDbArc
 50
32.1703853281
 51
52.8521803245
  0
LINE
  5
B1
330
1F
100
AcDbEntity
  8
0
  6
Continuous
 62
     7
370
    25
100
AcDbLine
 10
6510.9445506068
 20
5122.1587737029
 30
0.0
 11
6510.9445506068
 21
5121.5240617641
 31
0.0
  0
ARC
  5
B2
330
1F
100
AcDbEntity
  8
0
  6
Continuous
 62
     7
370
    25
100
AcDbCircle
 10
6505.58328975
 20
5112.4346091399
 30
0.0
 40
10.55278479748286
100
AcDbArc
 50
59.4664851876
 51
74.6889829521
  0
LINE
  5
B3
330
1F
100
AcDbEntity
  8
0
  6
Continuous
 62
     7
370
    25
100
AcDbLine
 10
6508.3698424202
 20
5123.1438901061
 30
0.0
 11
6508.3698424202
 21
5122.6128403811
 31
0.0
  0
LINE
  5
B4
330
1F
100
AcDbEntity
  8
0
  6
Continuous
 62
     7
370
    25
100
AcDbLine
 10
6504.2005474077
 20
5123.5454306916
 30
0.0
 11
6504.2005474077
 21
5123.0471791134
 31
0.0
  0
ARC
  5
B5
330
1F
100
AcDbEntity
  8
0
  6
Continuous
 62
     7
370
    25
100
AcDbCircle
 10
6504.9116579295
 20
5110.6117140217
 30
0.0
 40
12.4557805946008
100
AcDbArc
 50
93.2728416264
 51
106.8978847609
  0
LINE
  5
B6
330
1F
100
AcDbEntity
  8
0
  6
Continuous
 62
     7
370
    25
100
AcDbLine
 10
6501.2911751724
 20
5123.067513166
 30
0.0
 11
6501.2911751724
 21
5122.5297077634
 31
0.0
  0
LINE
  5
B7
330
1F
100
AcDbEntity
  8
0
  6
Continuous
 62
     7
370
    25
100
AcDbLine
 10
6497.9086996639
 20
5121.4592909013
 30
0.0
 11
6498.1472798498
 21
5121.6511023733
 31
0.0
  0
LINE
  5
B8
330
1F
100
AcDbEntity
  8
0
  6
Continuous
 62
     7
370
    25
100
AcDbLine
 10
6497.9086996639
 20
5121.4592909013
 30
0.0
 11
6497.9086996639
 21
5120.7521841201
 31
0.0
  0
ARC
  5
B9
330
1F
100
AcDbEntity
  8
0
  6
Continuous
 62
     7
370
    25
100
AcDbCircle
 10
6502.0770741577
 20
5115.6653605009
 30
0.0
 40
6.576558404954902
100
AcDbArc
 50
129.3327489519
 51
150.2215658006
  0
LINE
  5
BA
330
1F
100
AcDbEntity
  8
0
  6
Continuous
 62
     7
370
    25
100
AcDbLine
 10
6496.3689341773
 20
5119.638697283
 30
0.0
 11
6496.3689341773
 21
5118.9315905018
 31
0.0
  0
ARC
  5
BB
330
1F
100
AcDbEntity
  8
0
  6
Continuous
 62
     7
370
    25
100
AcDbCircle
 10
6500.5638018407
 20
5117.2266337246
 30
0.0
 40
4.838901251547885
100
AcDbArc
 50
150.100947763
 51
186.3605162397
  0
LINE
  5
BC
330
1F
100
AcDbEntity
  8
0
  6
Continuous
 62
     7
370
    25
100
AcDbLine
 10
6495.7546864514
 20
5116.6905605069
 30
0.0
 11
6495.7546864514
 21
5115.9834537257
 31
0.0
  0
ARC
  5
BD
330
1F
100
AcDbEntity
  8
0
  6
Continuous
 62
     7
370
    25
100
AcDbCircle
 10
6500.7880926582
 20
5116.6151913302
 30
0.0
 40
5.072895666581259
100
AcDbArc
 50
187.1537274672
 51
212.0099799122
  0
ARC
  5
BE
330
1F
100
AcDbEntity
  8
0
  6
Continuous
 62
     7
370
    25
100
AcDbCircle
 10
6502.8014962044
 20
5118.8008684861
 30
0.0
 40
7.581142738882066
100
AcDbArc
 50
219.241588011
 51
239.9072309032
  0
LINE
  5
BF
330
1F
100
AcDbEntity
  8
0
  6
Continuous
 62
     7
370
    25
100
AcDbLine
 10
6499.0002994964
 20
5112.2415523011
 30
0.0
 11
6499.0002994964
 21
5111.5344455199
 31
0.0
  0
ARC
  5
C0
330
1F
100
AcDbEntity
  8
0
  6
Continuous
 62
     7
370
    25
100
AcDbCircle
 10
6504.3615603533
 20
5120.623898144
 30
0.0
 40
10.55278479744769
100
AcDbArc
 50
239.4664851875
 51
254.6889829521
  0
ARC
  5
C1
330
1F
100
AcDbEntity
  8
0
  6
Continuous
 62
     7
370
    25
100
AcDbCircle
 10
6501.1239842618
 20
5117.2381421986
 30
0.0
 40
4.389988946868006
100
AcDbArc
 50
142.8706663065
 51
198.9391016612
  0
ARC
  5
C2
330
1F
100
AcDbEntity
  8
0
  6
Continuous
 62
     7
370
    25
100
AcDbCircle
 10
6503.9664407179
 20
5114.58740204
 30
0.0
 40
8.312210239417935
100
AcDbArc
 50
108.6074780033
 51
132.5643853028
  0
ARC
  5
C3
330
1F
100
AcDbEntity
  8
0
  6
Continuous
 62
     7
370
    25
100
AcDbCircle
 10
6504.9841867075
 20
5111.7368137613
 30
0.0
 40
11.33437355800296
100
AcDbArc
 50
73.9936466238
 51
93.3379076722
  0
LWPOLYLINE
  5
C4
330
1F
100
AcDbEntity
  8
0
  6
Continuous
 62
     7
370
    25
100
AcDbPolyline
 90
       30
 70
   128
 43
0.0
 10
6510.8066129676
 20
5121.3609665474
 10
6511.2056123129
 20
5121.0580012073
 10
6511.8703614677
 20
5120.4364364535
 10
6512.4120167837
 20
5119.7577662672
 10
6512.8209124089
 20
5119.0341015339
 10
6513.0897515914
 20
5118.2783560678
 10
6513.2137368894
 20
5117.5040161648
 10
6513.1906557825
 20
5116.7248999388
 10
6513.0209201535
 20
5115.9549107371
 10
6512.7075589387
 20
5115.2077890355
 10
6512.2561640764
 20
5114.4968672384
 10
6511.6747907187
 20
5113.8348317621
 10
6510.9738134869
 20
5113.2334966453
 10
6510.1657413363
 20
5112.7035927274
 10
6509.2649943336
 20
5112.2545761565
 10
6508.2876463303
 20
5111.8944596438
 10
6507.2511381247
 20
5111.629669477
 10
6506.1739662304
 20
5111.4649308431
 10
6505.0753528053
 20
5111.4031835067
 10
6503.974902632
 20
5111.4455293506
 10
6502.8922532699
 20
5111.5912127121
 10
6501.8467246225
 20
5111.8376338683
 10
6500.8569741734
 20
5112.1803954278
 10
6499.9406640426
 20
5112.6133808024
 10
6499.1141458063
 20
5113.1288633578
 10
6498.3921687018
 20
5113.7176442957
 10
6497.7876164279
 20
5114.3692168062
 10
6497.311277234
 20
5115.0719535625
 10
6496.9716514044
 20
5115.8133142106
 10
6496.9716514044
 20
5115.8133142106
  0
LINE
  5
C5
330
1F
100
AcDbEntity
  8
0
  6
Continuous
 62
     7
370
    25
100
AcDbLine
 10
6513.1407058718
 20
5115.0180628278
 30
0.0
 11
6513.5759159259
 21
5114.8340235634
 31
0.0
  0
ARC
  5
C6
330
1F
100
AcDbEntity
  8
0
  6
Continuous
 62
     7
370
    25
100
AcDbCircle
 10
6507.70809466
 20
5118.0512646097
 30
0.0
 40
6.22202359589231
100
AcDbArc
 50
308.7303444164
 51
330.8239703362
  0
LINE
  5
C7
330
1F
100
AcDbEntity
  8
0
  6
Continuous
 62
     7
370
    25
100
AcDbLine
 10
6508.6536749309
 20
5111.2359063018
 30
0.0
 11
6508.5299742148
 21
5111.5836467407
 31
0.0
  0
ARC
  5
C8
330
1F
100
AcDbEntity
  8
0
  6
Continuous
 62
     7
370
    25
100
AcDbCircle
 10
6505.0291942391
 20
5122.8286371389
 30
0.0
 40
11.7773201321225
100
AcDbArc
 50
272.8783648798
 51
287.2923615075
  0
ARC
  5
C9
330
1F
100
AcDbEntity
  8
0
  6
Continuous
 62
     7
370
    25
100
AcDbCircle
 10
6504.3962007753
 20
5121.1051814856
 30
0.0
 40
9.97887469820262
100
AcDbArc
 50
239.0259192754
 51
255.1295488644
  0
LINE
  5
CA
330
1F
100
AcDbEntity
  8
0
  6
Continuous
 62
     7
370
    25
100
AcDbLine
 10
6499.2605703202
 20
5112.5492922816
 30
0.0
 11
6499.0002994964
 21
5112.2415523011
 31
0.0
  0
ARC
  5
CB
330
1F
100
AcDbEntity
  8
0
  6
Continuous
 62
     7
370
    25
100
AcDbCircle
 10
6501.0180882637
 20
5117.316644178
 30
0.0
 40
4.801925345750825
100
AcDbArc
 50
186.4402066723
 51
212.7235007071
  0
LINE
  5
CC
330
1F
100
AcDbEntity
  8
0
  6
Continuous
 62
     7
370
    25
100
AcDbLine
 10
6495.7546864514
 20
5116.6905605069
 30
0.0
 11
6496.2464656963
 21
5116.7780301221
 31
0.0
  0
LINE
  5
CD
330
1F
100
AcDbEntity
  8
0
  6
Continuous
 62
     7
370
    25
100
AcDbLine
 10
6498.3439097181
 20
5121.2752516369
 30
0.0
 11
6497.9086996639
 21
5121.4592909013
 31
0.0
  0
LINE
  5
CE
330
1F
100
AcDbEntity
  8
0
  6
Continuous
 62
     7
370
    25
100
AcDbLine
 10
6504.2734834971
 20
5123.5492520958
 30
0.0
 11
6504.3242481238
 21
5123.4065454556
 31
0.0
  0
LINE
  5
CF
330
1F
100
AcDbEntity
  8
0
  6
Continuous
 62
     7
370
    25
100
AcDbLine
 10
6508.1095715964
 20
5123.0122071817
 30
0.0
 11
6508.2470661565
 21
5123.1747785089
 31
0.0
  0
LINE
  5
D0
330
1F
100
AcDbEntity
  8
0
  6
Continuous
 62
     7
370
    25
100
AcDbLine
 10
6513.4583486505
 20
5119.839397176
 30
0.0
 11
6512.9665694056
 21
5119.7519275609
 31
0.0
  0
LINE
  5
D1
330
1F
100
AcDbEntity
  8
0
  6
Continuous
 62
     7
370
    25
100
AcDbLine
 10
6504.2005474077
 20
5123.0471791134
 30
0.0
 11
6504.3242481238
 21
5122.6994386745
 31
0.0
  0
ARC
  5
D2
330
1F
100
AcDbEntity
  8
0
  6
Continuous
 62
     7
370
    25
100
AcDbCircle
 10
6504.9156558642
 20
5110.9369769264
 30
0.0
 40
11.77732013197286
100
AcDbArc
 50
92.8783648797
 51
107.2923615076
  0
LINE
  5
D3
330
1F
100
AcDbEntity
  8
0
  6
Continuous
 62
     7
370
    25
100
AcDbLine
 10
6501.2911751724
 20
5122.5297077634
 30
0.0
 11
6501.4148758884
 21
5122.1819673244
 31
0.0
  0
LINE
  5
D4
330
1F
100
AcDbEntity
  8
0
  6
Continuous
 62
     7
370
    25
100
AcDbLine
 10
6504.3242481238
 20
5123.4065454556
 30
0.0
 11
6504.3242481238
 21
5122.6994386745
 31
0.0
  0
LINE
  5
D5
330
1F
100
AcDbEntity
  8
0
  6
Continuous
 62
     7
370
    25
100
AcDbLine
 10
6510.684279783
 20
5121.2163217835
 30
0.0
 11
6510.9445506068
 21
5121.5240617641
 31
0.0
  0
ARC
  5
D6
330
1F
100
AcDbEntity
  8
0
  6
Continuous
 62
     7
370
    25
100
AcDbCircle
 10
6505.548649328
 20
5112.6604325796
 30
0.0
 40
9.978874698144756
100
AcDbArc
 50
59.0259192753
 51
75.1295488645
  0
LINE
  5
D7
330
1F
100
AcDbEntity
  8
0
  6
Continuous
 62
     7
370
    25
100
AcDbLine
 10
6508.1095715964
 20
5122.3051004005
 30
0.0
 11
6508.3698424202
 21
5122.6128403811
 31
0.0
  0
LWPOLYLINE
  5
D8
330
1F
100
AcDbEntity
  8
0
  6
Continuous
 62
     7
370
    25
100
AcDbPolyline
 90
        3
 70
   128
 43
0.0
 10
6496.9716514044
 20
5116.5204209917
 10
6496.7747995702
 20
5117.2871759331
 10
6496.7375905056
 20
5117.5899138138
  0
ARC
  5
D9
330
1F
100
AcDbEntity
  8
0
  6
Continuous
 62
     7
370
    25
100
AcDbCircle
 10
6507.6731794295
 20
5118.4215430199
 30
0.0
 40
5.596217512177478
100
AcDbArc
 50
296.5061651593
 51
351.4538728854
  0
ARC
  5
DA
330
1F
100
AcDbEntity
  8
0
  6
Continuous
 62
     7
370
    25
100
AcDbCircle
 10
6502.5844349967
 20
5118.7659164959
 30
0.0
 40
6.045294840865017
100
AcDbArc
 50
201.8047716281
 51
242.2976877655
  0
LINE
  5
DB
330
1F
100
AcDbEntity
  8
0
  6
Continuous
 62
     7
370
    25
100
AcDbLine
 10
6508.1095715964
 20
5123.0122071817
 30
0.0
 11
6508.1095715964
 21
5122.3051004005
 31
0.0
  0
LWPOLYLINE
  5
DC
330
1F
100
AcDbEntity
  8
0
  6
Continuous
 62
     7
370
    25
100
AcDbPolyline
 90
        3
 70
   128
 43
0.0
 10
6495.7528805943
 20
5118.1202438996
 10
6495.7379412748
 20
5118.2718858709
 10
6495.7318730051
 20
5118.3550254481
  0
LWPOLYLINE
  5
DD
330
1F
100
AcDbEntity
  8
0
  6
Continuous
 62
     7
370
    25
100
AcDbPolyline
 90
        3
 70
   128
 43
0.0
 10
6514.2129770981
 20
5118.3550254481
 10
6514.2012138609
 20
5118.2078793316
 10
6514.1919695089
 20
5118.1202438996
  0
LWPOLYLINE
  5
DE
330
1F
100
AcDbEntity
  8
0
  6
Continuous
 62
     7
370
    25
100
AcDbPolyline
 90
       46
 70
   128
 43
0.0
 10
6497.6989944633
 20
5115.9426820481
 10
6497.5151565821
 20
5116.671052112
 10
6497.4764659492
 20
5117.4104252591
 10
6497.5836756336
 20
5118.1464104323
 10
6497.834698921
 20
5118.8646825171
 10
6498.2246499284
 20
5119.5512611646
 10
6498.7459387031
 20
5120.1927829024
 10
6499.388418952
 20
5120.7767612394
 10
6500.139585528
 20
5121.2918297017
 10
6500.984817828
 20
5121.7279630675
 10
6501.9076643668
 20
5122.076672497
 10
6502.8901629862
 20
5122.3311707578
 10
6503.9131904682
 20
5122.4865043306
 10
6504.9568347465
 20
5122.5396498242
 10
6506.0007824723
 20
5122.489572822
 10
6507.0247143907
 20
5122.337248016
 10
6508.0087008315
 20
5122.0856402351
 10
6508.933589618
 20
5121.7396467386
 10
6509.781378842
 20
5121.3060018964
 10
6510.5355672505
 20
5120.7931461121
 10
6511.1814754242
 20
5120.2110615402
 10
6511.706531495
 20
5119.5710777947
 10
6512.1005158438
 20
5118.8856514312
 10
6512.3557600135
 20
5118.1681234943
 10
6512.4672959665
 20
5117.4324598491
 10
6512.4329527824
 20
5116.6929793516
 10
6512.2533989123
 20
5115.9640751486
 10
6511.932129168
 20
5115.2599345313
 10
6511.4753966996
 20
5114.5942627958
 10
6510.8920912852
 20
5113.9800164853
 10
6510.1935663009
 20
5113.4291512055
 10
6509.3934177413
 20
5112.9523889224
 10
6508.5072195877
 20
5112.5590092717
 10
6507.5522206793
 20
5112.2566689408
 10
6506.5470089834
 20
5112.0512526402
 10
6505.5111498024
 20
5111.9467585647
 10
6504.4648049569
 20
5111.9452205725
 10
6503.4283403591
 20
5112.0466685989
 10
6502.4219296135
 20
5112.2491280735
 10
6501.4651613604
 20
5112.5486583528
 10
6500.5766580057
 20
5112.9394294208
 10
6499.7737132563
 20
5113.4138353631
 10
6499.0719555187
 20
5113.9626424076
 10
6498.4850437088
 20
5114.5751686495
 10
6498.0244013974
 20
5115.2394919622
 10
6497.6989944633
 20
5115.9426820481
  0
ARC
  5
DF
330
1F
100
AcDbEntity
  8
0
  6
Continuous
 62
     7
370
    25
100
AcDbCircle
 10
6502.2812894597
 20
5117.6523887119
 30
0.0
 40
4.817665781680359
100
AcDbArc
 50
121.3599836415
 51
176.5361373398
  0
ARC
  5
E0
330
1F
100
AcDbEntity
  8
0
  6
Continuous
 62
     7
370
    25
100
AcDbCircle
 10
6507.9920310922
 20
5117.7896040664
 30
0.0
 40
4.483035121053117
100
AcDbArc
 50
1.9668460863
 51
51.7867872967
  0
LINE
  5
E1
330
1F
100
AcDbEntity
  8
0
  6
Continuous
 62
     7
370
    25
100
AcDbLine
 10
6498.3439097181
 20
5121.2752516369
 30
0.0
 11
6498.3439097181
 21
5120.5681448557
 31
0.0
  0
LINE
  5
E2
330
1F
100
AcDbEntity
  8
0
  6
Continuous
 62
     7
370
    25
100
AcDbLine
 10
6498.3439097181
 20
5120.5681448557
 30
0.0
 11
6497.9086996639
 21
5120.7521841201
 31
0.0
  0
ARC
  5
E3
330
1F
100
AcDbEntity
  8
0
  6
Continuous
 62
     7
370
    25
100
AcDbCircle
 10
6502.2367554432
 20
5115.7143494554
 30
0.0
 40
6.222023595895471
100
AcDbArc
 50
128.7303444164
 51
150.8239703362
  0
LINE
  5
E4
330
1F
100
AcDbEntity
  8
0
  6
Continuous
 62
     7
370
    25
100
AcDbLine
 10
6496.8041442315
 20
5118.7475512373
 30
0.0
 11
6496.3689341773
 21
5118.9315905018
 31
0.0
  0
LINE
  5
E5
330
1F
100
AcDbEntity
  8
0
  6
Continuous
 62
     7
370
    25
100
AcDbLine
 10
6513.4583486505
 20
5119.1322903949
 30
0.0
 11
6512.9665694056
 21
5119.0448207797
 31
0.0
  0
LINE
  5
E6
330
1F
100
AcDbEntity
  8
0
  6
Continuous
 62
     7
370
    25
100
AcDbLine
 10
6514.1901636519
 20
5117.0750535582
 30
0.0
 11
6513.6983844069
 21
5116.9875839431
 31
0.0
  0
ARC
  5
E7
330
1F
100
AcDbEntity
  8
0
  6
Continuous
 62
     7
370
    25
100
AcDbCircle
 10
6508.9267618396
 20
5116.4489698872
 30
0.0
 40
4.801925345747327
100
AcDbArc
 50
6.4402066723
 51
32.7235007071
  0
LINE
  5
E8
330
1F
100
AcDbEntity
  8
0
  6
Continuous
 62
     7
370
    25
100
AcDbLine
 10
6512.9665694056
 20
5119.7519275609
 30
0.0
 11
6512.9665694056
 21
5119.0448207797
 31
0.0
  0
LINE
  5
E9
330
1F
100
AcDbEntity
  8
0
  6
Continuous
 62
     7
370
    25
100
AcDbLine
 10
6495.7546864514
 20
5115.9834537257
 30
0.0
 11
6496.2464656963
 21
5116.0709233409
 31
0.0
  0
ARC
  5
EA
330
1F
100
AcDbEntity
  8
0
  6
Continuous
 62
     7
370
    25
100
AcDbCircle
 10
6501.0180882637
 20
5116.6095373968
 30
0.0
 40
4.801925345758259
100
AcDbArc
 50
186.4402066723
 51
212.7235007071
  0
LINE
  5
EB
330
1F
100
AcDbEntity
  8
0
  6
Continuous
 62
     7
370
    25
100
AcDbLine
 10
6496.4865014527
 20
5113.9262168891
 30
0.0
 11
6496.9782806977
 21
5114.0136865043
 31
0.0
  0
LINE
  5
EC
330
1F
100
AcDbEntity
  8
0
  6
Continuous
 62
     7
370
    25
100
AcDbLine
 10
6496.2464656963
 20
5116.7780301221
 30
0.0
 11
6496.2464656963
 21
5116.0709233409
 31
0.0
  0
LINE
  5
ED
330
1F
100
AcDbEntity
  8
0
  6
Continuous
 62
     7
370
    25
100
AcDbLine
 10
6496.9782806977
 20
5114.7207932855
 30
0.0
 11
6496.9782806977
 21
5114.0136865043
 31
0.0
  0
LINE
  5
EE
330
1F
100
AcDbEntity
  8
0
  6
Continuous
 62
     7
370
    25
100
AcDbLine
 10
6513.1407058718
 20
5115.0180628278
 30
0.0
 11
6513.1407058718
 21
5114.3109560466
 31
0.0
  0
LINE
  5
EF
330
1F
100
AcDbEntity
  8
0
  6
Continuous
 62
     7
370
    25
100
AcDbLine
 10
6513.1407058718
 20
5114.3109560466
 30
0.0
 11
6513.5759159259
 21
5114.1269167822
 31
0.0
  0
ARC
  5
F0
330
1F
100
AcDbEntity
  8
0
  6
Continuous
 62
     7
370
    25
100
AcDbCircle
 10
6507.70809466
 20
5117.3441578285
 30
0.0
 40
6.22202359589017
100
AcDbArc
 50
308.7303444164
 51
330.8239703362
  0
LINE
  5
F1
330
1F
100
AcDbEntity
  8
0
  6
Continuous
 62
     7
370
    25
100
AcDbLine
 10
6511.6009403852
 20
5112.4903624283
 30
0.0
 11
6512.0361504393
 21
5112.3063231638
 31
0.0
  0
LINE
  5
F2
330
1F
100
AcDbEntity
  8
0
  6
Continuous
 62
     7
370
    25
100
AcDbLine
 10
6511.6009403852
 20
5113.1974692094
 30
0.0
 11
6511.6009403852
 21
5112.4903624283
 31
0.0
  0
LINE
  5
F3
330
1F
100
AcDbEntity
  8
0
  6
Continuous
 62
     7
370
    25
100
AcDbLine
 10
6499.2605703202
 20
5112.5492922816
 30
0.0
 11
6499.2605703202
 21
5111.8421855004
 31
0.0
  0
LINE
  5
F4
330
1F
100
AcDbEntity
  8
0
  6
Continuous
 62
     7
370
    25
100
AcDbLine
 10
6501.8352785069
 20
5111.4605136646
 30
0.0
 11
6501.8352785069
 21
5110.7534068834
 31
0.0
  0
ARC
  5
F5
330
1F
100
AcDbEntity
  8
0
  6
Continuous
 62
     7
370
    25
100
AcDbCircle
 10
6504.3962007753
 20
5120.3980747044
 30
0.0
 40
9.978874698211618
100
AcDbArc
 50
239.0259192754
 51
255.1295488644
  0
LINE
  5
F6
330
1F
100
AcDbEntity
  8
0
  6
Continuous
 62
     7
370
    25
100
AcDbLine
 10
6499.2605703202
 20
5111.8421855004
 30
0.0
 11
6499.0002994964
 21
5111.5344455199
 31
0.0
  0
LINE
  5
F7
330
1F
100
AcDbEntity
  8
0
  6
Continuous
 62
     7
370
    25
100
AcDbLine
 10
6501.8352785069
 20
5110.7534068834
 30
0.0
 11
6501.5750076831
 21
5110.4456669029
 31
0.0
  0
LINE
  5
F8
330
1F
100
AcDbEntity
  8
0
  6
Continuous
 62
     7
370
    25
100
AcDbLine
 10
6508.5299742148
 20
5111.5836467407
 30
0.0
 11
6508.5299742148
 21
5110.8765399595
 31
0.0
  0
ARC
  5
F9
330
1F
100
AcDbEntity
  8
0
  6
Continuous
 62
     7
370
    25
100
AcDbCircle
 10
6505.0291942391
 20
5122.1215303577
 30
0.0
 40
11.77732013207844
100
AcDbArc
 50
272.8783648797
 51
287.2923615075
  0
LINE
  5
FA
330
1F
100
AcDbEntity
  8
0
  6
Continuous
 62
     7
370
    25
100
AcDbLine
 10
6505.6206019795
 20
5111.0661753907
 30
0.0
 11
6505.6206019795
 21
5110.3590686095
 31
0.0
  0
LINE
  5
FB
330
1F
100
AcDbEntity
  8
0
  6
Continuous
 62
     7
370
    25
100
AcDbLine
 10
6508.6536749309
 20
5110.5287995206
 30
0.0
 11
6508.5299742148
 21
5110.8765399595
 31
0.0
  0
LINE
  5
FC
330
1F
100
AcDbEntity
  8
0
  6
Continuous
 62
     7
370
    25
100
AcDbLine
 10
6505.7443026956
 20
5110.0113281705
 30
0.0
 11
6505.6206019795
 21
5110.3590686095
 31
0.0
  0
LINE
  5
FD
330
1F
100
AcDbEntity
  8
0
  6
Continuous
 62
     7
370
    25
100
AcDbLine
 10
6480.0724250516
 20
5176.4787485786
 30
0.0
 11
6529.8724250516
 21
5176.4787485786
 31
0.0
  0
LINE
  5
FE
330
1F
100
AcDbEntity
  8
0
  6
Continuous
 62
     7
370
    25
100
AcDbLine
 10
6480.3724250516
 20
5176.1787485786
 30
0.0
 11
6529.5724250516
 21
5176.1787485786
 31
0.0
  0
LINE
  5
FF
330
1F
100
AcDbEntity
  8
0
  6
Continuous
 62
     7
370
    25
100
AcDbLine
 10
6481.0724250516
 20
5179.1787485786
 30
0.0
 11
6528.8724250516
 21
5179.1787485786
 31
0.0
  0
LINE
  5
100
330
1F
100
AcDbEntity
  8
0
  6
Continuous
 62
     7
370
    25
100
AcDbLine
 10
6480.0724250516
 20
5178.1787485786
 30
0.0
 11
6529.8724250516
 21
5178.1787485786
 31
0.0
  0
LINE
  5
101
330
1F
100
AcDbEntity
  8
0
  6
Continuous
 62
     7
370
    25
100
AcDbLine
 10
6543.3760148901
 20
5093.0787485786
 30
0.0
 11
6543.3760148901
 21
5078.2787485786
 31
0.0
  0
LINE
  5
102
330
1F
100
AcDbEntity
  8
0
  6
Continuous
 62
     7
370
    25
100
AcDbLine
 10
6542.8760148901
 20
5093.5787485786
 30
0.0
 11
6542.8760148901
 21
5077.7787485786
 31
0.0
  0
ARC
  5
103
330
1F
100
AcDbEntity
  8
0
  6
Continuous
 62
     7
370
    25
100
AcDbCircle
 10
6538.7738620503
 20
5098.8306276863
 30
0.0
 40
5.487876045929367
100
AcDbArc
 50
265.8426580172
 51
286.6097752367
  0
ARC
  5
104
330
1F
100
AcDbEntity
  8
0
  6
Continuous
 62
     7
370
    25
100
AcDbCircle
 10
6533.763346701
 20
5060.2987152481
 30
0.0
 40
33.37872938481856
100
AcDbArc
 50
82.0567704202
 51
85.4591260941
  0
ARC
  5
105
330
1F
100
AcDbEntity
  8
0
  6
Continuous
 62
     7
370
    25
100
AcDbCircle
 10
6538.3760148901
 20
5066.6157619351
 30
0.0
 40
42.5060350821829
100
AcDbArc
 50
87.3031151121
 51
92.6968848879
  0
ARC
  5
106
330
1F
100
AcDbEntity
  8
0
  6
Continuous
 62
     7
370
    25
100
AcDbCircle
 10
6504.9724250516
 20
5120.6787485786
 30
0.0
 40
13.95000000000071
100
AcDbArc
 50
160.0925511025
 51
19.9074488975
  0
LINE
  5
107
330
1F
100
AcDbEntity
  8
0
  6
Continuous
 62
     7
370
    25
100
AcDbLine
 10
6493.3689772881
 20
5126.4287485786
 30
0.0
 11
6491.856023106
 21
5125.4287485786
 31
0.0
  0
LINE
  5
108
330
1F
100
AcDbEntity
  8
0
  6
Continuous
 62
     7
370
    25
100
AcDbLine
 10
6493.3689772881
 20
5126.4287485786
 30
0.0
 11
6516.5758728151
 21
5126.4287485786
 31
0.0
  0
LINE
  5
109
330
1F
100
AcDbEntity
  8
0
  6
Continuous
 62
     7
370
    25
100
AcDbLine
 10
6518.0888269973
 20
5125.4287485786
 30
0.0
 11
6516.5758728151
 21
5126.4287485786
 31
0.0
  0
LWPOLYLINE
  5
10A
330
1F
100
AcDbEntity
  8
0
  6
Continuous
 62
     7
370
    25
100
AcDbPolyline
 90
       53
 70
   128
 43
0.0
 10
6504.9724250516
 20
5109.4918792779
 10
6506.1720483138
 20
5109.5431896604
 10
6507.3541783675
 20
5109.696372587
 10
6508.5015770946
 20
5109.9491943057
 10
6509.597512838
 20
5110.2979681065
 10
6510.6260043867
 20
5110.7376080821
 10
6511.5720540179
 20
5111.2617032916
 10
6512.4218661977
 20
5111.8626112466
 10
6513.1630487509
 20
5112.5315693562
 10
6513.7847935669
 20
5113.2588227046
 10
6514.2780342062
 20
5114.0337663005
 10
6514.6355781097
 20
5114.8450997212
 10
6514.852211482
 20
5115.6809918984
 10
6514.9247753208
 20
5116.529253642
 10
6514.852211482
 20
5117.3775153855
 10
6514.6355781097
 20
5118.2134075628
 10
6514.2780342062
 20
5119.0247409834
 10
6513.7847935669
 20
5119.7996845793
 10
6513.1630487509
 20
5120.5269379278
 10
6512.4218661977
 20
5121.1958960373
 10
6511.5720540179
 20
5121.7968039924
 10
6510.6260043867
 20
5122.3208992019
 10
6509.597512838
 20
5122.7605391774
 10
6508.5015770946
 20
5123.1093129783
 10
6507.3541783675
 20
5123.362134697
 10
6506.1720483138
 20
5123.5153176236
 10
6504.9724250516
 20
5123.5666280061
 10
6503.7728017894
 20
5123.5153176236
 10
6502.5906717357
 20
5123.362134697
 10
6501.4432730086
 20
5123.1093129783
 10
6500.3473372652
 20
5122.7605391774
 10
6499.3188457166
 20
5122.3208992019
 10
6498.3727960854
 20
5121.7968039924
 10
6497.5229839056
 20
5121.1958960373
 10
6496.7818013524
 20
5120.5269379278
 10
6496.1600565364
 20
5119.7996845793
 10
6495.666815897
 20
5119.0247409834
 10
6495.3092719936
 20
5118.2134075628
 10
6495.0926386213
 20
5117.3775153855
 10
6495.0200747824
 20
5116.529253642
 10
6495.0926386213
 20
5115.6809918984
 10
6495.3092719936
 20
5114.8450997212
 10
6495.666815897
 20
5114.0337663005
 10
6496.1600565364
 20
5113.2588227046
 10
6496.7818013524
 20
5112.5315693562
 10
6497.5229839056
 20
5111.8626112466
 10
6498.3727960854
 20
5111.2617032916
 10
6499.3188457166
 20
5110.7376080821
 10
6500.3473372652
 20
5110.2979681065
 10
6501.4432730086
 20
5109.9491943057
 10
6502.5906717357
 20
5109.696372587
 10
6503.7728017894
 20
5109.5431896604
 10
6504.9724250516
 20
5109.4918792779
  0
ARC
  5
10B
330
1F
100
AcDbEntity
  8
0
  6
Continuous
 62
     7
370
    25
100
AcDbCircle
 10
6504.9724250516
 20
5120.6787485786
 30
0.0
 40
12.95000000000022
100
AcDbArc
 50
26.3603643512
 51
153.6396356488
  0
ARC
  5
10C
330
1F
100
AcDbEntity
  8
0
  6
Continuous
 62
     7
370
    25
100
AcDbCircle
 10
6504.9724250516
 20
5120.6787485786
 30
0.0
 40
13.95000000000071
100
AcDbArc
 50
19.9074488975
 51
160.0925511025
  0
LINE
  5
10D
330
1F
100
AcDbEntity
  8
0
  6
Continuous
 62
     7
370
    25
100
AcDbLine
 10
6504.9724250516
 20
5110.6072343495
 30
0.0
 11
6505.6206019795
 21
5110.6230975496
 31
0.0
  0
ARC
  5
10E
330
1F
100
AcDbEntity
  8
0
  6
Continuous
 62
     7
370
    25
100
AcDbCircle
 10
6505.815817208
 20
5120.8641923415
 30
0.0
 40
10.13013211682411
100
AcDbArc
 50
286.2685753194
 51
304.8256223133
  0
ARC
  5
10F
330
1F
100
AcDbEntity
  8
0
  6
Continuous
 62
     7
370
    25
100
AcDbCircle
 10
6509.1883220249
 20
5117.2585891943
 30
0.0
 40
5.128726729813152
100
AcDbArc
 50
328.8143301708
 51
47.8951282616
  0
ARC
  5
110
330
1F
100
AcDbEntity
  8
0
  6
Continuous
 62
     7
370
    25
100
AcDbCircle
 10
6500.7470487954
 20
5117.2227027097
 30
0.0
 40
5.133497915944935
100
AcDbArc
 50
135.3877416031
 51
193.4663295851
  0
ARC
  5
111
330
1F
100
AcDbEntity
  8
0
  6
Continuous
 62
     7
370
    25
100
AcDbCircle
 10
6502.8793576078
 20
5118.9421761909
 30
0.0
 40
7.842354919300941
100
AcDbArc
 50
219.2267717759
 51
240.3546945377
  0
ARC
  5
112
330
1F
100
AcDbEntity
  8
0
  6
Continuous
 62
     7
370
    25
100
AcDbCircle
 10
6504.9520847705
 20
5123.5074327999
 30
0.0
 40
12.90021448599887
100
AcDbArc
 50
256.018483273
 51
270.090340571
  0
LINE
  5
113
330
1F
100
AcDbEntity
  8
0
  6
Continuous
 62
     7
370
    25
100
AcDbLine
 10
6514.2129770981
 20
5117.8854623512
 30
0.0
 11
6514.2637180187
 21
5118.1202438996
 31
0.0
  0
LINE
  5
114
330
1F
100
AcDbEntity
  8
0
  6
Continuous
 62
     7
370
    25
100
AcDbLine
 10
6495.6811320846
 20
5118.1202438996
 30
0.0
 11
6495.7318730051
 21
5117.8854623512
 31
0.0
  0
LINE
  5
115
330
1F
100
AcDbEntity
  8
0
  6
Continuous
 62
     7
370
    25
100
AcDbLine
 10
6504.9724250516
 20
5175.9787485786
 30
0.0
 11
6480.2224250516
 21
5175.9787485786
 31
0.0
  0
LINE
  5
116
330
1F
100
AcDbEntity
  8
0
  6
Continuous
 62
     7
370
    25
100
AcDbLine
 10
6529.7224250516
 20
5175.9787485786
 30
0.0
 11
6504.9724250516
 21
5175.9787485786
 31
0.0
  0
LINE
  5
117
330
1F
100
AcDbEntity
  8
0
  6
Continuous
 62
     7
370
    25
100
AcDbLine
 10
6480.2224250516
 20
5027.3787485786
 30
0.0
 11
6529.7224250516
 21
5027.3787485786
 31
0.0
  0
LWPOLYLINE
  5
118
330
1F
100
AcDbEntity
  8
0
  6
Continuous
 62
     7
370
    25
100
AcDbPolyline
 90
       21
 70
   128
 43
0.0
 10
6529.7213340518
 20
5077.58210011
 10
6529.7223884977
 20
5077.578860272
 10
6529.6831746623
 20
5077.6994850587
 10
6529.5822132077
 20
5078.0178626582
 10
6529.4244124357
 20
5078.5410187552
 10
6529.2279742681
 20
5079.2460844501
 10
6529.0063410739
 20
5080.1401007866
 10
6528.7841114078
 20
5081.2017063493
 10
6528.5842139652
 20
5082.4285061721
 10
6528.4418213742
 20
5083.7140440855
 10
6528.3665012627
 20
5085.104029719
 10
6528.3706516471
 20
5086.4029776938
 10
6528.4482791835
 20
5087.7191473676
 10
6528.5830358249
 20
5088.9204211539
 10
6528.7673554933
 20
5090.0657993791
 10
6528.9818106022
 20
5091.1099634075
 10
6529.2071697398
 20
5092.032515186
 10
6529.4153643917
 20
5092.785420344
 10
6529.5860963537
 20
5093.3520995394
 10
6529.6863872019
 20
5093.6679553707
 10
6529.7224250516
 20
5093.7787485786
  0
ARC
  5
119
330
1F
100
AcDbEntity
  8
0
  6
Continuous
 62
     7
370
    25
100
AcDbCircle
 10
6504.9275330043
 20
5120.6344481188
 30
0.0
 40
13.95577174337816
100
AcDbArc
 50
125.0894829043
 51
270.1843057718
  0
ARC
  5
11A
330
1F
100
AcDbEntity
  8
0
  6
Continuous
 62
     7
370
    25
100
AcDbCircle
 10
6505.245025935
 20
5120.6262670026
 30
0.0
 40
13.74413528975552
100
AcDbArc
 50
306.228707945
 51
32.6536529555
  0
ARC
  5
11B
330
1F
100
AcDbEntity
  8
0
  6
Continuous
 62
     7
370
    25
100
AcDbCircle
 10
6505.1348066537
 20
5119.5778306793
 30
0.0
 40
12.90010414008685
100
AcDbArc
 50
269.2787634828
 51
298.7019352105
  0
LINE
  5
11C
330
1F
100
AcDbEntity
  8
0
  6
Continuous
 62
     7
370
    25
100
AcDbLine
 10
6496.9880653403
 20
5132.1787485786
 30
0.0
 11
6497.0760651308
 21
5132.1787485786
 31
0.0
  0
LINE
  5
11D
330
1F
100
AcDbEntity
  8
0
  6
Continuous
 62
     7
370
    25
100
AcDbLine
 10
6512.8687849725
 20
5132.1787485786
 30
0.0
 11
6512.956784763
 21
5132.1787485786
 31
0.0
  0
LINE
  5
11E
330
1F
100
AcDbEntity
  8
0
  6
Continuous
 62
     7
370
    25
100
AcDbLine
 10
6534.9724250516
 20
5025.2390755122
 30
0.0
 11
6474.9724250516
 21
5025.2390755122
 31
0.0
  0
LINE
  5
11F
330
1F
100
AcDbEntity
  8
0
  6
Continuous
 62
     7
370
    25
100
AcDbLine
 10
6534.4680355791
 20
5026.075591816
 30
0.0
 11
6534.4894621385
 21
5026.075591816
 31
0.0
  0
LINE
  5
120
330
1F
100
AcDbEntity
  8
0
  6
Continuous
 62
     7
370
    25
100
AcDbLine
 10
6475.4553879648
 20
5026.075591816
 30
0.0
 11
6534.4680355791
 21
5026.075591816
 31
0.0
  0
LINE
  5
121
330
1F
100
AcDbEntity
  8
0
  6
Continuous
 62
     7
370
    25
100
AcDbLine
 10
6534.9724250516
 20
5023.1787485786
 30
0.0
 11
6474.9724250516
 21
5023.1787485786
 31
0.0
  0
LINE
  5
122
330
1F
100
AcDbEntity
  8
0
  6
Continuous
 62
     7
370
    25
100
AcDbLine
 10
6530.3724250516
 20
5027.1787485786
 30
0.0
 11
6479.5724250516
 21
5027.1787485786
 31
0.0
  0
LINE
  5
123
330
1F
100
AcDbEntity
  8
0
  6
Continuous
 62
     7
370
    25
100
AcDbLine
 10
6741.5112181035
 20
5179.6787485786
 30
0.0
 11
6740.0112181035
 21
5181.1787485786
 31
0.0
  0
LINE
  5
124
330
1F
100
AcDbEntity
  8
0
  6
Continuous
 62
     7
370
    25
100
AcDbLine
 10
6715.0112181035
 20
5181.1787485786
 30
0.0
 11
6713.5112181035
 21
5179.6787485786
 31
0.0
  0
LINE
  5
125
330
1F
100
AcDbEntity
  8
0
  6
Continuous
 62
     7
370
    25
100
AcDbLine
 10
6741.5112181035
 20
5179.1787485786
 30
0.0
 11
6741.5112181035
 21
5179.6787485786
 31
0.0
  0
LINE
  5
126
330
1F
100
AcDbEntity
  8
0
  6
Continuous
 62
     7
370
    25
100
AcDbLine
 10
6713.5112181035
 20
5179.6787485786
 30
0.0
 11
6713.5112181035
 21
5179.1787485786
 31
0.0
  0
LINE
  5
127
330
1F
100
AcDbEntity
  8
0
  6
Continuous
 62
     7
370
    25
100
AcDbLine
 10
6702.6112181035
 20
5176.4787485786
 30
0.0
 11
6702.9112181035
 21
5176.1787485786
 31
0.0
  0
LINE
  5
128
330
1F
100
AcDbEntity
  8
0
  6
Continuous
 62
     7
370
    25
100
AcDbLine
 10
6752.1112181035
 20
5176.1787485786
 30
0.0
 11
6752.4112181035
 21
5176.4787485786
 31
0.0
  0
LINE
  5
129
330
1F
100
AcDbEntity
  8
0
  6
Continuous
 62
     7
370
    25
100
AcDbLine
 10
6752.4112181035
 20
5178.1787485786
 30
0.0
 11
6751.4112181035
 21
5179.1787485786
 31
0.0
  0
LINE
  5
12A
330
1F
100
AcDbEntity
  8
0
  6
Continuous
 62
     7
370
    25
100
AcDbLine
 10
6703.6112181035
 20
5179.1787485786
 30
0.0
 11
6702.6112181035
 21
5178.1787485786
 31
0.0
  0
LINE
  5
12B
330
1F
100
AcDbEntity
  8
0
  6
Continuous
 62
     7
370
    25
100
AcDbLine
 10
6702.6112181035
 20
5178.1787485786
 30
0.0
 11
6702.6112181035
 21
5176.4787485786
 31
0.0
  0
LINE
  5
12C
330
1F
100
AcDbEntity
  8
0
  6
Continuous
 62
     7
370
    25
100
AcDbLine
 10
6752.4112181035
 20
5176.4787485786
 30
0.0
 11
6752.4112181035
 21
5178.1787485786
 31
0.0
  0
LINE
  5
12D
330
1F
100
AcDbEntity
  8
0
  6
Continuous
 62
     7
370
    25
100
AcDbLine
 10
6752.2330475656
 20
5106.7287485786
 30
0.0
 11
6797.8112181035
 21
5106.7287485786
 31
0.0
  0
LINE
  5
12E
330
1F
100
AcDbEntity
  8
0
  6
Continuous
 62
     7
370
    25
100
AcDbLine
 10
6816.5112181035
 20
5134.6287485786
 30
0.0
 11
6752.2330478727
 21
5134.6287485786
 31
0.0
  0
LINE
  5
12F
330
1F
100
AcDbEntity
  8
0
  6
Continuous
 62
     7
370
    25
100
AcDbLine
 10
6817.5112181035
 20
5133.6287485786
 30
0.0
 11
6816.5112181035
 21
5134.6287485786
 31
0.0
  0
LINE
  5
130
330
1F
100
AcDbEntity
  8
0
  6
Continuous
 62
     7
370
    25
100
AcDbLine
 10
6702.7612181035
 20
5027.3787485786
 30
0.0
 11
6702.9612181035
 21
5027.1787485786
 31
0.0
  0
LINE
  5
131
330
1F
100
AcDbEntity
  8
0
  6
Continuous
 62
     7
370
    25
100
AcDbLine
 10
6752.0612181035
 20
5027.1787485786
 30
0.0
 11
6752.2612181035
 21
5027.3787485786
 31
0.0
  0
LINE
  5
132
330
1F
100
AcDbEntity
  8
0
  6
Continuous
 62
     7
370
    25
100
AcDbLine
 10
6752.2612181035
 20
5175.9787485786
 30
0.0
 11
6752.0612181035
 21
5176.1787485786
 31
0.0
  0
LINE
  5
133
330
1F
100
AcDbEntity
  8
0
  6
Continuous
 62
     7
370
    25
100
AcDbLine
 10
6702.9612181035
 20
5176.1787485786
 30
0.0
 11
6702.7612181035
 21
5175.9787485786
 31
0.0
  0
LINE
  5
134
330
1F
100
AcDbEntity
  8
0
  6
Continuous
 62
     7
370
    25
100
AcDbLine
 10
6702.7612181035
 20
5171.74408926
 30
0.0
 11
6702.7612181035
 21
5027.3787485786
 31
0.0
  0
LINE
  5
135
330
1F
100
AcDbEntity
  8
0
  6
Continuous
 62
     7
370
    25
100
AcDbLine
 10
6702.7612181035
 20
5175.9787485786
 30
0.0
 11
6702.7612181035
 21
5174.2287485786
 31
0.0
  0
LINE
  5
136
330
1F
100
AcDbEntity
  8
0
  6
Continuous
 62
     7
370
    25
100
AcDbLine
 10
6752.2612181035
 20
5134.6731382553
 30
0.0
 11
6752.2612181035
 21
5175.9787485786
 31
0.0
  0
LINE
  5
137
330
1F
100
AcDbEntity
  8
0
  6
Continuous
 62
     7
370
    25
100
AcDbLine
 10
6752.2612181035
 20
5027.3787485786
 30
0.0
 11
6752.2612181035
 21
5106.6787485786
 31
0.0
  0
LINE
  5
138
330
1F
100
AcDbEntity
  8
0
  6
Continuous
 62
     7
370
    25
100
AcDbLine
 10
6757.5112181035
 20
5025.2390755122
 30
0.0
 11
6757.0282551904
 21
5026.075591816
 31
0.0
  0
LINE
  5
139
330
1F
100
AcDbEntity
  8
0
  6
Continuous
 62
     7
370
    25
100
AcDbLine
 10
6697.9941810167
 20
5026.075591816
 30
0.0
 11
6697.5112181035
 21
5025.2390755122
 31
0.0
  0
LINE
  5
13A
330
1F
100
AcDbEntity
  8
0
  6
Continuous
 62
     7
370
    25
100
AcDbLine
 10
6757.5112181035
 20
5023.1787485786
 30
0.0
 11
6757.5112181035
 21
5025.2390755122
 31
0.0
  0
LINE
  5
13B
330
1F
100
AcDbEntity
  8
0
  6
Continuous
 62
     7
370
    25
100
AcDbLine
 10
6697.5112181035
 20
5025.2390755122
 30
0.0
 11
6697.5112181035
 21
5023.1787485786
 31
0.0
  0
LINE
  5
13C
330
1F
100
AcDbEntity
  8
0
  6
Continuous
 62
     7
370
    25
100
AcDbLine
 10
6757.0282551904
 20
5026.075591816
 30
0.0
 11
6752.9112181035
 21
5027.1787485786
 31
0.0
  0
LINE
  5
13D
330
1F
100
AcDbEntity
  8
0
  6
Continuous
 62
     7
370
    25
100
AcDbLine
 10
6702.1112181035
 20
5027.1787485786
 30
0.0
 11
6697.9941810167
 21
5026.075591816
 31
0.0
  0
LINE
  5
13E
330
1F
100
AcDbEntity
  8
0
  6
Continuous
 62
     7
370
    25
100
AcDbLine
 10
6715.0112181035
 20
5181.1787485786
 30
0.0
 11
6740.0112181035
 21
5181.1787485786
 31
0.0
  0
LINE
  5
13F
330
1F
100
AcDbEntity
  8
0
  6
Continuous
 62
     7
370
    25
100
AcDbLine
 10
6741.5112181035
 20
5179.6787485786
 30
0.0
 11
6713.5112181035
 21
5179.6787485786
 31
0.0
  0
LINE
  5
140
330
1F
100
AcDbEntity
  8
0
  6
Continuous
 62
     7
370
    25
100
AcDbLine
 10
6702.6112181035
 20
5176.4787485786
 30
0.0
 11
6752.4112181035
 21
5176.4787485786
 31
0.0
  0
LINE
  5
141
330
1F
100
AcDbEntity
  8
0
  6
Continuous
 62
     7
370
    25
100
AcDbLine
 10
6702.9112181035
 20
5176.1787485786
 30
0.0
 11
6752.1112181035
 21
5176.1787485786
 31
0.0
  0
LINE
  5
142
330
1F
100
AcDbEntity
  8
0
  6
Continuous
 62
     7
370
    25
100
AcDbLine
 10
6703.6112181035
 20
5179.1787485786
 30
0.0
 11
6751.4112181035
 21
5179.1787485786
 31
0.0
  0
LINE
  5
143
330
1F
100
AcDbEntity
  8
0
  6
Continuous
 62
     7
370
    25
100
AcDbLine
 10
6702.6112181035
 20
5178.1787485786
 30
0.0
 11
6752.4112181035
 21
5178.1787485786
 31
0.0
  0
LINE
  5
144
330
1F
100
AcDbEntity
  8
0
  6
Continuous
 62
     7
370
    25
100
AcDbLine
 10
6816.5112181035
 20
5125.4287485786
 30
0.0
 11
6816.5112181035
 21
5134.6287485786
 31
0.0
  0
LINE
  5
145
330
1F
100
AcDbEntity
  8
0
  6
Continuous
 62
     7
370
    25
100
AcDbLine
 10
6816.5112181035
 20
5125.4287485786
 30
0.0
 11
6797.8112181035
 21
5106.7287485786
 31
0.0
  0
LINE
  5
146
330
1F
100
AcDbEntity
  8
0
  6
Continuous
 62
     7
370
    25
100
AcDbLine
 10
6817.5112181035
 20
5126.4287485786
 30
0.0
 11
6817.5112181035
 21
5133.6287485786
 31
0.0
  0
LINE
  5
147
330
1F
100
AcDbEntity
  8
0
  6
Continuous
 62
     7
370
    25
100
AcDbLine
 10
6817.5112181035
 20
5126.4287485786
 30
0.0
 11
6816.5112181035
 21
5125.4287485786
 31
0.0
  0
LINE
  5
148
330
1F
100
AcDbEntity
  8
0
  6
Continuous
 62
     7
370
    25
100
AcDbLine
 10
6702.7612181035
 20
5027.3787485786
 30
0.0
 11
6752.2612181035
 21
5027.3787485786
 31
0.0
  0
LINE
  5
149
330
1F
100
AcDbEntity
  8
0
  6
Continuous
 62
     7
370
    25
100
AcDbLine
 10
6752.2612181035
 20
5175.9787485786
 30
0.0
 11
6702.7612181035
 21
5175.9787485786
 31
0.0
  0
LWPOLYLINE
  5
14A
330
1F
100
AcDbEntity
  8
0
  6
Continuous
 62
     7
370
    25
100
AcDbPolyline
 90
       21
 70
   128
 43
0.0
 10
6752.2612181035
 20
5106.6787485786
 10
6752.1694573875
 20
5106.8416150392
 10
6751.8921032053
 20
5107.3421426256
 10
6751.4719404271
 20
5108.1267083353
 10
6750.923876595
 20
5109.2074767382
 10
6750.2720957912
 20
5110.6042732516
 10
6749.5797164497
 20
5112.2849342338
 10
6748.8815763642
 20
5114.3439469092
 10
6748.304437943
 20
5116.7043943805
 10
6748.0251499433
 20
5118.6150384421
 10
6747.9211193055
 20
5120.6391622677
 10
6748.0122693317
 20
5122.6102250755
 10
6748.2910521105
 20
5124.5824649309
 10
6748.7080734192
 20
5126.4010012183
 10
6749.2369209176
 20
5128.1247987239
 10
6749.9016589087
 20
5129.8857752132
 10
6750.5899693622
 20
5131.4521537812
 10
6751.2695484977
 20
5132.8399887752
 10
6751.8280575659
 20
5133.8979082129
 10
6752.1486262149
 20
5134.4787260585
 10
6752.2580596535
 20
5134.6731382553
  0
ARC
  5
14B
330
1F
100
AcDbEntity
  8
0
  6
Continuous
 62
     7
370
    25
100
AcDbCircle
 10
6678.0293459603
 20
5172.9787833608
 30
0.0
 40
24.76343903331624
100
AcDbArc
 50
357.1420728559
 51
2.8933048525
  0
LINE
  5
14C
330
1F
100
AcDbEntity
  8
0
  6
Continuous
 62
     7
370
    25
100
AcDbLine
 10
6757.5112181035
 20
5025.2390755122
 30
0.0
 11
6697.5112181035
 21
5025.2390755122
 31
0.0
  0
LINE
  5
14D
330
1F
100
AcDbEntity
  8
0
  6
Continuous
 62
     7
370
    25
100
AcDbLine
 10
6697.9941810167
 20
5026.075591816
 30
0.0
 11
6757.0282551904
 21
5026.075591816
 31
0.0
  0
LINE
  5
14E
330
1F
100
AcDbEntity
  8
0
  6
Continuous
 62
     7
370
    25
100
AcDbLine
 10
6726.3683469706
 20
5023.1787485786
 30
0.0
 11
6697.5112181035
 21
5023.1787485786
 31
0.0
  0
LINE
  5
14F
330
1F
100
AcDbEntity
  8
0
  6
Continuous
 62
     7
370
    25
100
AcDbLine
 10
6757.5112181035
 20
5023.1787485786
 30
0.0
 11
6726.3683469706
 21
5023.1787485786
 31
0.0
  0
LINE
  5
150
330
1F
100
AcDbEntity
  8
0
  6
Continuous
 62
     7
370
    25
100
AcDbLine
 10
6726.543587211
 20
5027.1787485786
 30
0.0
 11
6702.1112181035
 21
5027.1787485786
 31
0.0
  0
LINE
  5
151
330
1F
100
AcDbEntity
  8
0
  6
Continuous
 62
     7
370
    25
100
AcDbLine
 10
6752.9112181035
 20
5027.1787485786
 30
0.0
 11
6726.543587211
 21
5027.1787485786
 31
0.0
  0
LINE
  5
152
330
1F
100
AcDbEntity
  8
0
  6
Continuous
 62
     7
370
    25
100
AcDbLine
 10
6542.8760148901
 20
4845.0072639052
 30
0.0
 11
6543.3760148901
 21
4845.5072639052
 31
0.0
  0
LINE
  5
153
330
1F
100
AcDbEntity
  8
0
  6
Continuous
 62
     7
370
    25
100
AcDbLine
 10
6543.3760148901
 20
4860.3072639052
 30
0.0
 11
6542.8760148901
 21
4860.8072639052
 31
0.0
  0
LINE
  5
154
330
1F
100
AcDbEntity
  8
0
  6
Continuous
 62
     7
370
    25
100
AcDbLine
 10
6542.8760148901
 20
4860.8072639052
 30
0.0
 11
6528.5859804807
 21
4860.8072639052
 31
0.0
  0
LINE
  5
155
330
1F
100
AcDbEntity
  8
0
  6
Continuous
 62
     7
370
    25
100
AcDbLine
 10
6528.5859804807
 20
4845.0072639052
 30
0.0
 11
6542.8760148901
 21
4845.0072639052
 31
0.0
  0
LINE
  5
156
330
1F
100
AcDbEntity
  8
0
  6
Continuous
 62
     7
370
    25
100
AcDbLine
 10
6540.3760148901
 20
4853.0538712849
 30
0.0
 11
6540.3760148901
 21
4853.3415186755
 31
0.0
  0
LINE
  5
157
330
1F
100
AcDbEntity
  8
0
  6
Continuous
 62
     7
370
    25
100
AcDbLine
 10
6536.3760148901
 20
4853.3415186755
 30
0.0
 11
6536.3760148901
 21
4853.0538712849
 31
0.0
  0
LINE
  5
158
330
1F
100
AcDbEntity
  8
0
  6
Continuous
 62
     7
370
    25
100
AcDbLine
 10
6491.0224250516
 20
4832.2818548184
 30
0.0
 11
6491.0224250516
 21
4768.6572639052
 31
0.0
  0
LINE
  5
159
330
1F
100
AcDbEntity
  8
0
  6
Continuous
 62
     7
370
    25
100
AcDbLine
 10
6518.9224250516
 20
4768.6572639052
 30
0.0
 11
6518.9224250516
 21
4832.2818548184
 31
0.0
  0
ARC
  5
15A
330
1F
100
AcDbEntity
  8
0
  6
Continuous
 62
     7
370
    25
100
AcDbCircle
 10
6504.2205175049
 20
4853.9785370886
 30
0.0
 40
0.6676186886570576
100
AcDbArc
 50
180.0
 51
0.0
  0
LINE
  5
15B
330
1F
100
AcDbEntity
  8
0
  6
Continuous
 62
     7
370
    25
100
AcDbLine
 10
6504.8881361936
 20
4856.9195686232
 30
0.0
 11
6504.8881361936
 21
4853.9785370886
 31
0.0
  0
ARC
  5
15C
330
1F
100
AcDbEntity
  8
0
  6
Continuous
 62
     7
370
    25
100
AcDbCircle
 10
6505.1282463098
 20
4856.9195686232
 30
0.0
 40
0.2401101162877239
100
AcDbArc
 50
90.0
 51
180.0
  0
LINE
  5
15D
330
1F
100
AcDbEntity
  8
0
  6
Continuous
 62
     7
370
    25
100
AcDbLine
 10
6505.7526594887
 20
4857.1596787394
 30
0.0
 11
6505.1282463098
 21
4857.1596787394
 31
0.0
  0
ARC
  5
15E
330
1F
100
AcDbEntity
  8
0
  6
Continuous
 62
     7
370
    25
100
AcDbCircle
 10
6505.7526594887
 20
4856.9195686232
 30
0.0
 40
0.2401101162877239
100
AcDbArc
 50
0.0
 51
90.0
  0
LINE
  5
15F
330
1F
100
AcDbEntity
  8
0
  6
Continuous
 62
     7
370
    25
100
AcDbLine
 10
6505.992769605
 20
4853.9785370886
 30
0.0
 11
6505.992769605
 21
4856.9195686232
 31
0.0
  0
ARC
  5
160
330
1F
100
AcDbEntity
  8
0
  6
Continuous
 62
     7
370
    25
100
AcDbCircle
 10
6506.6603882937
 20
4853.9785370886
 30
0.0
 40
0.6676186886570576
100
AcDbArc
 50
180.0
 51
0.0
  0
LINE
  5
161
330
1F
100
AcDbEntity
  8
0
  6
Continuous
 62
     7
370
    25
100
AcDbLine
 10
6507.3280069823
 20
4856.410414388
 30
0.0
 11
6507.3280069823
 21
4853.9785370886
 31
0.0
  0
ARC
  5
162
330
1F
100
AcDbEntity
  8
0
  6
Continuous
 62
     7
370
    25
100
AcDbCircle
 10
6507.5681170986
 20
4856.410414388
 30
0.0
 40
0.2401101162886334
100
AcDbArc
 50
90.0
 51
180.0
  0
LINE
  5
163
330
1F
100
AcDbEntity
  8
0
  6
Continuous
 62
     7
370
    25
100
AcDbLine
 10
6508.3152366405
 20
4856.6505245043
 30
0.0
 11
6507.5681170986
 21
4856.6505245043
 31
0.0
  0
ARC
  5
164
330
1F
100
AcDbEntity
  8
0
  6
Continuous
 62
     7
370
    25
100
AcDbCircle
 10
6508.3152366405
 20
4856.410414388
 30
0.0
 40
0.2401101162886334
100
AcDbArc
 50
0.0
 51
90.0
  0
LINE
  5
165
330
1F
100
AcDbEntity
  8
0
  6
Continuous
 62
     7
370
    25
100
AcDbLine
 10
6508.5553467568
 20
4853.9785370886
 30
0.0
 11
6508.5553467568
 21
4856.410414388
 31
0.0
  0
ARC
  5
166
330
1F
100
AcDbEntity
  8
0
  6
Continuous
 62
     7
370
    25
100
AcDbCircle
 10
6509.2229654455
 20
4853.9785370886
 30
0.0
 40
0.6676186886570576
100
AcDbArc
 50
180.0
 51
0.0
  0
LINE
  5
167
330
1F
100
AcDbEntity
  8
0
  6
Continuous
 62
     7
370
    25
100
AcDbLine
 10
6509.8905841341
 20
4855.4940640793
 30
0.0
 11
6509.8905841341
 21
4853.9785370886
 31
0.0
  0
ARC
  5
168
330
1F
100
AcDbEntity
  8
0
  6
Continuous
 62
     7
370
    25
100
AcDbCircle
 10
6510.1306942504
 20
4855.4940640793
 30
0.0
 40
0.2401101162877239
100
AcDbArc
 50
90.0
 51
180.0000000002
  0
LINE
  5
169
330
1F
100
AcDbEntity
  8
0
  6
Continuous
 62
     7
370
    25
100
AcDbLine
 10
6510.792721975
 20
4855.7341741956
 30
0.0
 11
6510.1306942504
 21
4855.7341741956
 31
0.0
  0
ARC
  5
16A
330
1F
100
AcDbEntity
  8
0
  6
Continuous
 62
     7
370
    25
100
AcDbCircle
 10
6510.792721975
 20
4855.4940640793
 30
0.0
 40
0.2401101162877239
100
AcDbArc
 50
0.0
 51
90.0
  0
LINE
  5
16B
330
1F
100
AcDbEntity
  8
0
  6
Continuous
 62
     7
370
    25
100
AcDbLine
 10
6511.0328320913
 20
4847.6109017985
 30
0.0
 11
6511.0328320913
 21
4855.4940640793
 31
0.0
  0
ARC
  5
16C
330
1F
100
AcDbEntity
  8
0
  6
Continuous
 62
     7
370
    25
100
AcDbCircle
 10
6507.5068315406
 20
4847.6109017985
 30
0.0
 40
3.526000550638855
100
AcDbArc
 50
270.0
 51
0.0
  0
LINE
  5
16D
330
1F
100
AcDbEntity
  8
0
  6
Continuous
 62
     7
370
    25
100
AcDbLine
 10
6505.1396071336
 20
4844.0849012479
 30
0.0
 11
6507.5068315406
 21
4844.0849012479
 31
0.0
  0
ARC
  5
16E
330
1F
100
AcDbEntity
  8
0
  6
Continuous
 62
     7
370
    25
100
AcDbCircle
 10
6505.1396071336
 20
4849.3778315756
 30
0.0
 40
5.292930327734211
100
AcDbArc
 50
180.0
 51
270.0
  0
LINE
  5
16F
330
1F
100
AcDbEntity
  8
0
  6
Continuous
 62
     7
370
    25
100
AcDbLine
 10
6499.8466768059
 20
4853.8239393377
 30
0.0
 11
6499.8466768059
 21
4849.3778315756
 31
0.0
  0
ARC
  5
170
330
1F
100
AcDbEntity
  8
0
  6
Continuous
 62
     7
370
    25
100
AcDbCircle
 10
6499.5033627626
 20
4852.323296975
 30
0.0
 40
1.539412885871721
100
AcDbArc
 50
0.0
 51
77.1137478469
  0
LINE
  5
171
330
1F
100
AcDbEntity
  8
0
  6
Continuous
 62
     7
370
    25
100
AcDbLine
 10
6501.0427756484
 20
4850.3688760929
 30
0.0
 11
6501.0427756484
 21
4852.323296975
 31
0.0
  0
ARC
  5
172
330
1F
100
AcDbEntity
  8
0
  6
Continuous
 62
     7
370
    25
100
AcDbCircle
 10
6501.7103943371
 20
4850.3688760929
 30
0.0
 40
0.6676186886561482
100
AcDbArc
 50
180.0
 51
0.0
  0
LINE
  5
173
330
1F
100
AcDbEntity
  8
0
  6
Continuous
 62
     7
370
    25
100
AcDbLine
 10
6502.3780130258
 20
4861.6493773627
 30
0.0
 11
6502.3780130258
 21
4850.3688760929
 31
0.0
  0
ARC
  5
174
330
1F
100
AcDbEntity
  8
0
  6
Continuous
 62
     7
370
    25
100
AcDbCircle
 10
6502.965455921
 20
4861.6493773627
 30
0.0
 40
0.5874428952447488
100
AcDbArc
 50
0.0
 51
180.0
  0
LINE
  5
175
330
1F
100
AcDbEntity
  8
0
  6
Continuous
 62
     7
370
    25
100
AcDbLine
 10
6503.5528988162
 20
4853.9785370886
 30
0.0
 11
6503.5528988162
 21
4861.6493773627
 31
0.0
  0
CIRCLE
  5
176
330
1F
100
AcDbEntity
  8
0
  6
Continuous
 62
     7
370
    25
100
AcDbCircle
 10
6504.9724250516
 20
4852.9072639052
 30
0.0
 40
12.5
  0
LINE
  5
177
330
1F
100
AcDbEntity
  8
0
  6
Continuous
 62
     7
370
    25
100
AcDbLine
 10
6504.5824988162
 20
4858.1036577182
 30
0.0
 11
6504.5824988162
 21
4861.6493773627
 31
0.0
  0
ARC
  5
178
330
1F
100
AcDbEntity
  8
0
  6
Continuous
 62
     7
370
    25
100
AcDbCircle
 10
6499.5033627626
 20
4852.323296975
 30
0.0
 40
2.569012885872036
100
AcDbArc
 50
44.0944057146
 51
105.4941474424
  0
LINE
  5
179
330
1F
100
AcDbEntity
  8
0
  6
Continuous
 62
     7
370
    25
100
AcDbLine
 10
6498.8170768059
 20
4854.798946141
 30
0.0
 11
6498.8170768059
 21
4849.3778315756
 31
0.0
  0
ARC
  5
17A
330
1F
100
AcDbEntity
  8
0
  6
Continuous
 62
     7
370
    25
100
AcDbCircle
 10
6505.1396071336
 20
4849.3778315756
 30
0.0
 40
6.322530327734057
100
AcDbArc
 50
180.0
 51
270.0
  0
LINE
  5
17B
330
1F
100
AcDbEntity
  8
0
  6
Continuous
 62
     7
370
    25
100
AcDbLine
 10
6505.1396071336
 20
4843.0553012479
 30
0.0
 11
6507.5068315406
 21
4843.0553012479
 31
0.0
  0
ARC
  5
17C
330
1F
100
AcDbEntity
  8
0
  6
Continuous
 62
     7
370
    25
100
AcDbCircle
 10
6507.5068315406
 20
4847.6109017985
 30
0.0
 40
4.555600550638701
100
AcDbArc
 50
270.0
 51
0.0
  0
LINE
  5
17D
330
1F
100
AcDbEntity
  8
0
  6
Continuous
 62
     7
370
    25
100
AcDbLine
 10
6512.0624320913
 20
4847.6109017985
 30
0.0
 11
6512.0624320913
 21
4855.4476723268
 31
0.0
  0
ARC
  5
17E
330
1F
100
AcDbEntity
  8
0
  6
Continuous
 62
     7
370
    25
100
AcDbCircle
 10
6510.708820845
 20
4855.4476723268
 30
0.0
 40
1.353611246208857
100
AcDbArc
 50
0.0
 51
90.0
  0
LINE
  5
17F
330
1F
100
AcDbEntity
  8
0
  6
Continuous
 62
     7
370
    25
100
AcDbLine
 10
6510.708820845
 20
4856.801283573
 30
0.0
 11
6510.2145953803
 21
4856.801283573
 31
0.0
  0
ARC
  5
180
330
1F
100
AcDbEntity
  8
0
  6
Continuous
 62
     7
370
    25
100
AcDbCircle
 10
6510.2145953803
 20
4855.4476723268
 30
0.0
 40
1.353611246209267
100
AcDbArc
 50
90.0
 51
118.7365577358
  0
ARC
  5
181
330
1F
100
AcDbEntity
  8
0
  6
Continuous
 62
     7
370
    25
100
AcDbCircle
 10
6508.2313355106
 20
4856.3962522502
 30
0.0
 40
1.353611246208338
100
AcDbArc
 50
10.1404867648
 51
90.0
  0
LINE
  5
182
330
1F
100
AcDbEntity
  8
0
  6
Continuous
 62
     7
370
    25
100
AcDbLine
 10
6508.2313355106
 20
4857.7498634964
 30
0.0
 11
6507.6520182286
 21
4857.7498634964
 31
0.0
  0
ARC
  5
183
330
1F
100
AcDbEntity
  8
0
  6
Continuous
 62
     7
370
    25
100
AcDbCircle
 10
6507.6520182286
 20
4856.3962522502
 30
0.0
 40
1.353611246209003
100
AcDbArc
 50
90.0
 51
124.744002227
  0
ARC
  5
184
330
1F
100
AcDbEntity
  8
0
  6
Continuous
 62
     7
370
    25
100
AcDbCircle
 10
6505.6687583588
 20
4856.9054064854
 30
0.0
 40
1.353611246208998
100
AcDbArc
 50
26.4592691593
 51
90.0
  0
LINE
  5
185
330
1F
100
AcDbEntity
  8
0
  6
Continuous
 62
     7
370
    25
100
AcDbLine
 10
6505.6687583588
 20
4858.2590177316
 30
0.0
 11
6505.2121474398
 21
4858.2590177316
 31
0.0
  0
ARC
  5
186
330
1F
100
AcDbEntity
  8
0
  6
Continuous
 62
     7
370
    25
100
AcDbCircle
 10
6505.2121474398
 20
4856.9054064854
 30
0.0
 40
1.353611246208415
100
AcDbArc
 50
90.0
 51
117.7207121261
  0
LINE
  5
187
330
1F
100
AcDbEntity
  8
0
  6
Continuous
 62
     7
370
    25
100
AcDbLine
 10
6501.3484130258
 20
4861.6493773627
 30
0.0
 11
6501.3484130258
 21
4854.1109257771
 31
0.0
  0
ARC
  5
188
330
1F
100
AcDbEntity
  8
0
  6
Continuous
 62
     7
370
    25
100
AcDbCircle
 10
6502.965455921
 20
4861.6493773627
 30
0.0
 40
1.617042895245504
100
AcDbArc
 50
0.0
 51
180.0
  0
CIRCLE
  5
189
330
1F
100
AcDbEntity
  8
0
  6
Continuous
 62
     7
370
    25
100
AcDbCircle
 10
6504.9724250516
 20
4852.9072639052
 30
0.0
 40
14.0
  0
CIRCLE
  5
18A
330
1F
100
AcDbEntity
  8
0
  6
Continuous
 62
     7
370
    25
100
AcDbCircle
 10
6504.9724250516
 20
4852.9072639052
 30
0.0
 40
23.89999999999964
  0
CIRCLE
  5
18B
330
1F
100
AcDbEntity
  8
0
  6
Continuous
 62
     7
370
    25
100
AcDbCircle
 10
6504.9724250516
 20
4852.9072639052
 30
0.0
 40
24.90000000000055
  0
LINE
  5
18C
330
1F
100
AcDbEntity
  8
0
  6
Continuous
 62
     7
370
    25
100
AcDbLine
 10
6543.3760148901
 20
4860.3072639052
 30
0.0
 11
6543.3760148901
 21
4845.5072639052
 31
0.0
  0
LINE
  5
18D
330
1F
100
AcDbEntity
  8
0
  6
Continuous
 62
     7
370
    25
100
AcDbLine
 10
6542.8760148901
 20
4860.8072639052
 30
0.0
 11
6542.8760148901
 21
4845.0072639052
 31
0.0
  0
ARC
  5
18E
330
1F
100
AcDbEntity
  8
0
  6
Continuous
 62
     7
370
    25
100
AcDbCircle
 10
6538.4110321989
 20
4852.9916335792
 30
0.0
 40
1.942509515260505
100
AcDbArc
 50
268.9670821859
 51
1.8793020114
  0
ARC
  5
18F
330
1F
100
AcDbEntity
  8
0
  6
Continuous
 62
     7
370
    25
100
AcDbCircle
 10
6538.3660660822
 20
4853.0284024301
 30
0.0
 40
1.978987722394236
100
AcDbArc
 50
179.222952198
 51
270.2880397371
  0
CIRCLE
  5
190
330
1F
100
AcDbEntity
  8
0
  6
Continuous
 62
     7
370
    25
100
AcDbCircle
 10
6538.375797255
 20
4853.3412853149
 30
0.0
 40
1.999836855544137
  0
LINE
  5
191
330
1F
100
AcDbEntity
  8
0
  6
Continuous
 62
     7
370
    25
100
AcDbLine
 10
6491.856023106
 20
4763.9072639052
 30
0.0
 11
6518.0888269973
 21
4763.9072639052
 31
0.0
  0
ARC
  5
192
330
1F
100
AcDbEntity
  8
0
  6
Continuous
 62
     7
370
    25
100
AcDbCircle
 10
6504.9724250516
 20
4768.6572639052
 30
0.0
 40
13.94999999999986
100
AcDbArc
 50
180.0
 51
199.9074488975
  0
ARC
  5
193
330
1F
100
AcDbEntity
  8
0
  6
Continuous
 62
     7
370
    25
100
AcDbCircle
 10
6504.9724250516
 20
4768.6572639052
 30
0.0
 40
13.95000000000071
100
AcDbArc
 50
340.0925511025
 51
0.0
  0
LINE
  5
194
330
1F
100
AcDbEntity
  8
0
  6
Continuous
 62
     7
370
    25
100
AcDbLine
 10
6493.3689772881
 20
4762.9072639052
 30
0.0
 11
6516.5758728151
 21
4762.9072639052
 31
0.0
  0
LINE
  5
195
330
1F
100
AcDbEntity
  8
0
  6
Continuous
 62
     7
370
    25
100
AcDbLine
 10
6493.3689772881
 20
4762.9072639052
 30
0.0
 11
6491.856023106
 21
4763.9072639052
 31
0.0
  0
LINE
  5
196
330
1F
100
AcDbEntity
  8
0
  6
Continuous
 62
     7
370
    25
100
AcDbLine
 10
6518.0888269973
 20
4763.9072639052
 30
0.0
 11
6516.5758728151
 21
4762.9072639052
 31
0.0
  0
ARC
  5
197
330
1F
100
AcDbEntity
  8
0
  6
Continuous
 62
     7
370
    25
100
AcDbCircle
 10
6504.9724250516
 20
4852.9072639052
 30
0.0
 40
25.40000000000096
100
AcDbArc
 50
18.1209295307
 51
177.8167486155
  0
ARC
  5
198
330
1F
100
AcDbEntity
  8
0
  6
Continuous
 62
     7
370
    25
100
AcDbCircle
 10
6504.9724250516
 20
4852.9072639052
 30
0.0
 40
25.39999999999982
100
AcDbArc
 50
303.3130106878
 51
341.8790704693
  0
ARC
  5
199
330
1F
100
AcDbEntity
  8
0
  6
Continuous
 62
     7
370
    25
100
AcDbCircle
 10
6504.9724250516
 20
4852.9072639052
 30
0.0
 40
25.40000000000047
100
AcDbArc
 50
177.8167486155
 51
236.6869893122
  0
ARC
  5
19A
330
1F
100
AcDbEntity
  8
0
  6
Continuous
 62
     7
370
    25
100
AcDbCircle
 10
6504.9724250516
 20
4852.9072639052
 30
0.0
 40
29.51703708685619
100
AcDbArc
 50
15.5240025033
 51
241.7962522017
  0
ARC
  5
19B
330
1F
100
AcDbEntity
  8
0
  6
Continuous
 62
     7
370
    25
100
AcDbCircle
 10
6504.9724250516
 20
4852.9072639052
 30
0.0
 40
29.51703708685595
100
AcDbArc
 50
298.2037477983
 51
344.4759974967
  0
ARC
  5
19C
330
1F
100
AcDbEntity
  8
0
  6
Continuous
 62
     7
370
    25
100
AcDbCircle
 10
6504.9724250516
 20
4852.9072639052
 30
0.0
 40
29.99999999999992
100
AcDbArc
 50
297.7102220493
 51
344.7320573143
  0
ARC
  5
19D
330
1F
100
AcDbEntity
  8
0
  6
Continuous
 62
     7
370
    25
100
AcDbCircle
 10
6504.9724250516
 20
4852.9072639052
 30
0.0
 40
30.00000000000103
100
AcDbArc
 50
15.2679426857
 51
242.2897779507
  0
ENDSEC
  0
SECTION
  2
OBJECTS
  0
DICTIONARY
  5
C
330
0
100
AcDbDictionary
281
     1
  3
ACAD_GROUP
350
D
  3
ACAD_LAYOUT
350
1A
  3
ACAD_MLINESTYLE
350
17
  3
ACAD_PLOTSETTINGS
350
19
  3
ACAD_PLOTSTYLENAME
350
E
  3
ACAD_SCALELIST
350
47
  3
DWGPROPS
350
19E
  0
DICTIONARY
  5
D
102
{ACAD_REACTORS
330
C
102
}
330
C
100
AcDbDictionary
281
     1
  0
DICTIONARY
  5
1A
102
{ACAD_REACTORS
330
C
102
}
330
C
100
AcDbDictionary
281
     1
  3
Layout1
350
1E
  3
Layout2
350
26
  3
Model
350
22
  0
DICTIONARY
  5
17
102
{ACAD_REACTORS
330
C
102
}
330
C
100
AcDbDictionary
281
     1
  3
Standard
350
18
  0
DICTIONARY
  5
19
102
{ACAD_REACTORS
330
C
102
}
330
C
100
AcDbDictionary
281
     1
  0
ACDBDICTIONARYWDFLT
  5
E
102
{ACAD_REACTORS
330
C
102
}
330
C
100
AcDbDictionary
281
     1
  3
Normal
350
F
100
AcDbDictionaryWithDefault
340
F
  0
DICTIONARY
  5
47
102
{ACAD_REACTORS
330
C
102
}
330
C
100
AcDbDictionary
281
     1
  3
A0
350
48
  3
A1
350
49
  3
A2
350
4A
  3
A3
350
4B
  3
A4
350
4C
  3
A5
350
4D
  3
A6
350
4E
  3
A7
350
4F
  3
A8
350
50
  3
A9
350
51
  3
B0
350
52
  3
B1
350
53
  3
B2
350
54
  3
B3
350
55
  3
B4
350
56
  3
B5
350
57
  3
B6
350
58
  3
B7
350
59
  3
B8
350
5A
  3
B9
350
5B
  3
C0
350
5C
  3
C1
350
5D
  3
C2
350
5E
  3
C3
350
5F
  3
C4
350
60
  3
C5
350
61
  3
C6
350
62
  3
C7
350
63
  3
C8
350
64
  3
C9
350
65
  3
D0
350
66
  3
D1
350
67
  3
D2
350
68
  0
XRECORD
  5
19E
102
{ACAD_REACTORS
330
C
102
}
330
C
100
AcDbXrecord
280
     1
  1
DWGPROPS COOKIE
  2

  3

  4

  6

  7

  8
radek.stransky
  9

300
=
301
=
302
=
303
=
304
=
305
=
306
=
307
=
308
=
309
=
 40
0.0
 41
2459345.427545972
 42
2459345.427546204
  1

 90
        0
  0
LAYOUT
  5
1E
102
{ACAD_REACTORS
330
1A
102
}
330
1A
100
AcDbPlotSettings
  1

  2
none_device
  4

  6

 40
0.0
 41
0.0
 42
0.0
 43
0.0
 44
0.0
 45
0.0
 46
0.0
 47
0.0
 48
0.0
 49
0.0
140
0.0
141
0.0
142
1.0
143
1.0
 70
   688
 72
     1
 73
     0
 74
     5
  7

 75
    16
147
1.0
148
0.0
149
0.0
100
AcDbLayout
  1
Layout1
 70
     1
 71
     1
 10
0.0
 20
0.0
 11
420.0
 21
297.0
 12
0.0
 22
0.0
 32
0.0
 14
1.0000000000E+20
 24
1.0000000000E+20
 34
1.0000000000E+20
 15
-1.0000000000E+20
 25
-1.0000000000E+20
 35
-1.0000000000E+20
146
0.0
 13
0.0
 23
0.0
 33
0.0
 16
1.0
 26
0.0
 36
0.0
 17
0.0
 27
1.0
 37
0.0
 76
     0
330
1B
  0
LAYOUT
  5
26
102
{ACAD_REACTORS
330
1A
102
}
330
1A
100
AcDbPlotSettings
  1

  2
none_device
  4

  6

 40
0.0
 41
0.0
 42
0.0
 43
0.0
 44
0.0
 45
0.0
 46
0.0
 47
0.0
 48
0.0
 49
0.0
140
0.0
141
0.0
142
1.0
143
1.0
 70
   688
 72
     1
 73
     0
 74
     5
  7

 75
    16
147
1.0
148
0.0
149
0.0
100
AcDbLayout
  1
Layout2
 70
     1
 71
     2
 10
0.0
 20
0.0
 11
0.0
 21
0.0
 12
0.0
 22
0.0
 32
0.0
 14
0.0
 24
0.0
 34
0.0
 15
0.0
 25
0.0
 35
0.0
146
0.0
 13
0.0
 23
0.0
 33
0.0
 16
1.0
 26
0.0
 36
0.0
 17
0.0
 27
1.0
 37
0.0
 76
     0
330
23
  0
LAYOUT
  5
22
102
{ACAD_REACTORS
330
1A
102
}
330
1A
100
AcDbPlotSettings
  1

  2
none_device
  4
Letter_(8.50_x_11.00_Inches)
  6

 40
6.35
 41
6.35
 42
6.35000508
 43
6.35000508
 44
215.9
 45
279.4
 46
0.0
 47
0.0
 48
0.0
 49
0.0
140
0.0
141
0.0
142
1.0
143
1.0
 70
  1712
 72
     1
 73
     0
 74
     0
  7

 75
     0
147
1.0
148
0.0
149
0.0
100
AcDbLayout
  1
Model
 70
     1
 71
     0
 10
0.0
 20
0.0
 11
20000.0
 21
10000.0
 12
0.0
 22
0.0
 32
0.0
 14
0.0
 24
0.0
 34
0.0
 15
20000.0
 25
10000.0
 35
0.0
146
0.0
 13
0.0
 23
0.0
 33
0.0
 16
1.0
 26
0.0
 36
0.0
 17
0.0
 27
1.0
 37
0.0
 76
     0
330
1F
331
29
  0
MLINESTYLE
  5
18
102
{ACAD_REACTORS
330
17
102
}
330
17
100
AcDbMlineStyle
  2
Standard
 70
     0
  3

 62
   256
 51
90.0
 52
90.0
 71
     2
 49
0.5
 62
   256
  6
BYLAYER
 49
-0.5
 62
   256
  6
BYLAYER
  0
ACDBPLACEHOLDER
  5
F
102
{ACAD_REACTORS
330
E
102
}
330
E
  0
SCALE
  5
48
102
{ACAD_REACTORS
330
47
102
}
330
47
100
AcDbScale
 70
     0
300
1:1
140
1.0
141
1.0
290
     1
  0
SCALE
  5
49
102
{ACAD_REACTORS
330
47
102
}
330
47
100
AcDbScale
 70
     0
300
1:2
140
1.0
141
2.0
290
     0
  0
SCALE
  5
4A
102
{ACAD_REACTORS
330
47
102
}
330
47
100
AcDbScale
 70
     0
300
1:4
140
1.0
141
4.0
290
     0
  0
SCALE
  5
4B
102
{ACAD_REACTORS
330
47
102
}
330
47
100
AcDbScale
 70
     0
300
1:5
140
1.0
141
5.0
290
     0
  0
SCALE
  5
4C
102
{ACAD_REACTORS
330
47
102
}
330
47
100
AcDbScale
 70
     0
300
1:8
140
1.0
141
8.0
290
     0
  0
SCALE
  5
4D
102
{ACAD_REACTORS
330
47
102
}
330
47
100
AcDbScale
 70
     0
300
1:10
140
1.0
141
10.0
290
     0
  0
SCALE
  5
4E
102
{ACAD_REACTORS
330
47
102
}
330
47
100
AcDbScale
 70
     0
300
1:16
140
1.0
141
16.0
290
     0
  0
SCALE
  5
4F
102
{ACAD_REACTORS
330
47
102
}
330
47
100
AcDbScale
 70
     0
300
1:20
140
1.0
141
20.0
290
     0
  0
SCALE
  5
50
102
{ACAD_REACTORS
330
47
102
}
330
47
100
AcDbScale
 70
     0
300
1:30
140
1.0
141
30.0
290
     0
  0
SCALE
  5
51
102
{ACAD_REACTORS
330
47
102
}
330
47
100
AcDbScale
 70
     0
300
1:40
140
1.0
141
40.0
290
     0
  0
SCALE
  5
52
102
{ACAD_REACTORS
330
47
102
}
330
47
100
AcDbScale
 70
     0
300
1:50
140
1.0
141
50.0
290
     0
  0
SCALE
  5
53
102
{ACAD_REACTORS
330
47
102
}
330
47
100
AcDbScale
 70
     0
300
1:100
140
1.0
141
100.0
290
     0
  0
SCALE
  5
54
102
{ACAD_REACTORS
330
47
102
}
330
47
100
AcDbScale
 70
     0
300
2:1
140
2.0
141
1.0
290
     0
  0
SCALE
  5
55
102
{ACAD_REACTORS
330
47
102
}
330
47
100
AcDbScale
 70
     0
300
4:1
140
4.0
141
1.0
290
     0
  0
SCALE
  5
56
102
{ACAD_REACTORS
330
47
102
}
330
47
100
AcDbScale
 70
     0
300
8:1
140
8.0
141
1.0
290
     0
  0
SCALE
  5
57
102
{ACAD_REACTORS
330
47
102
}
330
47
100
AcDbScale
 70
     0
300
10:1
140
10.0
141
1.0
290
     0
  0
SCALE
  5
58
102
{ACAD_REACTORS
330
47
102
}
330
47
100
AcDbScale
 70
     0
300
100:1
140
100.0
141
1.0
290
     0
  0
SCALE
  5
59
102
{ACAD_REACTORS
330
47
102
}
330
47
100
AcDbScale
 70
     0
300
1/128" = 1'-0"
140
0.0078125
141
12.0
290
     0
  0
SCALE
  5
5A
102
{ACAD_REACTORS
330
47
102
}
330
47
100
AcDbScale
 70
     0
300
1/64" = 1'-0"
140
0.015625
141
12.0
290
     0
  0
SCALE
  5
5B
102
{ACAD_REACTORS
330
47
102
}
330
47
100
AcDbScale
 70
     0
300
1/32" = 1'-0"
140
0.03125
141
12.0
290
     0
  0
SCALE
  5
5C
102
{ACAD_REACTORS
330
47
102
}
330
47
100
AcDbScale
 70
     0
300
1/16" = 1'-0"
140
0.0625
141
12.0
290
     0
  0
SCALE
  5
5D
102
{ACAD_REACTORS
330
47
102
}
330
47
100
AcDbScale
 70
     0
300
3/32" = 1'-0"
140
0.09375
141
12.0
290
     0
  0
SCALE
  5
5E
102
{ACAD_REACTORS
330
47
102
}
330
47
100
AcDbScale
 70
     0
300
1/8" = 1'-0"
140
0.125
141
12.0
290
     0
  0
SCALE
  5
5F
102
{ACAD_REACTORS
330
47
102
}
330
47
100
AcDbScale
 70
     0
300
3/16" = 1'-0"
140
0.1875
141
12.0
290
     0
  0
SCALE
  5
60
102
{ACAD_REACTORS
330
47
102
}
330
47
100
AcDbScale
 70
     0
300
1/4" = 1'-0"
140
0.25
141
12.0
290
     0
  0
SCALE
  5
61
102
{ACAD_REACTORS
330
47
102
}
330
47
100
AcDbScale
 70
     0
300
3/8" = 1'-0"
140
0.375
141
12.0
290
     0
  0
SCALE
  5
62
102
{ACAD_REACTORS
330
47
102
}
330
47
100
AcDbScale
 70
     0
300
1/2" = 1'-0"
140
0.5
141
12.0
290
     0
  0
SCALE
  5
63
102
{ACAD_REACTORS
330
47
102
}
330
47
100
AcDbScale
 70
     0
300
3/4" = 1'-0"
140
0.75
141
12.0
290
     0
  0
SCALE
  5
64
102
{ACAD_REACTORS
330
47
102
}
330
47
100
AcDbScale
 70
     0
300
1" = 1'-0"
140
1.0
141
12.0
290
     0
  0
SCALE
  5
65
102
{ACAD_REACTORS
330
47
102
}
330
47
100
AcDbScale
 70
     0
300
1-1/2" = 1'-0"
140
1.5
141
12.0
290
     0
  0
SCALE
  5
66
102
{ACAD_REACTORS
330
47
102
}
330
47
100
AcDbScale
 70
     0
300
3" = 1'-0"
140
3.0
141
12.0
290
     0
  0
SCALE
  5
67
102
{ACAD_REACTORS
330
47
102
}
330
47
100
AcDbScale
 70
     0
300
6" = 1'-0"
140
6.0
141
12.0
290
     0
  0
SCALE
  5
68
102
{ACAD_REACTORS
330
47
102
}
330
47
100
AcDbScale
 70
     0
300
1'-0" = 1'-0"
140
12.0
141
12.0
290
     0
  0
ENDSEC
  0
EOF
