  0
SECTION
  2
HEADER
  9
$ACADVER
  1
AC1015
  9
$ACADMAINTVER
 70
     6
  9
$DWGCODEPAGE
  3
ANSI_1250
  9
$INSBASE
 10
0.0
 20
0.0
 30
0.0
  9
$EXTMIN
 10
0.0
 20
0.0
 30
0.0
  9
$EXTMAX
 10
20000.0
 20
10000.0
 30
0.0
  9
$LIMMIN
 10
0.0
 20
0.0
  9
$LIMMAX
 10
20000.0
 20
10000.0
  9
$ORTHOMODE
 70
     0
  9
$REGENMODE
 70
     1
  9
$FILLMODE
 70
     1
  9
$QTEXTMODE
 70
     0
  9
$MIRRTEXT
 70
     1
  9
$LTSCALE
 40
1.0
  9
$ATTMODE
 70
     1
  9
$TEXTSIZE
 40
2.0
  9
$TRACEWID
 40
1.0
  9
$TEXTSTYLE
  7
Standard
  9
$CLAYER
  8
0
  9
$CELTYPE
  6
ByLayer
  9
$CECOLOR
 62
   256
  9
$CELTSCALE
 40
1.0
  9
$DISPSILH
 70
     0
  9
$DIMSCALE
 40
1.0
  9
$DIMASZ
 40
2.0
  9
$DIMEXO
 40
1.0
  9
$DIMDLI
 40
3.75
  9
$DIMRND
 40
0.0
  9
$DIMDLE
 40
0.0
  9
$DIMEXE
 40
1.0
  9
$DIMTP
 40
0.0
  9
$DIMTM
 40
0.0
  9
$DIMTXT
 40
2.0
  9
$DIMCEN
 40
2.5
  9
$DIMTSZ
 40
0.0
  9
$DIMTOL
 70
     0
  9
$DIMLIM
 70
     0
  9
$DIMTIH
 70
     1
  9
$DIMTOH
 70
     1
  9
$DIMSE1
 70
     0
  9
$DIMSE2
 70
     0
  9
$DIMTAD
 70
     1
  9
$DIMZIN
 70
     0
  9
$DIMBLK
  1

  9
$DIMASO
 70
     1
  9
$DIMSHO
 70
     1
  9
$DIMPOST
  1

  9
$DIMAPOST
  1

  9
$DIMALT
 70
     0
  9
$DIMALTD
 70
     3
  9
$DIMALTF
 40
0.0393700787
  9
$DIMLFAC
 40
1.0
  9
$DIMTOFL
 70
     1
  9
$DIMTVP
 40
0.0
  9
$DIMTIX
 70
     0
  9
$DIMSOXD
 70
     0
  9
$DIMSAH
 70
     0
  9
$DIMBLK1
  1

  9
$DIMBLK2
  1

  9
$DIMSTYLE
  2
ISO-25
  9
$DIMCLRD
 70
     0
  9
$DIMCLRE
 70
     0
  9
$DIMCLRT
 70
     0
  9
$DIMTFAC
 40
1.0
  9
$DIMGAP
 40
1.524
  9
$DIMJUST
 70
     0
  9
$DIMSD1
 70
     0
  9
$DIMSD2
 70
     0
  9
$DIMTOLJ
 70
     0
  9
$DIMTZIN
 70
     0
  9
$DIMALTZ
 70
     0
  9
$DIMALTTZ
 70
     0
  9
$DIMUPT
 70
     0
  9
$DIMDEC
 70
     2
  9
$DIMTDEC
 70
     0
  9
$DIMALTU
 70
     2
  9
$DIMALTTD
 70
     3
  9
$DIMTXSTY
  7
Standard
  9
$DIMAUNIT
 70
     0
  9
$DIMADEC
 70
     2
  9
$DIMALTRND
 40
0.0
  9
$DIMAZIN
 70
     0
  9
$DIMDSEP
 70
    44
  9
$DIMATFIT
 70
     3
  9
$DIMFRAC
 70
     0
  9
$DIMLDRBLK
  1

  9
$DIMLUNIT
 70
     2
  9
$DIMLWD
 70
    -2
  9
$DIMLWE
 70
    -2
  9
$DIMTMOVE
 70
     0
  9
$LUNITS
 70
     2
  9
$LUPREC
 70
     3
  9
$SKETCHINC
 40
1.0
  9
$FILLETRAD
 40
10.0
  9
$AUNITS
 70
     0
  9
$AUPREC
 70
     2
  9
$MENU
  1
.
  9
$ELEVATION
 40
0.0
  9
$PELEVATION
 40
0.0
  9
$THICKNESS
 40
0.0
  9
$LIMCHECK
 70
     0
  9
$CHAMFERA
 40
0.0
  9
$CHAMFERB
 40
0.0
  9
$CHAMFERC
 40
0.0
  9
$CHAMFERD
 40
0.0
  9
$SKPOLY
 70
     0
  9
$TDCREATE
 40
2459296.405540058
  9
$TDUCREATE
 40
2459296.363873391
  9
$TDUPDATE
 40
2459296.405540266
  9
$TDUUPDATE
 40
2459296.3638736
  9
$TDINDWG
 40
0.0000000116
  9
$TDUSRTIMER
 40
0.0000000116
  9
$USRTIMER
 70
     1
  9
$ANGBASE
 50
0.0
  9
$ANGDIR
 70
     0
  9
$PDMODE
 70
     0
  9
$PDSIZE
 40
-1.0
  9
$PLINEWID
 40
0.0
  9
$SPLFRAME
 70
     0
  9
$SPLINETYPE
 70
     6
  9
$SPLINESEGS
 70
     8
  9
$HANDSEED
  5
11E
  9
$SURFTAB1
 70
     6
  9
$SURFTAB2
 70
     6
  9
$SURFTYPE
 70
     6
  9
$SURFU
 70
     6
  9
$SURFV
 70
     6
  9
$UCSBASE
  2

  9
$UCSNAME
  2

  9
$UCSORG
 10
0.0
 20
0.0
 30
0.0
  9
$UCSXDIR
 10
1.0
 20
0.0
 30
0.0
  9
$UCSYDIR
 10
0.0
 20
1.0
 30
0.0
  9
$UCSORTHOREF
  2

  9
$UCSORTHOVIEW
 70
     0
  9
$UCSORGTOP
 10
0.0
 20
0.0
 30
0.0
  9
$UCSORGBOTTOM
 10
0.0
 20
0.0
 30
0.0
  9
$UCSORGLEFT
 10
0.0
 20
0.0
 30
0.0
  9
$UCSORGRIGHT
 10
0.0
 20
0.0
 30
0.0
  9
$UCSORGFRONT
 10
0.0
 20
0.0
 30
0.0
  9
$UCSORGBACK
 10
0.0
 20
0.0
 30
0.0
  9
$PUCSBASE
  2

  9
$PUCSNAME
  2

  9
$PUCSORG
 10
0.0
 20
0.0
 30
0.0
  9
$PUCSXDIR
 10
1.0
 20
0.0
 30
0.0
  9
$PUCSYDIR
 10
0.0
 20
1.0
 30
0.0
  9
$PUCSORTHOREF
  2

  9
$PUCSORTHOVIEW
 70
     0
  9
$PUCSORGTOP
 10
0.0
 20
0.0
 30
0.0
  9
$PUCSORGBOTTOM
 10
0.0
 20
0.0
 30
0.0
  9
$PUCSORGLEFT
 10
0.0
 20
0.0
 30
0.0
  9
$PUCSORGRIGHT
 10
0.0
 20
0.0
 30
0.0
  9
$PUCSORGFRONT
 10
0.0
 20
0.0
 30
0.0
  9
$PUCSORGBACK
 10
0.0
 20
0.0
 30
0.0
  9
$USERI1
 70
     0
  9
$USERI2
 70
     0
  9
$USERI3
 70
     0
  9
$USERI4
 70
     0
  9
$USERI5
 70
     0
  9
$USERR1
 40
0.0
  9
$USERR2
 40
0.0
  9
$USERR3
 40
0.0
  9
$USERR4
 40
0.0
  9
$USERR5
 40
0.0
  9
$WORLDVIEW
 70
     1
  9
$SHADEDGE
 70
     3
  9
$SHADEDIF
 70
    70
  9
$TILEMODE
 70
     1
  9
$MAXACTVP
 70
    64
  9
$PINSBASE
 10
0.0
 20
0.0
 30
0.0
  9
$PLIMCHECK
 70
     0
  9
$PEXTMIN
 10
1.0000000000E+20
 20
1.0000000000E+20
 30
1.0000000000E+20
  9
$PEXTMAX
 10
-1.0000000000E+20
 20
-1.0000000000E+20
 30
-1.0000000000E+20
  9
$PLIMMIN
 10
0.0
 20
0.0
  9
$PLIMMAX
 10
420.0
 20
297.0
  9
$UNITMODE
 70
     0
  9
$VISRETAIN
 70
     1
  9
$PLINEGEN
 70
     0
  9
$PSLTSCALE
 70
     1
  9
$TREEDEPTH
 70
  3020
  9
$CMLSTYLE
  2
Standard
  9
$CMLJUST
 70
     0
  9
$CMLSCALE
 40
20.0
  9
$PROXYGRAPHICS
 70
     1
  9
$MEASUREMENT
 70
     1
  9
$CELWEIGHT
370
    -1
  9
$ENDCAPS
280
     0
  9
$JOINSTYLE
280
     0
  9
$LWDISPLAY
290
     1
  9
$INSUNITS
 70
     4
  9
$HYPERLINKBASE
  1

  9
$STYLESHEET
  1

  9
$XEDIT
290
     1
  9
$CEPSNTYPE
380
     0
  9
$PSTYLEMODE
290
     1
  9
$FINGERPRINTGUID
  2
{b94e3b28-1062-4b96-8852-19f9dce037ff}
  9
$VERSIONGUID
  2
{FAEB1C32-E019-11D5-929B-00C0DF256EC4}
  9
$EXTNAMES
290
     1
  9
$PSVPSCALE
 40
0.0
  9
$OLESTARTUP
290
     0
  0
ENDSEC
  0
SECTION
  2
CLASSES
  0
CLASS
  1
ACDBDICTIONARYWDFLT
  2
AcDbDictionaryWithDefault
  3
ObjectDBX Classes
 90
        0
280
     0
281
     0
  0
CLASS
  1
VISUALSTYLE
  2
AcDbVisualStyle
  3
ObjectDBX Classes
 90
     4095
280
     0
281
     0
  0
CLASS
  1
MATERIAL
  2
AcDbMaterial
  3
ObjectDBX Classes
 90
     1153
280
     0
281
     0
  0
CLASS
  1
SCALE
  2
AcDbScale
  3
ObjectDBX Classes
 90
     1153
280
     0
281
     0
  0
CLASS
  1
TABLESTYLE
  2
AcDbTableStyle
  3
ObjectDBX Classes
 90
     4095
280
     0
281
     0
  0
CLASS
  1
MLEADERSTYLE
  2
AcDbMLeaderStyle
  3
ACDB_MLEADERSTYLE_CLASS
 90
     4095
280
     0
281
     0
  0
CLASS
  1
SUN
  2
AcDbSun
  3
SCENEOE
 90
     1153
280
     0
281
     0
  0
CLASS
  1
ACDBPLACEHOLDER
  2
AcDbPlaceHolder
  3
ObjectDBX Classes
 90
        0
280
     0
281
     0
  0
CLASS
  1
LAYOUT
  2
AcDbLayout
  3
ObjectDBX Classes
 90
        0
280
     0
281
     0
  0
ENDSEC
  0
SECTION
  2
TABLES
  0
TABLE
  2
VPORT
  5
8
330
0
100
AcDbSymbolTable
 70
     1
  0
VPORT
  5
29
330
8
100
AcDbSymbolTableRecord
100
AcDbViewportTableRecord
  2
*Active
 70
     0
 10
0.0
 20
0.0
 11
1.0
 21
1.0
 12
10000.0
 22
5000.0
 13
0.0
 23
0.0
 14
10.0
 24
10.0
 15
10.0
 25
10.0
 16
0.0
 26
0.0
 36
1.0
 17
0.0
 27
0.0
 37
0.0
 40
10000.0
 41
2.0
 42
50.0
 43
0.0
 44
0.0
 50
0.0
 51
0.0
 71
     0
 72
  2000
 73
     1
 74
     3
 75
     0
 76
     0
 77
     0
 78
     0
281
     0
 65
     1
110
0.0
120
0.0
130
0.0
111
1.0
121
0.0
131
0.0
112
0.0
122
1.0
132
0.0
 79
     0
146
0.0
  0
ENDTAB
  0
TABLE
  2
LTYPE
  5
5
330
0
100
AcDbSymbolTable
 70
     6
  0
LTYPE
  5
14
330
5
100
AcDbSymbolTableRecord
100
AcDbLinetypeTableRecord
  2
ByBlock
 70
     0
  3

 72
    65
 73
     0
 40
0.0
  0
LTYPE
  5
15
330
5
100
AcDbSymbolTableRecord
100
AcDbLinetypeTableRecord
  2
ByLayer
 70
     0
  3

 72
    65
 73
     0
 40
0.0
  0
LTYPE
  5
16
330
5
100
AcDbSymbolTableRecord
100
AcDbLinetypeTableRecord
  2
Continuous
 70
     0
  3
Solid line
 72
    65
 73
     0
 40
0.0
  0
LTYPE
  5
6E
330
5
100
AcDbSymbolTableRecord
100
AcDbLinetypeTableRecord
  2
HIDDEN
 70
     0
  3
Hidden __ __ __ __ __ __ __ __ __ __ __ __ __ __
 72
    65
 73
     2
 40
1.905
 49
1.27
 74
     0
 49
-0.635
 74
     0
  0
LTYPE
  5
6F
330
5
100
AcDbSymbolTableRecord
100
AcDbLinetypeTableRecord
  2
PHANTOM
 70
     0
  3
Phantom ______  __  __  ______  __  __  ______
 72
    65
 73
     6
 40
12.7
 49
6.35
 74
     0
 49
-1.27
 74
     0
 49
1.27
 74
     0
 49
-1.27
 74
     0
 49
1.27
 74
     0
 49
-1.27
 74
     0
  0
LTYPE
  5
70
330
5
100
AcDbSymbolTableRecord
100
AcDbLinetypeTableRecord
  2
CENTER
 70
     0
  3
Center ____ _ ____ _ ____ _ ____ _ ____ _ ____
 72
    65
 73
     4
 40
10.16
 49
6.35
 74
     0
 49
-1.27
 74
     0
 49
1.27
 74
     0
 49
-1.27
 74
     0
  0
LTYPE
  5
71
330
5
100
AcDbSymbolTableRecord
100
AcDbLinetypeTableRecord
  2
CENTERX2
 70
     0
  3
Center (2x) ________  __  ________  __  _____
 72
    65
 73
     4
 40
20.32
 49
12.7
 74
     0
 49
-2.54
 74
     0
 49
2.54
 74
     0
 49
-2.54
 74
     0
  0
LTYPE
  5
72
330
5
100
AcDbSymbolTableRecord
100
AcDbLinetypeTableRecord
  2
DOT2
 70
     0
  3
Dot (.5x) ........................................
 72
    65
 73
     2
 40
0.635
 49
0.0
 74
     0
 49
-0.635
 74
     0
  0
ENDTAB
  0
TABLE
  2
LAYER
  5
2
330
0
100
AcDbSymbolTable
 70
    13
  0
LAYER
  5
10
330
2
100
AcDbSymbolTableRecord
100
AcDbLayerTableRecord
  2
0
 70
     0
 62
     7
  6
Continuous
370
    -3
390
F
  0
LAYER
  5
73
330
2
100
AcDbSymbolTableRecord
100
AcDbLayerTableRecord
  2
FORMAT
 70
     0
 62
     7
  6
Continuous
370
    -3
390
F
  0
LAYER
  5
74
330
2
100
AcDbSymbolTableRecord
100
AcDbLayerTableRecord
  2
OSA
 70
     0
 62
     7
  6
CENTER
370
    -3
390
F
  0
LAYER
  5
75
330
2
100
AcDbSymbolTableRecord
100
AcDbLayerTableRecord
  2
0_35
 70
     0
 62
     7
  6
Continuous
370
    35
390
F
  0
LAYER
  5
76
330
2
100
AcDbSymbolTableRecord
100
AcDbLayerTableRecord
  2
0_5
 70
     0
 62
     7
  6
Continuous
370
    50
390
F
  0
LAYER
  5
77
330
2
100
AcDbSymbolTableRecord
100
AcDbLayerTableRecord
  2
0_25
 70
     0
 62
     7
  6
Continuous
370
    25
390
F
  0
LAYER
  5
78
330
2
100
AcDbSymbolTableRecord
100
AcDbLayerTableRecord
  2
0_18
 70
     0
 62
     7
  6
Continuous
370
    -3
390
F
  0
LAYER
  5
79
330
2
100
AcDbSymbolTableRecord
100
AcDbLayerTableRecord
  2
SLD-0
 70
     0
 62
   179
  6
Continuous
370
    -3
390
F
  0
LAYER
  5
7A
330
2
100
AcDbSymbolTableRecord
100
AcDbLayerTableRecord
  2
KOTY
 70
     0
 62
     7
  6
Continuous
370
    -3
390
F
  0
LAYER
  5
7B
330
2
100
AcDbSymbolTableRecord
100
AcDbLayerTableRecord
  2
SILNA
 70
     0
 62
   179
  6
Continuous
370
    -3
390
F
  0
LAYER
  5
7C
330
2
100
AcDbSymbolTableRecord
100
AcDbLayerTableRecord
  2
0_18_1
 70
     0
 62
   179
  6
Continuous
370
    -3
390
F
  0
LAYER
  5
7D
330
2
100
AcDbSymbolTableRecord
100
AcDbLayerTableRecord
  2
0_35_1
 70
     0
 62
   179
  6
Continuous
370
    35
390
F
  0
LAYER
  5
7E
330
2
100
AcDbSymbolTableRecord
100
AcDbLayerTableRecord
  2
0_5_1
 70
     0
 62
   179
  6
Continuous
370
    50
390
F
  0
ENDTAB
  0
TABLE
  2
STYLE
  5
3
330
0
100
AcDbSymbolTable
 70
     1
  0
STYLE
  5
11
330
3
100
AcDbSymbolTableRecord
100
AcDbTextStyleTableRecord
  2
Standard
 70
     0
 40
0.0
 41
1.0
 50
0.0
 71
     0
 42
2.0
  3
txt
  4

  0
ENDTAB
  0
TABLE
  2
VIEW
  5
6
330
0
100
AcDbSymbolTable
 70
     0
  0
ENDTAB
  0
TABLE
  2
UCS
  5
7
330
0
100
AcDbSymbolTable
 70
     0
  0
ENDTAB
  0
TABLE
  2
APPID
  5
9
330
0
100
AcDbSymbolTable
 70
     1
  0
APPID
  5
12
330
9
100
AcDbSymbolTableRecord
100
AcDbRegAppTableRecord
  2
ACAD
 70
     0
  0
ENDTAB
  0
TABLE
  2
DIMSTYLE
  5
A
330
0
100
AcDbSymbolTable
 70
     1
100
AcDbDimStyleTable
  0
DIMSTYLE
105
27
330
A
100
AcDbSymbolTableRecord
100
AcDbDimStyleTableRecord
  2
ISO-25
 70
     0
 41
2.5
 42
0.625
 43
3.75
 44
1.25
 73
     0
 74
     0
 77
     1
 78
     8
140
2.5
141
2.5
143
0.0393700787
147
0.625
171
     3
172
     1
178
     0
271
     2
272
     2
274
     3
278
    44
283
     0
284
     8
340
11
  0
ENDTAB
  0
TABLE
  2
BLOCK_RECORD
  5
1
330
0
100
AcDbSymbolTable
 70
     1
  0
BLOCK_RECORD
  5
1F
330
1
100
AcDbSymbolTableRecord
100
AcDbBlockTableRecord
  2
*Model_Space
340
22
  0
BLOCK_RECORD
  5
1B
330
1
100
AcDbSymbolTableRecord
100
AcDbBlockTableRecord
  2
*Paper_Space
340
1E
  0
BLOCK_RECORD
  5
23
330
1
100
AcDbSymbolTableRecord
100
AcDbBlockTableRecord
  2
*Paper_Space0
340
26
  0
ENDTAB
  0
ENDSEC
  0
SECTION
  2
BLOCKS
  0
BLOCK
  5
20
330
1F
100
AcDbEntity
  8
0
100
AcDbBlockBegin
  2
*Model_Space
 70
     0
 10
0.0
 20
0.0
 30
0.0
  3
*Model_Space
  1

  0
ENDBLK
  5
21
330
1F
100
AcDbEntity
  8
0
100
AcDbBlockEnd
  0
BLOCK
  5
1C
330
1B
100
AcDbEntity
 67
     1
  8
0
100
AcDbBlockBegin
  2
*Paper_Space
 70
     0
 10
0.0
 20
0.0
 30
0.0
  3
*Paper_Space
  1

  0
ENDBLK
  5
1D
330
1B
100
AcDbEntity
 67
     1
  8
0
100
AcDbBlockEnd
  0
BLOCK
  5
24
330
23
100
AcDbEntity
  8
0
100
AcDbBlockBegin
  2
*Paper_Space0
 70
     0
 10
0.0
 20
0.0
 30
0.0
  3
*Paper_Space0
  1

  0
ENDBLK
  5
25
330
23
100
AcDbEntity
  8
0
100
AcDbBlockEnd
  0
ENDSEC
  0
SECTION
  2
ENTITIES
  0
LINE
  5
7F
330
1F
100
AcDbEntity
  8
0
  6
Continuous
 62
     7
370
    25
100
AcDbLine
 10
6286.8687553361
 20
5462.877103981
 30
0.0
 11
6286.8687553361
 21
5462.8854164103
 31
0.0
  0
LINE
  5
80
330
1F
100
AcDbEntity
  8
0
  6
Continuous
 62
     7
370
    25
100
AcDbLine
 10
6261.1687553361
 20
5462.8854164103
 30
0.0
 11
6261.1687553361
 21
5462.877103981
 31
0.0
  0
ARC
  5
81
330
1F
100
AcDbEntity
  8
0
  6
Continuous
 62
     7
370
    25
100
AcDbCircle
 10
6274.0187553361
 20
5459.3440018423
 30
0.0
 40
20.00000000000091
100
AcDbArc
 50
0.0
 51
90.0
  0
ARC
  5
82
330
1F
100
AcDbEntity
  8
0
  6
Continuous
 62
     7
370
    25
100
AcDbCircle
 10
6274.0187553361
 20
5459.3440018423
 30
0.0
 40
20.0
100
AcDbArc
 50
90.0
 51
180.0
  0
LINE
  5
83
330
1F
100
AcDbEntity
  8
0
  6
Continuous
 62
     7
370
    25
100
AcDbLine
 10
6137.0187553361
 20
4937.3115821879
 30
0.0
 11
6137.0187553361
 21
4935.8115821879
 31
0.0
  0
LINE
  5
84
330
1F
100
AcDbEntity
  8
0
  6
Continuous
 62
     7
370
    25
100
AcDbLine
 10
6411.0187553361
 20
4935.8115821879
 30
0.0
 11
6411.0187553361
 21
4937.3115821879
 31
0.0
  0
LWPOLYLINE
  5
85
330
1F
100
AcDbEntity
  8
0
  6
Continuous
 62
     7
370
    25
100
AcDbPolyline
 90
       70
 70
   128
 43
0.0
 10
6418.9800175167
 20
5295.5352180874
 10
6418.9670252794
 20
5292.6100805213
 10
6418.628297204
 20
5287.4557381882
 10
6417.9742330311
 20
5282.317543926
 10
6417.0065195198
 20
5277.2082565947
 10
6415.7279355354
 20
5272.1403354583
 10
6414.1422231178
 20
5267.1257660865
 10
6412.2539296892
 20
5262.1759584338
 10
6410.068250559
 20
5257.3017189235
 10
6407.5908947039
 20
5252.5132831559
 10
6404.8279868142
 20
5247.8203878713
 10
6401.7860086941
 20
5243.2323598878
 10
6398.4717757783
 20
5238.7582036916
 10
6394.8924405352
 20
5234.4066754022
 10
6391.0555134101
 20
5230.1863367878
 10
6386.9688927344
 20
5226.1055876987
 10
6382.6408967497
 20
5222.1726783871
 10
6378.080292847
 20
5218.3957048638
 10
6373.2963209181
 20
5214.7825910671
 10
6368.2987091591
 20
5211.3410615763
 10
6363.0976817288
 20
5208.07860819
 10
6357.7039583885
 20
5205.0024531178
 10
6352.1287466928
 20
5202.1195109451
 10
6346.3837275437
 20
5199.4363509816
 10
6340.4810350133
 20
5196.9591611422
 10
6334.4332313488
 20
5194.6937141295
 10
6328.2532780115
 20
5192.6453363955
 10
6321.9545035178
 20
5190.8188801408
 10
6315.5506047299
 20
5189.2187067386
 10
6309.0555490226
 20
5187.8486463574
 10
6302.4835298171
 20
5186.711983362
 10
6295.8489612678
 20
5185.8114504013
 10
6289.1664384703
 20
5185.1492149016
 10
6282.4506969563
 20
5184.7268682604
 10
6275.7165716857
 20
5184.5454176345
 10
6268.9789556801
 20
5184.6052802301
 10
6262.2527672098
 20
5184.9062794781
 10
6255.5529159357
 20
5185.4476417846
 10
6248.8942144532
 20
5186.2280012779
 10
6242.291363109
 20
5187.2454045517
 10
6235.7589083799
 20
5188.4973176705
 10
6229.3112014793
 20
5189.9806357807
 10
6222.9623573375
 20
5191.6916954682
 10
6216.7262141393
 20
5193.6262900268
 10
6210.6162936656
 20
5195.7796878237
 10
6204.6458357661
 20
5198.146623348
 10
6198.8276416703
 20
5200.7213609131
 10
6193.1740808186
 20
5203.4977115384
 10
6187.6970618402
 20
5206.469063688
 10
6182.4080023216
 20
5209.6284193718
 10
6177.3178026281
 20
5212.9684340672
 10
6172.4368247687
 20
5216.4814601746
 10
6167.7748774024
 20
5220.1595934341
 10
6163.3412081475
 20
5223.9947213535
 10
6159.1445043414
 20
5227.9785722063
 10
6155.1929032515
 20
5232.1027625556
 10
6151.4940124123
 20
5236.3588405595
 10
6148.0549401682
 20
5240.7383215501
 10
6144.8823355748
 20
5245.2327116492
 10
6141.9824354774
 20
5249.8335146423
 10
6139.3611148296
 20
5254.532217231
 10
6137.0239342095
 20
5259.3202484571
 10
6134.976176291
 20
5264.1889109756
 10
6133.2228612134
 20
5269.1292853161
 10
6131.7687301677
 20
5274.1321135181
 10
6130.6181880575
 20
5279.1876751824
 10
6129.775200756
 20
5284.285675867
 10
6129.2431505739
 20
5289.415172631
 10
6129.0246641319
 20
5294.5645615413
 10
6129.0442391105
 20
5295.6077214747
  0
ARC
  5
86
330
1F
100
AcDbEntity
  8
0
  6
Continuous
 62
     7
370
    25
100
AcDbCircle
 10
6133.7106872561
 20
4942.3115821879
 30
0.0
 40
4.999999999996362
100
AcDbArc
 50
183.6411852579
 51
270.0
  0
ARC
  5
87
330
1F
100
AcDbEntity
  8
0
  6
Continuous
 62
     7
370
    25
100
AcDbCircle
 10
6414.3268234161
 20
4942.3115821879
 30
0.0
 40
4.999999999997032
100
AcDbArc
 50
270.0
 51
356.3588147421
  0
LINE
  5
88
330
1F
100
AcDbEntity
  8
0
  6
Continuous
 62
     7
370
    25
100
AcDbLine
 10
6288.0187553361
 20
5377.5241280787
 30
0.0
 11
6288.0187553361
 21
5386.4426924215
 31
0.0
  0
LINE
  5
89
330
1F
100
AcDbEntity
  8
0
  6
Continuous
 62
     7
370
    25
100
AcDbLine
 10
6260.0187553361
 20
5386.4458509561
 30
0.0
 11
6260.0187553361
 21
5377.5241280787
 31
0.0
  0
LWPOLYLINE
  5
8A
330
1F
100
AcDbEntity
  8
0
  6
Continuous
 62
     7
370
    25
100
AcDbPolyline
 90
       11
 70
   128
 43
0.0
 10
6281.5687553361
 20
5468.5540856785
 10
6283.4078774669
 20
5468.0902340445
 10
6285.0039597486
 20
5467.0262570103
 10
6286.2183767266
 20
5465.4360312691
 10
6286.8120732315
 20
5463.6374930194
 10
6286.7940785179
 20
5462.0229145969
 10
6286.322198843
 20
5460.6615230609
 10
6285.422237396
 20
5459.5041789134
 10
6284.047150431
 20
5458.6254263568
 10
6282.2576037542
 20
5458.2214322956
 10
6281.5687553361
 20
5458.2271446879
  0
ARC
  5
8B
330
1F
100
AcDbEntity
  8
0
  6
Continuous
 62
     7
370
    25
100
AcDbCircle
 10
6274.0187553361
 20
5345.9407980666
 30
0.0
 40
112.5398868737078
100
AcDbArc
 50
86.1532902263
 51
93.8467097737
  0
LWPOLYLINE
  5
8C
330
1F
100
AcDbEntity
  8
0
  6
Continuous
 62
     7
370
    25
100
AcDbPolyline
 90
       11
 70
   128
 43
0.0
 10
6266.4687553361
 20
5458.2271446879
 10
6264.6296332053
 20
5458.4049721558
 10
6263.0335509236
 20
5459.1621760038
 10
6261.8191339456
 20
5460.4794500392
 10
6261.2254374407
 20
5462.131206948
 10
6261.2434321543
 20
5463.7503684252
 10
6261.7153118292
 20
5465.2289412365
 10
6262.6152732762
 20
5466.5942551547
 10
6263.9903602412
 20
5467.7537057883
 10
6265.779906918
 20
5468.4607775218
 10
6266.4687553361
 20
5468.5540856785
  0
ARC
  5
8D
330
1F
100
AcDbEntity
  8
0
  6
Continuous
 62
     7
370
    25
100
AcDbCircle
 10
6274.0187553361
 20
5356.2677390567
 30
0.0
 40
112.5398868742041
100
AcDbArc
 50
86.1532902263
 51
93.8467097737
  0
LWPOLYLINE
  5
8E
330
1F
100
AcDbEntity
  8
0
  6
Continuous
 62
     7
370
    25
100
AcDbPolyline
 90
       32
 70
   128
 43
0.0
 10
6274.0187553358
 20
5471.5269296953
 10
6271.0661162641
 20
5471.3333584028
 10
6268.1134771921
 20
5470.7249378518
 10
6265.3911802991
 20
5469.7078302627
 10
6262.8443755147
 20
5468.1607490929
 10
6261.0249518104
 20
5466.3703186689
 10
6259.9500688616
 20
5464.5247094383
 10
6259.5645573608
 20
5462.9980233959
 10
6259.6367486683
 20
5461.4681137122
 10
6260.1003306648
 20
5460.2015893097
 10
6261.3863992046
 20
5458.6145983918
 10
6262.7106606314
 20
5457.6738919194
 10
6264.2488848141
 20
5456.9317658041
 10
6266.6862476591
 20
5456.1650507603
 10
6269.3750067417
 20
5455.6681981807
 10
6272.1617313047
 20
5455.4159254923
 10
6275.0573412564
 20
5455.3841766305
 10
6278.1498461036
 20
5455.6039066336
 10
6281.2121613421
 20
5456.1317797744
 10
6283.3095716851
 20
5456.7489389441
 10
6285.2690843375
 20
5457.6406470037
 10
6287.1500967533
 20
5459.1021423755
 10
6288.1268535588
 20
5460.5971667046
 10
6288.4824598684
 20
5462.0139997614
 10
6288.383099441
 20
5463.5569910963
 10
6287.8981578351
 20
5464.9558935642
 10
6286.5590154246
 20
5466.9075907268
 10
6285.1857376582
 20
5468.166474209
 10
6283.5949013362
 20
5469.2168166508
 10
6281.1100121621
 20
5470.3442129916
 10
6278.3757312246
 20
5471.0997500052
 10
6274.0187553358
 20
5471.5269296953
  0
LWPOLYLINE
  5
8F
330
1F
100
AcDbEntity
  8
0
  6
Continuous
 62
     7
370
    25
100
AcDbPolyline
 90
       13
 70
   128
 43
0.0
 10
6274.0187553361
 20
5443.5909154225
 10
6271.3530162286
 20
5443.7314725227
 10
6268.7348472987
 20
5444.1506355785
 10
6266.2109698328
 20
5444.8409246151
 10
6263.8264224843
 20
5445.7900214085
 10
6261.6237575569
 20
5446.9809893038
 10
6259.6422816585
 20
5448.3925754508
 10
6257.9173542735
 20
5449.9995900611
 10
6256.479756772
 20
5451.7733559211
 10
6255.3551431153
 20
5453.6822201369
 10
6254.5635820608
 20
5455.6921189813
 10
6254.1191990343
 20
5457.7671857619
 10
6254.0187553361
 20
5459.3440018423
  0
LWPOLYLINE
  5
90
330
1F
100
AcDbEntity
  8
0
  6
Continuous
 62
     7
370
    25
100
AcDbPolyline
 90
       13
 70
   128
 43
0.0
 10
6294.0187553361
 20
5459.3440018423
 10
6293.9183116379
 20
5457.7671857619
 10
6293.4739286114
 20
5455.6921189813
 10
6292.6823675569
 20
5453.6822201369
 10
6291.5577539002
 20
5451.7733559211
 10
6290.1201563987
 20
5449.9995900611
 10
6288.3952290137
 20
5448.3925754508
 10
6286.4137531153
 20
5446.9809893038
 10
6284.2110881879
 20
5445.7900214085
 10
6281.8265408394
 20
5444.8409246151
 10
6279.3026633735
 20
5444.1506355785
 10
6276.6844944436
 20
5443.7314725227
 10
6274.0187553361
 20
5443.5909154225
  0
ARC
  5
91
330
1F
100
AcDbEntity
  8
0
  6
Continuous
 62
     7
370
    25
100
AcDbCircle
 10
6274.0187553361
 20
5356.2305643564
 30
0.0
 40
112.5770374496028
100
AcDbArc
 50
86.1800659616
 51
93.8199340384
  0
LWPOLYLINE
  5
92
330
1F
100
AcDbEntity
  8
0
  6
Continuous
 62
     7
370
    25
100
AcDbPolyline
 90
       11
 70
   128
 43
0.0
 10
6266.5187553361
 20
5468.5574950584
 10
6264.6118301393
 20
5468.0771460971
 10
6262.9579881152
 20
5466.9751805878
 10
6261.6959138838
 20
5465.3238231228
 10
6261.0776673617
 20
5463.4526872359
 10
6261.0958323933
 20
5461.7789531618
 10
6261.5820252052
 20
5460.371981482
 10
6262.5106865017
 20
5459.1734659929
 10
6263.9351513487
 20
5458.2591646309
 10
6265.7941380294
 20
5457.8357173186
 10
6266.5187553361
 20
5457.8408581813
  0
ARC
  5
93
330
1F
100
AcDbEntity
  8
0
  6
Continuous
 62
     7
370
    25
100
AcDbCircle
 10
6274.0187553361
 20
5345.5139274788
 30
0.0
 40
112.5770374501046
100
AcDbArc
 50
86.1800659616
 51
93.8199340384
  0
LWPOLYLINE
  5
94
330
1F
100
AcDbEntity
  8
0
  6
Continuous
 62
     7
370
    25
100
AcDbPolyline
 90
       11
 70
   128
 43
0.0
 10
6281.5187553361
 20
5457.8408581813
 10
6283.4256805329
 20
5458.025251302
 10
6285.079522557
 20
5458.8076027106
 10
6286.3415967884
 20
5460.1722408888
 10
6286.9598433105
 20
5461.8883583722
 10
6286.9416782789
 20
5463.5667897591
 10
6286.455485467
 20
5465.0962689143
 10
6285.5268241705
 20
5466.5121194062
 10
6284.1023593235
 20
5467.7198279741
 10
6282.2433726428
 20
5468.4589390017
 10
6281.5187553361
 20
5468.5574950584
  0
LINE
  5
95
330
1F
100
AcDbEntity
  8
0
  6
Continuous
 62
     7
370
    25
100
AcDbLine
 10
6137.1352884752
 20
4937.3115821879
 30
0.0
 11
6137.1352884752
 21
4935.8115821879
 31
0.0
  0
LINE
  5
96
330
1F
100
AcDbEntity
  8
0
  6
Continuous
 62
     7
370
    25
100
AcDbLine
 10
6410.902222197
 20
4937.3115821879
 30
0.0
 11
6410.902222197
 21
4935.8115821879
 31
0.0
  0
LINE
  5
97
330
1F
100
AcDbEntity
  8
0
  6
Continuous
 62
     7
370
    25
100
AcDbLine
 10
6137.1352884752
 20
4935.8115821879
 30
0.0
 11
6410.902222197
 21
4935.8115821879
 31
0.0
  0
LINE
  5
98
330
1F
100
AcDbEntity
  8
0
  6
Continuous
 62
     7
370
    25
100
AcDbLine
 10
6137.0187553361
 20
4935.8115821879
 30
0.0
 11
6137.1352884752
 21
4935.8115821879
 31
0.0
  0
LINE
  5
99
330
1F
100
AcDbEntity
  8
0
  6
Continuous
 62
     7
370
    25
100
AcDbLine
 10
6410.902222197
 20
4935.8115821879
 30
0.0
 11
6411.0187553361
 21
4935.8115821879
 31
0.0
  0
LINE
  5
9A
330
1F
100
AcDbEntity
  8
0
  6
Continuous
 62
     7
370
    25
100
AcDbLine
 10
6453.6803664578
 20
5481.994042672
 30
0.0
 11
6440.6771501006
 21
5277.6577856293
 31
0.0
  0
LWPOLYLINE
  5
9B
330
1F
100
AcDbEntity
  8
0
  6
Continuous
 62
     7
370
    25
100
AcDbPolyline
 90
       42
 70
   128
 43
0.0
 10
6440.6771501006
 20
5277.6577856293
 10
6440.6771471301
 20
5277.6577389512
 10
6439.837576316
 20
5270.1400479417
 10
6438.2913180477
 20
5262.6895838162
 10
6435.9990051282
 20
5255.1848909109
 10
6433.0137801713
 20
5247.827899862
 10
6428.2946988554
 20
5238.7990039608
 10
6422.5812418733
 20
5230.1228755728
 10
6415.7179466328
 20
5221.6061381602
 10
6407.9470614113
 20
5213.5745629436
 10
6398.4665366482
 20
5205.3743426487
 10
6388.001770249
 20
5197.8042915442
 10
6376.1120835618
 20
5190.6363754584
 10
6363.4467329314
 20
5184.3278410575
 10
6354.3343019648
 20
5180.5025092043
 10
6344.9377830942
 20
5177.1047906599
 10
6335.3098536749
 20
5174.1476769223
 10
6323.0024543338
 20
5171.0795897095
 10
6310.444656324
 20
5168.7104902523
 10
6297.430455257
 20
5167.0203460228
 10
6284.2939730785
 20
5166.0699765386
 10
6275.2212398731
 20
5165.8474026558
 10
6266.1231679195
 20
5165.977535651
 10
6252.0100371971
 20
5166.8832114062
 10
6238.0292606096
 20
5168.6414040274
 10
6223.9192533416
 20
5171.3266505822
 10
6210.1334649301
 20
5174.8944602922
 10
6198.1132308741
 20
5178.841897519
 10
6186.5036788611
 20
5183.4785223973
 10
6175.1191417215
 20
5188.9271523591
 10
6164.323640857
 20
5195.0620899737
 10
6155.1876560419
 20
5201.14553665
 10
6146.6563609709
 20
5207.7405746639
 10
6138.6134138171
 20
5214.9974175738
 10
6131.3372566974
 20
5222.7287376883
 10
6125.0095157624
 20
5230.7405909115
 10
6119.5483012525
 20
5239.1282302388
 10
6114.8973432383
 20
5248.1085383324
 10
6111.2924067235
 20
5257.373108353
 10
6108.6867689006
 20
5267.3899529625
 10
6107.3603635424
 20
5277.6577389467
 10
6107.3603605716
 20
5277.6577856293
  0
LINE
  5
9C
330
1F
100
AcDbEntity
  8
0
  6
Continuous
 62
     7
370
    25
100
AcDbLine
 10
6107.3603605716
 20
5277.6577856293
 30
0.0
 11
6094.3571442144
 21
5481.994042672
 31
0.0
  0
LWPOLYLINE
  5
9D
330
1F
100
AcDbEntity
  8
0
  6
Continuous
 62
     7
370
    25
100
AcDbPolyline
 90
        9
 70
   128
 43
0.0
 10
6094.3571442144
 20
5481.994042672
 10
6094.4187879394
 20
5482.6142043852
 10
6094.6793451435
 20
5483.222151727
 10
6095.1282992733
 20
5483.7933468588
 10
6095.7475297397
 20
5484.3047353267
 10
6096.5120432972
 20
5484.7356765805
 10
6097.3909828156
 20
5485.0687770629
 10
6098.3488727289
 20
5485.2905922445
 10
6099.3470508925
 20
5485.3921692692
  0
LWPOLYLINE
  5
9E
330
1F
100
AcDbEntity
  8
0
  6
Continuous
 62
     7
370
    25
100
AcDbPolyline
 90
       49
 70
   128
 43
0.0
 10
6099.3470508925
 20
5485.3921692692
 10
6099.8476570032
 20
5477.5255018143
 10
6101.8500814463
 20
5446.0588319947
 10
6109.8597792186
 20
5320.1921527162
 10
6111.550199942
 20
5293.6283984909
 10
6112.0906519044
 20
5284.7521278839
 10
6112.909741754
 20
5275.8909542133
 10
6114.4956612564
 20
5267.1141932147
 10
6116.1363331496
 20
5261.3215484716
 10
6119.4932128584
 20
5252.5449311597
 10
6123.800731378
 20
5244.0290873769
 10
6129.1787879572
 20
5235.5865368527
 10
6135.4437922702
 20
5227.5316236397
 10
6142.3035801121
 20
5220.1373400618
 10
6149.8737974212
 20
5213.1858208295
 10
6158.303943348
 20
5206.5564184481
 10
6167.3508685744
 20
5200.4516119906
 10
6177.5745592319
 20
5194.5645485383
 10
6188.3477998189
 20
5189.3199197047
 10
6199.8792118402
 20
5184.634467335
 10
6211.8326674821
 20
5180.6581637167
 10
6224.9081257997
 20
5177.2279424372
 10
6238.2873925657
 20
5174.622722278
 10
6252.2391798475
 20
5172.817183734
 10
6266.3294558773
 20
5171.8930097338
 10
6275.167955001
 20
5171.7649158071
 10
6284.0255227448
 20
5171.9839216258
 10
6296.5485478597
 20
5172.8912065667
 10
6308.9582066811
 20
5174.4958045652
 10
6321.4472858071
 20
5176.8515364412
 10
6333.6822456822
 20
5179.9244480112
 10
6347.191691944
 20
5184.2812171964
 10
6360.1746541306
 20
5189.5369978845
 10
6368.7450599409
 20
5193.6668814921
 10
6376.9850095155
 20
5198.2076765152
 10
6384.8415178641
 20
5203.139480035
 10
6394.8913491154
 20
5210.4896345872
 10
6404.1409879118
 20
5218.5811624364
 10
6411.4244667868
 20
5226.1819285032
 10
6417.8857098439
 20
5234.2300537496
 10
6423.6074688966
 20
5242.9426977679
 10
6428.3124159714
 20
5252.0241675005
 10
6431.769962516
 20
5260.922060116
 10
6434.1993126773
 20
5270.0279423411
 10
6435.2066383786
 20
5276.3615144652
 10
6435.7905679316
 20
5282.7359223616
 10
6436.2003761367
 20
5289.1194263065
 10
6447.048733113
 20
5459.5936073634
 10
6448.6904597797
 20
5485.3921692692
  0
LWPOLYLINE
  5
9F
330
1F
100
AcDbEntity
  8
0
  6
Continuous
 62
     7
370
    25
100
AcDbPolyline
 90
        9
 70
   128
 43
0.0
 10
6453.6803664578
 20
5481.994042672
 10
6453.6187227328
 20
5482.6142043852
 10
6453.3581655287
 20
5483.222151727
 10
6452.9092113989
 20
5483.7933468588
 10
6452.2899809325
 20
5484.3047353267
 10
6451.525467375
 20
5484.7356765805
 10
6450.6465278566
 20
5485.0687770629
 10
6449.6886379433
 20
5485.2905922445
 10
6448.6904597797
 20
5485.3921692692
  0
LINE
  5
A0
330
1F
100
AcDbEntity
  8
0
  6
Continuous
 62
     7
370
    25
100
AcDbLine
 10
6094.3571442144
 20
5481.994042672
 30
0.0
 11
6128.720780578
 21
4941.994042672
 31
0.0
  0
LWPOLYLINE
  5
A1
330
1F
100
AcDbEntity
  8
0
  6
Continuous
 62
     7
370
    25
100
AcDbPolyline
 90
        2
 70
   128
 43
0.0
 10
6094.3571442144
 20
5481.994042672
 10
6094.3571442144
 20
5481.994042672
  0
LWPOLYLINE
  5
A2
330
1F
100
AcDbEntity
  8
0
  6
Continuous
 62
     7
370
    25
100
AcDbPolyline
 90
        2
 70
   128
 43
0.0
 10
6453.6803664578
 20
5481.994042672
 10
6453.6803664578
 20
5481.994042672
  0
LINE
  5
A3
330
1F
100
AcDbEntity
  8
0
  6
Continuous
 62
     7
370
    25
100
AcDbLine
 10
6419.3167300942
 20
4941.994042672
 30
0.0
 11
6453.6803664578
 21
5481.994042672
 31
0.0
  0
LWPOLYLINE
  5
A4
330
1F
100
AcDbEntity
  8
0
  6
Continuous
 62
     7
370
    25
100
AcDbPolyline
 90
        2
 70
   128
 43
0.0
 10
6419.3167300942
 20
4941.994042672
 10
6419.3167300942
 20
4941.994042672
  0
LWPOLYLINE
  5
A5
330
1F
100
AcDbEntity
  8
0
  6
Continuous
 62
     7
370
    25
100
AcDbPolyline
 90
       41
 70
   128
 43
0.0
 10
6128.720780578
 20
4941.994042672
 10
6128.7207806611
 20
4941.9940413663
 10
6129.1272864676
 20
4941.7679352768
 10
6130.5765715046
 20
4941.5144726254
 10
6133.0629136148
 20
4941.2702489902
 10
6136.5507578372
 20
4941.0382741522
 10
6141.0045492107
 20
4940.8215578927
 10
6146.4436048691
 20
4940.6201847261
 10
6152.8150631585
 20
4940.4348819605
 10
6160.0436902443
 20
4940.2667255839
 10
6168.0542522922
 20
4940.1167915841
 10
6176.8257567131
 20
4939.9846500042
 10
6186.3144032356
 20
4939.8689793404
 10
6196.4158041155
 20
4939.7694334489
 10
6207.025571609
 20
4939.6856661862
 10
6218.1147185559
 20
4939.6167276854
 10
6229.6352294688
 20
4939.5617509015
 10
6241.4645327008
 20
4939.520441232
 10
6253.4800566048
 20
4939.4925040747
 10
6265.6109685608
 20
4939.4775022394
 10
6277.8422330274
 20
4939.4751236106
 10
6290.0471033768
 20
4939.4854166504
 10
6302.098832981
 20
4939.5084298204
 10
6313.9163378548
 20
4939.5444039058
 10
6325.4978823661
 20
4939.5938825273
 10
6336.7251148177
 20
4939.6570959368
 10
6347.4796835126
 20
4939.7342743864
 10
6357.6756583615
 20
4939.8261513357
 10
6367.3290345305
 20
4939.9341660129
 10
6376.3414631254
 20
4940.0585390755
 10
6384.6145952518
 20
4940.199491181
 10
6392.5281706232
 20
4940.367910502
 10
6399.5425505308
 20
4940.556076701
 10
6405.5773119507
 20
4940.7628000545
 10
6410.5520318591
 20
4940.9868908388
 10
6413.9094812834
 20
4941.189976281
 10
6416.4777451798
 20
4941.4038968098
 10
6418.2359887631
 20
4941.6266170233
 10
6419.1633772482
 20
4941.8561015198
 10
6419.3167300111
 20
4941.9940413666
 10
6419.3167300942
 20
4941.994042672
  0
LWPOLYLINE
  5
A6
330
1F
100
AcDbEntity
  8
0
  6
Continuous
 62
     7
370
    25
100
AcDbPolyline
 90
      135
 70
   128
 43
0.0
 10
6274.0187553361
 20
5430.8289003913
 10
6281.5183173313
 20
5430.69038558
 10
6289.0013936616
 20
5430.2751456318
 10
6296.4515349012
 20
5429.5840933341
 10
6303.8523640228
 20
5428.61874777
 10
6311.1876123977
 20
5427.3812309784
 10
6318.4411555581
 20
5425.8742632899
 10
6325.5970486419
 20
5424.1011573464
 10
6332.639561443
 20
5422.0658108197
 10
6339.5532129899
 20
5419.7726978432
 10
6346.3228055761
 20
5417.2268591768
 10
6352.9334581678
 20
5414.4338911265
 10
6359.3706391159
 20
5411.3999332421
 10
6365.6201980996
 20
5408.1316548216
 10
6371.6683972321
 20
5404.6362402503
 10
6377.5019412589
 20
5400.921373208
 10
6383.1080067842
 20
5396.9952197786
 10
6388.4742704593
 20
5392.8664104995
 10
6393.5889360721
 20
5388.5440213896
 10
6398.4407604775
 20
5384.0375539982
 10
6403.0190783125
 20
5379.3569145187
 10
6407.3138254408
 20
5374.5123920124
 10
6411.3155610761
 20
5369.5146357913
 10
6415.0154885351
 20
5364.3746320081
 10
6418.4054745743
 20
5359.1036795068
 10
6421.4780672685
 20
5353.7133649848
 10
6424.2265123922
 20
5348.2155375234
 10
6426.6447682665
 20
5342.6222825405
 10
6428.7275190401
 20
5336.9458952243
 10
6430.470186375
 20
5331.1988535063
 10
6431.8689395099
 20
5325.3937906313
 10
6432.9207036821
 20
5319.5434673875
 10
6433.6231668855
 20
5313.6607440549
 10
6433.9747849537
 20
5307.7585521362
 10
6433.9747849537
 20
5301.8498659303
 10
6433.6231668855
 20
5295.9476740116
 10
6432.9207036821
 20
5290.0649506791
 10
6431.8689395099
 20
5284.2146274352
 10
6430.470186375
 20
5278.4095645602
 10
6428.7275190401
 20
5272.6625228422
 10
6426.6447682665
 20
5266.9861355261
 10
6424.2265123922
 20
5261.3928805431
 10
6421.4780672685
 20
5255.8950530817
 10
6418.4054745743
 20
5250.5047385597
 10
6415.0154885351
 20
5245.2337860584
 10
6411.3155610761
 20
5240.0937822752
 10
6407.3138254408
 20
5235.0960260541
 10
6403.0190783125
 20
5230.2515035479
 10
6398.4407604775
 20
5225.5708640683
 10
6393.5889360721
 20
5221.0643966769
 10
6388.4742704593
 20
5216.742007567
 10
6383.1080067842
 20
5212.6131982879
 10
6377.5019412589
 20
5208.6870448586
 10
6371.6683972321
 20
5204.9721778162
 10
6365.6201980996
 20
5201.4767632449
 10
6359.3706391159
 20
5198.2084848244
 10
6352.9334581678
 20
5195.1745269401
 10
6346.3228055761
 20
5192.3815588897
 10
6339.5532129899
 20
5189.8357202233
 10
6332.639561443
 20
5187.5426072468
 10
6325.5970486419
 20
5185.5072607201
 10
6318.4411555581
 20
5183.7341547767
 10
6311.1876123977
 20
5182.2271870881
 10
6303.8523640228
 20
5180.9896702965
 10
6296.4515349012
 20
5180.0243247324
 10
6289.0013936616
 20
5179.3332724348
 10
6281.5183173313
 20
5178.9180324865
 10
6274.0187553361
 20
5178.7795176752
 10
6266.5191933409
 20
5178.9180324865
 10
6259.0361170106
 20
5179.3332724348
 10
6251.585975771
 20
5180.0243247324
 10
6244.1851466494
 20
5180.9896702965
 10
6236.8498982745
 20
5182.2271870881
 10
6229.5963551141
 20
5183.7341547767
 10
6222.4404620303
 20
5185.5072607201
 10
6215.3979492292
 20
5187.5426072468
 10
6208.4842976823
 20
5189.8357202233
 10
6201.7147050961
 20
5192.3815588897
 10
6195.1040525044
 20
5195.1745269401
 10
6188.6668715563
 20
5198.2084848244
 10
6182.4173125726
 20
5201.4767632449
 10
6176.3691134401
 20
5204.9721778162
 10
6170.5355694133
 20
5208.6870448586
 10
6164.929503888
 20
5212.6131982879
 10
6159.5632402129
 20
5216.742007567
 10
6154.4485746001
 20
5221.0643966769
 10
6149.5967501947
 20
5225.5708640683
 10
6145.0184323597
 20
5230.2515035479
 10
6140.7236852314
 20
5235.0960260541
 10
6136.7219495961
 20
5240.0937822752
 10
6133.0220221371
 20
5245.2337860584
 10
6129.6320360979
 20
5250.5047385597
 10
6126.5594434037
 20
5255.8950530817
 10
6123.81099828
 20
5261.3928805431
 10
6121.3927424057
 20
5266.9861355261
 10
6119.3099916321
 20
5272.6625228422
 10
6117.5673242972
 20
5278.4095645602
 10
6116.1685711623
 20
5284.2146274352
 10
6115.1168069901
 20
5290.0649506791
 10
6114.4143437867
 20
5295.9476740116
 10
6114.0627257185
 20
5301.8498659303
 10
6114.0627257185
 20
5307.7585521363
 10
6114.4143437867
 20
5313.6607440549
 10
6115.1168069901
 20
5319.5434673875
 10
6116.1685711623
 20
5325.3937906313
 10
6117.5673242972
 20
5331.1988535063
 10
6119.3099916321
 20
5336.9458952243
 10
6121.3927424057
 20
5342.6222825405
 10
6123.81099828
 20
5348.2155375234
 10
6126.5594434037
 20
5353.7133649848
 10
6129.6320360979
 20
5359.1036795068
 10
6133.0220221371
 20
5364.3746320081
 10
6136.7219495961
 20
5369.5146357913
 10
6140.7236852314
 20
5374.5123920124
 10
6145.0184323597
 20
5379.3569145187
 10
6149.5967501947
 20
5384.0375539982
 10
6154.4485746001
 20
5388.5440213896
 10
6159.5632402129
 20
5392.8664104995
 10
6164.929503888
 20
5396.9952197786
 10
6170.5355694134
 20
5400.921373208
 10
6176.3691134401
 20
5404.6362402503
 10
6182.4173125726
 20
5408.1316548216
 10
6188.6668715563
 20
5411.3999332421
 10
6195.1040525044
 20
5414.4338911265
 10
6201.7147050961
 20
5417.2268591768
 10
6208.4842976823
 20
5419.7726978432
 10
6215.3979492292
 20
5422.0658108197
 10
6222.4404620303
 20
5424.1011573464
 10
6229.5963551141
 20
5425.8742632899
 10
6236.8498982745
 20
5427.3812309784
 10
6244.1851466494
 20
5428.61874777
 10
6251.585975771
 20
5429.5840933341
 10
6259.0361170106
 20
5430.2751456318
 10
6266.5191933409
 20
5430.69038558
 10
6274.0187553361
 20
5430.8289003913
  0
LINE
  5
A7
330
1F
100
AcDbEntity
  8
0
  6
Continuous
 62
     7
370
    25
100
AcDbLine
 10
6448.6904597797
 20
5485.3921692692
 30
0.0
 11
6099.3470508925
 21
5485.3921692692
 31
0.0
  0
LWPOLYLINE
  5
A8
330
1F
100
AcDbEntity
  8
0
  6
Continuous
 62
     7
370
    25
100
AcDbPolyline
 90
       20
 70
   128
 43
0.0
 10
6260.0632546235
 20
5386.4450572708
 10
6260.1093148643
 20
5387.4287883093
 10
6260.5719802617
 20
5388.8816246088
 10
6261.4099121299
 20
5390.2919155508
 10
6262.6065145902
 20
5391.6165101186
 10
6264.1221744211
 20
5392.810699339
 10
6265.9264951848
 20
5393.8355476348
 10
6267.9595532102
 20
5394.6521502509
 10
6270.1672253102
 20
5395.2273813479
 10
6272.4844426559
 20
5395.5432727928
 10
6274.8365223139
 20
5395.5839924129
 10
6277.1654769523
 20
5395.3540206601
 10
6279.4000727918
 20
5394.8591916649
 10
6281.4837107094
 20
5394.1216674964
 10
6283.3611455797
 20
5393.1616441007
 10
6284.9763044221
 20
5392.0181905636
 10
6286.2837688907
 20
5390.7240063603
 10
6287.2449686003
 20
5389.3277856964
 10
6287.8264763051
 20
5387.8763849905
 10
6288.0147671313
 20
5386.442491607
  0
LINE
  5
A9
330
1F
100
AcDbEntity
  8
0
  6
Continuous
 62
     7
370
    25
100
AcDbLine
 10
6414.2536476023
 20
4937.3115821879
 30
0.0
 11
6133.7129596285
 21
4937.3115821879
 31
0.0
  0
LWPOLYLINE
  5
AA
330
1F
100
AcDbEntity
  8
0
  6
Continuous
 62
     7
370
    25
100
AcDbPolyline
 90
       40
 70
   128
 43
0.0
 10
6274.0187553361
 20
5368.8984842509
 10
6276.2645132681
 20
5369.010184073
 10
6278.4521072493
 20
5369.3423905728
 10
6280.5248797447
 20
5369.8864997762
 10
6282.4291470354
 20
5370.6284195409
 10
6284.1155895989
 20
5371.5489345345
 10
6285.5405294586
 20
5372.6242039022
 10
6286.6670614206
 20
5373.8263787324
 10
6287.4660088989
 20
5375.1243233282
 10
6287.9166795735
 20
5376.4844216066
 10
6288.0074013105
 20
5377.8714477364
 10
6287.7358244647
 20
5379.2494784696
 10
6287.1089827337
 20
5380.5828235339
 10
6286.1431109891
 20
5381.8369499925
 10
6284.8632248017
 20
5382.9793766291
 10
6283.3024725515
 20
5383.9805151936
 10
6281.5012769019
 20
5384.8144367233
 10
6279.5062878741
 20
5385.4595430885
 10
6277.3691746361
 20
5385.8991263732
 10
6275.1452872981
 20
5386.1218016013
 10
6272.8922233741
 20
5386.1218016013
 10
6270.6683360361
 20
5385.8991263732
 10
6268.5312227981
 20
5385.4595430885
 10
6266.5362337703
 20
5384.8144367233
 10
6264.7350381207
 20
5383.9805151936
 10
6263.1742858705
 20
5382.9793766291
 10
6261.8943996831
 20
5381.8369499925
 10
6260.9285279385
 20
5380.5828235339
 10
6260.3016862075
 20
5379.2494784696
 10
6260.0301093617
 20
5377.8714477364
 10
6260.1208310987
 20
5376.4844216066
 10
6260.5715017733
 20
5375.1243233282
 10
6261.3704492516
 20
5373.8263787324
 10
6262.4969812136
 20
5372.6242039022
 10
6263.9219210733
 20
5371.5489345345
 10
6265.6083636368
 20
5370.6284195409
 10
6267.5126309275
 20
5369.8864997762
 10
6269.5854034229
 20
5369.3423905728
 10
6271.7729974041
 20
5369.010184073
 10
6274.0187553361
 20
5368.8984842509
  0
ARC
  5
AB
330
1F
100
AcDbEntity
  8
0
  6
Continuous
 62
     7
370
    25
100
AcDbCircle
 10
6099.3470508925
 20
5482.3115821879
 30
0.0
 40
5.000000000000893
100
AcDbArc
 50
90.0
 51
183.6411852579
  0
LINE
  5
AC
330
1F
100
AcDbEntity
  8
0
  6
Continuous
 62
     7
370
    25
100
AcDbLine
 10
6099.3470508925
 20
5485.3921692692
 30
0.0
 11
6099.3470508925
 21
5487.3115821879
 31
0.0
  0
LINE
  5
AD
330
1F
100
AcDbEntity
  8
0
  6
Continuous
 62
     7
370
    25
100
AcDbLine
 10
6448.6904597797
 20
5485.3921692692
 30
0.0
 11
6448.6904597797
 21
5487.3115821879
 31
0.0
  0
ARC
  5
AE
330
1F
100
AcDbEntity
  8
0
  6
Continuous
 62
     7
370
    25
100
AcDbCircle
 10
6448.6904597797
 20
5482.3115821879
 30
0.0
 40
5.000000000000893
100
AcDbArc
 50
356.3588147421
 51
90.0
  0
LINE
  5
AF
330
1F
100
AcDbEntity
  8
0
  6
Continuous
 62
     7
370
    25
100
AcDbLine
 10
6099.3470508925
 20
5487.3115821879
 30
0.0
 11
6448.6904597797
 21
5487.3115821879
 31
0.0
  0
LINE
  5
B0
330
1F
100
AcDbEntity
  8
0
  6
Continuous
 62
     8
370
    25
100
AcDbLine
 10
6266.4687553361
 20
5458.2271446879
 30
0.0
 11
6266.4687553361
 21
5457.8405034518
 31
0.0
  0
LINE
  5
B1
330
1F
100
AcDbEntity
  8
0
  6
Continuous
 62
     8
370
    25
100
AcDbLine
 10
6281.5687553361
 20
5458.2271446879
 30
0.0
 11
6281.5687553361
 21
5457.8456930097
 31
0.0
  0
LINE
  5
B2
330
1F
100
AcDbEntity
  8
0
  6
Continuous
 62
     8
370
    25
100
AcDbLine
 10
6266.5187553361
 20
5468.5574950584
 30
0.0
 11
6266.5187553361
 21
5468.4473260057
 31
0.0
  0
LWPOLYLINE
  5
B3
330
1F
100
AcDbEntity
  8
0
  6
Continuous
 62
     8
370
    25
100
AcDbPolyline
 90
       33
 70
   128
 43
0.0
 10
6274.0187553361
 20
5409.7723243324
 10
6266.8479659473
 20
5409.6325789793
 10
6259.6947246818
 20
5409.2136849003
 10
6252.5765367195
 20
5408.5166671994
 10
6245.5108214594
 20
5407.5432315956
 10
6238.5148698905
 20
5406.2957602491
 10
6231.6058022788
 20
5404.7773059312
 10
6224.8005262704
 20
5402.9915845542
 10
6218.115695516
 20
5400.9429660775
 10
6211.5676689169
 20
5398.6364638137
 10
6205.1724705912
 20
5396.0777221605
 10
6198.945750661
 20
5393.2730027874
 10
6192.9027469532
 20
5390.2291693127
 10
6187.0582477108
 20
5386.953670507
 10
6181.4265554026
 20
5383.4545220647
 10
6176.0214517234
 20
5379.7402869885
 10
6170.8561638678
 20
5375.820054634
 10
6165.9433321605
 20
5371.7034184666
 10
6161.2949791242
 20
5367.4004525849
 10
6156.9224800575
 20
5362.9216870675
 10
6152.8365351984
 20
5358.2780822041
 10
6149.0471435387
 20
5353.4810016739
 10
6145.5635783547
 20
5348.5421847369
 10
6142.3943645143
 20
5343.4737175056
 10
6139.5472576146
 20
5338.2880033688
 10
6137.0292250035
 20
5332.997732638
 10
6134.8464287286
 20
5327.615851492
 10
6133.0042104583
 20
5322.1555302959
 10
6131.5070784093
 20
5316.6301313707
 10
6130.3586963146
 20
5311.0531762934
 10
6129.5618744577
 20
5305.4383128076
 10
6129.1185627951
 20
5299.7992814253
 10
6129.01876873
 20
5295.6115372823
  0
LWPOLYLINE
  5
B4
330
1F
100
AcDbEntity
  8
0
  6
Continuous
 62
     8
370
    25
100
AcDbPolyline
 90
       33
 70
   128
 43
0.0
 10
6419.018750322
 20
5295.5324124376
 10
6418.9189478771
 20
5299.7992814253
 10
6418.4756362145
 20
5305.4383128076
 10
6417.6788143576
 20
5311.0531762934
 10
6416.5304322629
 20
5316.6301313707
 10
6415.0333002139
 20
5322.1555302959
 10
6413.1910819436
 20
5327.615851492
 10
6411.0082856687
 20
5332.997732638
 10
6408.4902530576
 20
5338.2880033689
 10
6405.6431461579
 20
5343.4737175056
 10
6402.4739323175
 20
5348.5421847369
 10
6398.9903671335
 20
5353.4810016739
 10
6395.2009754738
 20
5358.2780822041
 10
6391.1150306147
 20
5362.9216870675
 10
6386.742531548
 20
5367.4004525849
 10
6382.0941785117
 20
5371.7034184666
 10
6377.1813468044
 20
5375.820054634
 10
6372.0160589488
 20
5379.7402869885
 10
6366.6109552696
 20
5383.4545220647
 10
6360.9792629614
 20
5386.953670507
 10
6355.134763719
 20
5390.2291693127
 10
6349.0917600112
 20
5393.2730027874
 10
6342.865040081
 20
5396.0777221605
 10
6336.4698417553
 20
5398.6364638137
 10
6329.9218151562
 20
5400.9429660775
 10
6323.2369844018
 20
5402.9915845542
 10
6316.4317083934
 20
5404.7773059312
 10
6309.5226407817
 20
5406.2957602491
 10
6302.5266892128
 20
5407.5432315956
 10
6295.4609739527
 20
5408.5166671994
 10
6288.3427859904
 20
5409.2136849003
 10
6281.1895447249
 20
5409.6325789793
 10
6274.0187553361
 20
5409.7723243324
  0
ELLIPSE
  5
B5
330
1F
100
AcDbEntity
  8
0
  6
Continuous
 62
     8
370
    25
100
AcDbEllipse
 10
6274.0187553361
 20
5230.9948904646
 30
0.0
 11
145.0
 21
0.0
 31
0.0
210
0.0
220
0.0
230
1.0
 40
0.999686789
 41
1.664268854821898
 42
2.887423343112241
  0
ELLIPSE
  5
B6
330
1F
100
AcDbEntity
  8
0
  6
Continuous
 62
     8
370
    25
100
AcDbEllipse
 10
6274.0187553361
 20
5230.9948904646
 30
0.0
 11
145.0
 21
0.0
 31
0.0
210
0.0
220
0.0
230
1.0
 40
0.999686789
 41
0.2556104444528667
 42
1.477323798767896
  0
ELLIPSE
  5
B7
330
1F
100
AcDbEntity
  8
0
  6
Continuous
 62
     8
370
    25
100
AcDbEllipse
 10
6274.0187553361
 20
5222.0363007578
 30
0.0
 11
0.0
 21
105.5718683515897
 31
0.0
210
0.0
220
0.0
230
1.0
 40
0.8998609334
 41
4.611462675942976
 42
7.954692157453711
  0
LINE
  5
B8
330
1F
100
AcDbEntity
  8
0
  6
Continuous
 62
     7
370
    25
100
AcDbLine
 10
6747.0582735833
 20
5458.4797979816
 30
0.0
 11
6744.667815515
 21
5468.8067389722
 31
0.0
  0
ARC
  5
B9
330
1F
100
AcDbEntity
  8
0
  6
Continuous
 62
     7
370
    25
100
AcDbCircle
 10
6728.1769956454
 20
5459.3440018423
 30
0.0
 40
20.00000000000037
100
AcDbArc
 50
308.0331586851
 51
348.5856667372
  0
ARC
  5
BA
330
1F
100
AcDbEntity
  8
0
  6
Continuous
 62
     7
370
    25
100
AcDbCircle
 10
6728.1769956454
 20
5459.3440018423
 30
0.0
 40
20.00000000000003
100
AcDbArc
 50
38.0331586851
 51
128.0331586851
  0
LINE
  5
BB
330
1F
100
AcDbEntity
  8
0
  6
Continuous
 62
     7
370
    25
100
AcDbLine
 10
6744.667815515
 20
5468.8067389722
 30
0.0
 11
6744.0377365097
 21
5471.5287230106
 31
0.0
  0
LINE
  5
BC
330
1F
100
AcDbEntity
  8
0
  6
Continuous
 62
     7
370
    25
100
AcDbLine
 10
6747.7702693238
 20
5455.4039280905
 30
0.0
 11
6747.1484795481
 21
5458.0901020952
 31
0.0
  0
LINE
  5
BD
330
1F
100
AcDbEntity
  8
0
  6
Continuous
 62
     7
370
    25
100
AcDbLine
 10
6785.8278034554
 20
4935.8115821879
 30
0.0
 11
6785.8278034554
 21
4937.3115821879
 31
0.0
  0
ARC
  5
BE
330
1F
100
AcDbEntity
  8
0
  6
Continuous
 62
     7
370
    25
100
AcDbCircle
 10
6949.1905621823
 20
5168.6814009306
 30
0.0
 40
5.000000000000305
100
AcDbArc
 50
325.5057804849
 51
38.031233329
  0
LINE
  5
BF
330
1F
100
AcDbEntity
  8
0
  6
Continuous
 62
     7
370
    25
100
AcDbLine
 10
6797.2860916642
 20
4939.4276301926
 30
0.0
 11
6953.3119865415
 21
5165.8505141979
 31
0.0
  0
ARC
  5
C0
330
1F
100
AcDbEntity
  8
0
  6
Continuous
 62
     7
370
    25
100
AcDbCircle
 10
6793.2012342797
 20
4942.3115821879
 30
0.0
 40
5.00000000000013
100
AcDbArc
 50
269.9999869727
 51
324.7556373179
  0
LWPOLYLINE
  5
C1
330
1F
100
AcDbEntity
  8
0
  6
Continuous
 62
     7
370
    25
100
AcDbPolyline
 90
       11
 70
   128
 43
0.0
 10
6745.9667942177
 20
5458.2271446879
 10
6745.2747050706
 20
5458.4049721558
 10
6744.4012830699
 20
5459.1621760038
 10
6743.4751872343
 20
5460.4794500392
 10
6742.7588011122
 20
5462.131206948
 10
6742.3944310909
 20
5463.7503684252
 10
6742.318852203
 20
5465.2289412365
 10
6742.4761042313
 20
5466.5942551547
 10
6742.8465221538
 20
5467.7537057883
 10
6743.3725866452
 20
5468.4607775218
 10
6743.5763361494
 20
5468.5540856785
  0
LINE
  5
C2
330
1F
100
AcDbEntity
  8
0
  6
Continuous
 62
     7
370
    25
100
AcDbLine
 10
6745.9667942177
 20
5458.2271446879
 30
0.0
 11
6745.3552065642
 21
5458.0855756945
 31
0.0
  0
LINE
  5
C3
330
1F
100
AcDbEntity
  8
0
  6
Continuous
 62
     7
370
    25
100
AcDbLine
 10
6745.9667942177
 20
5458.2271446879
 30
0.0
 11
6747.0582735833
 21
5458.4797979816
 31
0.0
  0
LINE
  5
C4
330
1F
100
AcDbEntity
  8
0
  6
Continuous
 62
     7
370
    25
100
AcDbLine
 10
6743.5763361494
 20
5468.5540856785
 30
0.0
 11
6744.667815515
 21
5468.8067389722
 31
0.0
  0
LWPOLYLINE
  5
C5
330
1F
100
AcDbEntity
  8
0
  6
Continuous
 62
     7
370
    25
100
AcDbPolyline
 90
       17
 70
   128
 43
0.0
 10
6744.0381516225
 20
5471.5269296953
 10
6743.9103122626
 20
5471.3333584028
 10
6743.526327409
 20
5470.7249378518
 10
6742.9471009075
 20
5469.7078302627
 10
6742.2268427452
 20
5468.1607490929
 10
6741.6600198532
 20
5466.3703186689
 10
6741.4145305249
 20
5464.5247094383
 10
6741.5083229378
 20
5462.9980233959
 10
6741.9118430407
 20
5461.4681137122
 10
6742.5137316201
 20
5460.2015893097
 10
6743.6654283994
 20
5458.6145983918
 10
6744.5885076719
 20
5457.6738919194
 10
6745.4608247142
 20
5456.9317658041
 10
6746.5108059746
 20
5456.1650507603
 10
6747.2799814443
 20
5455.6681981807
 10
6747.6993335673
 20
5455.4159254923
 10
6747.7340497158
 20
5455.395592478
  0
LINE
  5
C6
330
1F
100
AcDbEntity
  8
0
  6
Continuous
 62
     7
370
    25
100
AcDbLine
 10
6744.667815515
 20
5468.8067389722
 30
0.0
 11
6743.5910649018
 21
5468.5574950584
 31
0.0
  0
LWPOLYLINE
  5
C7
330
1F
100
AcDbEntity
  8
0
  6
Continuous
 62
     7
370
    25
100
AcDbPolyline
 90
       11
 70
   128
 43
0.0
 10
6743.5910649018
 20
5468.5574950584
 10
6743.0287267824
 20
5468.0771460971
 10
6742.5564382976
 20
5466.9751805878
 10
6742.2861830038
 20
5465.3238231228
 10
6742.3665228387
 20
5463.4526872359
 10
6742.7646452158
 20
5461.7789531618
 10
6743.3691271761
 20
5460.371981482
 10
6744.1411620571
 20
5459.1734659929
 10
6745.0205307175
 20
5458.2591646309
 10
6745.8369282983
 20
5457.8357173186
 10
6746.071728935
 20
5457.8408581813
  0
LINE
  5
C8
330
1F
100
AcDbEntity
  8
0
  6
Continuous
 62
     7
370
    25
100
AcDbLine
 10
6746.071728935
 20
5457.8408581813
 30
0.0
 11
6747.1484795481
 21
5458.0901020952
 31
0.0
  0
LINE
  5
C9
330
1F
100
AcDbEntity
  8
0
  6
Continuous
 62
     7
370
    25
100
AcDbLine
 10
6640.8278034554
 20
4937.3115821879
 30
0.0
 11
6640.8278034554
 21
4935.8115821879
 31
0.0
  0
LINE
  5
CA
330
1F
100
AcDbEntity
  8
0
  6
Continuous
 62
     7
370
    25
100
AcDbLine
 10
6662.983666529
 20
4937.3115821879
 30
0.0
 11
6662.983666529
 21
4935.8115821879
 31
0.0
  0
LINE
  5
CB
330
1F
100
AcDbEntity
  8
0
  6
Continuous
 62
     7
370
    25
100
AcDbLine
 10
6640.8278034554
 20
4935.8115821879
 30
0.0
 11
6662.983666529
 21
4935.8115821879
 31
0.0
  0
LINE
  5
CC
330
1F
100
AcDbEntity
  8
0
  6
Continuous
 62
     7
370
    25
100
AcDbLine
 10
6662.983666529
 20
4935.8115821879
 30
0.0
 11
6785.8278034554
 21
4935.8115821879
 31
0.0
  0
LINE
  5
CD
330
1F
100
AcDbEntity
  8
0
  6
Continuous
 62
     7
370
    25
100
AcDbLine
 10
6863.6988834005
 20
5277.6577856293
 30
0.0
 11
6703.8633776659
 21
5481.994042672
 31
0.0
  0
ARC
  5
CE
330
1F
100
AcDbEntity
  8
0
  6
Continuous
 62
     7
370
    25
100
AcDbCircle
 10
6688.6031279493
 20
5503.6611671416
 30
0.0
 40
26.50168870457703
100
AcDbArc
 50
305.1572026905
 51
316.421146889
  0
LINE
  5
CF
330
1F
100
AcDbEntity
  8
0
  6
Continuous
 62
     7
370
    25
100
AcDbLine
 10
6707.8016492708
 20
5485.3921692692
 30
0.0
 11
6953.1131780188
 21
5171.7820025957
 31
0.0
  0
LINE
  5
D0
330
1F
100
AcDbEntity
  8
0
  6
Continuous
 62
     7
370
    25
100
AcDbLine
 10
6703.8633776659
 20
5481.994042672
 30
0.0
 11
6635.8278034554
 21
5481.994042672
 31
0.0
  0
LINE
  5
D1
330
1F
100
AcDbEntity
  8
0
  6
Continuous
 62
     7
370
    25
100
AcDbLine
 10
6635.8278034554
 20
5481.994042672
 30
0.0
 11
6635.8278034554
 21
5487.3115821879
 31
0.0
  0
LINE
  5
D2
330
1F
100
AcDbEntity
  8
0
  6
Continuous
 62
     7
370
    25
100
AcDbLine
 10
6635.8278034554
 20
5487.3115821879
 30
0.0
 11
6703.8633776659
 21
5487.3115821879
 31
0.0
  0
LINE
  5
D3
330
1F
100
AcDbEntity
  8
0
  6
Continuous
 62
     7
370
    25
100
AcDbLine
 10
6703.8633776659
 20
5481.994042672
 30
0.0
 11
6703.8633776659
 21
5487.3115821879
 31
0.0
  0
ARC
  5
D4
330
1F
100
AcDbEntity
  8
0
  6
Continuous
 62
     7
370
    25
100
AcDbCircle
 10
6634.5828450226
 20
5501.9147869945
 30
0.0
 40
19.95960860995302
100
AcDbArc
 50
259.1562087115
 51
273.5760820051
  0
ARC
  5
D5
330
1F
100
AcDbEntity
  8
0
  6
Continuous
 62
     7
370
    25
100
AcDbCircle
 10
6635.8278034554
 20
5482.3115821879
 30
0.0
 40
5.0
100
AcDbArc
 50
90.0
 51
180.0
  0
ARC
  5
D6
330
1F
100
AcDbEntity
  8
0
  6
Continuous
 62
     7
370
    25
100
AcDbCircle
 10
6703.8633776659
 20
5482.3115821879
 30
0.0
 40
5.0
100
AcDbArc
 50
38.0331586851
 51
90.0
  0
LINE
  5
D7
330
1F
100
AcDbEntity
  8
0
  6
Continuous
 62
     7
370
    25
100
AcDbLine
 10
6635.8278034554
 20
5481.994042672
 30
0.0
 11
6635.8278034554
 21
4941.994042672
 31
0.0
  0
LINE
  5
D8
330
1F
100
AcDbEntity
  8
0
  6
Continuous
 62
     7
370
    25
100
AcDbLine
 10
6650.8278045733
 20
4941.994042672
 30
0.0
 11
6653.7564696329
 21
4941.994042672
 31
0.0
  0
LINE
  5
D9
330
1F
100
AcDbEntity
  8
0
  6
Continuous
 62
     7
370
    25
100
AcDbLine
 10
6635.8278034554
 20
4941.994042672
 30
0.0
 11
6650.8278045733
 21
4941.994042672
 31
0.0
  0
ARC
  5
DA
330
1F
100
AcDbEntity
  8
0
  6
Continuous
 62
     7
370
    25
100
AcDbCircle
 10
6588.17601916
 20
4987.7746007748
 30
0.0
 40
66.07989139479542
100
AcDbArc
 50
310.2114707984
 51
316.1473439437
  0
LINE
  5
DB
330
1F
100
AcDbEntity
  8
0
  6
Continuous
 62
     7
370
    25
100
AcDbLine
 10
6630.8278034554
 20
4937.3115821879
 30
0.0
 11
6630.8278034554
 21
5482.3115821879
 31
0.0
  0
LINE
  5
DC
330
1F
100
AcDbEntity
  8
0
  6
Continuous
 62
     7
370
    25
100
AcDbLine
 10
6793.0861066984
 20
4937.3115821879
 30
0.0
 11
6650.8278045733
 21
4937.3115821879
 31
0.0
  0
LINE
  5
DD
330
1F
100
AcDbEntity
  8
0
  6
Continuous
 62
     7
370
    25
100
AcDbLine
 10
6650.8278045733
 20
4937.3115821879
 30
0.0
 11
6650.8278045733
 21
4941.994042672
 31
0.0
  0
LINE
  5
DE
330
1F
100
AcDbEntity
  8
0
  6
Continuous
 62
     7
370
    25
100
AcDbLine
 10
6650.8278045733
 20
4937.3115821879
 30
0.0
 11
6630.8378967774
 21
4937.3115821879
 31
0.0
  0
LWPOLYLINE
  5
DF
330
1F
100
AcDbEntity
  8
0
  6
Continuous
 62
     8
370
    25
100
AcDbPolyline
 90
       22
 70
   128
 43
0.0
 10
6953.2914473974
 20
5165.8647262814
 10
6953.2015720414
 20
5165.977535651
 10
6952.4799862774
 20
5166.8832114062
 10
6951.0789155758
 20
5168.6414040274
 10
6948.9385770303
 20
5171.3266505822
 10
6946.0936257976
 20
5174.8944602922
 10
6942.944653088
 20
5178.841897519
 10
6939.2440317883
 20
5183.4785223973
 10
6934.8926964041
 20
5188.9271523591
 10
6929.9901181665
 20
5195.0620899737
 10
6925.1253463096
 20
5201.14553665
 10
6919.8478416068
 20
5207.7405746639
 10
6914.0364296853
 20
5214.9974175738
 10
6907.8403221918
 20
5222.7287376883
 10
6901.4143676744
 20
5230.7405909115
 10
6894.6817442773
 20
5239.1282302388
 10
6887.4680026417
 20
5248.1085383324
 10
6880.0204489949
 20
5257.373108353
 10
6871.9630202675
 20
5267.3899529625
 10
6863.6989209758
 20
5277.6577389467
 10
6863.6988834005
 20
5277.6577856293
 10
6863.6988834005
 20
5277.6577856293
  0
LWPOLYLINE
  5
E0
330
1F
100
AcDbEntity
  8
0
  6
Continuous
 62
     8
370
    25
100
AcDbPolyline
 90
       21
 70
   128
 43
0.0
 10
6653.7564696329
 20
4941.994042672
 10
6653.7565296186
 20
4941.9940413663
 10
6664.2683510395
 20
4941.7679352768
 10
6676.1832515043
 20
4941.5175729241
 10
6687.9365086053
 20
4941.2771579997
 10
6699.7847179445
 20
4941.0420054394
 10
6711.2853188446
 20
4940.8215578927
 10
6722.0869861039
 20
4940.6222318986
 10
6732.4022452107
 20
4940.4393726181
 10
6742.4377694721
 20
4940.2690997699
 10
6751.8102566122
 20
4940.1167915841
 10
6760.2163781246
 20
4939.9862764379
 10
6767.8767794714
 20
4939.8718332333
 10
6774.9224557738
 20
4939.7706053387
 10
6781.0755943267
 20
4939.6856661862
 10
6786.1566215876
 20
4939.6173976673
 10
6790.317199684
 20
4939.5629940075
 10
6793.6061508717
 20
4939.5209711906
 10
6795.8697869864
 20
4939.4925040747
 10
6797.0670967119
 20
4939.4775999093
 10
6797.2162515683
 20
4939.4757563504
  0
LINE
  5
E1
330
1F
100
AcDbEntity
  8
0
  6
Continuous
 62
     7
370
    25
100
AcDbLine
 10
6261.1687553361
 20
4674.8542289603
 30
0.0
 11
6261.1687553361
 21
4674.8183187022
 31
0.0
  0
LINE
  5
E2
330
1F
100
AcDbEntity
  8
0
  6
Continuous
 62
     7
370
    25
100
AcDbLine
 10
6286.8687553361
 20
4674.8183187022
 30
0.0
 11
6286.8687553361
 21
4674.8542289603
 31
0.0
  0
ARC
  5
E3
330
1F
100
AcDbEntity
  8
0
  6
Continuous
 62
     7
370
    25
100
AcDbCircle
 10
6274.0187553361
 20
4689.2303952758
 30
0.0
 40
20.00000000000091
100
AcDbArc
 50
311.7100462447
 51
0.0
  0
ARC
  5
E4
330
1F
100
AcDbEntity
  8
0
  6
Continuous
 62
     7
370
    25
100
AcDbCircle
 10
6274.0187553361
 20
4689.2303952758
 30
0.0
 40
20.0
100
AcDbArc
 50
180.0
 51
228.510369642
  0
LWPOLYLINE
  5
E5
330
1F
100
AcDbEntity
  8
0
  6
Continuous
 62
     7
370
    25
100
AcDbPolyline
 90
       75
 70
   128
 43
0.0
 10
6094.363515289
 20
4713.13858399
 10
6104.0626934132
 20
4593.9163086624
 10
6107.1199831272
 20
4556.3361104874
 10
6107.4708875334
 20
4552.4991678644
 10
6108.0815269614
 20
4548.4228755903
 10
6109.0468091237
 20
4544.0479922263
 10
6110.3147295009
 20
4539.7784226911
 10
6111.8746810468
 20
4535.632587605
 10
6113.7158881359
 20
4531.6231986253
 10
6115.8274322652
 20
4527.7601616529
 10
6118.1625254699
 20
4524.077678993
 10
6120.9458339974
 20
4520.2165510071
 10
6124.0244022055
 20
4516.4304608626
 10
6127.4083090487
 20
4512.7083257791
 10
6131.0893122215
 20
4509.0634172917
 10
6135.0572203889
 20
4505.5090541151
 10
6139.2975355241
 20
4502.0600107727
 10
6143.7990669426
 20
4498.7242090025
 10
6148.5716006291
 20
4495.4952740081
 10
6153.6023942952
 20
4492.383918721
 10
6158.8835210189
 20
4489.3965308584
 10
6164.4059516838
 20
4486.5396664557
 10
6170.1595118594
 20
4483.8199898971
 10
6176.1328194135
 20
4481.2442231203
 10
6182.3132467124
 20
4478.8190792069
 10
6188.6869144759
 20
4476.5511823445
 10
6195.2387225677
 20
4474.4469774295
 10
6201.9524207229
 20
4472.5126335619
 10
6208.8064538323
 20
4470.7545251055
 10
6215.7974013403
 20
4469.172711019
 10
6222.9238480966
 20
4467.7685339678
 10
6230.1631659218
 20
4466.5476080587
 10
6237.5015378478
 20
4465.5130006643
 10
6244.9243942004
 20
4464.6674922442
 10
6252.4165233665
 20
4464.0135158266
 10
6259.962177892
 20
4463.5531080591
 10
6267.5451984408
 20
4463.2878685735
 10
6275.1491518465
 20
4463.2189294661
 10
6282.757478777
 20
4463.3469362691
 10
6290.351783741
 20
4463.6721352644
 10
6297.8766690969
 20
4464.1920104881
 10
6305.3496388113
 20
4464.9058007131
 10
6312.7725235147
 20
4465.8135293395
 10
6320.123754874
 20
4466.9130400338
 10
6327.3839952186
 20
4468.2017050155
 10
6334.5342813414
 20
4469.6762857744
 10
6341.556237548
 20
4471.3329830202
 10
6348.4322682233
 20
4473.1675024163
 10
6355.1457230696
 20
4475.1751331962
 10
6361.6810288277
 20
4477.3508359179
 10
6368.0253870393
 20
4479.6901249242
 10
6374.1669062017
 20
4482.1928621773
 10
6380.0271522434
 20
4484.8205320918
 10
6385.7254145018
 20
4487.6210054033
 10
6391.234677558
 20
4490.5838198569
 10
6396.5269624674
 20
4493.6960869524
 10
6401.5772718981
 20
4496.9444241
 10
6406.3647939477
 20
4500.3160695514
 10
6410.8711352702
 20
4503.7981094031
 10
6415.0804143094
 20
4507.377681078
 10
6418.9792604294
 20
4511.0421289985
 10
6422.5567396208
 20
4514.7791049694
 10
6425.8043927167
 20
4518.5766970283
 10
6428.7216928234
 20
4522.4236005958
 10
6431.3491355649
 20
4526.3627824384
 10
6433.6784182178
 20
4530.3845987162
 10
6435.6905822305
 20
4534.4592060467
 10
6437.373206057
 20
4538.5600471875
 10
6438.7182761095
 20
4542.6613404932
 10
6439.5998264161
 20
4546.2134608335
 10
6440.2372243164
 20
4549.9104561102
 10
6440.6808107
 20
4553.6964953342
 10
6441.0628005289
 20
4558.1218056733
 10
6441.5218839742
 20
4563.7648583332
 10
6453.6739953832
 20
4713.13858399
  0
LINE
  5
E6
330
1F
100
AcDbEntity
  8
0
  6
Continuous
 62
     7
370
    25
100
AcDbLine
 10
6453.6904597797
 20
4713.5440132554
 30
0.0
 11
6453.6904597797
 21
4781.5795874658
 31
0.0
  0
ARC
  5
E7
330
1F
100
AcDbEntity
  8
0
  6
Continuous
 62
     7
370
    25
100
AcDbCircle
 10
6099.3470508925
 20
4781.5795874658
 30
0.0
 40
5.0
100
AcDbArc
 50
90.0
 51
180.0
  0
ARC
  5
E8
330
1F
100
AcDbEntity
  8
0
  6
Continuous
 62
     7
370
    25
100
AcDbCircle
 10
6448.6904597797
 20
4781.5795874658
 30
0.0
 40
5.000000000000909
100
AcDbArc
 50
0.0
 51
90.0
  0
LINE
  5
E9
330
1F
100
AcDbEntity
  8
0
  6
Continuous
 62
     7
370
    25
100
AcDbLine
 10
6094.3470508925
 20
4781.5795874658
 30
0.0
 11
6094.3470508925
 21
4713.5440132554
 31
0.0
  0
ARC
  5
EA
330
1F
100
AcDbEntity
  8
0
  6
Continuous
 62
     7
370
    25
100
AcDbCircle
 10
6448.6904597797
 20
4713.5440132554
 30
0.0
 40
5.000000000000909
100
AcDbArc
 50
355.3490166764
 51
0.0
  0
ARC
  5
EB
330
1F
100
AcDbEntity
  8
0
  6
Continuous
 62
     7
370
    25
100
AcDbCircle
 10
6099.3470508925
 20
4713.5440132554
 30
0.0
 40
5.000000000000909
100
AcDbArc
 50
180.0
 51
184.6509833236
  0
LWPOLYLINE
  5
EC
330
1F
100
AcDbEntity
  8
0
  6
Continuous
 62
     7
370
    25
100
AcDbPolyline
 90
       35
 70
   128
 43
0.0
 10
6129.0214093221
 20
4580.155554974
 10
6129.1704920719
 20
4583.8863971341
 10
6129.6388807201
 20
4587.6883917145
 10
6130.4215474347
 20
4591.4733455034
 10
6131.5120337795
 20
4595.2251869516
 10
6132.9021070725
 20
4598.9328994733
 10
6134.5837897929
 20
4602.5900624283
 10
6136.5504016148
 20
4606.193117737
 10
6138.7966960184
 20
4609.7396063781
 10
6141.318504175
 20
4613.2269479694
 10
6144.1122300858
 20
4616.6518000524
 10
6147.1743789877
 20
4620.0098326732
 10
6150.5011846713
 20
4623.2957457896
 10
6154.0883431765
 20
4626.5034069109
 10
6157.9308382234
 20
4629.6260352645
 10
6162.0228386081
 20
4632.6563926007
 10
6166.3576492282
 20
4635.5869610954
 10
6170.9277006891
 20
4638.4101001565
 10
6175.7240844784
 20
4641.1179202049
 10
6180.7375338594
 20
4643.7029730824
 10
6185.9581174863
 20
4646.1580669339
 10
6191.3751769104
 20
4648.4762710717
 10
6196.9773808196
 20
4650.6509779875
 10
6202.7527813968
 20
4652.6759525784
 10
6208.6888709222
 20
4654.5453707859
 10
6214.7726374498
 20
4656.2538496256
 10
6220.9906188471
 20
4657.7964703017
 10
6227.3289548209
 20
4659.1687958304
 10
6233.7734367851
 20
4660.366884352
 10
6240.3095555897
 20
4661.3872990943
 10
6246.9225472392
 20
4662.2271157644
 10
6253.5974367931
 20
4662.8839279884
 10
6260.3190806855
 20
4663.3558512864
 10
6267.0722077213
 20
4663.6415259622
 10
6274.0187553361
 20
4663.7401834279
  0
LWPOLYLINE
  5
ED
330
1F
100
AcDbEntity
  8
0
  6
Continuous
 62
     7
370
    25
100
AcDbPolyline
 90
       36
 70
   128
 43
0.0
 10
6274.0187553361
 20
4663.7401834279
 10
6277.5429689782
 20
4663.7148006884
 10
6284.306345936
 20
4663.5236596621
 10
6291.0468394857
 20
4663.1457143789
 10
6297.7486370644
 20
4662.582035383
 10
6304.396479608
 20
4661.8342167185
 10
6310.9752396184
 20
4660.9043821498
 10
6317.4699611365
 20
4659.7951842781
 10
6323.8659009646
 20
4658.5098029972
 10
6330.1485713792
 20
4657.0519430281
 10
6336.303784661
 20
4655.4258301695
 10
6342.3176997716
 20
4653.6362057737
 10
6348.1768714888
 20
4651.6883188042
 10
6353.8683022701
 20
4649.5879146371
 10
6359.3794970295
 20
4647.3412195372
 10
6364.6985208813
 20
4644.954919454
 10
6369.8140596824
 20
4642.4361314512
 10
6374.7154828853
 20
4639.792365698
 10
6379.3929077404
 20
4637.0314755196
 10
6383.8372632292
 20
4634.1615925422
 10
6388.040351196
 20
4631.1910435234
 10
6391.994520097
 20
4628.1285540773
 10
6395.6932372621
 20
4624.9827987604
 10
6399.1311695916
 20
4621.7621586649
 10
6402.3040060128
 20
4618.4746509581
 10
6405.2084217532
 20
4615.1276998039
 10
6407.8419853154
 20
4611.7278749636
 10
6410.2029879323
 20
4608.2806094179
 10
6412.2901730933
 20
4604.7899222689
 10
6414.102346253
 20
4601.2581981112
 10
6415.6378582986
 20
4597.686112852
 10
6416.8939921486
 20
4594.0728487754
 10
6417.8663562353
 20
4590.416793694
 10
6418.5485123654
 20
4586.7169168443
 10
6418.9322068512
 20
4582.9748395375
 10
6418.9890314001
 20
4580.164454923
  0
ARC
  5
EE
330
1F
100
AcDbEntity
  8
0
  6
Continuous
 62
     7
370
    25
100
AcDbCircle
 10
6274.0187553361
 20
4699.3929103959
 30
0.0
 40
26.65353565558877
100
AcDbArc
 50
253.544863717
 51
286.455136283
  0
LWPOLYLINE
  5
EF
330
1F
100
AcDbEntity
  8
0
  6
Continuous
 62
     7
370
    25
100
AcDbPolyline
 90
       11
 70
   128
 43
0.0
 10
6281.5687553361
 20
4673.8310547718
 10
6283.4078774669
 20
4674.3746094219
 10
6285.0039597486
 20
4674.8264683927
 10
6286.2183767266
 20
4675.0795424394
 10
6286.8120732315
 20
4674.997261666
 10
6286.7940785179
 20
4674.6130925371
 10
6286.322198843
 20
4674.0312825918
 10
6285.422237396
 20
4673.2900911054
 10
6284.047150431
 20
4672.4478742963
 10
6282.2576037542
 20
4671.6646226867
 10
6281.5687553361
 20
4671.4405967035
  0
ARC
  5
F0
330
1F
100
AcDbEntity
  8
0
  6
Continuous
 62
     7
370
    25
100
AcDbCircle
 10
6274.0187553361
 20
4697.0024523275
 30
0.0
 40
26.65353565558092
100
AcDbArc
 50
253.544863717
 51
286.455136283
  0
LWPOLYLINE
  5
F1
330
1F
100
AcDbEntity
  8
0
  6
Continuous
 62
     7
370
    25
100
AcDbPolyline
 90
       11
 70
   128
 43
0.0
 10
6266.4687553361
 20
4671.4405967035
 10
6264.6296332053
 20
4672.1326858506
 10
6263.0335509236
 20
4673.0061078514
 10
6261.8191339456
 20
4673.932203687
 10
6261.2254374407
 20
4674.648589809
 10
6261.2434321543
 20
4675.0129598303
 10
6261.7153118292
 20
4675.0885387182
 10
6262.6152732762
 20
4674.93128669
 10
6263.9903602412
 20
4674.5608687674
 10
6265.779906918
 20
4674.0348042761
 10
6266.4687553361
 20
4673.8310547718
  0
LWPOLYLINE
  5
F2
330
1F
100
AcDbEntity
  8
0
  6
Continuous
 62
     7
370
    25
100
AcDbPolyline
 90
       32
 70
   128
 43
0.0
 10
6274.0187553358
 20
4673.3692392987
 10
6271.0661162641
 20
4673.4970786587
 10
6268.1134771921
 20
4673.8810635122
 10
6265.3911802991
 20
4674.4602900137
 10
6262.8443755147
 20
4675.1805481761
 10
6261.0249518104
 20
4675.7473710681
 10
6259.9500688616
 20
4675.9928603963
 10
6259.5645573608
 20
4675.8990679834
 10
6259.6367486683
 20
4675.4955478805
 10
6260.1003306648
 20
4674.8936593012
 10
6261.3863992046
 20
4673.7419625219
 10
6262.7106606314
 20
4672.8188832493
 10
6264.2488848141
 20
4671.946566207
 10
6266.6862476591
 20
4670.8965849467
 10
6269.3750067417
 20
4670.1274094769
 10
6272.1617313047
 20
4669.7080573539
 10
6275.0573412564
 20
4669.6538500347
 10
6278.1498461036
 20
4670.0224339863
 10
6281.2121613421
 20
4670.8473449463
 10
6283.3095716851
 20
4671.7105099987
 10
6285.2690843375
 20
4672.7826392083
 10
6287.1500967533
 20
4674.1469813193
 10
6288.1268535588
 20
4675.1098024283
 10
6288.4824598684
 20
4675.6778175758
 10
6288.383099441
 20
4675.9670495448
 10
6287.8981578351
 20
4675.9688396517
 10
6286.5590154246
 20
4675.6093086782
 10
6285.1857376582
 20
4675.1782606637
 10
6283.5949013362
 20
4674.7105827584
 10
6281.1100121621
 20
4674.107253033
 10
6278.3757312246
 20
4673.6477399746
 10
6274.0187553358
 20
4673.3692392987
  0
LWPOLYLINE
  5
F3
330
1F
100
AcDbEntity
  8
0
  6
Continuous
 62
     7
370
    25
100
AcDbPolyline
 90
       26
 70
   128
 43
0.0
 10
6254.0187553361
 20
4689.2303952758
 10
6254.0299240615
 20
4689.6421462618
 10
6254.2973502563
 20
4691.2799635197
 10
6254.916705392
 20
4692.8812061838
 10
6255.8769370614
 20
4694.4173000407
 10
6257.1609099078
 20
4695.8608334592
 10
6258.7457114052
 20
4697.1860465513
 10
6260.6030607333
 20
4698.3692908579
 10
6262.6998134495
 20
4699.3894513563
 10
6264.9985529518
 20
4700.2283232582
 10
6267.4582581793
 20
4700.8709368748
 10
6270.035035634
 20
4701.3058247508
 10
6272.6829026612
 20
4701.5252263017
 10
6275.354608011
 20
4701.5252263017
 10
6278.0024750382
 20
4701.3058247508
 10
6280.5792524929
 20
4700.8709368748
 10
6283.0389577204
 20
4700.2283232582
 10
6285.3376972227
 20
4699.3894513563
 10
6287.4344499389
 20
4698.3692908579
 10
6289.291799267
 20
4697.1860465513
 10
6290.8766007644
 20
4695.8608334592
 10
6292.1605736108
 20
4694.4173000407
 10
6293.1208052802
 20
4692.8812061838
 10
6293.7401604159
 20
4691.2799635197
 10
6294.0075866107
 20
4689.6421462618
 10
6294.0187553361
 20
4689.2303952758
  0
LWPOLYLINE
  5
F4
330
1F
100
AcDbEntity
  8
0
  6
Continuous
 62
     7
370
    25
100
AcDbPolyline
 90
       11
 70
   128
 43
0.0
 10
6266.5187553361
 20
4673.8163260194
 10
6264.6118301393
 20
4674.3786641388
 10
6262.9579881152
 20
4674.8509526237
 10
6261.6959138838
 20
4675.1212079175
 10
6261.0776673617
 20
4675.0408680826
 10
6261.0958323933
 20
4674.6427457054
 10
6261.5820252052
 20
4674.0382637452
 10
6262.5106865017
 20
4673.2662288641
 10
6263.9351513487
 20
4672.3868602038
 10
6265.7941380294
 20
4671.5704626229
 10
6266.5187553361
 20
4671.3356619863
  0
LWPOLYLINE
  5
F5
330
1F
100
AcDbEntity
  8
0
  6
Continuous
 62
     7
370
    25
100
AcDbPolyline
 90
       11
 70
   128
 43
0.0
 10
6281.5187553361
 20
4671.3356619863
 10
6283.4256805329
 20
4672.0518731717
 10
6285.079522557
 20
4672.9603392801
 10
6286.3415967884
 20
4673.9287307524
 10
6286.9598433105
 20
4674.6787606049
 10
6286.9416782789
 20
4675.0565902721
 10
6286.455485467
 20
4675.1318316294
 10
6285.5268241705
 20
4674.9649645573
 10
6284.1023593235
 20
4674.5767941872
 10
6282.2433726428
 20
4674.0295031081
 10
6281.5187553361
 20
4673.8163260194
  0
ARC
  5
F6
330
1F
100
AcDbEntity
  8
0
  6
Continuous
 62
     7
370
    25
100
AcDbCircle
 10
6274.0187553361
 20
4696.9127074422
 30
0.0
 40
26.65399133812133
100
AcDbArc
 50
253.6571914798
 51
286.3428085202
  0
ARC
  5
F7
330
1F
100
AcDbEntity
  8
0
  6
Continuous
 62
     7
370
    25
100
AcDbCircle
 10
6274.0187553361
 20
4699.3933714753
 30
0.0
 40
26.65399133807507
100
AcDbArc
 50
253.6571914798
 51
286.3428085202
  0
CIRCLE
  5
F8
330
1F
100
AcDbEntity
  8
0
  6
Continuous
 62
     7
370
    25
100
AcDbCircle
 10
6274.0187553361
 20
4636.7568209832
 30
0.0
 40
2.5
  0
LWPOLYLINE
  5
F9
330
1F
100
AcDbEntity
  8
0
  6
Continuous
 62
     7
370
    25
100
AcDbPolyline
 90
      135
 70
   128
 43
0.0
 10
6274.0187553361
 20
4666.9253686131
 10
6281.5183173313
 20
4666.8170198294
 10
6289.0013936616
 20
4666.4922116525
 10
6296.4515349012
 20
4665.9516580812
 10
6303.8523640228
 20
4665.1965473697
 10
6311.1876123977
 20
4664.228539415
 10
6318.4411555581
 20
4663.0497621089
 10
6325.5970486419
 20
4661.6628066596
 10
6332.639561443
 20
4660.0707218963
 10
6339.5532129899
 20
4658.2770075667
 10
6346.3228055761
 20
4656.2856066442
 10
6352.9334581678
 20
4654.1008966604
 10
6359.3706391159
 20
4651.7276800818
 10
6365.6201980996
 20
4649.1711737535
 10
6371.6683972321
 20
4646.4369974314
 10
6377.5019412589
 20
4643.5311614283
 10
6383.1080067842
 20
4640.4600534025
 10
6388.4742704593
 20
4637.2304243158
 10
6393.5889360721
 20
4633.849373594
 10
6398.4407604775
 20
4630.3243335203
 10
6403.0190783125
 20
4626.6630528979
 10
6407.3138254408
 20
4622.8735800161
 10
6411.3155610761
 20
4618.9642449588
 10
6415.0154885351
 20
4614.9436412928
 10
6418.4054745743
 20
4610.8206071776
 10
6421.4780672685
 20
4606.6042059371
 10
6424.2265123922
 20
4602.3037061361
 10
6426.6447682665
 20
4597.9285612067
 10
6428.7275190401
 20
4593.4883886668
 10
6430.470186375
 20
4588.9929489794
 10
6431.8689395099
 20
4584.4521240966
 10
6432.9207036821
 20
4579.8758957369
 10
6433.6231668855
 20
4575.2743234434
 10
6433.9747849537
 20
4570.6575224708
 10
6433.9747849537
 20
4566.0356415495
 10
6433.6231668855
 20
4561.4188405768
 10
6432.9207036821
 20
4556.8172682834
 10
6431.8689395099
 20
4552.2410399237
 10
6430.470186375
 20
4547.7002150408
 10
6428.7275190401
 20
4543.2047753535
 10
6426.6447682665
 20
4538.7646028136
 10
6424.2265123922
 20
4534.3894578842
 10
6421.4780672685
 20
4530.0889580832
 10
6418.4054745743
 20
4525.8725568426
 10
6415.0154885351
 20
4521.7495227275
 10
6411.3155610761
 20
4517.7289190615
 10
6407.3138254408
 20
4513.8195840042
 10
6403.0190783125
 20
4510.0301111224
 10
6398.4407604775
 20
4506.3688304999
 10
6393.5889360721
 20
4502.8437904262
 10
6388.4742704593
 20
4499.4627397044
 10
6383.1080067842
 20
4496.2331106178
 10
6377.5019412589
 20
4493.1620025919
 10
6371.6683972321
 20
4490.2561665888
 10
6365.6201980996
 20
4487.5219902667
 10
6359.3706391159
 20
4484.9654839385
 10
6352.9334581678
 20
4482.5922673599
 10
6346.3228055761
 20
4480.407557376
 10
6339.5532129899
 20
4478.4161564536
 10
6332.639561443
 20
4476.622442124
 10
6325.5970486419
 20
4475.0303573606
 10
6318.4411555581
 20
4473.6434019114
 10
6311.1876123977
 20
4472.4646246052
 10
6303.8523640228
 20
4471.4966166506
 10
6296.4515349012
 20
4470.741505939
 10
6289.0013936616
 20
4470.2009523677
 10
6281.5183173313
 20
4469.8761441908
 10
6274.0187553361
 20
4469.7677954072
 10
6266.5191933409
 20
4469.8761441908
 10
6259.0361170106
 20
4470.2009523677
 10
6251.585975771
 20
4470.741505939
 10
6244.1851466494
 20
4471.4966166506
 10
6236.8498982745
 20
4472.4646246052
 10
6229.5963551141
 20
4473.6434019114
 10
6222.4404620303
 20
4475.0303573606
 10
6215.3979492292
 20
4476.622442124
 10
6208.4842976823
 20
4478.4161564536
 10
6201.7147050961
 20
4480.407557376
 10
6195.1040525044
 20
4482.5922673599
 10
6188.6668715563
 20
4484.9654839385
 10
6182.4173125726
 20
4487.5219902667
 10
6176.3691134401
 20
4490.2561665889
 10
6170.5355694133
 20
4493.1620025919
 10
6164.929503888
 20
4496.2331106178
 10
6159.5632402129
 20
4499.4627397044
 10
6154.4485746001
 20
4502.8437904262
 10
6149.5967501947
 20
4506.3688304999
 10
6145.0184323597
 20
4510.0301111224
 10
6140.7236852314
 20
4513.8195840042
 10
6136.7219495961
 20
4517.7289190615
 10
6133.0220221371
 20
4521.7495227275
 10
6129.6320360979
 20
4525.8725568426
 10
6126.5594434037
 20
4530.0889580832
 10
6123.81099828
 20
4534.3894578842
 10
6121.3927424057
 20
4538.7646028136
 10
6119.3099916321
 20
4543.2047753535
 10
6117.5673242972
 20
4547.7002150408
 10
6116.1685711623
 20
4552.2410399237
 10
6115.1168069901
 20
4556.8172682834
 10
6114.4143437867
 20
4561.4188405768
 10
6114.0627257185
 20
4566.0356415495
 10
6114.0627257185
 20
4570.6575224708
 10
6114.4143437867
 20
4575.2743234434
 10
6115.1168069901
 20
4579.8758957369
 10
6116.1685711623
 20
4584.4521240966
 10
6117.5673242972
 20
4588.9929489794
 10
6119.3099916321
 20
4593.4883886668
 10
6121.3927424057
 20
4597.9285612067
 10
6123.81099828
 20
4602.3037061361
 10
6126.5594434037
 20
4606.6042059371
 10
6129.6320360979
 20
4610.8206071776
 10
6133.0220221371
 20
4614.9436412928
 10
6136.7219495961
 20
4618.9642449588
 10
6140.7236852314
 20
4622.8735800161
 10
6145.0184323597
 20
4626.6630528979
 10
6149.5967501947
 20
4630.3243335203
 10
6154.4485746001
 20
4633.849373594
 10
6159.5632402129
 20
4637.2304243158
 10
6164.929503888
 20
4640.4600534025
 10
6170.5355694134
 20
4643.5311614283
 10
6176.3691134401
 20
4646.4369974314
 10
6182.4173125726
 20
4649.1711737535
 10
6188.6668715563
 20
4651.7276800818
 10
6195.1040525044
 20
4654.1008966604
 10
6201.7147050961
 20
4656.2856066442
 10
6208.4842976823
 20
4658.2770075667
 10
6215.3979492292
 20
4660.0707218963
 10
6222.4404620303
 20
4661.6628066596
 10
6229.5963551141
 20
4663.0497621089
 10
6236.8498982745
 20
4664.228539415
 10
6244.1851466494
 20
4665.1965473697
 10
6251.585975771
 20
4665.9516580812
 10
6259.0361170106
 20
4666.4922116525
 10
6266.5191933409
 20
4666.8170198294
 10
6274.0187553361
 20
4666.9253686131
  0
LINE
  5
FA
330
1F
100
AcDbEntity
  8
0
  6
Continuous
 62
     7
370
    25
100
AcDbLine
 10
6448.6904597797
 20
4709.6057416505
 30
0.0
 11
6099.3470508925
 21
4709.6057416505
 31
0.0
  0
LWPOLYLINE
  5
FB
330
1F
100
AcDbEntity
  8
0
  6
Continuous
 62
     7
370
    25
100
AcDbPolyline
 90
       50
 70
   128
 43
0.0
 10
6099.3470508925
 20
4709.6057416505
 10
6099.8476570032
 20
4703.4522924814
 10
6101.8500814463
 20
4678.8384958053
 10
6109.8597792186
 20
4580.3833091009
 10
6110.3655894474
 20
4572.0527845426
 10
6110.7511027911
 20
4563.7064712062
 10
6111.3472992242
 20
4555.3735664236
 10
6112.4851587211
 20
4547.0832675266
 10
6114.4956612564
 20
4538.8647718473
 10
6116.1363331496
 20
4534.3336606513
 10
6119.5505353384
 20
4527.3809378865
 10
6123.9578561633
 20
4520.6141527858
 10
6129.2812802616
 20
4514.0993494555
 10
6135.4437922702
 20
4507.9025720015
 10
6142.3839337901
 20
4502.0609024966
 10
6150.0727394555
 20
4496.5575628213
 10
6158.4238406043
 20
4491.4311093522
 10
6167.3508685744
 20
4486.7200984656
 10
6177.6893904056
 20
4482.0716768786
 10
6188.6213860026
 20
4477.9250983158
 10
6200.0385726124
 20
4474.3053217676
 10
6211.8326674821
 20
4471.2373062247
 10
6225.0589534304
 20
4468.5306592931
 10
6238.6379815367
 20
4466.4789833527
 10
6252.4385497146
 20
4465.0924034642
 10
6266.3294558773
 20
4464.381044688
 10
6275.1789241051
 20
4464.2810143769
 10
6284.0255227448
 20
4464.4521576097
 10
6296.6640622549
 20
4465.1734865575
 10
6309.2189820045
 20
4466.4542608979
 10
6321.5913528586
 20
4468.2867893334
 10
6333.6822456822
 20
4470.6633805663
 10
6344.6731293247
 20
4473.3766008959
 10
6355.3704238513
 20
4476.5694646159
 10
6365.6882037749
 20
4480.2216398474
 10
6375.5405436083
 20
4484.3127947114
 10
6384.8415178641
 20
4488.8225973292
 10
6394.9294120851
 20
4494.5966405187
 10
6404.1409879118
 20
4500.9013598149
 10
6411.5100118563
 20
4506.9312005024
 10
6418.0564318389
 20
4513.3441269877
 10
6423.6879868729
 20
4520.0756003241
 10
6428.3124159714
 20
4527.0610815651
 10
6431.1030292974
 20
4532.6869640295
 10
6433.162097366
 20
4538.4460639143
 10
6434.6146547881
 20
4544.2938806169
 10
6435.5857361747
 20
4550.1859135348
 10
6436.2003761367
 20
4556.0776620654
 10
6447.048733113
 20
4689.4256412164
 10
6448.6904597797
 20
4709.6057416505
  0
LINE
  5
FC
330
1F
100
AcDbEntity
  8
0
  6
Continuous
 62
     7
370
    25
100
AcDbLine
 10
6448.6904597797
 20
4713.5440132554
 30
0.0
 11
6448.6904597797
 21
4781.5795874658
 31
0.0
  0
LINE
  5
FD
330
1F
100
AcDbEntity
  8
0
  6
Continuous
 62
     7
370
    25
100
AcDbLine
 10
6099.3470508925
 20
4713.5440132554
 30
0.0
 11
6448.6904597797
 21
4713.5440132554
 31
0.0
  0
LINE
  5
FE
330
1F
100
AcDbEntity
  8
0
  6
Continuous
 62
     7
370
    25
100
AcDbLine
 10
6099.3470508925
 20
4781.5795874658
 30
0.0
 11
6099.3470508925
 21
4713.5440132554
 31
0.0
  0
LINE
  5
FF
330
1F
100
AcDbEntity
  8
0
  6
Continuous
 62
     7
370
    25
100
AcDbLine
 10
6448.6904597797
 20
4781.5795874658
 30
0.0
 11
6099.3470508925
 21
4781.5795874658
 31
0.0
  0
LINE
  5
100
330
1F
100
AcDbEntity
  8
0
  6
Continuous
 62
     7
370
    25
100
AcDbLine
 10
6099.3470508925
 20
4781.5795874658
 30
0.0
 11
6099.3470508925
 21
4786.5795874658
 31
0.0
  0
LINE
  5
101
330
1F
100
AcDbEntity
  8
0
  6
Continuous
 62
     7
370
    25
100
AcDbLine
 10
6099.3470508925
 20
4786.5795874658
 30
0.0
 11
6448.6904597797
 21
4786.5795874658
 31
0.0
  0
LINE
  5
102
330
1F
100
AcDbEntity
  8
0
  6
Continuous
 62
     7
370
    25
100
AcDbLine
 10
6448.6904597797
 20
4781.5795874658
 30
0.0
 11
6448.6904597797
 21
4786.5795874658
 31
0.0
  0
LINE
  5
103
330
1F
100
AcDbEntity
  8
0
  6
Continuous
 62
     7
370
    25
100
AcDbLine
 10
6448.6904597797
 20
4709.6057416505
 30
0.0
 11
6448.6904597797
 21
4713.5440132554
 31
0.0
  0
LINE
  5
104
330
1F
100
AcDbEntity
  8
0
  6
Continuous
 62
     7
370
    25
100
AcDbLine
 10
6099.3470508925
 20
4709.6057416505
 30
0.0
 11
6099.3470508925
 21
4713.5440132554
 31
0.0
  0
ELLIPSE
  5
105
330
1F
100
AcDbEntity
  8
0
  6
Continuous
 62
     7
370
    25
100
AcDbEllipse
 10
6274.0187553361
 20
4718.5719042936
 30
0.0
 11
145.0
 21
0.0
 31
0.0
210
0.0
220
0.0
230
1.0
 40
0.8233560694
 41
4.078149403934129
 42
5.346628556835282
  0
CIRCLE
  5
106
330
1F
100
AcDbEntity
  8
0
  6
Continuous
 62
     7
370
    25
100
AcDbCircle
 10
6274.0187553361
 20
4636.7568209832
 30
0.0
 40
4.149999999999636
  0
CIRCLE
  5
107
330
1F
100
AcDbEntity
  8
0
  6
Continuous
 62
     7
370
    25
100
AcDbCircle
 10
6281.4642522017
 20
4624.9008277129
 30
0.0
 40
4.149999999997817
  0
CIRCLE
  5
108
330
1F
100
AcDbEntity
  8
0
  6
Continuous
 62
     7
370
    25
100
AcDbCircle
 10
6266.2100553927
 20
4625.1368293655
 30
0.0
 40
4.149999999999636
  0
CIRCLE
  5
109
330
1F
100
AcDbEntity
  8
0
  6
Continuous
 62
     7
370
    25
100
AcDbCircle
 10
6260.0187553361
 20
4636.7568209832
 30
0.0
 40
4.150000000000546
  0
CIRCLE
  5
10A
330
1F
100
AcDbEntity
  8
0
  6
Continuous
 62
     7
370
    25
100
AcDbCircle
 10
6288.0187553361
 20
4636.7568209832
 30
0.0
 40
4.150000000000546
  0
CIRCLE
  5
10B
330
1F
100
AcDbEntity
  8
0
  6
Continuous
 62
     7
370
    25
100
AcDbCircle
 10
6281.3761066521
 20
4648.6677143843
 30
0.0
 40
4.150000000000546
  0
CIRCLE
  5
10C
330
1F
100
AcDbEntity
  8
0
  6
Continuous
 62
     7
370
    25
100
AcDbCircle
 10
6266.2989190311
 20
4648.4360387405
 30
0.0
 40
4.149999999996908
  0
LINE
  5
10D
330
1F
100
AcDbEntity
  8
0
  6
Continuous
 62
     8
370
    25
100
AcDbLine
 10
6266.5187553361
 20
4671.3356619863
 30
0.0
 11
6266.5187553361
 21
4671.4258679511
 31
0.0
  0
LINE
  5
10E
330
1F
100
AcDbEntity
  8
0
  6
Continuous
 62
     8
370
    25
100
AcDbLine
 10
6281.5187553361
 20
4671.3356619863
 30
0.0
 11
6281.5187553361
 21
4671.4258679511
 31
0.0
  0
ARC
  5
10F
330
1F
100
AcDbEntity
  8
0
  6
Continuous
 62
     8
370
    25
100
AcDbCircle
 10
6098.7244890002
 20
4714.0086361445
 30
0.0
 40
4.446691268309451
100
AcDbArc
 50
191.257723488
 51
278.0481730701
  0
ARC
  5
110
330
1F
100
AcDbEntity
  8
0
  6
Continuous
 62
     8
370
    25
100
AcDbCircle
 10
6449.313021672
 20
4714.0086361445
 30
0.0
 40
4.446691268311258
100
AcDbArc
 50
261.95182693
 51
348.7422765119
  0
LINE
  5
111
330
1F
100
AcDbEntity
  8
0
  6
Continuous
 62
     8
370
    25
100
AcDbLine
 10
6448.6904597797
 20
4781.5795874658
 30
0.0
 11
6453.6904595055
 21
4781.5795874658
 31
0.0
  0
LINE
  5
112
330
1F
100
AcDbEntity
  8
0
  6
Continuous
 62
     8
370
    25
100
AcDbLine
 10
6448.6904597797
 20
4713.5440132554
 30
0.0
 11
6453.6904595055
 21
4713.5440132554
 31
0.0
  0
LINE
  5
113
330
1F
100
AcDbEntity
  8
0
  6
Continuous
 62
     8
370
    25
100
AcDbLine
 10
6094.3470508925
 20
4781.5795874658
 30
0.0
 11
6099.3470508925
 21
4781.5795874658
 31
0.0
  0
LINE
  5
114
330
1F
100
AcDbEntity
  8
0
  6
Continuous
 62
     8
370
    25
100
AcDbLine
 10
6094.3470514933
 20
4713.5440132554
 30
0.0
 11
6099.3470508925
 21
4713.5440132554
 31
0.0
  0
LWPOLYLINE
  5
115
330
1F
100
AcDbEntity
  8
0
  6
Continuous
 62
     8
370
    25
100
AcDbPolyline
 90
       66
 70
   128
 43
0.0
 10
6129.0187557925
 20
4580.1543088637
 10
6129.0298461848
 20
4579.0564622315
 10
6129.2959417313
 20
4574.6401039111
 10
6129.916198254
 20
4570.2372571196
 10
6130.8890978814
 20
4565.8586963611
 10
6132.212259765
 20
4561.5151367072
 10
6133.882445906
 20
4557.2172075765
 10
6135.8955690791
 20
4552.9754267217
 10
6138.2467028344
 20
4548.8001744913
 10
6140.9300935537
 20
4544.7016684272
 10
6143.9391745302
 20
4540.6899382605
 10
6147.2665820387
 20
4536.7748013672
 10
6150.9041733552
 20
4532.9658387434
 10
6154.8430466843
 20
4529.2723715588
 10
6159.0735629429
 20
4525.7034383466
 10
6163.5853693489
 20
4522.2677728844
 10
6168.3674247559
 20
4518.9737828213
 10
6173.4080266729
 20
4515.8295291029
 10
6178.6948399025
 20
4512.8427062451
 10
6184.2149267267
 20
4510.0206235038
 10
6189.954778568
 20
4507.3701869884
 10
6195.9003490473
 20
4504.8978827612
 10
6202.0370883571
 20
4502.609760965
 10
6208.3499788682
 20
4500.5114210171
 10
6214.8235718794
 20
4498.6079979071
 10
6221.442025424
 20
4496.9041496303
 10
6228.1891430371
 20
4495.4040457889
 10
6235.0484133912
 20
4494.1113573884
 10
6242.0030507023
 20
4493.0292478539
 10
6249.0360358076
 20
4492.1603652889
 10
6256.130157814
 20
4491.5068359944
 10
6263.2680562161
 20
4491.0702592663
 10
6270.4322633805
 20
4490.8517034809
 10
6277.6052472917
 20
4490.8517034809
 10
6284.7694544561
 20
4491.0702592663
 10
6291.9073528582
 20
4491.5068359944
 10
6299.0014748646
 20
4492.1603652889
 10
6306.0344599699
 20
4493.0292478539
 10
6312.989097281
 20
4494.1113573884
 10
6319.8483676351
 20
4495.4040457889
 10
6326.5954852482
 20
4496.9041496303
 10
6333.2139387928
 20
4498.6079979071
 10
6339.687531804
 20
4500.5114210171
 10
6346.0004223151
 20
4502.609760965
 10
6352.1371616249
 20
4504.8978827612
 10
6358.0827321042
 20
4507.3701869884
 10
6363.8225839455
 20
4510.0206235038
 10
6369.3426707697
 20
4512.8427062451
 10
6374.6294839993
 20
4515.8295291029
 10
6379.6700859163
 20
4518.9737828213
 10
6384.4521413233
 20
4522.2677728844
 10
6388.9639477293
 20
4525.7034383466
 10
6393.1944639879
 20
4529.2723715588
 10
6397.133337317
 20
4532.9658387434
 10
6400.7709286336
 20
4536.7748013672
 10
6404.098336142
 20
4540.6899382605
 10
6407.1074171185
 20
4544.7016684272
 10
6409.7908078378
 20
4548.8001744913
 10
6412.1419415931
 20
4552.9754267217
 10
6414.1550647662
 20
4557.2172075765
 10
6415.8252509072
 20
4561.5151367072
 10
6417.1484127908
 20
4565.8586963611
 10
6418.1213124182
 20
4570.2372571196
 10
6418.7415689409
 20
4574.6401039111
 10
6419.0076644874
 20
4579.0564622315
 10
6419.0187552572
 20
4580.1643441816
  0
ELLIPSE
  5
116
330
1F
100
AcDbEntity
  8
0
  6
Continuous
 62
     8
370
    25
100
AcDbEllipse
 10
6274.0187553361
 20
4662.7055908041
 30
0.0
 11
145.0
 21
0.0
 31
0.0
210
0.0
220
0.0
230
1.0
 40
0.3450517311
 41
3.813167217334652
 42
4.07814940393413
  0
ELLIPSE
  5
117
330
1F
100
AcDbEntity
  8
0
  6
Continuous
 62
     8
370
    25
100
AcDbEllipse
 10
6274.0187553361
 20
4662.7055908041
 30
0.0
 11
145.0
 21
0.0
 31
0.0
210
0.0
220
0.0
230
1.0
 40
0.3450517311
 41
5.346628556835288
 42
5.611851451555959
  0
ARC
  5
118
330
1F
100
AcDbEntity
  8
0
  6
Continuous
 62
     8
370
    25
100
AcDbCircle
 10
6292.550565868
 20
4640.3453437798
 30
0.0
 40
69.73770800527734
100
AcDbArc
 50
345.0913211342
 51
4.7705931631
  0
ARC
  5
119
330
1F
100
AcDbEntity
  8
0
  6
Continuous
 62
     8
370
    25
100
AcDbCircle
 10
6255.5046193478
 20
4640.3485624737
 30
0.0
 40
69.75561569050187
100
AcDbArc
 50
175.1749701896
 51
194.9074985868
  0
ARC
  5
11A
330
1F
100
AcDbEntity
  8
0
  6
Continuous
 62
     8
370
    25
100
AcDbCircle
 10
6249.8585821308
 20
4588.1214927961
 30
0.0
 40
115.2966359508212
100
AcDbArc
 50
17.2976414859
 51
34.0296836879
  0
ARC
  5
11B
330
1F
100
AcDbEntity
  8
0
  6
Continuous
 62
     8
370
    25
100
AcDbCircle
 10
6296.8441478136
 20
4588.7619046437
 30
0.0
 40
113.8320083042753
100
AcDbArc
 50
145.8677116359
 51
162.8103595315
  0
ELLIPSE
  5
11C
330
1F
100
AcDbEntity
  8
0
  6
Continuous
 62
     8
370
    25
100
AcDbEllipse
 10
6274.0187553361
 20
4743.6376973486
 30
0.0
 11
95.0
 21
0.0
 31
0.0
210
0.0
220
0.0
230
1.0
 40
0.9324290447
 41
4.339346831635849
 42
5.084479758358343
  0
ENDSEC
  0
SECTION
  2
OBJECTS
  0
DICTIONARY
  5
C
330
0
100
AcDbDictionary
281
     1
  3
ACAD_GROUP
350
D
  3
ACAD_LAYOUT
350
1A
  3
ACAD_MLINESTYLE
350
17
  3
ACAD_PLOTSETTINGS
350
19
  3
ACAD_PLOTSTYLENAME
350
E
  3
ACAD_SCALELIST
350
47
  3
DWGPROPS
350
11D
  0
DICTIONARY
  5
D
102
{ACAD_REACTORS
330
C
102
}
330
C
100
AcDbDictionary
281
     1
  0
DICTIONARY
  5
1A
102
{ACAD_REACTORS
330
C
102
}
330
C
100
AcDbDictionary
281
     1
  3
Layout1
350
1E
  3
Layout2
350
26
  3
Model
350
22
  0
DICTIONARY
  5
17
102
{ACAD_REACTORS
330
C
102
}
330
C
100
AcDbDictionary
281
     1
  3
Standard
350
18
  0
DICTIONARY
  5
19
102
{ACAD_REACTORS
330
C
102
}
330
C
100
AcDbDictionary
281
     1
  0
ACDBDICTIONARYWDFLT
  5
E
102
{ACAD_REACTORS
330
C
102
}
330
C
100
AcDbDictionary
281
     1
  3
Normal
350
F
100
AcDbDictionaryWithDefault
340
F
  0
DICTIONARY
  5
47
102
{ACAD_REACTORS
330
C
102
}
330
C
100
AcDbDictionary
281
     1
  3
A0
350
48
  3
A1
350
49
  3
A2
350
4A
  3
A3
350
4B
  3
A4
350
4C
  3
A5
350
4D
  3
A6
350
4E
  3
A7
350
4F
  3
A8
350
50
  3
A9
350
51
  3
B0
350
52
  3
B1
350
53
  3
B2
350
54
  3
B3
350
55
  3
B4
350
56
  3
B5
350
57
  3
B6
350
58
  3
B7
350
59
  3
B8
350
5A
  3
B9
350
5B
  3
C0
350
5C
  3
C1
350
5D
  3
C2
350
5E
  3
C3
350
5F
  3
C4
350
60
  3
C5
350
61
  3
C6
350
62
  3
C7
350
63
  3
C8
350
64
  3
C9
350
65
  3
D0
350
66
  3
D1
350
67
  3
D2
350
68
  0
XRECORD
  5
11D
102
{ACAD_REACTORS
330
C
102
}
330
C
100
AcDbXrecord
280
     1
  1
DWGPROPS COOKIE
  2

  3

  4

  6

  7

  8
radek.stransky
  9

300
=
301
=
302
=
303
=
304
=
305
=
306
=
307
=
308
=
309
=
 40
0.0
 41
2459296.363873391
 42
2459296.3638736
  1

 90
        0
  0
LAYOUT
  5
1E
102
{ACAD_REACTORS
330
1A
102
}
330
1A
100
AcDbPlotSettings
  1

  2
none_device
  4

  6

 40
0.0
 41
0.0
 42
0.0
 43
0.0
 44
0.0
 45
0.0
 46
0.0
 47
0.0
 48
0.0
 49
0.0
140
0.0
141
0.0
142
1.0
143
1.0
 70
   688
 72
     1
 73
     0
 74
     5
  7

 75
    16
147
1.0
148
0.0
149
0.0
100
AcDbLayout
  1
Layout1
 70
     1
 71
     1
 10
0.0
 20
0.0
 11
420.0
 21
297.0
 12
0.0
 22
0.0
 32
0.0
 14
1.0000000000E+20
 24
1.0000000000E+20
 34
1.0000000000E+20
 15
-1.0000000000E+20
 25
-1.0000000000E+20
 35
-1.0000000000E+20
146
0.0
 13
0.0
 23
0.0
 33
0.0
 16
1.0
 26
0.0
 36
0.0
 17
0.0
 27
1.0
 37
0.0
 76
     0
330
1B
  0
LAYOUT
  5
26
102
{ACAD_REACTORS
330
1A
102
}
330
1A
100
AcDbPlotSettings
  1

  2
none_device
  4

  6

 40
0.0
 41
0.0
 42
0.0
 43
0.0
 44
0.0
 45
0.0
 46
0.0
 47
0.0
 48
0.0
 49
0.0
140
0.0
141
0.0
142
1.0
143
1.0
 70
   688
 72
     1
 73
     0
 74
     5
  7

 75
    16
147
1.0
148
0.0
149
0.0
100
AcDbLayout
  1
Layout2
 70
     1
 71
     2
 10
0.0
 20
0.0
 11
0.0
 21
0.0
 12
0.0
 22
0.0
 32
0.0
 14
0.0
 24
0.0
 34
0.0
 15
0.0
 25
0.0
 35
0.0
146
0.0
 13
0.0
 23
0.0
 33
0.0
 16
1.0
 26
0.0
 36
0.0
 17
0.0
 27
1.0
 37
0.0
 76
     0
330
23
  0
LAYOUT
  5
22
102
{ACAD_REACTORS
330
1A
102
}
330
1A
100
AcDbPlotSettings
  1

  2
none_device
  4
Letter_(8.50_x_11.00_Inches)
  6

 40
6.35
 41
6.35
 42
6.35000508
 43
6.35000508
 44
215.9
 45
279.4
 46
0.0
 47
0.0
 48
0.0
 49
0.0
140
0.0
141
0.0
142
1.0
143
1.0
 70
  1712
 72
     1
 73
     0
 74
     0
  7

 75
     0
147
1.0
148
0.0
149
0.0
100
AcDbLayout
  1
Model
 70
     1
 71
     0
 10
0.0
 20
0.0
 11
20000.0
 21
10000.0
 12
0.0
 22
0.0
 32
0.0
 14
0.0
 24
0.0
 34
0.0
 15
20000.0
 25
10000.0
 35
0.0
146
0.0
 13
0.0
 23
0.0
 33
0.0
 16
1.0
 26
0.0
 36
0.0
 17
0.0
 27
1.0
 37
0.0
 76
     0
330
1F
331
29
  0
MLINESTYLE
  5
18
102
{ACAD_REACTORS
330
17
102
}
330
17
100
AcDbMlineStyle
  2
Standard
 70
     0
  3

 62
   256
 51
90.0
 52
90.0
 71
     2
 49
0.5
 62
   256
  6
BYLAYER
 49
-0.5
 62
   256
  6
BYLAYER
  0
ACDBPLACEHOLDER
  5
F
102
{ACAD_REACTORS
330
E
102
}
330
E
  0
SCALE
  5
48
102
{ACAD_REACTORS
330
47
102
}
330
47
100
AcDbScale
 70
     0
300
1:1
140
1.0
141
1.0
290
     1
  0
SCALE
  5
49
102
{ACAD_REACTORS
330
47
102
}
330
47
100
AcDbScale
 70
     0
300
1:2
140
1.0
141
2.0
290
     0
  0
SCALE
  5
4A
102
{ACAD_REACTORS
330
47
102
}
330
47
100
AcDbScale
 70
     0
300
1:4
140
1.0
141
4.0
290
     0
  0
SCALE
  5
4B
102
{ACAD_REACTORS
330
47
102
}
330
47
100
AcDbScale
 70
     0
300
1:5
140
1.0
141
5.0
290
     0
  0
SCALE
  5
4C
102
{ACAD_REACTORS
330
47
102
}
330
47
100
AcDbScale
 70
     0
300
1:8
140
1.0
141
8.0
290
     0
  0
SCALE
  5
4D
102
{ACAD_REACTORS
330
47
102
}
330
47
100
AcDbScale
 70
     0
300
1:10
140
1.0
141
10.0
290
     0
  0
SCALE
  5
4E
102
{ACAD_REACTORS
330
47
102
}
330
47
100
AcDbScale
 70
     0
300
1:16
140
1.0
141
16.0
290
     0
  0
SCALE
  5
4F
102
{ACAD_REACTORS
330
47
102
}
330
47
100
AcDbScale
 70
     0
300
1:20
140
1.0
141
20.0
290
     0
  0
SCALE
  5
50
102
{ACAD_REACTORS
330
47
102
}
330
47
100
AcDbScale
 70
     0
300
1:30
140
1.0
141
30.0
290
     0
  0
SCALE
  5
51
102
{ACAD_REACTORS
330
47
102
}
330
47
100
AcDbScale
 70
     0
300
1:40
140
1.0
141
40.0
290
     0
  0
SCALE
  5
52
102
{ACAD_REACTORS
330
47
102
}
330
47
100
AcDbScale
 70
     0
300
1:50
140
1.0
141
50.0
290
     0
  0
SCALE
  5
53
102
{ACAD_REACTORS
330
47
102
}
330
47
100
AcDbScale
 70
     0
300
1:100
140
1.0
141
100.0
290
     0
  0
SCALE
  5
54
102
{ACAD_REACTORS
330
47
102
}
330
47
100
AcDbScale
 70
     0
300
2:1
140
2.0
141
1.0
290
     0
  0
SCALE
  5
55
102
{ACAD_REACTORS
330
47
102
}
330
47
100
AcDbScale
 70
     0
300
4:1
140
4.0
141
1.0
290
     0
  0
SCALE
  5
56
102
{ACAD_REACTORS
330
47
102
}
330
47
100
AcDbScale
 70
     0
300
8:1
140
8.0
141
1.0
290
     0
  0
SCALE
  5
57
102
{ACAD_REACTORS
330
47
102
}
330
47
100
AcDbScale
 70
     0
300
10:1
140
10.0
141
1.0
290
     0
  0
SCALE
  5
58
102
{ACAD_REACTORS
330
47
102
}
330
47
100
AcDbScale
 70
     0
300
100:1
140
100.0
141
1.0
290
     0
  0
SCALE
  5
59
102
{ACAD_REACTORS
330
47
102
}
330
47
100
AcDbScale
 70
     0
300
1/128" = 1'-0"
140
0.0078125
141
12.0
290
     0
  0
SCALE
  5
5A
102
{ACAD_REACTORS
330
47
102
}
330
47
100
AcDbScale
 70
     0
300
1/64" = 1'-0"
140
0.015625
141
12.0
290
     0
  0
SCALE
  5
5B
102
{ACAD_REACTORS
330
47
102
}
330
47
100
AcDbScale
 70
     0
300
1/32" = 1'-0"
140
0.03125
141
12.0
290
     0
  0
SCALE
  5
5C
102
{ACAD_REACTORS
330
47
102
}
330
47
100
AcDbScale
 70
     0
300
1/16" = 1'-0"
140
0.0625
141
12.0
290
     0
  0
SCALE
  5
5D
102
{ACAD_REACTORS
330
47
102
}
330
47
100
AcDbScale
 70
     0
300
3/32" = 1'-0"
140
0.09375
141
12.0
290
     0
  0
SCALE
  5
5E
102
{ACAD_REACTORS
330
47
102
}
330
47
100
AcDbScale
 70
     0
300
1/8" = 1'-0"
140
0.125
141
12.0
290
     0
  0
SCALE
  5
5F
102
{ACAD_REACTORS
330
47
102
}
330
47
100
AcDbScale
 70
     0
300
3/16" = 1'-0"
140
0.1875
141
12.0
290
     0
  0
SCALE
  5
60
102
{ACAD_REACTORS
330
47
102
}
330
47
100
AcDbScale
 70
     0
300
1/4" = 1'-0"
140
0.25
141
12.0
290
     0
  0
SCALE
  5
61
102
{ACAD_REACTORS
330
47
102
}
330
47
100
AcDbScale
 70
     0
300
3/8" = 1'-0"
140
0.375
141
12.0
290
     0
  0
SCALE
  5
62
102
{ACAD_REACTORS
330
47
102
}
330
47
100
AcDbScale
 70
     0
300
1/2" = 1'-0"
140
0.5
141
12.0
290
     0
  0
SCALE
  5
63
102
{ACAD_REACTORS
330
47
102
}
330
47
100
AcDbScale
 70
     0
300
3/4" = 1'-0"
140
0.75
141
12.0
290
     0
  0
SCALE
  5
64
102
{ACAD_REACTORS
330
47
102
}
330
47
100
AcDbScale
 70
     0
300
1" = 1'-0"
140
1.0
141
12.0
290
     0
  0
SCALE
  5
65
102
{ACAD_REACTORS
330
47
102
}
330
47
100
AcDbScale
 70
     0
300
1-1/2" = 1'-0"
140
1.5
141
12.0
290
     0
  0
SCALE
  5
66
102
{ACAD_REACTORS
330
47
102
}
330
47
100
AcDbScale
 70
     0
300
3" = 1'-0"
140
3.0
141
12.0
290
     0
  0
SCALE
  5
67
102
{ACAD_REACTORS
330
47
102
}
330
47
100
AcDbScale
 70
     0
300
6" = 1'-0"
140
6.0
141
12.0
290
     0
  0
SCALE
  5
68
102
{ACAD_REACTORS
330
47
102
}
330
47
100
AcDbScale
 70
     0
300
1'-0" = 1'-0"
140
12.0
141
12.0
290
     0
  0
ENDSEC
  0
EOF
