  0
SECTION
  2
HEADER
  9
$ACADVER
  1
AC1015
  9
$ACADMAINTVER
 70
     6
  9
$DWGCODEPAGE
  3
ANSI_1250
  9
$INSBASE
 10
0.0
 20
0.0
 30
0.0
  9
$EXTMIN
 10
0.0
 20
0.0
 30
0.0
  9
$EXTMAX
 10
20000.0
 20
10000.0
 30
0.0
  9
$LIMMIN
 10
0.0
 20
0.0
  9
$LIMMAX
 10
20000.0
 20
10000.0
  9
$ORTHOMODE
 70
     0
  9
$REGENMODE
 70
     1
  9
$FILLMODE
 70
     1
  9
$QTEXTMODE
 70
     0
  9
$MIRRTEXT
 70
     1
  9
$LTSCALE
 40
1.0
  9
$ATTMODE
 70
     1
  9
$TEXTSIZE
 40
2.0
  9
$TRACEWID
 40
1.0
  9
$TEXTSTYLE
  7
STANDARD
  9
$CLAYER
  8
0
  9
$CELTYPE
  6
ByLayer
  9
$CECOLOR
 62
   256
  9
$CELTSCALE
 40
1.0
  9
$DISPSILH
 70
     0
  9
$DIMSCALE
 40
1.0
  9
$DIMASZ
 40
2.0
  9
$DIMEXO
 40
1.0
  9
$DIMDLI
 40
3.75
  9
$DIMRND
 40
0.0
  9
$DIMDLE
 40
0.0
  9
$DIMEXE
 40
1.0
  9
$DIMTP
 40
0.0
  9
$DIMTM
 40
0.0
  9
$DIMTXT
 40
2.0
  9
$DIMCEN
 40
2.5
  9
$DIMTSZ
 40
0.0
  9
$DIMTOL
 70
     0
  9
$DIMLIM
 70
     0
  9
$DIMTIH
 70
     1
  9
$DIMTOH
 70
     1
  9
$DIMSE1
 70
     0
  9
$DIMSE2
 70
     0
  9
$DIMTAD
 70
     1
  9
$DIMZIN
 70
     0
  9
$DIMBLK
  1

  9
$DIMASO
 70
     1
  9
$DIMSHO
 70
     1
  9
$DIMPOST
  1

  9
$DIMAPOST
  1

  9
$DIMALT
 70
     0
  9
$DIMALTD
 70
     3
  9
$DIMALTF
 40
0.0393700787
  9
$DIMLFAC
 40
1.0
  9
$DIMTOFL
 70
     1
  9
$DIMTVP
 40
0.0
  9
$DIMTIX
 70
     0
  9
$DIMSOXD
 70
     0
  9
$DIMSAH
 70
     0
  9
$DIMBLK1
  1

  9
$DIMBLK2
  1

  9
$DIMSTYLE
  2
ISO-25
  9
$DIMCLRD
 70
     0
  9
$DIMCLRE
 70
     0
  9
$DIMCLRT
 70
     0
  9
$DIMTFAC
 40
1.0
  9
$DIMGAP
 40
1.524
  9
$DIMJUST
 70
     0
  9
$DIMSD1
 70
     0
  9
$DIMSD2
 70
     0
  9
$DIMTOLJ
 70
     0
  9
$DIMTZIN
 70
     0
  9
$DIMALTZ
 70
     0
  9
$DIMALTTZ
 70
     0
  9
$DIMUPT
 70
     0
  9
$DIMDEC
 70
     2
  9
$DIMTDEC
 70
     0
  9
$DIMALTU
 70
     2
  9
$DIMALTTD
 70
     3
  9
$DIMTXSTY
  7
STANDARD
  9
$DIMAUNIT
 70
     0
  9
$DIMADEC
 70
     2
  9
$DIMALTRND
 40
0.0
  9
$DIMAZIN
 70
     0
  9
$DIMDSEP
 70
    44
  9
$DIMATFIT
 70
     3
  9
$DIMFRAC
 70
     0
  9
$DIMLDRBLK
  1

  9
$DIMLUNIT
 70
     2
  9
$DIMLWD
 70
    -2
  9
$DIMLWE
 70
    -2
  9
$DIMTMOVE
 70
     0
  9
$LUNITS
 70
     2
  9
$LUPREC
 70
     3
  9
$SKETCHINC
 40
1.0
  9
$FILLETRAD
 40
10.0
  9
$AUNITS
 70
     0
  9
$AUPREC
 70
     2
  9
$MENU
  1
.
  9
$ELEVATION
 40
0.0
  9
$PELEVATION
 40
0.0
  9
$THICKNESS
 40
0.0
  9
$LIMCHECK
 70
     0
  9
$CHAMFERA
 40
0.0
  9
$CHAMFERB
 40
0.0
  9
$CHAMFERC
 40
0.0
  9
$CHAMFERD
 40
0.0
  9
$SKPOLY
 70
     0
  9
$TDCREATE
 40
2460823.380989838
  9
$TDUCREATE
 40
2460823.297656504
  9
$TDUPDATE
 40
2460823.380990312
  9
$TDUUPDATE
 40
2460823.297656979
  9
$TDINDWG
 40
0.0000000116
  9
$TDUSRTIMER
 40
0.0000000116
  9
$USRTIMER
 70
     1
  9
$ANGBASE
 50
0.0
  9
$ANGDIR
 70
     0
  9
$PDMODE
 70
     0
  9
$PDSIZE
 40
-1.0
  9
$PLINEWID
 40
0.0
  9
$SPLFRAME
 70
     0
  9
$SPLINETYPE
 70
     6
  9
$SPLINESEGS
 70
     8
  9
$HANDSEED
  5
1DD
  9
$SURFTAB1
 70
     6
  9
$SURFTAB2
 70
     6
  9
$SURFTYPE
 70
     6
  9
$SURFU
 70
     6
  9
$SURFV
 70
     6
  9
$UCSBASE
  2

  9
$UCSNAME
  2

  9
$UCSORG
 10
0.0
 20
0.0
 30
0.0
  9
$UCSXDIR
 10
1.0
 20
0.0
 30
0.0
  9
$UCSYDIR
 10
0.0
 20
1.0
 30
0.0
  9
$UCSORTHOREF
  2

  9
$UCSORTHOVIEW
 70
     0
  9
$UCSORGTOP
 10
0.0
 20
0.0
 30
0.0
  9
$UCSORGBOTTOM
 10
0.0
 20
0.0
 30
0.0
  9
$UCSORGLEFT
 10
0.0
 20
0.0
 30
0.0
  9
$UCSORGRIGHT
 10
0.0
 20
0.0
 30
0.0
  9
$UCSORGFRONT
 10
0.0
 20
0.0
 30
0.0
  9
$UCSORGBACK
 10
0.0
 20
0.0
 30
0.0
  9
$PUCSBASE
  2

  9
$PUCSNAME
  2

  9
$PUCSORG
 10
0.0
 20
0.0
 30
0.0
  9
$PUCSXDIR
 10
1.0
 20
0.0
 30
0.0
  9
$PUCSYDIR
 10
0.0
 20
1.0
 30
0.0
  9
$PUCSORTHOREF
  2

  9
$PUCSORTHOVIEW
 70
     0
  9
$PUCSORGTOP
 10
0.0
 20
0.0
 30
0.0
  9
$PUCSORGBOTTOM
 10
0.0
 20
0.0
 30
0.0
  9
$PUCSORGLEFT
 10
0.0
 20
0.0
 30
0.0
  9
$PUCSORGRIGHT
 10
0.0
 20
0.0
 30
0.0
  9
$PUCSORGFRONT
 10
0.0
 20
0.0
 30
0.0
  9
$PUCSORGBACK
 10
0.0
 20
0.0
 30
0.0
  9
$USERI1
 70
     0
  9
$USERI2
 70
     0
  9
$USERI3
 70
     0
  9
$USERI4
 70
     0
  9
$USERI5
 70
     0
  9
$USERR1
 40
0.0
  9
$USERR2
 40
0.0
  9
$USERR3
 40
0.0
  9
$USERR4
 40
0.0
  9
$USERR5
 40
0.0
  9
$WORLDVIEW
 70
     1
  9
$SHADEDGE
 70
     3
  9
$SHADEDIF
 70
    70
  9
$TILEMODE
 70
     1
  9
$MAXACTVP
 70
    64
  9
$PINSBASE
 10
0.0
 20
0.0
 30
0.0
  9
$PLIMCHECK
 70
     0
  9
$PEXTMIN
 10
1.0000000000E+20
 20
1.0000000000E+20
 30
1.0000000000E+20
  9
$PEXTMAX
 10
-1.0000000000E+20
 20
-1.0000000000E+20
 30
-1.0000000000E+20
  9
$PLIMMIN
 10
0.0
 20
0.0
  9
$PLIMMAX
 10
420.0
 20
297.0
  9
$UNITMODE
 70
     0
  9
$VISRETAIN
 70
     1
  9
$PLINEGEN
 70
     0
  9
$PSLTSCALE
 70
     1
  9
$TREEDEPTH
 70
  3020
  9
$CMLSTYLE
  2
Standard
  9
$CMLJUST
 70
     0
  9
$CMLSCALE
 40
20.0
  9
$PROXYGRAPHICS
 70
     1
  9
$MEASUREMENT
 70
     1
  9
$CELWEIGHT
370
    -1
  9
$ENDCAPS
280
     0
  9
$JOINSTYLE
280
     0
  9
$LWDISPLAY
290
     1
  9
$INSUNITS
 70
     4
  9
$HYPERLINKBASE
  1

  9
$STYLESHEET
  1

  9
$XEDIT
290
     1
  9
$CEPSNTYPE
380
     0
  9
$PSTYLEMODE
290
     1
  9
$FINGERPRINTGUID
  2
{f77e726f-0433-46ff-b377-8b8fbd1f3dcd}
  9
$VERSIONGUID
  2
{FAEB1C32-E019-11D5-929B-00C0DF256EC4}
  9
$EXTNAMES
290
     1
  9
$PSVPSCALE
 40
0.0
  9
$OLESTARTUP
290
     0
  0
ENDSEC
  0
SECTION
  2
CLASSES
  0
CLASS
  1
ACDBDICTIONARYWDFLT
  2
AcDbDictionaryWithDefault
  3
ObjectDBX Classes
 90
        0
280
     0
281
     0
  0
CLASS
  1
VISUALSTYLE
  2
AcDbVisualStyle
  3
ObjectDBX Classes
 90
     4095
280
     0
281
     0
  0
CLASS
  1
MATERIAL
  2
AcDbMaterial
  3
ObjectDBX Classes
 90
     1153
280
     0
281
     0
  0
CLASS
  1
SCALE
  2
AcDbScale
  3
ObjectDBX Classes
 90
     1153
280
     0
281
     0
  0
CLASS
  1
TABLESTYLE
  2
AcDbTableStyle
  3
ObjectDBX Classes
 90
     4095
280
     0
281
     0
  0
CLASS
  1
MLEADERSTYLE
  2
AcDbMLeaderStyle
  3
ACDB_MLEADERSTYLE_CLASS
 90
     4095
280
     0
281
     0
  0
CLASS
  1
SUN
  2
AcDbSun
  3
SCENEOE
 90
     1153
280
     0
281
     0
  0
CLASS
  1
ACDBPLACEHOLDER
  2
AcDbPlaceHolder
  3
ObjectDBX Classes
 90
        0
280
     0
281
     0
  0
CLASS
  1
LAYOUT
  2
AcDbLayout
  3
ObjectDBX Classes
 90
        0
280
     0
281
     0
  0
ENDSEC
  0
SECTION
  2
TABLES
  0
TABLE
  2
VPORT
  5
8
330
0
100
AcDbSymbolTable
 70
     1
  0
VPORT
  5
29
330
8
100
AcDbSymbolTableRecord
100
AcDbViewportTableRecord
  2
*Active
 70
     0
 10
0.0
 20
0.0
 11
1.0
 21
1.0
 12
10000.0
 22
5000.0
 13
0.0
 23
0.0
 14
10.0
 24
10.0
 15
10.0
 25
10.0
 16
0.0
 26
0.0
 36
1.0
 17
0.0
 27
0.0
 37
0.0
 40
10000.0
 41
2.0
 42
50.0
 43
0.0
 44
0.0
 50
0.0
 51
0.0
 71
     0
 72
  2000
 73
     1
 74
     3
 75
     0
 76
     0
 77
     0
 78
     0
281
     0
 65
     1
110
0.0
120
0.0
130
0.0
111
1.0
121
0.0
131
0.0
112
0.0
122
1.0
132
0.0
 79
     0
146
0.0
  0
ENDTAB
  0
TABLE
  2
LTYPE
  5
5
330
0
100
AcDbSymbolTable
 70
    10
  0
LTYPE
  5
14
330
5
100
AcDbSymbolTableRecord
100
AcDbLinetypeTableRecord
  2
ByBlock
 70
     0
  3

 72
    65
 73
     0
 40
0.0
  0
LTYPE
  5
15
330
5
100
AcDbSymbolTableRecord
100
AcDbLinetypeTableRecord
  2
ByLayer
 70
     0
  3

 72
    65
 73
     0
 40
0.0
  0
LTYPE
  5
16
330
5
100
AcDbSymbolTableRecord
100
AcDbLinetypeTableRecord
  2
Continuous
 70
     0
  3
Solid line
 72
    65
 73
     0
 40
0.0
  0
LTYPE
  5
6E
330
5
100
AcDbSymbolTableRecord
100
AcDbLinetypeTableRecord
  2
SLD-Plná
 70
     0
  3
SolidWorks Line Style
 72
    65
 73
     0
 40
0.0
  0
LTYPE
  5
6F
330
5
100
AcDbSymbolTableRecord
100
AcDbLinetypeTableRecord
  2
SLD-Čárkovaná
 70
     0
  3
SolidWorks Line Style
 72
    65
 73
     2
 40
1.905
 49
1.27
 74
     0
 49
-0.635
 74
     0
  0
LTYPE
  5
70
330
5
100
AcDbSymbolTableRecord
100
AcDbLinetypeTableRecord
  2
SLD-Dvojitě-čerchovaná
 70
     0
  3
SolidWorks Line Style
 72
    65
 73
     6
 40
12.7
 49
6.35
 74
     0
 49
-1.27
 74
     0
 49
1.27
 74
     0
 49
-1.27
 74
     0
 49
1.27
 74
     0
 49
-1.27
 74
     0
  0
LTYPE
  5
71
330
5
100
AcDbSymbolTableRecord
100
AcDbLinetypeTableRecord
  2
SLD-Čerchovaná
 70
     0
  3
SolidWorks Line Style
 72
    65
 73
     4
 40
10.16
 49
6.35
 74
     0
 49
-1.27
 74
     0
 49
1.27
 74
     0
 49
-1.27
 74
     0
  0
LTYPE
  5
72
330
5
100
AcDbSymbolTableRecord
100
AcDbLinetypeTableRecord
  2
SLD-Osa
 70
     0
  3
SolidWorks Line Style
 72
    65
 73
     4
 40
19.05
 49
15.24
 74
     0
 49
-1.27
 74
     0
 49
1.27
 74
     0
 49
-1.27
 74
     0
  0
LTYPE
  5
73
330
5
100
AcDbSymbolTableRecord
100
AcDbLinetypeTableRecord
  2
SLD-Tečkovaná
 70
     0
  3
SolidWorks Line Style
 72
    65
 73
     2
 40
0.635
 49
0.0
 74
     0
 49
-0.635
 74
     0
  0
LTYPE
  5
74
330
5
100
AcDbSymbolTableRecord
100
AcDbLinetypeTableRecord
  2
SLD-Hrubá-tenká-čerchovaná
 70
     0
  3
SolidWorks Line Style
 72
    65
 73
     4
 40
10.16
 49
6.35
 74
     0
 49
-1.27
 74
     0
 49
1.27
 74
     0
 49
-1.27
 74
     0
  0
LTYPE
  5
75
330
5
100
AcDbSymbolTableRecord
100
AcDbLinetypeTableRecord
  2
SLD-Řez-1
 70
     0
  3
SolidWorks Line Style
 72
    65
 73
     4
 40
8.128
 49
5.08
 74
     0
 49
-1.016
 74
     0
 49
1.016
 74
     0
 49
-1.016
 74
     0
  0
LTYPE
  5
76
330
5
100
AcDbSymbolTableRecord
100
AcDbLinetypeTableRecord
  2
SLD-Řez-2
 70
     0
  3
SolidWorks Line Style
 72
    65
 73
     2
 40
5080.0
 49
0.0
 74
     0
 49
-5080.0
 74
     0
  0
ENDTAB
  0
TABLE
  2
LAYER
  5
2
330
0
100
AcDbSymbolTable
 70
    13
  0
LAYER
  5
10
330
2
100
AcDbSymbolTableRecord
100
AcDbLayerTableRecord
  2
0
 70
     0
 62
     7
  6
Continuous
370
    -3
390
F
  0
LAYER
  5
77
330
2
100
AcDbSymbolTableRecord
100
AcDbLayerTableRecord
  2
FORMAT
 70
     0
 62
     7
  6
SLD-Plná
370
    -3
390
F
  0
LAYER
  5
78
330
2
100
AcDbSymbolTableRecord
100
AcDbLayerTableRecord
  2
OSA
 70
     0
 62
     7
  6
SLD-Hrubá-tenká-čerchovaná
370
    -3
390
F
  0
LAYER
  5
79
330
2
100
AcDbSymbolTableRecord
100
AcDbLayerTableRecord
  2
0_35
 70
     0
 62
     7
  6
SLD-Plná
370
    35
390
F
  0
LAYER
  5
7A
330
2
100
AcDbSymbolTableRecord
100
AcDbLayerTableRecord
  2
0_5
 70
     0
 62
     7
  6
SLD-Plná
370
    50
390
F
  0
LAYER
  5
7B
330
2
100
AcDbSymbolTableRecord
100
AcDbLayerTableRecord
  2
0_25
 70
     0
 62
     7
  6
SLD-Plná
370
    25
390
F
  0
LAYER
  5
7C
330
2
100
AcDbSymbolTableRecord
100
AcDbLayerTableRecord
  2
0_18
 70
     0
 62
     7
  6
SLD-Plná
370
    -3
390
F
  0
LAYER
  5
7D
330
2
100
AcDbSymbolTableRecord
100
AcDbLayerTableRecord
  2
SLD-0
 70
     0
 62
   179
  6
SLD-Plná
370
    -3
390
F
  0
LAYER
  5
7E
330
2
100
AcDbSymbolTableRecord
100
AcDbLayerTableRecord
  2
KOTY
 70
     0
 62
     7
  6
SLD-Plná
370
    -3
390
F
  0
LAYER
  5
7F
330
2
100
AcDbSymbolTableRecord
100
AcDbLayerTableRecord
  2
SILNA
 70
     0
 62
   179
  6
SLD-Plná
370
    -3
390
F
  0
LAYER
  5
80
330
2
100
AcDbSymbolTableRecord
100
AcDbLayerTableRecord
  2
0_18_1
 70
     0
 62
   179
  6
SLD-Plná
370
    -3
390
F
  0
LAYER
  5
81
330
2
100
AcDbSymbolTableRecord
100
AcDbLayerTableRecord
  2
0_35_1
 70
     0
 62
   179
  6
SLD-Plná
370
    35
390
F
  0
LAYER
  5
82
330
2
100
AcDbSymbolTableRecord
100
AcDbLayerTableRecord
  2
0_5_1
 70
     0
 62
   179
  6
SLD-Plná
370
    50
390
F
  0
ENDTAB
  0
TABLE
  2
STYLE
  5
3
330
0
100
AcDbSymbolTable
 70
     1
  0
STYLE
  5
11
330
3
100
AcDbSymbolTableRecord
100
AcDbTextStyleTableRecord
  2
STANDARD
 70
     0
 40
0.0
 41
1.0
 50
0.0
 71
     0
 42
2.0
  3
SWISOP1.TTF
  4

1001
ACAD
1000
SWISOP1
1071
        2
  0
ENDTAB
  0
TABLE
  2
VIEW
  5
6
330
0
100
AcDbSymbolTable
 70
     0
  0
ENDTAB
  0
TABLE
  2
UCS
  5
7
330
0
100
AcDbSymbolTable
 70
     0
  0
ENDTAB
  0
TABLE
  2
APPID
  5
9
330
0
100
AcDbSymbolTable
 70
     1
  0
APPID
  5
12
330
9
100
AcDbSymbolTableRecord
100
AcDbRegAppTableRecord
  2
ACAD
 70
     0
  0
ENDTAB
  0
TABLE
  2
DIMSTYLE
  5
A
330
0
100
AcDbSymbolTable
 70
     1
100
AcDbDimStyleTable
  0
DIMSTYLE
105
27
330
A
100
AcDbSymbolTableRecord
100
AcDbDimStyleTableRecord
  2
ISO-25
 70
     0
 41
2.5
 42
0.625
 43
3.75
 44
1.25
 73
     0
 74
     0
 77
     1
 78
     8
140
2.5
141
2.5
143
0.0393700787
147
0.625
171
     3
172
     1
178
     0
271
     2
272
     2
274
     3
278
    44
283
     0
284
     8
340
11
  0
ENDTAB
  0
TABLE
  2
BLOCK_RECORD
  5
1
330
0
100
AcDbSymbolTable
 70
     1
  0
BLOCK_RECORD
  5
1F
330
1
100
AcDbSymbolTableRecord
100
AcDbBlockTableRecord
  2
*Model_Space
340
22
  0
BLOCK_RECORD
  5
1B
330
1
100
AcDbSymbolTableRecord
100
AcDbBlockTableRecord
  2
*Paper_Space
340
1E
  0
BLOCK_RECORD
  5
23
330
1
100
AcDbSymbolTableRecord
100
AcDbBlockTableRecord
  2
*Paper_Space0
340
26
  0
ENDTAB
  0
ENDSEC
  0
SECTION
  2
BLOCKS
  0
BLOCK
  5
20
330
1F
100
AcDbEntity
  8
0
100
AcDbBlockBegin
  2
*Model_Space
 70
     0
 10
0.0
 20
0.0
 30
0.0
  3
*Model_Space
  1

  0
ENDBLK
  5
21
330
1F
100
AcDbEntity
  8
0
100
AcDbBlockEnd
  0
BLOCK
  5
1C
330
1B
100
AcDbEntity
 67
     1
  8
0
100
AcDbBlockBegin
  2
*Paper_Space
 70
     0
 10
0.0
 20
0.0
 30
0.0
  3
*Paper_Space
  1

  0
ENDBLK
  5
1D
330
1B
100
AcDbEntity
 67
     1
  8
0
100
AcDbBlockEnd
  0
BLOCK
  5
24
330
23
100
AcDbEntity
  8
0
100
AcDbBlockBegin
  2
*Paper_Space0
 70
     0
 10
0.0
 20
0.0
 30
0.0
  3
*Paper_Space0
  1

  0
ENDBLK
  5
25
330
23
100
AcDbEntity
  8
0
100
AcDbBlockEnd
  0
ENDSEC
  0
SECTION
  2
ENTITIES
  0
LINE
  5
83
330
1F
100
AcDbEntity
  8
0
  6
SLD-Plná
 62
     7
370
    25
100
AcDbLine
 10
6527.9041386781
 20
5495.7572457042
 30
0.0
 11
6529.4041386781
 21
5497.2572457042
 31
0.0
  0
LINE
  5
84
330
1F
100
AcDbEntity
  8
0
  6
SLD-Plná
 62
     7
370
    25
100
AcDbLine
 10
6529.4041386781
 20
5522.2572457042
 30
0.0
 11
6527.9041386781
 21
5523.7572457042
 31
0.0
  0
LINE
  5
85
330
1F
100
AcDbEntity
  8
0
  6
SLD-Plná
 62
     7
370
    25
100
AcDbLine
 10
6527.4041386781
 20
5495.7572457042
 30
0.0
 11
6527.9041386781
 21
5495.7572457042
 31
0.0
  0
LINE
  5
86
330
1F
100
AcDbEntity
  8
0
  6
SLD-Plná
 62
     7
370
    25
100
AcDbLine
 10
6527.9041386781
 20
5523.7572457042
 30
0.0
 11
6527.4041386781
 21
5523.7572457042
 31
0.0
  0
LINE
  5
87
330
1F
100
AcDbEntity
  8
0
  6
SLD-Plná
 62
     7
370
    25
100
AcDbLine
 10
6527.9041386781
 20
5445.7572457042
 30
0.0
 11
6529.4041386781
 21
5447.2572457042
 31
0.0
  0
LINE
  5
88
330
1F
100
AcDbEntity
  8
0
  6
SLD-Plná
 62
     7
370
    25
100
AcDbLine
 10
6529.4041386781
 20
5472.2572457042
 30
0.0
 11
6527.9041386781
 21
5473.7572457042
 31
0.0
  0
LINE
  5
89
330
1F
100
AcDbEntity
  8
0
  6
SLD-Plná
 62
     7
370
    25
100
AcDbLine
 10
6527.4041386781
 20
5445.7572457042
 30
0.0
 11
6527.9041386781
 21
5445.7572457042
 31
0.0
  0
LINE
  5
8A
330
1F
100
AcDbEntity
  8
0
  6
SLD-Plná
 62
     7
370
    25
100
AcDbLine
 10
6527.9041386781
 20
5473.7572457042
 30
0.0
 11
6527.4041386781
 21
5473.7572457042
 31
0.0
  0
ARC
  5
8B
330
1F
100
AcDbEntity
  8
0
  6
SLD-Plná
 62
     7
370
    25
100
AcDbCircle
 10
6525.8188639528
 20
5368.2572457042
 30
0.0
 40
4.324969328314234
100
AcDbArc
 50
26.059831153
 51
61.4762140417
  0
ARC
  5
8C
330
1F
100
AcDbEntity
  8
0
  6
SLD-Plná
 62
     7
370
    25
100
AcDbCircle
 10
6525.8188639528
 20
5368.2572457042
 30
0.0
 40
4.324969328314634
100
AcDbArc
 50
298.5237859583
 51
333.940168847
  0
LINE
  5
8D
330
1F
100
AcDbEntity
  8
0
  6
SLD-Plná
 62
     7
370
    25
100
AcDbLine
 10
6527.8841386781
 20
5372.0572457042
 30
0.0
 11
6527.6041386781
 21
5372.0572457042
 31
0.0
  0
LINE
  5
8E
330
1F
100
AcDbEntity
  8
0
  6
SLD-Plná
 62
     7
370
    25
100
AcDbLine
 10
6527.6041386781
 20
5364.4572457042
 30
0.0
 11
6527.8841386781
 21
5364.4572457042
 31
0.0
  0
ARC
  5
8F
330
1F
100
AcDbEntity
  8
0
  6
SLD-Plná
 62
     7
370
    25
100
AcDbCircle
 10
6527.3041386781
 20
5370.4572457042
 30
0.0
 40
0.1999999999996648
100
AcDbArc
 50
299.9999999999
 51
0.0
  0
ARC
  5
90
330
1F
100
AcDbEntity
  8
0
  6
SLD-Plná
 62
     7
370
    25
100
AcDbCircle
 10
6527.3041386781
 20
5366.0572457042
 30
0.0
 40
0.1999999999996648
100
AcDbArc
 50
0.0
 51
60.0000000001
  0
LINE
  5
91
330
1F
100
AcDbEntity
  8
0
  6
SLD-Plná
 62
     7
370
    25
100
AcDbLine
 10
6527.8841386781
 20
5055.0572457042
 30
0.0
 11
6527.6041386781
 21
5055.0572457042
 31
0.0
  0
LINE
  5
92
330
1F
100
AcDbEntity
  8
0
  6
SLD-Plná
 62
     7
370
    25
100
AcDbLine
 10
6527.6041386781
 20
5047.4572457042
 30
0.0
 11
6527.8841386781
 21
5047.4572457042
 31
0.0
  0
ARC
  5
93
330
1F
100
AcDbEntity
  8
0
  6
SLD-Plná
 62
     7
370
    25
100
AcDbCircle
 10
6525.8188639528
 20
5051.2572457042
 30
0.0
 40
4.324969328314634
100
AcDbArc
 50
26.059831153
 51
61.4762140417
  0
ARC
  5
94
330
1F
100
AcDbEntity
  8
0
  6
SLD-Plná
 62
     7
370
    25
100
AcDbCircle
 10
6525.8188639528
 20
5051.2572457042
 30
0.0
 40
4.324969328314234
100
AcDbArc
 50
298.5237859583
 51
333.940168847
  0
ARC
  5
95
330
1F
100
AcDbEntity
  8
0
  6
SLD-Plná
 62
     7
370
    25
100
AcDbCircle
 10
6527.3041386781
 20
5053.4572457042
 30
0.0
 40
0.1999999999998181
100
AcDbArc
 50
299.9999999999
 51
0.0
  0
ARC
  5
96
330
1F
100
AcDbEntity
  8
0
  6
SLD-Plná
 62
     7
370
    25
100
AcDbCircle
 10
6527.3041386781
 20
5049.0572457042
 30
0.0
 40
0.1999999999998181
100
AcDbArc
 50
0.0
 51
60.0
  0
LINE
  5
97
330
1F
100
AcDbEntity
  8
0
  6
SLD-Plná
 62
     7
370
    25
100
AcDbLine
 10
6527.7841386781
 20
4905.0572457042
 30
0.0
 11
6527.6041386781
 21
4905.0572457042
 31
0.0
  0
LINE
  5
98
330
1F
100
AcDbEntity
  8
0
  6
SLD-Plná
 62
     7
370
    25
100
AcDbLine
 10
6527.5041386781
 20
4905.0572457042
 30
0.0
 11
6527.4041386781
 21
4905.0572457042
 31
0.0
  0
LINE
  5
99
330
1F
100
AcDbEntity
  8
0
  6
SLD-Plná
 62
     7
370
    25
100
AcDbLine
 10
6527.4041386781
 20
4897.4572457042
 30
0.0
 11
6527.5041386781
 21
4897.4572457042
 31
0.0
  0
LINE
  5
9A
330
1F
100
AcDbEntity
  8
0
  6
SLD-Plná
 62
     7
370
    25
100
AcDbLine
 10
6527.6041386781
 20
4897.4572457042
 30
0.0
 11
6527.7841386781
 21
4897.4572457042
 31
0.0
  0
ARC
  5
9B
330
1F
100
AcDbEntity
  8
0
  6
SLD-Plná
 62
     7
370
    25
100
AcDbCircle
 10
6525.7188639528
 20
4901.2572457042
 30
0.0
 40
4.324969328315037
100
AcDbArc
 50
26.059831153
 51
61.4762140417
  0
ARC
  5
9C
330
1F
100
AcDbEntity
  8
0
  6
SLD-Plná
 62
     7
370
    25
100
AcDbCircle
 10
6525.7188639528
 20
4901.2572457042
 30
0.0
 40
4.324969328315037
100
AcDbArc
 50
298.5237859583
 51
333.940168847
  0
ARC
  5
9D
330
1F
100
AcDbEntity
  8
0
  6
SLD-Plná
 62
     7
370
    25
100
AcDbCircle
 10
6525.8188639528
 20
5218.2572457042
 30
0.0
 40
4.324969328314634
100
AcDbArc
 50
26.059831153
 51
61.4762140417
  0
ARC
  5
9E
330
1F
100
AcDbEntity
  8
0
  6
SLD-Plná
 62
     7
370
    25
100
AcDbCircle
 10
6525.8188639528
 20
5218.2572457042
 30
0.0
 40
4.324969328314602
100
AcDbArc
 50
298.5237859583
 51
333.940168847
  0
LINE
  5
9F
330
1F
100
AcDbEntity
  8
0
  6
SLD-Plná
 62
     7
370
    25
100
AcDbLine
 10
6527.8841386781
 20
5222.0572457042
 30
0.0
 11
6527.6041386781
 21
5222.0572457042
 31
0.0
  0
LINE
  5
A0
330
1F
100
AcDbEntity
  8
0
  6
SLD-Plná
 62
     7
370
    25
100
AcDbLine
 10
6527.6041386781
 20
5214.4572457042
 30
0.0
 11
6527.8841386781
 21
5214.4572457042
 31
0.0
  0
ARC
  5
A1
330
1F
100
AcDbEntity
  8
0
  6
SLD-Plná
 62
     7
370
    25
100
AcDbCircle
 10
6527.3041386781
 20
5220.4572457042
 30
0.0
 40
0.1999999999998181
100
AcDbArc
 50
299.9999999999
 51
0.0
  0
ARC
  5
A2
330
1F
100
AcDbEntity
  8
0
  6
SLD-Plná
 62
     7
370
    25
100
AcDbCircle
 10
6527.3041386781
 20
5216.0572457042
 30
0.0
 40
0.1999999999998181
100
AcDbArc
 50
0.0
 51
60.0000000001
  0
ARC
  5
A3
330
1F
100
AcDbEntity
  8
0
  6
SLD-Plná
 62
     7
370
    25
100
AcDbCircle
 10
6489.9041386781
 20
5562.2572457042
 30
0.0
 40
22.5
100
AcDbArc
 50
0.0
 51
180.0
  0
LINE
  5
A4
330
1F
100
AcDbEntity
  8
0
  6
SLD-Plná
 62
     7
370
    25
100
AcDbLine
 10
6467.4041386781
 20
5562.2572457042
 30
0.0
 11
6467.4041386781
 21
5559.7572457042
 31
0.0
  0
LINE
  5
A5
330
1F
100
AcDbEntity
  8
0
  6
SLD-Plná
 62
     7
370
    25
100
AcDbLine
 10
6512.4041386781
 20
5559.7572457042
 30
0.0
 11
6512.4041386781
 21
5562.2572457042
 31
0.0
  0
LINE
  5
A6
330
1F
100
AcDbEntity
  8
0
  6
SLD-Plná
 62
     7
370
    25
100
AcDbLine
 10
6529.4041386781
 20
5522.2572457042
 30
0.0
 11
6529.4041386781
 21
5497.2572457042
 31
0.0
  0
LINE
  5
A7
330
1F
100
AcDbEntity
  8
0
  6
SLD-Plná
 62
     7
370
    25
100
AcDbLine
 10
6527.9041386781
 20
5495.7572457042
 30
0.0
 11
6527.9041386781
 21
5523.7572457042
 31
0.0
  0
LINE
  5
A8
330
1F
100
AcDbEntity
  8
0
  6
SLD-Plná
 62
     7
370
    25
100
AcDbLine
 10
6529.4041386781
 20
5472.2572457042
 30
0.0
 11
6529.4041386781
 21
5447.2572457042
 31
0.0
  0
LINE
  5
A9
330
1F
100
AcDbEntity
  8
0
  6
SLD-Plná
 62
     7
370
    25
100
AcDbLine
 10
6527.9041386781
 20
5445.7572457042
 30
0.0
 11
6527.9041386781
 21
5473.7572457042
 31
0.0
  0
LINE
  5
AA
330
1F
100
AcDbEntity
  8
0
  6
SLD-Plná
 62
     7
370
    25
100
AcDbLine
 10
6529.7041386781
 20
5370.1572457042
 30
0.0
 11
6529.7041386781
 21
5366.3572457042
 31
0.0
  0
LINE
  5
AB
330
1F
100
AcDbEntity
  8
0
  6
SLD-Plná
 62
     7
370
    25
100
AcDbLine
 10
6527.8841386781
 20
5372.0572457042
 30
0.0
 11
6527.8841386781
 21
5364.4572457042
 31
0.0
  0
LINE
  5
AC
330
1F
100
AcDbEntity
  8
0
  6
SLD-Plná
 62
     7
370
    25
100
AcDbLine
 10
6527.8841386781
 20
5055.0572457042
 30
0.0
 11
6527.8841386781
 21
5047.4572457042
 31
0.0
  0
LINE
  5
AD
330
1F
100
AcDbEntity
  8
0
  6
SLD-Plná
 62
     7
370
    25
100
AcDbLine
 10
6529.7041386781
 20
5053.1572457042
 30
0.0
 11
6529.7041386781
 21
5049.3572457042
 31
0.0
  0
LINE
  5
AE
330
1F
100
AcDbEntity
  8
0
  6
SLD-Plná
 62
     7
370
    25
100
AcDbLine
 10
6527.7841386781
 20
4905.0572457042
 30
0.0
 11
6527.7841386781
 21
4897.4572457042
 31
0.0
  0
LINE
  5
AF
330
1F
100
AcDbEntity
  8
0
  6
SLD-Plná
 62
     7
370
    25
100
AcDbLine
 10
6529.6041386781
 20
4903.1572457042
 30
0.0
 11
6529.6041386781
 21
4899.3572457042
 31
0.0
  0
LINE
  5
B0
330
1F
100
AcDbEntity
  8
0
  6
SLD-Plná
 62
     7
370
    25
100
AcDbLine
 10
6529.7041386781
 20
5220.1572457042
 30
0.0
 11
6529.7041386781
 21
5216.3572457042
 31
0.0
  0
LINE
  5
B1
330
1F
100
AcDbEntity
  8
0
  6
SLD-Plná
 62
     7
370
    25
100
AcDbLine
 10
6527.8841386781
 20
5222.0572457042
 30
0.0
 11
6527.8841386781
 21
5214.4572457042
 31
0.0
  0
LINE
  5
B2
330
1F
100
AcDbEntity
  8
0
  6
SLD-Plná
 62
     7
370
    25
100
AcDbLine
 10
6527.6041386781
 20
5404.7572457042
 30
0.0
 11
6527.5041386781
 21
5404.7572457042
 31
0.0
  0
LINE
  5
B3
330
1F
100
AcDbEntity
  8
0
  6
SLD-Plná
 62
     7
370
    25
100
AcDbLine
 10
6527.6041386781
 20
5404.7572457042
 30
0.0
 11
6527.6041386781
 21
4864.7572457042
 31
0.0
  0
LINE
  5
B4
330
1F
100
AcDbEntity
  8
0
  6
SLD-Plná
 62
     7
370
    25
100
AcDbLine
 10
6527.5041386781
 20
5404.7572457042
 30
0.0
 11
6527.5041386781
 21
4864.7572457042
 31
0.0
  0
LINE
  5
B5
330
1F
100
AcDbEntity
  8
0
  6
SLD-Plná
 62
     7
370
    25
100
AcDbLine
 10
6527.6041386781
 20
4864.7572457042
 30
0.0
 11
6527.5041386781
 21
4864.7572457042
 31
0.0
  0
LWPOLYLINE
  5
B6
330
1F
100
AcDbEntity
  8
0
  6
SLD-Plná
 62
     7
370
    25
100
AcDbPolyline
 90
       17
 70
   128
 43
0.0
 10
6479.9737987906
 20
5579.836400958
 10
6480.5551433314
 20
5579.7018377111
 10
6480.8576822671
 20
5579.318634005
 10
6480.8353567872
 20
5578.7451291302
 10
6480.4915657436
 20
5578.068634005
 10
6479.8786482062
 20
5577.3921388798
 10
6479.0899153141
 20
5576.818634005
 10
6478.2454445001
 20
5576.4354302989
 10
6477.4737987906
 20
5576.3008670521
 10
6476.8924542498
 20
5576.4354302989
 10
6476.5899153141
 20
5576.818634005
 10
6476.612240794
 20
5577.3921388798
 10
6476.9560318376
 20
5578.068634005
 10
6477.568949375
 20
5578.7451291302
 10
6478.3576822671
 20
5579.318634005
 10
6479.2021530811
 20
5579.7018377111
 10
6479.9737987906
 20
5579.836400958
  0
LINE
  5
B7
330
1F
100
AcDbEntity
  8
0
  6
SLD-Plná
 62
     7
370
    25
100
AcDbLine
 10
6527.4041386781
 20
5108.7572457042
 30
0.0
 11
6437.4041386781
 21
4709.7572457042
 31
0.0
  0
LINE
  5
B8
330
1F
100
AcDbEntity
  8
0
  6
SLD-Plná
 62
     7
370
    25
100
AcDbLine
 10
6257.4041386781
 20
4709.7572457042
 30
0.0
 11
6437.4041386781
 21
4709.7572457042
 31
0.0
  0
LINE
  5
B9
330
1F
100
AcDbEntity
  8
0
  6
SLD-Plná
 62
     7
370
    25
100
AcDbLine
 10
6257.4041386781
 20
4709.7572457042
 30
0.0
 11
6167.4041386781
 21
5108.7572457042
 31
0.0
  0
LINE
  5
BA
330
1F
100
AcDbEntity
  8
0
  6
SLD-Plná
 62
     7
370
    25
100
AcDbLine
 10
6523.2465697067
 20
5108.7572457042
 30
0.0
 11
6527.4041386781
 21
5108.7572457042
 31
0.0
  0
LINE
  5
BB
330
1F
100
AcDbEntity
  8
0
  6
SLD-Plná
 62
     7
370
    25
100
AcDbLine
 10
6490.1778945209
 20
5108.7572457042
 30
0.0
 11
6523.2465697067
 21
5108.7572457042
 31
0.0
  0
LINE
  5
BC
330
1F
100
AcDbEntity
  8
0
  6
SLD-Plná
 62
     7
370
    25
100
AcDbLine
 10
6204.6303828352
 20
5108.7572457042
 30
0.0
 11
6490.1778945209
 21
5108.7572457042
 31
0.0
  0
LINE
  5
BD
330
1F
100
AcDbEntity
  8
0
  6
SLD-Plná
 62
     7
370
    25
100
AcDbLine
 10
6171.5617076495
 20
5108.7572457042
 30
0.0
 11
6204.6303828352
 21
5108.7572457042
 31
0.0
  0
LINE
  5
BE
330
1F
100
AcDbEntity
  8
0
  6
SLD-Plná
 62
     7
370
    25
100
AcDbLine
 10
6167.4041386781
 20
5108.7572457042
 30
0.0
 11
6171.5617076495
 21
5108.7572457042
 31
0.0
  0
LINE
  5
BF
330
1F
100
AcDbEntity
  8
0
  6
SLD-Plná
 62
     7
370
    25
100
AcDbLine
 10
6167.4041386781
 20
4709.7572457042
 30
0.0
 11
6167.4041386781
 21
5559.7572457042
 31
0.0
  0
LINE
  5
C0
330
1F
100
AcDbEntity
  8
0
  6
SLD-Plná
 62
     7
370
    25
100
AcDbLine
 10
6527.4041386781
 20
4709.7572457042
 30
0.0
 11
6527.4041386781
 21
5559.7572457042
 31
0.0
  0
LINE
  5
C1
330
1F
100
AcDbEntity
  8
0
  6
SLD-Plná
 62
     7
370
    25
100
AcDbLine
 10
6167.4041386781
 20
5559.7572457042
 30
0.0
 11
6527.4041386781
 21
5559.7572457042
 31
0.0
  0
LINE
  5
C2
330
1F
100
AcDbEntity
  8
0
  6
SLD-Plná
 62
     7
370
    25
100
AcDbLine
 10
6167.4041386781
 20
4709.7572457042
 30
0.0
 11
6257.4041386781
 21
4709.7572457042
 31
0.0
  0
LINE
  5
C3
330
1F
100
AcDbEntity
  8
0
  6
SLD-Plná
 62
     7
370
    25
100
AcDbLine
 10
6437.4041386781
 20
4709.7572457042
 30
0.0
 11
6527.4041386781
 21
4709.7572457042
 31
0.0
  0
LINE
  5
C4
330
1F
100
AcDbEntity
  8
0
  6
SLD-Plná
 62
     7
370
    25
100
AcDbLine
 10
6167.4041386781
 20
5582.7572457042
 30
0.0
 11
6480.6305201826
 21
5582.7572457042
 31
0.0
  0
LINE
  5
C5
330
1F
100
AcDbEntity
  8
0
  6
SLD-Plná
 62
     7
370
    25
100
AcDbLine
 10
6499.1777571736
 20
5582.7572457042
 30
0.0
 11
6527.4041386781
 21
5582.7572457042
 31
0.0
  0
LINE
  5
C6
330
1F
100
AcDbEntity
  8
0
  6
SLD-Plná
 62
     7
370
    25
100
AcDbLine
 10
6167.4041386781
 20
5582.7572457042
 30
0.0
 11
6167.4041386781
 21
5559.7572457042
 31
0.0
  0
LINE
  5
C7
330
1F
100
AcDbEntity
  8
0
  6
SLD-Plná
 62
     7
370
    25
100
AcDbLine
 10
6527.4041386781
 20
5582.7572457042
 30
0.0
 11
6527.4041386781
 21
5559.7572457042
 31
0.0
  0
LINE
  5
C8
330
1F
100
AcDbEntity
  8
0
  6
SLD-Plná
 62
     8
370
    25
100
AcDbLine
 10
6505.8140412548
 20
5562.2572457042
 30
0.0
 11
6512.4041386781
 21
5562.2572457042
 31
0.0
  0
LINE
  5
C9
330
1F
100
AcDbEntity
  8
0
  6
SLD-Plná
 62
     8
370
    25
100
AcDbLine
 10
6467.4041386781
 20
5562.2572457042
 30
0.0
 11
6505.8140412548
 21
5562.2572457042
 31
0.0
  0
LINE
  5
CA
330
1F
100
AcDbEntity
  8
0
  6
SLD-Plná
 62
     7
370
    25
100
AcDbLine
 10
6527.4041386781
 20
4134.3219825012
 30
0.0
 11
6527.9041386781
 21
4134.3219825012
 31
0.0
  0
LINE
  5
CB
330
1F
100
AcDbEntity
  8
0
  6
SLD-Plná
 62
     7
370
    25
100
AcDbLine
 10
6527.9041386781
 20
4162.3219825012
 30
0.0
 11
6527.4041386781
 21
4162.3219825012
 31
0.0
  0
LINE
  5
CC
330
1F
100
AcDbEntity
  8
0
  6
SLD-Plná
 62
     7
370
    25
100
AcDbLine
 10
6527.9041386781
 20
4134.3219825012
 30
0.0
 11
6529.4041386781
 21
4135.8219825012
 31
0.0
  0
LINE
  5
CD
330
1F
100
AcDbEntity
  8
0
  6
SLD-Plná
 62
     7
370
    25
100
AcDbLine
 10
6529.4041386781
 20
4160.8219825012
 30
0.0
 11
6527.9041386781
 21
4162.3219825012
 31
0.0
  0
LINE
  5
CE
330
1F
100
AcDbEntity
  8
0
  6
SLD-Plná
 62
     7
370
    25
100
AcDbLine
 10
6527.8841386781
 20
4133.6219825012
 30
0.0
 11
6527.6041386781
 21
4133.6219825012
 31
0.0
  0
LINE
  5
CF
330
1F
100
AcDbEntity
  8
0
  6
SLD-Plná
 62
     7
370
    25
100
AcDbLine
 10
6527.6041386781
 20
4126.0219825012
 30
0.0
 11
6527.8841386781
 21
4126.0219825012
 31
0.0
  0
ARC
  5
D0
330
1F
100
AcDbEntity
  8
0
  6
SLD-Plná
 62
     7
370
    25
100
AcDbCircle
 10
6525.8188639528
 20
4129.8219825012
 30
0.0
 40
4.324969328314634
100
AcDbArc
 50
26.059831153
 51
61.4762140417
  0
ARC
  5
D1
330
1F
100
AcDbEntity
  8
0
  6
SLD-Plná
 62
     7
370
    25
100
AcDbCircle
 10
6525.8188639528
 20
4129.8219825012
 30
0.0
 40
4.324969328314602
100
AcDbArc
 50
298.5237859583
 51
333.940168847
  0
ARC
  5
D2
330
1F
100
AcDbEntity
  8
0
  6
SLD-Plná
 62
     7
370
    25
100
AcDbCircle
 10
6527.3041386781
 20
4132.0219825012
 30
0.0
 40
0.2000000000004524
100
AcDbArc
 50
299.9999999997
 51
0.0
  0
ARC
  5
D3
330
1F
100
AcDbEntity
  8
0
  6
SLD-Plná
 62
     7
370
    25
100
AcDbCircle
 10
6527.3041386781
 20
4127.6219825012
 30
0.0
 40
0.1999999999996648
100
AcDbArc
 50
0.0
 51
60.0000000001
  0
LINE
  5
D4
330
1F
100
AcDbEntity
  8
0
  6
SLD-Plná
 62
     7
370
    25
100
AcDbLine
 10
6527.5041386781
 20
4295.6219825012
 30
0.0
 11
6527.4041386781
 21
4295.6219825012
 31
0.0
  0
LINE
  5
D5
330
1F
100
AcDbEntity
  8
0
  6
SLD-Plná
 62
     7
370
    25
100
AcDbLine
 10
6527.4041386781
 20
4288.0219825012
 30
0.0
 11
6527.5041386781
 21
4288.0219825012
 31
0.0
  0
LINE
  5
D6
330
1F
100
AcDbEntity
  8
0
  6
SLD-Plná
 62
     7
370
    25
100
AcDbLine
 10
6527.5041386781
 20
4133.6219825012
 30
0.0
 11
6527.4041386781
 21
4133.6219825012
 31
0.0
  0
LINE
  5
D7
330
1F
100
AcDbEntity
  8
0
  6
SLD-Plná
 62
     7
370
    25
100
AcDbLine
 10
6527.4041386781
 20
4126.0219825012
 30
0.0
 11
6527.5041386781
 21
4126.0219825012
 31
0.0
  0
ARC
  5
D8
330
1F
100
AcDbEntity
  8
0
  6
SLD-Plná
 62
     7
370
    25
100
AcDbCircle
 10
6525.8188639528
 20
4291.8219825012
 30
0.0
 40
4.324969328314634
100
AcDbArc
 50
26.059831153
 51
61.4762140417
  0
ARC
  5
D9
330
1F
100
AcDbEntity
  8
0
  6
SLD-Plná
 62
     7
370
    25
100
AcDbCircle
 10
6525.8188639528
 20
4291.8219825012
 30
0.0
 40
4.324969328314602
100
AcDbArc
 50
298.5237859583
 51
333.940168847
  0
LINE
  5
DA
330
1F
100
AcDbEntity
  8
0
  6
SLD-Plná
 62
     7
370
    25
100
AcDbLine
 10
6527.8841386781
 20
4295.6219825012
 30
0.0
 11
6527.6041386781
 21
4295.6219825012
 31
0.0
  0
LINE
  5
DB
330
1F
100
AcDbEntity
  8
0
  6
SLD-Plná
 62
     7
370
    25
100
AcDbLine
 10
6527.6041386781
 20
4288.0219825012
 30
0.0
 11
6527.8841386781
 21
4288.0219825012
 31
0.0
  0
ARC
  5
DC
330
1F
100
AcDbEntity
  8
0
  6
SLD-Plná
 62
     7
370
    25
100
AcDbCircle
 10
6527.3041386781
 20
4294.0219825012
 30
0.0
 40
0.2000000000004524
100
AcDbArc
 50
299.9999999997
 51
0.0
  0
ARC
  5
DD
330
1F
100
AcDbEntity
  8
0
  6
SLD-Plná
 62
     7
370
    25
100
AcDbCircle
 10
6527.3041386781
 20
4289.6219825012
 30
0.0
 40
0.1999999999996648
100
AcDbArc
 50
0.0
 51
60.0000000001
  0
LINE
  5
DE
330
1F
100
AcDbEntity
  8
0
  6
SLD-Plná
 62
     7
370
    25
100
AcDbLine
 10
6527.9041386781
 20
4134.3219825012
 30
0.0
 11
6527.9041386781
 21
4162.3219825012
 31
0.0
  0
LINE
  5
DF
330
1F
100
AcDbEntity
  8
0
  6
SLD-Plná
 62
     7
370
    25
100
AcDbLine
 10
6529.4041386781
 20
4160.8219825012
 30
0.0
 11
6529.4041386781
 21
4135.8219825012
 31
0.0
  0
LINE
  5
E0
330
1F
100
AcDbEntity
  8
0
  6
SLD-Plná
 62
     7
370
    25
100
AcDbLine
 10
6527.8841386781
 20
4133.6219825012
 30
0.0
 11
6527.8841386781
 21
4126.0219825012
 31
0.0
  0
LINE
  5
E1
330
1F
100
AcDbEntity
  8
0
  6
SLD-Plná
 62
     7
370
    25
100
AcDbLine
 10
6529.7041386781
 20
4131.7219825012
 30
0.0
 11
6529.7041386781
 21
4127.9219825012
 31
0.0
  0
LINE
  5
E2
330
1F
100
AcDbEntity
  8
0
  6
SLD-Plná
 62
     7
370
    25
100
AcDbLine
 10
6529.7041386781
 20
4293.7219825012
 30
0.0
 11
6529.7041386781
 21
4289.9219825012
 31
0.0
  0
LINE
  5
E3
330
1F
100
AcDbEntity
  8
0
  6
SLD-Plná
 62
     7
370
    25
100
AcDbLine
 10
6527.8841386781
 20
4295.6219825012
 30
0.0
 11
6527.8841386781
 21
4288.0219825012
 31
0.0
  0
LINE
  5
E4
330
1F
100
AcDbEntity
  8
0
  6
SLD-Plná
 62
     7
370
    25
100
AcDbLine
 10
6527.6041386781
 20
4298.3219825012
 30
0.0
 11
6527.6041386781
 21
4162.3219825012
 31
0.0
  0
LINE
  5
E5
330
1F
100
AcDbEntity
  8
0
  6
SLD-Plná
 62
     7
370
    25
100
AcDbLine
 10
6527.6041386781
 20
4134.3219825012
 30
0.0
 11
6527.6041386781
 21
4123.3219825012
 31
0.0
  0
LINE
  5
E6
330
1F
100
AcDbEntity
  8
0
  6
SLD-Plná
 62
     7
370
    25
100
AcDbLine
 10
6527.6041386781
 20
4123.3219825012
 30
0.0
 11
6527.5041386781
 21
4123.3219825012
 31
0.0
  0
LINE
  5
E7
330
1F
100
AcDbEntity
  8
0
  6
SLD-Plná
 62
     7
370
    25
100
AcDbLine
 10
6527.5041386781
 20
4298.3219825012
 30
0.0
 11
6527.5041386781
 21
4162.3219825012
 31
0.0
  0
LINE
  5
E8
330
1F
100
AcDbEntity
  8
0
  6
SLD-Plná
 62
     7
370
    25
100
AcDbLine
 10
6527.5041386781
 20
4134.3219825012
 30
0.0
 11
6527.5041386781
 21
4123.3219825012
 31
0.0
  0
LINE
  5
E9
330
1F
100
AcDbEntity
  8
0
  6
SLD-Plná
 62
     7
370
    25
100
AcDbLine
 10
6527.6041386781
 20
4298.3219825012
 30
0.0
 11
6527.5041386781
 21
4298.3219825012
 31
0.0
  0
CIRCLE
  5
EA
330
1F
100
AcDbEntity
  8
0
  6
SLD-Plná
 62
     7
370
    25
100
AcDbCircle
 10
6489.9041386781
 20
4210.8219825012
 30
0.0
 40
22.50000000000058
  0
LWPOLYLINE
  5
EB
330
1F
100
AcDbEntity
  8
0
  6
SLD-Plná
 62
     7
370
    25
100
AcDbPolyline
 90
       17
 70
   128
 43
0.0
 10
6479.9737987906
 20
4200.8916426137
 10
6480.5551433314
 20
4200.1199969041
 10
6480.8576822671
 20
4199.2755260901
 10
6480.8353567872
 20
4198.486793198
 10
6480.4915657436
 20
4197.8738756607
 10
6479.8786482062
 20
4197.5300846171
 10
6479.0899153141
 20
4197.5077591372
 10
6478.2454445001
 20
4197.8102980728
 10
6477.4737987906
 20
4198.3916426137
 10
6476.8924542498
 20
4199.1632883232
 10
6476.5899153141
 20
4200.0077591372
 10
6476.612240794
 20
4200.7964920293
 10
6476.9560318376
 20
4201.4094095666
 10
6477.568949375
 20
4201.7532006102
 10
6478.3576822671
 20
4201.7755260901
 10
6479.2021530811
 20
4201.4729871545
 10
6479.9737987906
 20
4200.8916426137
  0
LINE
  5
EC
330
1F
100
AcDbEntity
  8
0
  6
SLD-Plná
 62
     7
370
    25
100
AcDbLine
 10
6527.4041386781
 20
3650.8229590637
 30
0.0
 11
6527.4041386781
 21
3888.3219609459
 31
0.0
  0
ARC
  5
ED
330
1F
100
AcDbEntity
  8
0
  6
SLD-Plná
 62
     7
370
    25
100
AcDbCircle
 10
6257.8660907862
 20
3650.7822680851
 30
0.0
 40
269.538050963359
100
AcDbArc
 50
349.9235557162
 51
0.0086496928
  0
ARC
  5
EE
330
1F
100
AcDbEntity
  8
0
  6
SLD-Plná
 62
     7
370
    25
100
AcDbCircle
 10
6237.8478851176
 20
3654.2704189579
 30
0.0
 40
289.8577814003904
100
AcDbArc
 50
330.5203336162
 51
349.9370125252
  0
ARC
  5
EF
330
1F
100
AcDbEntity
  8
0
  6
SLD-Plná
 62
     7
370
    25
100
AcDbCircle
 10
6347.4041386781
 20
3592.3219825011
 30
0.0
 40
164.0000000000012
100
AcDbArc
 50
209.4748592676
 51
330.5251407323
  0
ARC
  5
F0
330
1F
100
AcDbEntity
  8
0
  6
SLD-Plná
 62
     7
370
    25
100
AcDbCircle
 10
6456.9603922312
 20
3654.2704189552
 30
0.0
 40
289.8577813926146
100
AcDbArc
 50
190.0629874745
 51
209.4796663841
  0
ARC
  5
F1
330
1F
100
AcDbEntity
  8
0
  6
SLD-Plná
 62
     7
370
    25
100
AcDbCircle
 10
6436.9421865704
 20
3650.7822680851
 30
0.0
 40
269.5380509637482
100
AcDbArc
 50
179.9913503072
 51
190.0764442838
  0
LINE
  5
F2
330
1F
100
AcDbEntity
  8
0
  6
SLD-Plná
 62
     7
370
    25
100
AcDbLine
 10
6167.4041386781
 20
3888.3219609459
 30
0.0
 11
6167.4041386781
 21
3650.8229590637
 31
0.0
  0
LINE
  5
F3
330
1F
100
AcDbEntity
  8
0
  6
SLD-Plná
 62
     7
370
    25
100
AcDbLine
 10
6219.98349964
 20
3940.9013282043
 30
0.0
 11
6167.4041386781
 21
3888.3219609459
 31
0.0
  0
ARC
  5
F4
330
1F
100
AcDbEntity
  8
0
  6
SLD-Plná
 62
     7
370
    25
100
AcDbCircle
 10
6347.4041386781
 20
4068.3219825012
 30
0.0
 40
180.2000066435029
100
AcDbArc
 50
225.0000034306
 51
314.9999965694
  0
ARC
  5
F5
330
1F
100
AcDbEntity
  8
0
  6
SLD-Plná
 62
     7
370
    25
100
AcDbCircle
 10
6347.4041386781
 20
3618.3218164802
 30
0.0
 40
129.9999929273932
100
AcDbArc
 50
182.4415424905
 51
357.5584575084
  0
LINE
  5
F6
330
1F
100
AcDbEntity
  8
0
  6
SLD-Plná
 62
     7
370
    25
100
AcDbLine
 10
6477.2861183141
 20
3612.7838089916
 30
0.0
 11
6479.7838486918
 21
3671.3609130643
 31
0.0
  0
ARC
  5
F7
330
1F
100
AcDbEntity
  8
0
  6
SLD-Plná
 62
     7
370
    25
100
AcDbCircle
 10
6347.4041386781
 20
3677.0060574875
 30
0.0
 40
132.5000199202252
100
AcDbArc
 50
357.5581823968
 51
182.4418176032
  0
LINE
  5
F8
330
1F
100
AcDbEntity
  8
0
  6
SLD-Plná
 62
     7
370
    25
100
AcDbLine
 10
6215.0244286644
 20
3671.3609130643
 30
0.0
 11
6217.5221590419
 21
3612.7838089942
 31
0.0
  0
LINE
  5
F9
330
1F
100
AcDbEntity
  8
0
  6
SLD-Plná
 62
     7
370
    25
100
AcDbLine
 10
6527.4041386781
 20
3888.3219609459
 30
0.0
 11
6474.8247777162
 21
3940.9013282043
 31
0.0
  0
LINE
  5
FA
330
1F
100
AcDbEntity
  8
0
  6
SLD-Plná
 62
     7
370
    25
100
AcDbLine
 10
6219.98349964
 20
3940.9013282043
 30
0.0
 11
6221.2378862065
 21
3939.9394418764
 31
0.0
  0
LINE
  5
FB
330
1F
100
AcDbEntity
  8
0
  6
SLD-Plná
 62
     7
370
    25
100
AcDbLine
 10
6474.8247777162
 20
3940.9013282043
 30
0.0
 11
6473.5703911497
 21
3939.9394418764
 31
0.0
  0
CIRCLE
  5
FC
330
1F
100
AcDbEntity
  8
0
  6
SLD-Plná
 62
     7
370
    25
100
AcDbCircle
 10
6347.4016029483
 20
3679.8218716991
 30
0.0
 40
37.49988928369974
  0
LINE
  5
FD
330
1F
100
AcDbEntity
  8
0
  6
SLD-Plná
 62
     7
370
    25
100
AcDbLine
 10
6527.4041386781
 20
4328.3219825012
 30
0.0
 11
6167.4041386781
 21
4328.3219825012
 31
0.0
  0
LINE
  5
FE
330
1F
100
AcDbEntity
  8
0
  6
SLD-Plná
 62
     7
370
    25
100
AcDbLine
 10
6527.4041386781
 20
4248.3219825012
 30
0.0
 11
6527.4041386781
 21
4328.3219825012
 31
0.0
  0
LINE
  5
FF
330
1F
100
AcDbEntity
  8
0
  6
SLD-Plná
 62
     7
370
    25
100
AcDbLine
 10
6167.4041386781
 20
4248.3219825012
 30
0.0
 11
6527.4041386781
 21
4248.3219825012
 31
0.0
  0
LINE
  5
100
330
1F
100
AcDbEntity
  8
0
  6
SLD-Plná
 62
     7
370
    25
100
AcDbLine
 10
6167.4041386781
 20
4328.3219825012
 30
0.0
 11
6167.4041386781
 21
4248.3219825012
 31
0.0
  0
ARC
  5
101
330
1F
100
AcDbEntity
  8
0
  6
SLD-Plná
 62
     7
370
    25
100
AcDbCircle
 10
6347.4041386781
 20
4068.3219825012
 30
0.0
 40
180.0
100
AcDbArc
 50
180.0
 51
0.0
  0
CIRCLE
  5
102
330
1F
100
AcDbEntity
  8
0
  6
SLD-Plná
 62
     7
370
    25
100
AcDbCircle
 10
6347.4041386781
 20
4068.3219825012
 30
0.0
 40
156.5
  0
LINE
  5
103
330
1F
100
AcDbEntity
  8
0
  6
SLD-Plná
 62
     7
370
    25
100
AcDbLine
 10
6527.4041386781
 20
4068.3219825012
 30
0.0
 11
6527.4041386781
 21
4248.3219825012
 31
0.0
  0
LINE
  5
104
330
1F
100
AcDbEntity
  8
0
  6
SLD-Plná
 62
     7
370
    25
100
AcDbLine
 10
6167.4041386781
 20
4248.3219825012
 30
0.0
 11
6167.4041386781
 21
4068.3219825012
 31
0.0
  0
SPLINE
  5
105
330
1F
100
AcDbEntity
  8
0
  6
SLD-Plná
 62
     7
370
    25
100
AcDbSpline
210
0.0
220
0.0
230
1.0
 70
    11
 71
     3
 72
    26
 73
    22
 74
     0
 42
0.00000001
 43
0.00000001
 40
0.0
 40
0.0
 40
0.0
 40
0.0
 40
0.0533991136302388
 40
0.1068025368232532
 40
0.1601205639837948
 40
0.2134760584794185
 40
0.2670143704306985
 40
0.3208012840636589
 40
0.3747943751533749
 40
0.4288603372095333
 40
0.482833002204303
 40
0.5365875882915045
 40
0.590096380305843
 40
0.6434395269445384
 40
0.6967680029604946
 40
0.7502379262423873
 40
0.80394456322645
 40
0.8578815636640341
 40
0.9119418291023691
 40
0.965962265299339
 40
0.9999999999999999
 40
0.9999999999999999
 40
0.9999999999999999
 40
0.9999999999999999
 10
6344.910291625486
 20
4087.271295935332
 30
0.0
 10
6345.357124448461
 20
4087.509544538456
 30
0.0
 10
6346.250826155949
 20
4087.986060972501
 30
0.0
 10
6347.796312166378
 20
4088.089501546192
 30
0.0
 10
6349.276749929442
 20
4087.712002431573
 30
0.0
 10
6350.552702235394
 20
4086.858947903876
 30
0.0
 10
6351.476547493686
 20
4085.633891111194
 30
0.0
 10
6351.945357455123
 20
4084.167790761384
 30
0.0
 10
6351.901701788379
 20
4082.624828857186
 30
0.0
 10
6351.346889712942
 20
4081.181240076347
 30
0.0
 10
6350.343552925134
 20
4080.004327582854
 30
0.0
 10
6349.008709722276
 20
4079.229043956716
 30
0.0
 10
6347.496835501721
 20
4078.940698462137
 30
0.0
 10
6345.978690968235
 20
4079.167341389676
 30
0.0
 10
6344.621851489674
 20
4079.880756149772
 30
0.0
 10
6343.575082146865
 20
4081.002314672206
 30
0.0
 10
6342.955930414453
 20
4082.409311987999
 30
0.0
 10
6342.83619176471
 20
4083.948397970507
 30
0.0
 10
6343.238405701732
 20
4085.436425973486
 30
0.0
 10
6343.995440399927
 20
4086.574511636718
 30
0.0
 10
6344.655250613639
 20
4087.077047332288
 30
0.0
 10
6344.910291625486
 20
4087.271295935332
 30
0.0
  0
SPLINE
  5
106
330
1F
100
AcDbEntity
  8
0
  6
SLD-Plná
 62
     7
370
    25
100
AcDbSpline
210
0.0
220
0.0
230
1.0
 70
    11
 71
     3
 72
    26
 73
    22
 74
     0
 42
0.00000001
 43
0.00000001
 40
0.0
 40
0.0
 40
0.0
 40
0.0
 40
0.053462701468918
 40
0.1069194299512086
 40
0.1605334789547993
 40
0.2143928937092046
 40
0.2684234628092309
 40
0.3224752598477972
 40
0.376388444135674
 40
0.4300649062519222
 40
0.4835115777916977
 40
0.5368355486569287
 40
0.5901957650058294
 40
0.6437346945349082
 40
0.6975182073985459
 40
0.7515067439350936
 40
0.8055702747356953
 40
0.8595437931486067
 40
0.9133010604831872
 40
0.9668121046085106
 40
1.0
 40
1.0
 40
1.0
 40
1.0
 10
6334.301498460733
 20
4082.876437709423
 30
0.0
 10
6334.749104990943
 20
4083.115249299763
 30
0.0
 10
6335.644268043645
 20
4083.592845799815
 30
0.0
 10
6337.190379783342
 20
4083.696022768601
 30
0.0
 10
6338.673681767144
 20
4083.317782127406
 30
0.0
 10
6339.95488242261
 20
4082.458817477884
 30
0.0
 10
6340.880366694416
 20
4081.222728206589
 30
0.0
 10
6341.34321845272
 20
4079.746629809625
 30
0.0
 10
6341.288874684059
 20
4078.201740117451
 30
0.0
 10
6340.726046536165
 20
4076.765775838051
 30
0.0
 10
6339.722612441128
 20
4075.600577274538
 30
0.0
 10
6338.393960664489
 20
4074.833671846412
 30
0.0
 10
6336.887848275423
 20
4074.54760296259
 30
0.0
 10
6335.369694889101
 20
4074.774265769212
 30
0.0
 10
6334.008041970316
 20
4075.49156535514
 30
0.0
 10
6332.957868136661
 20
4076.622919036848
 30
0.0
 10
6332.342239057642
 20
4078.041068528143
 30
0.0
 10
6332.232399929689
 20
4079.585162045293
 30
0.0
 10
6332.644191579011
 20
4081.068382920254
 30
0.0
 10
6333.401234023861
 20
4082.192037805996
 30
0.0
 10
6334.052281088547
 20
4082.686977437007
 30
0.0
 10
6334.301498460733
 20
4082.876437709423
 30
0.0
  0
SPLINE
  5
107
330
1F
100
AcDbEntity
  8
0
  6
SLD-Plná
 62
     7
370
    25
100
AcDbSpline
210
0.0
220
0.0
230
1.0
 70
    11
 71
     3
 72
    26
 73
    22
 74
     0
 42
0.00000001
 43
0.00000001
 40
0.0
 40
0.0
 40
0.0
 40
0.0
 40
0.0538573038561359
 40
0.1077083385265809
 40
0.1617004997508536
 40
0.2157561855638947
 40
0.269713869561903
 40
0.3234556183358358
 40
0.3769595375945545
 40
0.4303079922275108
 40
0.4836497536517217
 40
0.5371353943596789
 40
0.5908536174185213
 40
0.6447931867137663
 40
0.6988459377084025
 40
0.7528521820721218
 40
0.8066713751131189
 40
0.8602459726461025
 40
0.913627209317367
 40
0.966950987366993
 40
1.0
 40
1.0
 40
1.0
 40
1.0
 10
6329.216192538408
 20
4071.701538432761
 30
0.0
 10
6329.609772174988
 20
4072.025649485872
 30
0.0
 10
6330.396885634052
 20
4072.673833864391
 30
0.0
 10
6331.900346808368
 20
4073.079367161882
 30
0.0
 10
6333.436398209114
 20
4072.995659109275
 30
0.0
 10
6334.864321671004
 20
4072.396884572845
 30
0.0
 10
6336.010479725509
 20
4071.35977388257
 30
0.0
 10
6336.746032279159
 20
4070.002792320331
 30
0.0
 10
6336.989697381859
 20
4068.483307037261
 30
0.0
 10
6336.718531442349
 20
4066.972497780306
 30
0.0
 10
6335.965394312039
 20
4065.637081198253
 30
0.0
 10
6334.813366616749
 20
4064.623700050295
 30
0.0
 10
6333.388058181843
 20
4064.04608300479
 30
0.0
 10
6331.847418877742
 20
4063.972703452691
 30
0.0
 10
6330.366540448816
 20
4064.415916107851
 30
0.0
 10
6329.11649960707
 20
4065.326924294977
 30
0.0
 10
6328.241801059091
 20
4066.599412807732
 30
0.0
 10
6327.838465025045
 20
4068.087554334176
 30
0.0
 10
6327.953842967986
 20
4069.614922007045
 30
0.0
 10
6328.473297344141
 20
4070.857746485128
 30
0.0
 10
6329.010602336462
 20
4071.468025875065
 30
0.0
 10
6329.216192538408
 20
4071.701538432761
 30
0.0
  0
SPLINE
  5
108
330
1F
100
AcDbEntity
  8
0
  6
SLD-Plná
 62
     7
370
    25
100
AcDbSpline
210
0.0
220
0.0
230
1.0
 70
    11
 71
     3
 72
    26
 73
    22
 74
     0
 42
0.00000001
 43
0.00000001
 40
0.0
 40
0.0
 40
0.0
 40
0.0
 40
0.0539982024503051
 40
0.108000041893428
 40
0.1618946212863477
 40
0.2155592989399141
 40
0.269005970854119
 40
0.3223415150766506
 40
0.3757197274583094
 40
0.4292752703891355
 40
0.4830667690818381
 40
0.5370510040297712
 40
0.5910995960916231
 40
0.6450539996668458
 40
0.6987964229978648
 40
0.7523034152273819
 40
0.805655869522235
 40
0.8590018114651954
 40
0.9124910558144519
 40
0.9662107591823423
 40
1.0
 40
1.0
 40
1.0
 40
1.0
 10
6333.587165512407
 20
4061.072267005817
 30
0.0
 10
6333.978716391198
 20
4061.399425608748
 30
0.0
 10
6334.761844521284
 20
4062.053764850039
 30
0.0
 10
6336.265832194578
 20
4062.470055907405
 30
0.0
 10
6337.803325568529
 20
4062.394848973292
 30
0.0
 10
6339.230695586876
 20
4061.806277587807
 30
0.0
 10
6340.37819103126
 20
4060.783678780151
 30
0.0
 10
6341.122579895337
 20
4059.442003162951
 30
0.0
 10
6341.382977829507
 20
4057.930983808013
 30
0.0
 10
6341.13033484367
 20
4056.416586622837
 30
0.0
 10
6340.389593189248
 20
4055.067223037217
 30
0.0
 10
6339.240386537901
 20
4054.036705128248
 30
0.0
 10
6337.811628101368
 20
4053.445428091593
 30
0.0
 10
6336.267642340493
 20
4053.362856639193
 30
0.0
 10
6334.786653214996
 20
4053.796963178731
 30
0.0
 10
6333.536582818356
 20
4054.694751345889
 30
0.0
 10
6332.65581202762
 20
4055.951385664021
 30
0.0
 10
6332.237778109572
 20
4057.428028084761
 30
0.0
 10
6332.334348379064
 20
4058.955050987339
 30
0.0
 10
6332.841567174539
 20
4060.211122187633
 30
0.0
 10
6333.37946906756
 20
4060.832383534851
 30
0.0
 10
6333.587165512407
 20
4061.072267005817
 30
0.0
  0
SPLINE
  5
109
330
1F
100
AcDbEntity
  8
0
  6
SLD-Plná
 62
     7
370
    25
100
AcDbSpline
210
0.0
220
0.0
230
1.0
 70
    11
 71
     3
 72
    26
 73
    22
 74
     0
 42
0.00000001
 43
0.00000001
 40
0.0
 40
0.0
 40
0.0
 40
0.0
 40
0.0534200676889445
 40
0.1068442726853325
 40
0.1601857701718716
 40
0.2135575932946048
 40
0.2670970638822969
 40
0.3208696022512474
 40
0.3748401380355483
 40
0.4288863279522183
 40
0.4828507394791148
 40
0.5366110880046402
 40
0.5901358466280855
 40
0.6434979919337055
 40
0.6968413025577709
 40
0.7503167227020624
 40
0.8040173351466244
 40
0.8579383235623637
 40
0.9119782383063408
 40
0.9659826069950721
 40
1.0
 40
1.0
 40
1.0
 40
1.0
 10
6344.872327232894
 20
4057.24574049504
 30
0.0
 10
6345.316852366785
 20
4057.488578195366
 30
0.0
 10
6346.205937062397
 20
4057.974272403452
 30
0.0
 10
6347.750729484176
 20
4058.093235371246
 30
0.0
 10
6349.235286318901
 20
4057.730365971032
 30
0.0
 10
6350.519914986036
 20
4056.889667687909
 30
0.0
 10
6351.455786326141
 20
4055.673523995961
 30
0.0
 10
6351.938826180255
 20
4054.212167401774
 30
0.0
 10
6351.910308766423
 20
4052.669206742284
 30
0.0
 10
6351.369969209708
 20
4051.220590110983
 30
0.0
 10
6350.37863504109
 20
4050.033938960223
 30
0.0
 10
6349.051690149561
 20
4049.245329990076
 30
0.0
 10
6347.542608066529
 20
4048.94181942857
 30
0.0
 10
6346.021971878459
 20
4049.153380268999
 30
0.0
 10
6344.657868617429
 20
4049.853501439795
 30
0.0
 10
6343.600001998989
 20
4050.964876265227
 30
0.0
 10
6342.967102347234
 20
4052.365750823595
 30
0.0
 10
6342.83228528228
 20
4053.903384085875
 30
0.0
 10
6343.219688906584
 20
4055.394979315595
 30
0.0
 10
6343.965062776367
 20
4056.540104314395
 30
0.0
 10
6344.619434858695
 20
4057.049050315279
 30
0.0
 10
6344.872327232894
 20
4057.24574049504
 30
0.0
  0
SPLINE
  5
10A
330
1F
100
AcDbEntity
  8
0
  6
SLD-Plná
 62
     7
370
    25
100
AcDbSpline
210
0.0
220
0.0
230
1.0
 70
    11
 71
     3
 72
    26
 73
    22
 74
     0
 42
0.00000001
 43
0.00000001
 40
0.0
 40
0.0
 40
0.0
 40
0.0
 40
0.0536886945033726
 40
0.1073773901323472
 40
0.1610660607160364
 40
0.2147547207154922
 40
0.2684433994475976
 40
0.3221321180185207
 40
0.3758208800731722
 40
0.4295096701986343
 40
0.483198460680507
 40
0.5368872236497536
 40
0.590575943295874
 40
0.6442646227944746
 40
0.697953282914567
 40
0.7516419529169197
 40
0.8053306577318223
 40
0.8590194070342676
 40
0.9127081910033421
 40
0.9663969846247947
 40
1.0
 40
1.0
 40
1.0
 40
1.0
 10
6344.222871958124
 20
4071.708228897864
 30
0.0
 10
6344.615933128516
 20
4072.030767157175
 30
0.0
 10
6345.402055477542
 20
4072.67584368256
 30
0.0
 10
6346.903062295002
 20
4073.079396443341
 30
0.0
 10
6348.434810492652
 20
4072.995298592072
 30
0.0
 10
6349.857257966405
 20
4072.400366522084
 30
0.0
 10
6351.001286498224
 20
4071.370426890255
 30
0.0
 10
6351.740260114129
 20
4070.019251590879
 30
0.0
 10
6351.990236595766
 20
4068.499803112883
 30
0.0
 10
6351.723200455178
 20
4066.983219419599
 30
0.0
 10
6350.969212637276
 20
4065.640529422862
 30
0.0
 10
6349.813291376337
 20
4064.623100585979
 30
0.0
 10
6348.385757864693
 20
4064.04564090942
 30
0.0
 10
6346.847548521784
 20
4063.973263173321
 30
0.0
 10
6345.372116039565
 20
4064.414089271348
 30
0.0
 10
6344.125684962506
 20
4065.318559614849
 30
0.0
 10
6343.249222822831
 20
4066.584178517735
 30
0.0
 10
6342.83989302024
 20
4068.070213828831
 30
0.0
 10
6342.95000773428
 20
4069.601826653873
 30
0.0
 10
6343.470060954439
 20
4070.855035548313
 30
0.0
 10
6344.013626278146
 20
4071.471081696634
 30
0.0
 10
6344.222871958124
 20
4071.708228897864
 30
0.0
  0
SPLINE
  5
10B
330
1F
100
AcDbEntity
  8
0
  6
SLD-Plná
 62
     7
370
    25
100
AcDbSpline
210
0.0
220
0.0
230
1.0
 70
    11
 71
     3
 72
    26
 73
    22
 74
     0
 42
0.00000001
 43
0.00000001
 40
0.0
 40
0.0
 40
0.0
 40
0.0
 40
0.0539989987907638
 40
0.1080021876756991
 40
0.1618845176415422
 40
0.2155225577051517
 40
0.2689392587210576
 40
0.3222551117323068
 40
0.3756336526605241
 40
0.429210240883829
 40
0.4830341188363911
 40
0.5370467397905206
 40
0.5911061439764149
 40
0.6450490871092148
 40
0.6987641167925294
 40
0.7522410788864411
 40
0.8055739464764983
 40
0.8589179755041092
 40
0.9124225827557033
 40
0.9661682632420755
 40
1.0
 40
1.0
 40
1.0
 40
1.0
 10
6354.856147379762
 20
4082.341270756804
 30
0.0
 10
6355.253352067934
 20
4082.661504350724
 30
0.0
 10
6356.047792265684
 20
4083.301996387338
 30
0.0
 10
6357.558884861302
 20
4083.691889651359
 30
0.0
 10
6359.094733107057
 20
4083.589727569
 30
0.0
 10
6360.511238424922
 20
4082.976435660931
 30
0.0
 10
6361.640371716043
 20
4081.934451025105
 30
0.0
 10
6362.36128216046
 20
4080.580613143231
 30
0.0
 10
6362.59571328553
 20
4079.065582614387
 30
0.0
 10
6362.317134047027
 20
4077.555558931546
 30
0.0
 10
6361.55301588859
 20
4076.218703961245
 30
0.0
 10
6360.385636780904
 20
4075.207893884024
 30
0.0
 10
6358.946374272739
 20
4074.641540408571
 30
0.0
 10
6357.401145995382
 20
4074.586062570527
 30
0.0
 10
6355.928307790453
 20
4075.04591445409
 30
0.0
 10
6354.694465229929
 20
4075.964978880257
 30
0.0
 10
6353.835780303317
 20
4077.236232947533
 30
0.0
 10
6353.443224166765
 20
4078.719631181285
 30
0.0
 10
6353.566006453722
 20
4080.244887728153
 30
0.0
 10
6354.095006274945
 20
4081.492583545366
 30
0.0
 10
6354.64404866525
 20
4082.104776543801
 30
0.0
 10
6354.856147379762
 20
4082.341270756804
 30
0.0
  0
SPLINE
  5
10C
330
1F
100
AcDbEntity
  8
0
  6
SLD-Plná
 62
     7
370
    25
100
AcDbSpline
210
0.0
220
0.0
230
1.0
 70
    11
 71
     3
 72
    26
 73
    22
 74
     0
 42
0.00000001
 43
0.00000001
 40
0.0
 40
0.0
 40
0.0
 40
0.0
 40
0.0537486043672618
 40
0.10749012946499
 40
0.1613990620802042
 40
0.2154438149793702
 40
0.2694684137407653
 40
0.3233243136411514
 40
0.3769376034441667
 40
0.4303423816942217
 40
0.4836643688423389
 40
0.5370644037688894
 40
0.5906685853199771
 40
0.6445142731967091
 40
0.6985334351093627
 40
0.7525812469071216
 40
0.806499691279612
 40
0.8601883313683784
 40
0.9136487307835658
 40
0.9669820486910897
 40
0.9999999999999999
 40
0.9999999999999999
 40
0.9999999999999999
 40
0.9999999999999999
 10
6358.684200614088
 20
4071.057739478289
 30
0.0
 10
6359.010649473839
 20
4071.44854177137
 30
0.0
 10
6359.663504196516
 20
4072.230094884665
 30
0.0
 10
6361.063758548082
 20
4072.906435403551
 30
0.0
 10
6362.586685751847
 20
4073.109472185419
 30
0.0
 10
6364.100150123571
 20
4072.78735766933
 30
0.0
 10
6365.419859860139
 20
4071.981749928726
 30
0.0
 10
6366.396134377604
 20
4070.784004701577
 30
0.0
 10
6366.918301914448
 20
4069.334079141935
 30
0.0
 10
6366.931505885354
 20
4067.797507467176
 30
0.0
 10
6366.438070994206
 20
4066.345471202617
 30
0.0
 10
6365.493912279383
 20
4065.137290202342
 30
0.0
 10
6364.201932243915
 20
4064.306633139611
 30
0.0
 10
6362.703754362439
 20
4063.948805080812
 30
0.0
 10
6361.167571075173
 20
4064.108415311187
 30
0.0
 10
6359.769676925413
 20
4064.770518005212
 30
0.0
 10
6358.672414990458
 20
4065.858825534006
 30
0.0
 10
6357.998728083335
 20
4067.248033158375
 30
0.0
 10
6357.828918600132
 20
4068.772287216901
 30
0.0
 10
6358.109859563163
 20
4070.090933801196
 30
0.0
 10
6358.525335834954
 20
4070.790317586524
 30
0.0
 10
6358.684200614088
 20
4071.057739478289
 30
0.0
  0
SPLINE
  5
10D
330
1F
100
AcDbEntity
  8
0
  6
SLD-Plná
 62
     7
370
    25
100
AcDbSpline
210
0.0
220
0.0
230
1.0
 70
    11
 71
     3
 72
    26
 73
    22
 74
     0
 42
0.00000001
 43
0.00000001
 40
0.0
 40
0.0
 40
0.0
 40
0.0
 40
0.0534843940057698
 40
0.1069629256877392
 40
0.1605948439749493
 40
0.2144599147826245
 40
0.2684826575147939
 40
0.3225172352187053
 40
0.376410873940827
 40
0.4300728108561157
 40
0.4835154736012352
 40
0.5368479946805146
 40
0.5902267863117155
 40
0.6437872181151002
 40
0.6975855896383268
 40
0.7515745366672997
 40
0.8056226248179792
 40
0.8595717152845788
 40
0.9133076256293164
 40
0.9668109454037667
 40
1.0
 40
1.0
 40
1.0
 40
1.0
 10
6355.528927901453
 20
4061.672678724405
 30
0.0
 10
6355.97756724913
 20
4061.909843447524
 30
0.0
 10
6356.874796769966
 20
4062.384146898585
 30
0.0
 10
6358.421742511735
 20
4062.481269313279
 30
0.0
 10
6359.903894418684
 20
4062.096957762234
 30
0.0
 10
6361.181759646813
 20
4061.232600507364
 30
0.0
 10
6362.10212133704
 20
4059.992700307429
 30
0.0
 10
6362.558842248408
 20
4058.514942435664
 30
0.0
 10
6362.498288829939
 20
4056.970652569321
 30
0.0
 10
6361.929939456056
 20
4055.537253907404
 30
0.0
 10
6360.92214990616
 20
4054.376115965605
 30
0.0
 10
6359.590558752328
 20
4053.614320208471
 30
0.0
 10
6358.083117055266
 20
4053.334040296766
 30
0.0
 10
6356.56549078497
 20
4053.566752409359
 30
0.0
 10
6355.206425380135
 20
4054.289721293842
 30
0.0
 10
6354.160795915549
 20
4055.425507404882
 30
0.0
 10
6353.551060844969
 20
4056.846065617473
 30
0.0
 10
6353.447508405739
 20
4058.390217941705
 30
0.0
 10
6353.865036247743
 20
4059.871381534707
 30
0.0
 10
6354.626214130068
 20
4060.991816279484
 30
0.0
 10
6355.279012490022
 20
4061.48418263246
 30
0.0
 10
6355.528927901453
 20
4061.672678724405
 30
0.0
  0
ARC
  5
10E
330
1F
100
AcDbEntity
  8
0
  6
SLD-Plná
 62
     7
370
    25
100
AcDbCircle
 10
5711.9515145541
 20
5562.2572457042
 30
0.0
 40
22.5
100
AcDbArc
 50
0.0
 51
180.0
  0
LINE
  5
10F
330
1F
100
AcDbEntity
  8
0
  6
SLD-Plná
 62
     7
370
    25
100
AcDbLine
 10
5689.4515145541
 20
5562.2572457042
 30
0.0
 11
5689.4515145541
 21
5559.7572457042
 31
0.0
  0
LINE
  5
110
330
1F
100
AcDbEntity
  8
0
  6
SLD-Plná
 62
     7
370
    25
100
AcDbLine
 10
5734.4515145541
 20
5559.7572457042
 30
0.0
 11
5734.4515145541
 21
5562.2572457042
 31
0.0
  0
LINE
  5
111
330
1F
100
AcDbEntity
  8
0
  6
SLD-Plná
 62
     7
370
    25
100
AcDbLine
 10
4929.4515145541
 20
5108.7572457042
 30
0.0
 11
5061.9524911166
 21
4709.7572457042
 31
0.0
  0
LINE
  5
112
330
1F
100
AcDbEntity
  8
0
  6
SLD-Plná
 62
     7
370
    25
100
AcDbLine
 10
5389.4515145541
 20
5559.7572457042
 30
0.0
 11
5389.4515145541
 21
5108.7572457042
 31
0.0
  0
ARC
  5
113
330
1F
100
AcDbEntity
  8
0
  6
SLD-Plná
 62
     7
370
    25
100
AcDbCircle
 10
5657.2364655127
 20
5511.5412633026
 30
0.0
 40
1.254424951871229
100
AcDbArc
 50
170.6912920961
 51
45.6432276857
  0
LINE
  5
114
330
1F
100
AcDbEntity
  8
0
  6
SLD-Plná
 62
     7
370
    25
100
AcDbLine
 10
5656.7187205955
 20
5513.8019515718
 30
0.0
 11
5658.1134642238
 21
5512.4381775798
 31
0.0
  0
ARC
  5
115
330
1F
100
AcDbEntity
  8
0
  6
SLD-Plná
 62
     7
370
    25
100
AcDbCircle
 10
5656.5509308123
 20
5513.6303514883
 30
0.0
 40
0.2400000000008316
100
AcDbArc
 50
45.6432276856
 51
170.691292096
  0
LINE
  5
116
330
1F
100
AcDbEntity
  8
0
  6
SLD-Plná
 62
     7
370
    25
100
AcDbLine
 10
5655.9985599021
 20
5511.7441713094
 30
0.0
 11
5656.3140913377
 21
5513.6691724011
 31
0.0
  0
ARC
  5
117
330
1F
100
AcDbEntity
  8
0
  6
SLD-Plná
 62
     7
370
    25
100
AcDbCircle
 10
5657.8473168719
 20
5505.9702767527
 30
0.0
 40
1.254424951871665
100
AcDbArc
 50
152.5240322052
 51
27.4759677948
  0
LINE
  5
118
330
1F
100
AcDbEntity
  8
0
  6
SLD-Plná
 62
     7
370
    25
100
AcDbLine
 10
5658.0602459355
 20
5508.2796992917
 30
0.0
 11
5658.9602482482
 21
5506.5490389764
 31
0.0
  0
ARC
  5
119
330
1F
100
AcDbEntity
  8
0
  6
SLD-Plná
 62
     7
370
    25
100
AcDbCircle
 10
5657.8473168719
 20
5508.168968926
 30
0.0
 40
0.2400000000003166
100
AcDbArc
 50
27.4759677948
 51
152.5240322051
  0
LINE
  5
11A
330
1F
100
AcDbEntity
  8
0
  6
SLD-Plná
 62
     7
370
    25
100
AcDbLine
 10
5656.7343854957
 20
5506.5490389764
 30
0.0
 11
5657.6343878084
 21
5508.2796992917
 31
0.0
  0
ARC
  5
11B
330
1F
100
AcDbEntity
  8
0
  6
SLD-Plná
 62
     7
370
    25
100
AcDbCircle
 10
5654.4852229594
 20
5515.3046660586
 30
0.0
 40
1.254424951871392
100
AcDbArc
 50
218.3040929848
 51
93.2560285744
  0
LINE
  5
11C
330
1F
100
AcDbEntity
  8
0
  6
SLD-Plná
 62
     7
370
    25
100
AcDbLine
 10
5652.4664338946
 20
5516.4462710523
 30
0.0
 11
5654.4139743361
 21
5516.5570659922
 31
0.0
  0
ARC
  5
11D
330
1F
100
AcDbEntity
  8
0
  6
SLD-Plná
 62
     7
370
    25
100
AcDbCircle
 10
5652.4800653753
 20
5516.2066584844
 30
0.0
 40
0.2400000000004514
100
AcDbArc
 50
93.2560285743
 51
218.3040929848
  0
LINE
  5
11E
330
1F
100
AcDbEntity
  8
0
  6
SLD-Plná
 62
     7
370
    25
100
AcDbLine
 10
5653.5008354402
 20
5514.5271294538
 30
0.0
 11
5652.2917296728
 21
5516.0578980624
 31
0.0
  0
CIRCLE
  5
11F
330
1F
100
AcDbEntity
  8
0
  6
SLD-Plná
 62
     7
370
    25
100
AcDbCircle
 10
5649.4515145541
 20
5509.7572457042
 30
0.0
 40
12.49999999999909
  0
ARC
  5
120
330
1F
100
AcDbEntity
  8
0
  6
SLD-Plná
 62
     7
370
    25
100
AcDbCircle
 10
5649.2524372879
 20
5514.7508998179
 30
0.0
 40
1.254424951871534
100
AcDbArc
 50
287.5240322052
 51
162.4759677949
  0
LINE
  5
121
330
1F
100
AcDbEntity
  8
0
  6
SLD-Plná
 62
     7
370
    25
100
AcDbLine
 10
5647.4688653652
 20
5513.2684550647
 30
0.0
 11
5648.0562292717
 21
5515.128614448
 31
0.0
  0
ARC
  5
122
330
1F
100
AcDbEntity
  8
0
  6
SLD-Plná
 62
     7
370
    25
100
AcDbCircle
 10
5647.6977271424
 20
5513.1961896724
 30
0.0
 40
0.2399999999995918
100
AcDbArc
 50
162.4759677948
 51
287.5240322054
  0
LINE
  5
123
330
1F
100
AcDbEntity
  8
0
  6
SLD-Plná
 62
     7
370
    25
100
AcDbLine
 10
5649.630151918
 20
5513.5546918017
 30
0.0
 11
5647.7699925347
 21
5512.9673278952
 31
0.0
  0
ARC
  5
124
330
1F
100
AcDbEntity
  8
0
  6
SLD-Plná
 62
     7
370
    25
100
AcDbCircle
 10
5648.4892886218
 20
5504.1149383275
 30
0.0
 40
0.8400000000001455
100
AcDbArc
 50
270.0
 51
0.0
  0
LINE
  5
125
330
1F
100
AcDbEntity
  8
0
  6
SLD-Plná
 62
     7
370
    25
100
AcDbLine
 10
5649.3292886218
 20
5508.5683748604
 30
0.0
 11
5649.3292886218
 21
5504.1149383275
 31
0.0
  0
ARC
  5
126
330
1F
100
AcDbEntity
  8
0
  6
SLD-Plná
 62
     7
370
    25
100
AcDbCircle
 10
5644.7534538146
 20
5508.5683748604
 30
0.0
 40
4.575834807111278
100
AcDbArc
 50
0.0
 51
180.0
  0
LINE
  5
127
330
1F
100
AcDbEntity
  8
0
  6
SLD-Plná
 62
     7
370
    25
100
AcDbLine
 10
5640.1776190075
 20
5504.1149383275
 30
0.0
 11
5640.1776190075
 21
5508.5683748604
 31
0.0
  0
ARC
  5
128
330
1F
100
AcDbEntity
  8
0
  6
SLD-Plná
 62
     7
370
    25
100
AcDbCircle
 10
5641.0176190075
 20
5504.1149383275
 30
0.0
 40
0.8400000000001455
100
AcDbArc
 50
180.0
 51
270.0
  0
LINE
  5
129
330
1F
100
AcDbEntity
  8
0
  6
SLD-Plná
 62
     7
370
    25
100
AcDbLine
 10
5648.4892886218
 20
5503.2749383275
 30
0.0
 11
5641.0176190075
 21
5503.2749383275
 31
0.0
  0
LINE
  5
12A
330
1F
100
AcDbEntity
  8
0
  6
SLD-Plná
 62
     7
370
    25
100
AcDbLine
 10
5649.4313341928
 20
5514.1086920002
 30
0.0
 11
5648.2313097724
 21
5513.7297723024
 31
0.0
  0
LINE
  5
12B
330
1F
100
AcDbEntity
  8
0
  6
SLD-Plná
 62
     7
370
    25
100
AcDbLine
 10
5648.2313097724
 20
5513.7297723024
 30
0.0
 11
5648.6102294702
 21
5514.9297967228
 31
0.0
  0
ARC
  5
12C
330
1F
100
AcDbEntity
  8
0
  6
SLD-Plná
 62
     7
370
    25
100
AcDbCircle
 10
5649.2342830433
 20
5514.7327455733
 30
0.0
 40
0.6544249518722349
100
AcDbArc
 50
287.5240322052
 51
162.4759677948
  0
CIRCLE
  5
12D
330
1F
100
AcDbEntity
  8
0
  6
SLD-Plná
 62
     7
370
    25
100
AcDbCircle
 10
5649.4515145541
 20
5509.7572457042
 30
0.0
 40
13.99999999999909
  0
LINE
  5
12E
330
1F
100
AcDbEntity
  8
0
  6
SLD-Plná
 62
     7
370
    25
100
AcDbLine
 10
5648.7292886218
 20
5508.5683748604
 30
0.0
 11
5648.7292886218
 21
5504.1149383275
 31
0.0
  0
ARC
  5
12F
330
1F
100
AcDbEntity
  8
0
  6
SLD-Plná
 62
     7
370
    25
100
AcDbCircle
 10
5648.4892886218
 20
5504.1149383275
 30
0.0
 40
0.2400000000006912
100
AcDbArc
 50
270.0
 51
0.0
  0
LINE
  5
130
330
1F
100
AcDbEntity
  8
0
  6
SLD-Plná
 62
     7
370
    25
100
AcDbLine
 10
5648.4892886218
 20
5503.8749383275
 30
0.0
 11
5641.0176190075
 21
5503.8749383275
 31
0.0
  0
ARC
  5
131
330
1F
100
AcDbEntity
  8
0
  6
SLD-Plná
 62
     7
370
    25
100
AcDbCircle
 10
5641.0176190075
 20
5504.1149383275
 30
0.0
 40
0.2399999999997817
100
AcDbArc
 50
180.0
 51
270.0
  0
LINE
  5
132
330
1F
100
AcDbEntity
  8
0
  6
SLD-Plná
 62
     7
370
    25
100
AcDbLine
 10
5640.7776190075
 20
5504.1149383275
 30
0.0
 11
5640.7776190075
 21
5508.5683748604
 31
0.0
  0
ARC
  5
133
330
1F
100
AcDbEntity
  8
0
  6
SLD-Plná
 62
     7
370
    25
100
AcDbCircle
 10
5644.7534538146
 20
5508.5683748604
 30
0.0
 40
3.975834807111823
100
AcDbArc
 50
0.0
 51
180.0
  0
ARC
  5
134
330
1F
100
AcDbEntity
  8
0
  6
SLD-Plná
 62
     7
370
    25
100
AcDbCircle
 10
5654.4618088708
 20
5515.3151985628
 30
0.0
 40
0.6544249518720283
100
AcDbArc
 50
218.3040929847
 51
93.2560285744
  0
LINE
  5
135
330
1F
100
AcDbEntity
  8
0
  6
SLD-Plná
 62
     7
370
    25
100
AcDbLine
 10
5653.9482606079
 20
5514.9095630128
 30
0.0
 11
5653.1682433359
 21
5515.8970911402
 31
0.0
  0
LINE
  5
136
330
1F
100
AcDbEntity
  8
0
  6
SLD-Plná
 62
     7
370
    25
100
AcDbLine
 10
5653.1682433359
 20
5515.8970911402
 30
0.0
 11
5654.4246389493
 21
5515.9685670764
 31
0.0
  0
LINE
  5
137
330
1F
100
AcDbEntity
  8
0
  6
SLD-Plná
 62
     7
370
    25
100
AcDbLine
 10
5656.5826536466
 20
5511.671513168
 30
0.0
 11
5656.7862090148
 21
5512.9133682155
 31
0.0
  0
ARC
  5
138
330
1F
100
AcDbEntity
  8
0
  6
SLD-Plná
 62
     7
370
    25
100
AcDbCircle
 10
5657.2284605707
 20
5511.5656574432
 30
0.0
 40
0.6544249518718066
100
AcDbArc
 50
170.6912920961
 51
45.6432276857
  0
LINE
  5
139
330
1F
100
AcDbEntity
  8
0
  6
SLD-Plná
 62
     7
370
    25
100
AcDbLine
 10
5656.7862090148
 20
5512.9133682155
 30
0.0
 11
5657.6859848238
 21
5512.0335715115
 31
0.0
  0
ARC
  5
13A
330
1F
100
AcDbEntity
  8
0
  6
SLD-Plná
 62
     7
370
    25
100
AcDbCircle
 10
5657.8473168719
 20
5505.9959507315
 30
0.0
 40
0.6544249518712771
100
AcDbArc
 50
152.5240322052
 51
27.4759677948
  0
LINE
  5
13B
330
1F
100
AcDbEntity
  8
0
  6
SLD-Plná
 62
     7
370
    25
100
AcDbLine
 10
5657.2667081546
 20
5506.2978870409
 30
0.0
 11
5657.8473168719
 21
5507.414369134
 31
0.0
  0
LINE
  5
13C
330
1F
100
AcDbEntity
  8
0
  6
SLD-Plná
 62
     7
370
    25
100
AcDbLine
 10
5657.8473168719
 20
5507.414369134
 30
0.0
 11
5658.4279255893
 21
5506.2978870409
 31
0.0
  0
CIRCLE
  5
13D
330
1F
100
AcDbEntity
  8
0
  6
SLD-Plná
 62
     7
370
    25
100
AcDbCircle
 10
5649.4515145541
 20
5459.7572457042
 30
0.0
 40
12.49999999999909
  0
CIRCLE
  5
13E
330
1F
100
AcDbEntity
  8
0
  6
SLD-Plná
 62
     7
370
    25
100
AcDbCircle
 10
5649.4515145541
 20
5459.7572457042
 30
0.0
 40
13.99999999999909
  0
LINE
  5
13F
330
1F
100
AcDbEntity
  8
0
  6
SLD-Plná
 62
     7
370
    25
100
AcDbLine
 10
5654.7843112224
 20
5452.0260690215
 30
0.0
 11
5655.7469214624
 21
5456.9459860857
 31
0.0
  0
ARC
  5
140
330
1F
100
AcDbEntity
  8
0
  6
SLD-Plná
 62
     7
370
    25
100
AcDbCircle
 10
5655.6465478363
 20
5460.2649614063
 30
0.0
 40
3.320492741054295
100
AcDbArc
 50
271.7322312681
 51
0.0
  0
LINE
  5
141
330
1F
100
AcDbEntity
  8
0
  6
SLD-Plná
 62
     7
370
    25
100
AcDbLine
 10
5658.9670405774
 20
5460.2649614063
 30
0.0
 11
5658.9670405774
 21
5462.0079127988
 31
0.0
  0
LINE
  5
142
330
1F
100
AcDbEntity
  8
0
  6
SLD-Plná
 62
     7
370
    25
100
AcDbLine
 10
5658.9670405774
 20
5462.0079127988
 30
0.0
 11
5648.2677127514
 21
5462.0079127988
 31
0.0
  0
ARC
  5
143
330
1F
100
AcDbEntity
  8
0
  6
SLD-Plná
 62
     7
370
    25
100
AcDbCircle
 10
5648.2677127514
 20
5462.3079127988
 30
0.0
 40
0.3000000000010914
100
AcDbArc
 50
180.0
 51
270.0
  0
LINE
  5
144
330
1F
100
AcDbEntity
  8
0
  6
SLD-Plná
 62
     7
370
    25
100
AcDbLine
 10
5647.9677127514
 20
5462.3079127988
 30
0.0
 11
5647.9677127514
 21
5466.787216221
 31
0.0
  0
ARC
  5
145
330
1F
100
AcDbEntity
  8
0
  6
SLD-Plná
 62
     7
370
    25
100
AcDbCircle
 10
5646.6677127514
 20
5466.787216221
 30
0.0
 40
1.300000000000182
100
AcDbArc
 50
0.0
 51
90.0
  0
LINE
  5
146
330
1F
100
AcDbEntity
  8
0
  6
SLD-Plná
 62
     7
370
    25
100
AcDbLine
 10
5646.6677127514
 20
5468.087216221
 30
0.0
 11
5643.9324823638
 21
5468.087216221
 31
0.0
  0
ARC
  5
147
330
1F
100
AcDbEntity
  8
0
  6
SLD-Plná
 62
     7
370
    25
100
AcDbCircle
 10
5643.9324823638
 20
5466.787216221
 30
0.0
 40
1.300000000000182
100
AcDbArc
 50
90.0
 51
180.0
  0
LINE
  5
148
330
1F
100
AcDbEntity
  8
0
  6
SLD-Plná
 62
     7
370
    25
100
AcDbLine
 10
5642.6324823638
 20
5466.787216221
 30
0.0
 11
5642.6324823638
 21
5452.0260690215
 31
0.0
  0
LINE
  5
149
330
1F
100
AcDbEntity
  8
0
  6
SLD-Plná
 62
     7
370
    25
100
AcDbLine
 10
5642.6324823638
 20
5452.0260690215
 30
0.0
 11
5654.7843112224
 21
5452.0260690215
 31
0.0
  0
ARC
  5
14A
330
1F
100
AcDbEntity
  8
0
  6
SLD-Plná
 62
     7
370
    25
100
AcDbCircle
 10
5643.9324823638
 20
5466.787216221
 30
0.0
 40
0.8000000000001819
100
AcDbArc
 50
90.0
 51
180.0
  0
LINE
  5
14B
330
1F
100
AcDbEntity
  8
0
  6
SLD-Plná
 62
     7
370
    25
100
AcDbLine
 10
5646.6677127514
 20
5467.587216221
 30
0.0
 11
5643.9324823638
 21
5467.587216221
 31
0.0
  0
ARC
  5
14C
330
1F
100
AcDbEntity
  8
0
  6
SLD-Plná
 62
     7
370
    25
100
AcDbCircle
 10
5646.6677127514
 20
5466.787216221
 30
0.0
 40
0.7999999999992724
100
AcDbArc
 50
0.0
 51
90.0
  0
LINE
  5
14D
330
1F
100
AcDbEntity
  8
0
  6
SLD-Plná
 62
     7
370
    25
100
AcDbLine
 10
5647.4677127514
 20
5462.3079127988
 30
0.0
 11
5647.4677127514
 21
5466.787216221
 31
0.0
  0
ARC
  5
14E
330
1F
100
AcDbEntity
  8
0
  6
SLD-Plná
 62
     7
370
    25
100
AcDbCircle
 10
5648.2677127514
 20
5462.3079127988
 30
0.0
 40
0.8000000000001819
100
AcDbArc
 50
180.0
 51
270.0
  0
LINE
  5
14F
330
1F
100
AcDbEntity
  8
0
  6
SLD-Plná
 62
     7
370
    25
100
AcDbLine
 10
5654.372658697
 20
5452.5260690215
 30
0.0
 11
5655.3382780423
 21
5457.4613656729
 31
0.0
  0
LINE
  5
150
330
1F
100
AcDbEntity
  8
0
  6
SLD-Plná
 62
     7
370
    25
100
AcDbLine
 10
5643.1324823638
 20
5452.5260690215
 30
0.0
 11
5654.372658697
 21
5452.5260690215
 31
0.0
  0
LINE
  5
151
330
1F
100
AcDbEntity
  8
0
  6
SLD-Plná
 62
     7
370
    25
100
AcDbLine
 10
5643.1324823638
 20
5466.787216221
 30
0.0
 11
5643.1324823638
 21
5452.5260690215
 31
0.0
  0
LINE
  5
152
330
1F
100
AcDbEntity
  8
0
  6
SLD-Plná
 62
     7
370
    25
100
AcDbLine
 10
5658.4670405774
 20
5460.2649614063
 30
0.0
 11
5658.4670405774
 21
5461.5079127988
 31
0.0
  0
LINE
  5
153
330
1F
100
AcDbEntity
  8
0
  6
SLD-Plná
 62
     7
370
    25
100
AcDbLine
 10
5658.4670405774
 20
5461.5079127988
 30
0.0
 11
5648.2677127514
 21
5461.5079127988
 31
0.0
  0
ARC
  5
154
330
1F
100
AcDbEntity
  8
0
  6
SLD-Plná
 62
     7
370
    25
100
AcDbCircle
 10
5655.6465478363
 20
5460.2649614063
 30
0.0
 40
2.820492741054295
100
AcDbArc
 50
263.7252404236
 51
0.0
  0
CIRCLE
  5
155
330
1F
100
AcDbEntity
  8
0
  6
SLD-Plná
 62
     7
370
    25
100
AcDbCircle
 10
5630.9515145541
 20
5368.2572457042
 30
0.0
 40
1.900000000000139
  0
CIRCLE
  5
156
330
1F
100
AcDbEntity
  8
0
  6
SLD-Plná
 62
     7
370
    25
100
AcDbCircle
 10
5630.9515145541
 20
5368.2572457042
 30
0.0
 40
3.800000000001188
  0
LINE
  5
157
330
1F
100
AcDbEntity
  8
0
  6
SLD-Plná
 62
     7
370
    25
100
AcDbLine
 10
5630.1972993406
 20
5369.4878929912
 30
0.0
 11
5631.640178761
 21
5369.5257388825
 31
0.0
  0
LINE
  5
158
330
1F
100
AcDbEntity
  8
0
  6
SLD-Plná
 62
     7
370
    25
100
AcDbLine
 10
5629.5086351337
 20
5368.2193998129
 30
0.0
 11
5630.1972993406
 21
5369.4878929912
 31
0.0
  0
LINE
  5
159
330
1F
100
AcDbEntity
  8
0
  6
SLD-Plná
 62
     7
370
    25
100
AcDbLine
 10
5630.2628503472
 20
5366.9887525259
 30
0.0
 11
5629.5086351337
 21
5368.2193998129
 31
0.0
  0
LINE
  5
15A
330
1F
100
AcDbEntity
  8
0
  6
SLD-Plná
 62
     7
370
    25
100
AcDbLine
 10
5631.7057297676
 20
5367.0265984172
 30
0.0
 11
5630.2628503472
 21
5366.9887525259
 31
0.0
  0
LINE
  5
15B
330
1F
100
AcDbEntity
  8
0
  6
SLD-Plná
 62
     7
370
    25
100
AcDbLine
 10
5631.640178761
 20
5369.5257388825
 30
0.0
 11
5632.3943939745
 21
5368.2950915955
 31
0.0
  0
LINE
  5
15C
330
1F
100
AcDbEntity
  8
0
  6
SLD-Plná
 62
     7
370
    25
100
AcDbLine
 10
5632.3943939745
 20
5368.2950915955
 30
0.0
 11
5631.7057297676
 21
5367.0265984172
 31
0.0
  0
ARC
  5
15D
330
1F
100
AcDbEntity
  8
0
  6
SLD-Plná
 62
     7
370
    25
100
AcDbCircle
 10
5630.9515145541
 20
5368.2572457042
 30
0.0
 40
1.250000000000722
100
AcDbArc
 50
211.5024906045
 51
271.5024906045
  0
ARC
  5
15E
330
1F
100
AcDbEntity
  8
0
  6
SLD-Plná
 62
     7
370
    25
100
AcDbCircle
 10
5630.9515145541
 20
5368.2572457042
 30
0.0
 40
1.250000000000722
100
AcDbArc
 50
151.5024906046
 51
211.5024906045
  0
ARC
  5
15F
330
1F
100
AcDbEntity
  8
0
  6
SLD-Plná
 62
     7
370
    25
100
AcDbCircle
 10
5630.9515145541
 20
5368.2572457042
 30
0.0
 40
1.25000000000034
100
AcDbArc
 50
91.5024906046
 51
151.5024906046
  0
ARC
  5
160
330
1F
100
AcDbEntity
  8
0
  6
SLD-Plná
 62
     7
370
    25
100
AcDbCircle
 10
5630.9515145541
 20
5368.2572457042
 30
0.0
 40
1.249999999999472
100
AcDbArc
 50
31.5024906045
 51
91.5024906046
  0
ARC
  5
161
330
1F
100
AcDbEntity
  8
0
  6
SLD-Plná
 62
     7
370
    25
100
AcDbCircle
 10
5630.9515145541
 20
5368.2572457042
 30
0.0
 40
1.249999999999974
100
AcDbArc
 50
331.5024906045
 51
31.5024906045
  0
ARC
  5
162
330
1F
100
AcDbEntity
  8
0
  6
SLD-Plná
 62
     7
370
    25
100
AcDbCircle
 10
5630.9515145541
 20
5368.2572457042
 30
0.0
 40
1.25000000000066
100
AcDbArc
 50
271.5024906045
 51
331.5024906045
  0
CIRCLE
  5
163
330
1F
100
AcDbEntity
  8
0
  6
SLD-Plná
 62
     7
370
    25
100
AcDbCircle
 10
5630.9515145541
 20
5051.2572457042
 30
0.0
 40
1.900000000000139
  0
CIRCLE
  5
164
330
1F
100
AcDbEntity
  8
0
  6
SLD-Plná
 62
     7
370
    25
100
AcDbCircle
 10
5630.9515145541
 20
5051.2572457042
 30
0.0
 40
3.79999999999937
  0
LINE
  5
165
330
1F
100
AcDbEntity
  8
0
  6
SLD-Plná
 62
     7
370
    25
100
AcDbLine
 10
5630.1972993406
 20
5052.4878929912
 30
0.0
 11
5631.640178761
 21
5052.5257388825
 31
0.0
  0
LINE
  5
166
330
1F
100
AcDbEntity
  8
0
  6
SLD-Plná
 62
     7
370
    25
100
AcDbLine
 10
5629.5086351337
 20
5051.2193998129
 30
0.0
 11
5630.1972993406
 21
5052.4878929912
 31
0.0
  0
LINE
  5
167
330
1F
100
AcDbEntity
  8
0
  6
SLD-Plná
 62
     7
370
    25
100
AcDbLine
 10
5630.2628503472
 20
5049.9887525259
 30
0.0
 11
5629.5086351337
 21
5051.2193998129
 31
0.0
  0
LINE
  5
168
330
1F
100
AcDbEntity
  8
0
  6
SLD-Plná
 62
     7
370
    25
100
AcDbLine
 10
5631.7057297676
 20
5050.0265984172
 30
0.0
 11
5630.2628503472
 21
5049.9887525259
 31
0.0
  0
LINE
  5
169
330
1F
100
AcDbEntity
  8
0
  6
SLD-Plná
 62
     7
370
    25
100
AcDbLine
 10
5631.640178761
 20
5052.5257388825
 30
0.0
 11
5632.3943939745
 21
5051.2950915955
 31
0.0
  0
LINE
  5
16A
330
1F
100
AcDbEntity
  8
0
  6
SLD-Plná
 62
     7
370
    25
100
AcDbLine
 10
5632.3943939745
 20
5051.2950915955
 30
0.0
 11
5631.7057297676
 21
5050.0265984172
 31
0.0
  0
ARC
  5
16B
330
1F
100
AcDbEntity
  8
0
  6
SLD-Plná
 62
     7
370
    25
100
AcDbCircle
 10
5630.9515145541
 20
5051.2572457042
 30
0.0
 40
1.250000000000422
100
AcDbArc
 50
331.5024906045
 51
31.5024906046
  0
ARC
  5
16C
330
1F
100
AcDbEntity
  8
0
  6
SLD-Plná
 62
     7
370
    25
100
AcDbCircle
 10
5630.9515145541
 20
5051.2572457042
 30
0.0
 40
1.250000000000247
100
AcDbArc
 50
211.5024906045
 51
271.5024906045
  0
ARC
  5
16D
330
1F
100
AcDbEntity
  8
0
  6
SLD-Plná
 62
     7
370
    25
100
AcDbCircle
 10
5630.9515145541
 20
5051.2572457042
 30
0.0
 40
1.250000000000773
100
AcDbArc
 50
151.5024906045
 51
211.5024906045
  0
ARC
  5
16E
330
1F
100
AcDbEntity
  8
0
  6
SLD-Plná
 62
     7
370
    25
100
AcDbCircle
 10
5630.9515145541
 20
5051.2572457042
 30
0.0
 40
1.250000000000773
100
AcDbArc
 50
91.5024906046
 51
151.5024906045
  0
ARC
  5
16F
330
1F
100
AcDbEntity
  8
0
  6
SLD-Plná
 62
     7
370
    25
100
AcDbCircle
 10
5630.9515145541
 20
5051.2572457042
 30
0.0
 40
1.250000000000683
100
AcDbArc
 50
31.5024906046
 51
91.5024906046
  0
ARC
  5
170
330
1F
100
AcDbEntity
  8
0
  6
SLD-Plná
 62
     7
370
    25
100
AcDbCircle
 10
5630.9515145541
 20
5051.2572457042
 30
0.0
 40
1.24999999999975
100
AcDbArc
 50
271.5024906045
 51
331.5024906045
  0
LINE
  5
171
330
1F
100
AcDbEntity
  8
0
  6
SLD-Plná
 62
     7
370
    25
100
AcDbLine
 10
5794.3943939745
 20
4901.2950915955
 30
0.0
 11
5793.7057297676
 21
4900.0265984172
 31
0.0
  0
LINE
  5
172
330
1F
100
AcDbEntity
  8
0
  6
SLD-Plná
 62
     7
370
    25
100
AcDbLine
 10
5793.640178761
 20
4902.5257388825
 30
0.0
 11
5794.3943939745
 21
4901.2950915955
 31
0.0
  0
LINE
  5
173
330
1F
100
AcDbEntity
  8
0
  6
SLD-Plná
 62
     7
370
    25
100
AcDbLine
 10
5792.1972993406
 20
4902.4878929912
 30
0.0
 11
5793.640178761
 21
4902.5257388825
 31
0.0
  0
LINE
  5
174
330
1F
100
AcDbEntity
  8
0
  6
SLD-Plná
 62
     7
370
    25
100
AcDbLine
 10
5791.5086351337
 20
4901.2193998129
 30
0.0
 11
5792.1972993406
 21
4902.4878929912
 31
0.0
  0
LINE
  5
175
330
1F
100
AcDbEntity
  8
0
  6
SLD-Plná
 62
     7
370
    25
100
AcDbLine
 10
5792.2628503472
 20
4899.9887525259
 30
0.0
 11
5791.5086351337
 21
4901.2193998129
 31
0.0
  0
CIRCLE
  5
176
330
1F
100
AcDbEntity
  8
0
  6
SLD-Plná
 62
     7
370
    25
100
AcDbCircle
 10
5792.9515145541
 20
4901.2572457042
 30
0.0
 40
1.900000000000163
  0
LINE
  5
177
330
1F
100
AcDbEntity
  8
0
  6
SLD-Plná
 62
     7
370
    25
100
AcDbLine
 10
5793.7057297676
 20
4900.0265984172
 30
0.0
 11
5792.2628503472
 21
4899.9887525259
 31
0.0
  0
CIRCLE
  5
178
330
1F
100
AcDbEntity
  8
0
  6
SLD-Plná
 62
     7
370
    25
100
AcDbCircle
 10
5792.9515145541
 20
4901.2572457042
 30
0.0
 40
3.800000000000303
  0
ARC
  5
179
330
1F
100
AcDbEntity
  8
0
  6
SLD-Plná
 62
     7
370
    25
100
AcDbCircle
 10
5792.9515145541
 20
4901.2572457042
 30
0.0
 40
1.25000000000034
100
AcDbArc
 50
331.5024906046
 51
31.5024906045
  0
ARC
  5
17A
330
1F
100
AcDbEntity
  8
0
  6
SLD-Plná
 62
     7
370
    25
100
AcDbCircle
 10
5792.9515145541
 20
4901.2572457042
 30
0.0
 40
1.250000000000683
100
AcDbArc
 50
211.5024906045
 51
271.5024906046
  0
ARC
  5
17B
330
1F
100
AcDbEntity
  8
0
  6
SLD-Plná
 62
     7
370
    25
100
AcDbCircle
 10
5792.9515145541
 20
4901.2572457042
 30
0.0
 40
1.249999999999947
100
AcDbArc
 50
151.5024906045
 51
211.5024906045
  0
ARC
  5
17C
330
1F
100
AcDbEntity
  8
0
  6
SLD-Plná
 62
     7
370
    25
100
AcDbCircle
 10
5792.9515145541
 20
4901.2572457042
 30
0.0
 40
1.24999999999975
100
AcDbArc
 50
91.5024906045
 51
151.5024906045
  0
ARC
  5
17D
330
1F
100
AcDbEntity
  8
0
  6
SLD-Plná
 62
     7
370
    25
100
AcDbCircle
 10
5792.9515145541
 20
4901.2572457042
 30
0.0
 40
1.250000000000247
100
AcDbArc
 50
31.5024906045
 51
91.5024906045
  0
ARC
  5
17E
330
1F
100
AcDbEntity
  8
0
  6
SLD-Plná
 62
     7
370
    25
100
AcDbCircle
 10
5792.9515145541
 20
4901.2572457042
 30
0.0
 40
1.250000000000683
100
AcDbArc
 50
271.5024906046
 51
331.5024906046
  0
CIRCLE
  5
17F
330
1F
100
AcDbEntity
  8
0
  6
SLD-Plná
 62
     7
370
    25
100
AcDbCircle
 10
5792.9515145541
 20
5218.2572457042
 30
0.0
 40
1.900000000000163
  0
CIRCLE
  5
180
330
1F
100
AcDbEntity
  8
0
  6
SLD-Plná
 62
     7
370
    25
100
AcDbCircle
 10
5792.9515145541
 20
5218.2572457042
 30
0.0
 40
3.799999999999393
  0
LINE
  5
181
330
1F
100
AcDbEntity
  8
0
  6
SLD-Plná
 62
     7
370
    25
100
AcDbLine
 10
5794.3943939745
 20
5218.2950915955
 30
0.0
 11
5793.7057297676
 21
5217.0265984172
 31
0.0
  0
LINE
  5
182
330
1F
100
AcDbEntity
  8
0
  6
SLD-Plná
 62
     7
370
    25
100
AcDbLine
 10
5793.7057297676
 20
5217.0265984172
 30
0.0
 11
5792.2628503472
 21
5216.9887525259
 31
0.0
  0
LINE
  5
183
330
1F
100
AcDbEntity
  8
0
  6
SLD-Plná
 62
     7
370
    25
100
AcDbLine
 10
5791.5086351337
 20
5218.2193998129
 30
0.0
 11
5792.1972993406
 21
5219.4878929912
 31
0.0
  0
LINE
  5
184
330
1F
100
AcDbEntity
  8
0
  6
SLD-Plná
 62
     7
370
    25
100
AcDbLine
 10
5792.2628503472
 20
5216.9887525259
 30
0.0
 11
5791.5086351337
 21
5218.2193998129
 31
0.0
  0
LINE
  5
185
330
1F
100
AcDbEntity
  8
0
  6
SLD-Plná
 62
     7
370
    25
100
AcDbLine
 10
5793.640178761
 20
5219.5257388825
 30
0.0
 11
5794.3943939745
 21
5218.2950915955
 31
0.0
  0
LINE
  5
186
330
1F
100
AcDbEntity
  8
0
  6
SLD-Plná
 62
     7
370
    25
100
AcDbLine
 10
5792.1972993406
 20
5219.4878929912
 30
0.0
 11
5793.640178761
 21
5219.5257388825
 31
0.0
  0
ARC
  5
187
330
1F
100
AcDbEntity
  8
0
  6
SLD-Plná
 62
     7
370
    25
100
AcDbCircle
 10
5792.9515145541
 20
5218.2572457042
 30
0.0
 40
1.249999999999774
100
AcDbArc
 50
211.5024906045
 51
271.5024906046
  0
ARC
  5
188
330
1F
100
AcDbEntity
  8
0
  6
SLD-Plná
 62
     7
370
    25
100
AcDbCircle
 10
5792.9515145541
 20
5218.2572457042
 30
0.0
 40
1.24999999999954
100
AcDbArc
 50
151.5024906045
 51
211.5024906045
  0
ARC
  5
189
330
1F
100
AcDbEntity
  8
0
  6
SLD-Plná
 62
     7
370
    25
100
AcDbCircle
 10
5792.9515145541
 20
5218.2572457042
 30
0.0
 40
1.25000000000066
100
AcDbArc
 50
91.5024906045
 51
151.5024906045
  0
ARC
  5
18A
330
1F
100
AcDbEntity
  8
0
  6
SLD-Plná
 62
     7
370
    25
100
AcDbCircle
 10
5792.9515145541
 20
5218.2572457042
 30
0.0
 40
1.250000000001197
100
AcDbArc
 50
31.5024906046
 51
91.5024906045
  0
ARC
  5
18B
330
1F
100
AcDbEntity
  8
0
  6
SLD-Plná
 62
     7
370
    25
100
AcDbCircle
 10
5792.9515145541
 20
5218.2572457042
 30
0.0
 40
1.250000000001197
100
AcDbArc
 50
331.5024906046
 51
31.5024906046
  0
ARC
  5
18C
330
1F
100
AcDbEntity
  8
0
  6
SLD-Plná
 62
     7
370
    25
100
AcDbCircle
 10
5792.9515145541
 20
5218.2572457042
 30
0.0
 40
1.25000000000034
100
AcDbArc
 50
271.5024906046
 51
331.5024906046
  0
LINE
  5
18D
330
1F
100
AcDbEntity
  8
0
  6
SLD-Plná
 62
     7
370
    25
100
AcDbLine
 10
5632.3943939745
 20
4901.2950915955
 30
0.0
 11
5631.7057297676
 21
4900.0265984172
 31
0.0
  0
LINE
  5
18E
330
1F
100
AcDbEntity
  8
0
  6
SLD-Plná
 62
     7
370
    25
100
AcDbLine
 10
5631.640178761
 20
4902.5257388825
 30
0.0
 11
5632.3943939745
 21
4901.2950915955
 31
0.0
  0
LINE
  5
18F
330
1F
100
AcDbEntity
  8
0
  6
SLD-Plná
 62
     7
370
    25
100
AcDbLine
 10
5630.1972993406
 20
4902.4878929912
 30
0.0
 11
5631.640178761
 21
4902.5257388825
 31
0.0
  0
LINE
  5
190
330
1F
100
AcDbEntity
  8
0
  6
SLD-Plná
 62
     7
370
    25
100
AcDbLine
 10
5629.5086351337
 20
4901.2193998129
 30
0.0
 11
5630.1972993406
 21
4902.4878929912
 31
0.0
  0
LINE
  5
191
330
1F
100
AcDbEntity
  8
0
  6
SLD-Plná
 62
     7
370
    25
100
AcDbLine
 10
5630.2628503472
 20
4899.9887525259
 30
0.0
 11
5629.5086351337
 21
4901.2193998129
 31
0.0
  0
LINE
  5
192
330
1F
100
AcDbEntity
  8
0
  6
SLD-Plná
 62
     7
370
    25
100
AcDbLine
 10
5631.7057297676
 20
4900.0265984172
 30
0.0
 11
5630.2628503472
 21
4899.9887525259
 31
0.0
  0
CIRCLE
  5
193
330
1F
100
AcDbEntity
  8
0
  6
SLD-Plná
 62
     7
370
    25
100
AcDbCircle
 10
5630.9515145541
 20
4901.2572457042
 30
0.0
 40
1.900000000000139
  0
CIRCLE
  5
194
330
1F
100
AcDbEntity
  8
0
  6
SLD-Plná
 62
     7
370
    25
100
AcDbCircle
 10
5630.9515145541
 20
4901.2572457042
 30
0.0
 40
3.800000000000279
  0
ARC
  5
195
330
1F
100
AcDbEntity
  8
0
  6
SLD-Plná
 62
     7
370
    25
100
AcDbCircle
 10
5630.9515145541
 20
4901.2572457042
 30
0.0
 40
1.250000000000722
100
AcDbArc
 50
211.5024906045
 51
271.5024906045
  0
ARC
  5
196
330
1F
100
AcDbEntity
  8
0
  6
SLD-Plná
 62
     7
370
    25
100
AcDbCircle
 10
5630.9515145541
 20
4901.2572457042
 30
0.0
 40
1.250000000000722
100
AcDbArc
 50
151.5024906046
 51
211.5024906045
  0
ARC
  5
197
330
1F
100
AcDbEntity
  8
0
  6
SLD-Plná
 62
     7
370
    25
100
AcDbCircle
 10
5630.9515145541
 20
4901.2572457042
 30
0.0
 40
1.25000000000034
100
AcDbArc
 50
91.5024906046
 51
151.5024906046
  0
ARC
  5
198
330
1F
100
AcDbEntity
  8
0
  6
SLD-Plná
 62
     7
370
    25
100
AcDbCircle
 10
5630.9515145541
 20
4901.2572457042
 30
0.0
 40
1.249999999999774
100
AcDbArc
 50
31.5024906045
 51
91.5024906046
  0
ARC
  5
199
330
1F
100
AcDbEntity
  8
0
  6
SLD-Plná
 62
     7
370
    25
100
AcDbCircle
 10
5630.9515145541
 20
4901.2572457042
 30
0.0
 40
1.24999999999954
100
AcDbArc
 50
331.5024906045
 51
31.5024906045
  0
ARC
  5
19A
330
1F
100
AcDbEntity
  8
0
  6
SLD-Plná
 62
     7
370
    25
100
AcDbCircle
 10
5630.9515145541
 20
4901.2572457042
 30
0.0
 40
1.25000000000066
100
AcDbArc
 50
271.5024906045
 51
331.5024906045
  0
CIRCLE
  5
19B
330
1F
100
AcDbEntity
  8
0
  6
SLD-Plná
 62
     7
370
    25
100
AcDbCircle
 10
5792.9515145541
 20
5368.2572457042
 30
0.0
 40
1.900000000000163
  0
CIRCLE
  5
19C
330
1F
100
AcDbEntity
  8
0
  6
SLD-Plná
 62
     7
370
    25
100
AcDbCircle
 10
5792.9515145541
 20
5368.2572457042
 30
0.0
 40
3.800000000001212
  0
LINE
  5
19D
330
1F
100
AcDbEntity
  8
0
  6
SLD-Plná
 62
     7
370
    25
100
AcDbLine
 10
5794.3943939745
 20
5368.2950915955
 30
0.0
 11
5793.7057297676
 21
5367.0265984172
 31
0.0
  0
LINE
  5
19E
330
1F
100
AcDbEntity
  8
0
  6
SLD-Plná
 62
     7
370
    25
100
AcDbLine
 10
5793.640178761
 20
5369.5257388825
 30
0.0
 11
5794.3943939745
 21
5368.2950915955
 31
0.0
  0
LINE
  5
19F
330
1F
100
AcDbEntity
  8
0
  6
SLD-Plná
 62
     7
370
    25
100
AcDbLine
 10
5791.5086351337
 20
5368.2193998129
 30
0.0
 11
5792.1972993406
 21
5369.4878929912
 31
0.0
  0
LINE
  5
1A0
330
1F
100
AcDbEntity
  8
0
  6
SLD-Plná
 62
     7
370
    25
100
AcDbLine
 10
5792.2628503472
 20
5366.9887525259
 30
0.0
 11
5791.5086351337
 21
5368.2193998129
 31
0.0
  0
LINE
  5
1A1
330
1F
100
AcDbEntity
  8
0
  6
SLD-Plná
 62
     7
370
    25
100
AcDbLine
 10
5793.7057297676
 20
5367.0265984172
 30
0.0
 11
5792.2628503472
 21
5366.9887525259
 31
0.0
  0
LINE
  5
1A2
330
1F
100
AcDbEntity
  8
0
  6
SLD-Plná
 62
     7
370
    25
100
AcDbLine
 10
5792.1972993406
 20
5369.4878929912
 30
0.0
 11
5793.640178761
 21
5369.5257388825
 31
0.0
  0
ARC
  5
1A3
330
1F
100
AcDbEntity
  8
0
  6
SLD-Plná
 62
     7
370
    25
100
AcDbCircle
 10
5792.9515145541
 20
5368.2572457042
 30
0.0
 40
1.250000000000773
100
AcDbArc
 50
271.5024906046
 51
331.5024906045
  0
ARC
  5
1A4
330
1F
100
AcDbEntity
  8
0
  6
SLD-Plná
 62
     7
370
    25
100
AcDbCircle
 10
5792.9515145541
 20
5368.2572457042
 30
0.0
 40
1.250000000000773
100
AcDbArc
 50
331.5024906045
 51
31.5024906045
  0
ARC
  5
1A5
330
1F
100
AcDbEntity
  8
0
  6
SLD-Plná
 62
     7
370
    25
100
AcDbCircle
 10
5792.9515145541
 20
5368.2572457042
 30
0.0
 40
1.250000000000683
100
AcDbArc
 50
211.5024906045
 51
271.5024906046
  0
ARC
  5
1A6
330
1F
100
AcDbEntity
  8
0
  6
SLD-Plná
 62
     7
370
    25
100
AcDbCircle
 10
5792.9515145541
 20
5368.2572457042
 30
0.0
 40
1.249999999999947
100
AcDbArc
 50
151.5024906045
 51
211.5024906045
  0
ARC
  5
1A7
330
1F
100
AcDbEntity
  8
0
  6
SLD-Plná
 62
     7
370
    25
100
AcDbCircle
 10
5792.9515145541
 20
5368.2572457042
 30
0.0
 40
1.24999999999954
100
AcDbArc
 50
91.5024906045
 51
151.5024906045
  0
ARC
  5
1A8
330
1F
100
AcDbEntity
  8
0
  6
SLD-Plná
 62
     7
370
    25
100
AcDbCircle
 10
5792.9515145541
 20
5368.2572457042
 30
0.0
 40
1.250000000000247
100
AcDbArc
 50
31.5024906045
 51
91.5024906045
  0
CIRCLE
  5
1A9
330
1F
100
AcDbEntity
  8
0
  6
SLD-Plná
 62
     7
370
    25
100
AcDbCircle
 10
5630.9515145541
 20
5218.2572457042
 30
0.0
 40
1.900000000000139
  0
CIRCLE
  5
1AA
330
1F
100
AcDbEntity
  8
0
  6
SLD-Plná
 62
     7
370
    25
100
AcDbCircle
 10
5630.9515145541
 20
5218.2572457042
 30
0.0
 40
3.79999999999937
  0
LINE
  5
1AB
330
1F
100
AcDbEntity
  8
0
  6
SLD-Plná
 62
     7
370
    25
100
AcDbLine
 10
5632.3943939745
 20
5218.2950915955
 30
0.0
 11
5631.7057297676
 21
5217.0265984172
 31
0.0
  0
LINE
  5
1AC
330
1F
100
AcDbEntity
  8
0
  6
SLD-Plná
 62
     7
370
    25
100
AcDbLine
 10
5631.640178761
 20
5219.5257388825
 30
0.0
 11
5632.3943939745
 21
5218.2950915955
 31
0.0
  0
LINE
  5
1AD
330
1F
100
AcDbEntity
  8
0
  6
SLD-Plná
 62
     7
370
    25
100
AcDbLine
 10
5630.1972993406
 20
5219.4878929912
 30
0.0
 11
5631.640178761
 21
5219.5257388825
 31
0.0
  0
LINE
  5
1AE
330
1F
100
AcDbEntity
  8
0
  6
SLD-Plná
 62
     7
370
    25
100
AcDbLine
 10
5629.5086351337
 20
5218.2193998129
 30
0.0
 11
5630.1972993406
 21
5219.4878929912
 31
0.0
  0
LINE
  5
1AF
330
1F
100
AcDbEntity
  8
0
  6
SLD-Plná
 62
     7
370
    25
100
AcDbLine
 10
5630.2628503472
 20
5216.9887525259
 30
0.0
 11
5629.5086351337
 21
5218.2193998129
 31
0.0
  0
LINE
  5
1B0
330
1F
100
AcDbEntity
  8
0
  6
SLD-Plná
 62
     7
370
    25
100
AcDbLine
 10
5631.7057297676
 20
5217.0265984172
 30
0.0
 11
5630.2628503472
 21
5216.9887525259
 31
0.0
  0
ARC
  5
1B1
330
1F
100
AcDbEntity
  8
0
  6
SLD-Plná
 62
     7
370
    25
100
AcDbCircle
 10
5630.9515145541
 20
5218.2572457042
 30
0.0
 40
1.250000000000422
100
AcDbArc
 50
331.5024906045
 51
31.5024906046
  0
ARC
  5
1B2
330
1F
100
AcDbEntity
  8
0
  6
SLD-Plná
 62
     7
370
    25
100
AcDbCircle
 10
5630.9515145541
 20
5218.2572457042
 30
0.0
 40
1.250000000000247
100
AcDbArc
 50
211.5024906045
 51
271.5024906045
  0
ARC
  5
1B3
330
1F
100
AcDbEntity
  8
0
  6
SLD-Plná
 62
     7
370
    25
100
AcDbCircle
 10
5630.9515145541
 20
5218.2572457042
 30
0.0
 40
1.25000000000034
100
AcDbArc
 50
151.5024906046
 51
211.5024906045
  0
ARC
  5
1B4
330
1F
100
AcDbEntity
  8
0
  6
SLD-Plná
 62
     7
370
    25
100
AcDbCircle
 10
5630.9515145541
 20
5218.2572457042
 30
0.0
 40
1.250000000000683
100
AcDbArc
 50
91.5024906046
 51
151.5024906046
  0
ARC
  5
1B5
330
1F
100
AcDbEntity
  8
0
  6
SLD-Plná
 62
     7
370
    25
100
AcDbCircle
 10
5630.9515145541
 20
5218.2572457042
 30
0.0
 40
1.250000000000683
100
AcDbArc
 50
31.5024906046
 51
91.5024906046
  0
ARC
  5
1B6
330
1F
100
AcDbEntity
  8
0
  6
SLD-Plná
 62
     7
370
    25
100
AcDbCircle
 10
5630.9515145541
 20
5218.2572457042
 30
0.0
 40
1.24999999999975
100
AcDbArc
 50
271.5024906045
 51
331.5024906045
  0
LINE
  5
1B7
330
1F
100
AcDbEntity
  8
0
  6
SLD-Plná
 62
     7
370
    25
100
AcDbLine
 10
5794.3943939745
 20
5051.2950915955
 30
0.0
 11
5793.7057297676
 21
5050.0265984172
 31
0.0
  0
LINE
  5
1B8
330
1F
100
AcDbEntity
  8
0
  6
SLD-Plná
 62
     7
370
    25
100
AcDbLine
 10
5793.640178761
 20
5052.5257388825
 30
0.0
 11
5794.3943939745
 21
5051.2950915955
 31
0.0
  0
LINE
  5
1B9
330
1F
100
AcDbEntity
  8
0
  6
SLD-Plná
 62
     7
370
    25
100
AcDbLine
 10
5792.1972993406
 20
5052.4878929912
 30
0.0
 11
5793.640178761
 21
5052.5257388825
 31
0.0
  0
LINE
  5
1BA
330
1F
100
AcDbEntity
  8
0
  6
SLD-Plná
 62
     7
370
    25
100
AcDbLine
 10
5791.5086351337
 20
5051.2193998129
 30
0.0
 11
5792.1972993406
 21
5052.4878929912
 31
0.0
  0
LINE
  5
1BB
330
1F
100
AcDbEntity
  8
0
  6
SLD-Plná
 62
     7
370
    25
100
AcDbLine
 10
5792.2628503472
 20
5049.9887525259
 30
0.0
 11
5791.5086351337
 21
5051.2193998129
 31
0.0
  0
LINE
  5
1BC
330
1F
100
AcDbEntity
  8
0
  6
SLD-Plná
 62
     7
370
    25
100
AcDbLine
 10
5793.7057297676
 20
5050.0265984172
 30
0.0
 11
5792.2628503472
 21
5049.9887525259
 31
0.0
  0
CIRCLE
  5
1BD
330
1F
100
AcDbEntity
  8
0
  6
SLD-Plná
 62
     7
370
    25
100
AcDbCircle
 10
5792.9515145541
 20
5051.2572457042
 30
0.0
 40
1.900000000000163
  0
CIRCLE
  5
1BE
330
1F
100
AcDbEntity
  8
0
  6
SLD-Plná
 62
     7
370
    25
100
AcDbCircle
 10
5792.9515145541
 20
5051.2572457042
 30
0.0
 40
3.799999999999393
  0
ARC
  5
1BF
330
1F
100
AcDbEntity
  8
0
  6
SLD-Plná
 62
     7
370
    25
100
AcDbCircle
 10
5792.9515145541
 20
5051.2572457042
 30
0.0
 40
1.25000000000066
100
AcDbArc
 50
91.5024906045
 51
151.5024906045
  0
ARC
  5
1C0
330
1F
100
AcDbEntity
  8
0
  6
SLD-Plná
 62
     7
370
    25
100
AcDbCircle
 10
5792.9515145541
 20
5051.2572457042
 30
0.0
 40
1.249999999999974
100
AcDbArc
 50
151.5024906045
 51
211.5024906045
  0
ARC
  5
1C1
330
1F
100
AcDbEntity
  8
0
  6
SLD-Plná
 62
     7
370
    25
100
AcDbCircle
 10
5792.9515145541
 20
5051.2572457042
 30
0.0
 40
1.249999999999774
100
AcDbArc
 50
211.5024906045
 51
271.5024906046
  0
ARC
  5
1C2
330
1F
100
AcDbEntity
  8
0
  6
SLD-Plná
 62
     7
370
    25
100
AcDbCircle
 10
5792.9515145541
 20
5051.2572457042
 30
0.0
 40
1.250000000001197
100
AcDbArc
 50
331.5024906046
 51
31.5024906046
  0
ARC
  5
1C3
330
1F
100
AcDbEntity
  8
0
  6
SLD-Plná
 62
     7
370
    25
100
AcDbCircle
 10
5792.9515145541
 20
5051.2572457042
 30
0.0
 40
1.25000000000034
100
AcDbArc
 50
271.5024906046
 51
331.5024906046
  0
ARC
  5
1C4
330
1F
100
AcDbEntity
  8
0
  6
SLD-Plná
 62
     7
370
    25
100
AcDbCircle
 10
5792.9515145541
 20
5051.2572457042
 30
0.0
 40
1.250000000001197
100
AcDbArc
 50
31.5024906046
 51
91.5024906045
  0
LINE
  5
1C5
330
1F
100
AcDbEntity
  8
0
  6
SLD-Plná
 62
     7
370
    25
100
AcDbLine
 10
5799.4515145541
 20
5404.7572457042
 30
0.0
 11
5624.4515145541
 21
5404.7572457042
 31
0.0
  0
LINE
  5
1C6
330
1F
100
AcDbEntity
  8
0
  6
SLD-Plná
 62
     7
370
    25
100
AcDbLine
 10
5799.4515145541
 20
4864.7572457042
 30
0.0
 11
5799.4515145541
 21
5404.7572457042
 31
0.0
  0
LINE
  5
1C7
330
1F
100
AcDbEntity
  8
0
  6
SLD-Plná
 62
     7
370
    25
100
AcDbLine
 10
5624.4515145541
 20
5404.7572457042
 30
0.0
 11
5624.4515145541
 21
4864.7572457042
 31
0.0
  0
LINE
  5
1C8
330
1F
100
AcDbEntity
  8
0
  6
SLD-Plná
 62
     7
370
    25
100
AcDbLine
 10
5624.4515145541
 20
4864.7572457042
 30
0.0
 11
5799.4515145541
 21
4864.7572457042
 31
0.0
  0
LINE
  5
1C9
330
1F
100
AcDbEntity
  8
0
  6
SLD-Plná
 62
     7
370
    25
100
AcDbLine
 10
5389.4514929989
 20
5108.7572457042
 30
0.0
 11
5413.3360368003
 21
4709.7572457042
 31
0.0
  0
LINE
  5
1CA
330
1F
100
AcDbEntity
  8
0
  6
SLD-Plná
 62
     7
370
    25
100
AcDbLine
 10
5389.4514929989
 20
5108.7572457042
 30
0.0
 11
5442.0308602573
 21
5108.7572457042
 31
0.0
  0
LINE
  5
1CB
330
1F
100
AcDbEntity
  8
0
  6
SLD-Plná
 62
     7
370
    25
100
AcDbLine
 10
5151.9524911149
 20
4709.7572457042
 30
0.0
 11
5413.3360368003
 21
4709.7572457042
 31
0.0
  0
LINE
  5
1CC
330
1F
100
AcDbEntity
  8
0
  6
SLD-Plná
 62
     7
370
    25
100
AcDbLine
 10
5061.9524911166
 20
4709.7572457042
 30
0.0
 11
5151.9524911166
 21
4709.7572457042
 31
0.0
  0
LINE
  5
1CD
330
1F
100
AcDbEntity
  8
0
  6
SLD-Plná
 62
     7
370
    25
100
AcDbLine
 10
5151.9524911166
 20
5108.7572457042
 30
0.0
 11
5389.4514929989
 21
5108.7572457042
 31
0.0
  0
LINE
  5
1CE
330
1F
100
AcDbEntity
  8
0
  6
SLD-Plná
 62
     7
370
    25
100
AcDbLine
 10
5104.7528950926
 20
5108.7572457042
 30
0.0
 11
5151.9524911166
 21
5108.7572457042
 31
0.0
  0
LINE
  5
1CF
330
1F
100
AcDbEntity
  8
0
  6
SLD-Plná
 62
     7
370
    25
100
AcDbLine
 10
5012.756690417
 20
5108.7572457042
 30
0.0
 11
5104.7528950926
 21
5108.7572457042
 31
0.0
  0
LINE
  5
1D0
330
1F
100
AcDbEntity
  8
0
  6
SLD-Plná
 62
     7
370
    25
100
AcDbLine
 10
4929.4515145541
 20
5108.7572457042
 30
0.0
 11
5012.756690417
 21
5108.7572457042
 31
0.0
  0
LINE
  5
1D1
330
1F
100
AcDbEntity
  8
0
  6
SLD-Plná
 62
     7
370
    25
100
AcDbLine
 10
5569.4515145541
 20
4709.7572457042
 30
0.0
 11
5829.4515145541
 21
4709.7572457042
 31
0.0
  0
LINE
  5
1D2
330
1F
100
AcDbEntity
  8
0
  6
SLD-Plná
 62
     7
370
    25
100
AcDbLine
 10
5569.4515145541
 20
4709.7572457042
 30
0.0
 11
5569.4515145541
 21
5559.7572457042
 31
0.0
  0
LINE
  5
1D3
330
1F
100
AcDbEntity
  8
0
  6
SLD-Plná
 62
     7
370
    25
100
AcDbLine
 10
5569.4515145541
 20
5559.7572457042
 30
0.0
 11
5749.4515145541
 21
5559.7572457042
 31
0.0
  0
LINE
  5
1D4
330
1F
100
AcDbEntity
  8
0
  6
SLD-Plná
 62
     7
370
    25
100
AcDbLine
 10
5749.4515145541
 20
5582.7572457042
 30
0.0
 11
5749.4515145541
 21
5559.7572457042
 31
0.0
  0
LINE
  5
1D5
330
1F
100
AcDbEntity
  8
0
  6
SLD-Plná
 62
     7
370
    25
100
AcDbLine
 10
5749.4515145541
 20
5582.7572457042
 30
0.0
 11
5829.4515145541
 21
5582.7572457042
 31
0.0
  0
LINE
  5
1D6
330
1F
100
AcDbEntity
  8
0
  6
SLD-Plná
 62
     7
370
    25
100
AcDbLine
 10
5829.4515145541
 20
4709.7572457042
 30
0.0
 11
5829.4515145541
 21
5582.7572457042
 31
0.0
  0
LINE
  5
1D7
330
1F
100
AcDbEntity
  8
0
  6
SLD-Plná
 62
     7
370
    25
100
AcDbLine
 10
5389.4515145541
 20
5559.7572457042
 30
0.0
 11
5569.4515145541
 21
5559.7572457042
 31
0.0
  0
LINE
  5
1D8
330
1F
100
AcDbEntity
  8
0
  6
SLD-Plná
 62
     7
370
    25
100
AcDbLine
 10
5413.5704405458
 20
4709.7572457042
 30
0.0
 11
5569.4515145541
 21
4709.7572457042
 31
0.0
  0
LINE
  5
1D9
330
1F
100
AcDbEntity
  8
0
  6
SLD-Plná
 62
     8
370
    25
100
AcDbLine
 10
5696.0416119774
 20
5562.2572457042
 30
0.0
 11
5734.4515145541
 21
5562.2572457042
 31
0.0
  0
LINE
  5
1DA
330
1F
100
AcDbEntity
  8
0
  6
SLD-Plná
 62
     8
370
    25
100
AcDbLine
 10
5689.4515145541
 20
5562.2572457042
 30
0.0
 11
5696.0416119774
 21
5562.2572457042
 31
0.0
  0
LINE
  5
1DB
330
1F
100
AcDbEntity
  8
0_25
100
AcDbLine
 10
5442.0308602573
 20
5108.7572457042
 30
0.0
 11
5413.3360368003
 21
4709.7572457042
 31
0.0
  0
ENDSEC
  0
SECTION
  2
OBJECTS
  0
DICTIONARY
  5
C
330
0
100
AcDbDictionary
281
     1
  3
ACAD_GROUP
350
D
  3
ACAD_LAYOUT
350
1A
  3
ACAD_MLINESTYLE
350
17
  3
ACAD_PLOTSETTINGS
350
19
  3
ACAD_PLOTSTYLENAME
350
E
  3
ACAD_SCALELIST
350
47
  3
DWGPROPS
350
1DC
  0
DICTIONARY
  5
D
102
{ACAD_REACTORS
330
C
102
}
330
C
100
AcDbDictionary
281
     1
  0
DICTIONARY
  5
1A
102
{ACAD_REACTORS
330
C
102
}
330
C
100
AcDbDictionary
281
     1
  3
Layout1
350
1E
  3
Layout2
350
26
  3
Model
350
22
  0
DICTIONARY
  5
17
102
{ACAD_REACTORS
330
C
102
}
330
C
100
AcDbDictionary
281
     1
  3
Standard
350
18
  0
DICTIONARY
  5
19
102
{ACAD_REACTORS
330
C
102
}
330
C
100
AcDbDictionary
281
     1
  0
ACDBDICTIONARYWDFLT
  5
E
102
{ACAD_REACTORS
330
C
102
}
330
C
100
AcDbDictionary
281
     1
  3
Normal
350
F
100
AcDbDictionaryWithDefault
340
F
  0
DICTIONARY
  5
47
102
{ACAD_REACTORS
330
C
102
}
330
C
100
AcDbDictionary
281
     1
  3
A0
350
48
  3
A1
350
49
  3
A2
350
4A
  3
A3
350
4B
  3
A4
350
4C
  3
A5
350
4D
  3
A6
350
4E
  3
A7
350
4F
  3
A8
350
50
  3
A9
350
51
  3
B0
350
52
  3
B1
350
53
  3
B2
350
54
  3
B3
350
55
  3
B4
350
56
  3
B5
350
57
  3
B6
350
58
  3
B7
350
59
  3
B8
350
5A
  3
B9
350
5B
  3
C0
350
5C
  3
C1
350
5D
  3
C2
350
5E
  3
C3
350
5F
  3
C4
350
60
  3
C5
350
61
  3
C6
350
62
  3
C7
350
63
  3
C8
350
64
  3
C9
350
65
  3
D0
350
66
  3
D1
350
67
  3
D2
350
68
  0
XRECORD
  5
1DC
102
{ACAD_REACTORS
330
C
102
}
330
C
100
AcDbXrecord
280
     1
  1
DWGPROPS COOKIE
  2

  3

  4

  6

  7

  8
radek.stransky
  9

300
=
301
=
302
=
303
=
304
=
305
=
306
=
307
=
308
=
309
=
 40
0.0
 41
2460823.297656504
 42
2460823.297656979
  1

 90
        0
  0
LAYOUT
  5
1E
102
{ACAD_REACTORS
330
1A
102
}
330
1A
100
AcDbPlotSettings
  1

  2
none_device
  4

  6

 40
0.0
 41
0.0
 42
0.0
 43
0.0
 44
0.0
 45
0.0
 46
0.0
 47
0.0
 48
0.0
 49
0.0
140
0.0
141
0.0
142
1.0
143
1.0
 70
   688
 72
     1
 73
     0
 74
     5
  7

 75
    16
147
1.0
148
0.0
149
0.0
100
AcDbLayout
  1
Layout1
 70
     1
 71
     1
 10
0.0
 20
0.0
 11
420.0
 21
297.0
 12
0.0
 22
0.0
 32
0.0
 14
1.0000000000E+20
 24
1.0000000000E+20
 34
1.0000000000E+20
 15
-1.0000000000E+20
 25
-1.0000000000E+20
 35
-1.0000000000E+20
146
0.0
 13
0.0
 23
0.0
 33
0.0
 16
1.0
 26
0.0
 36
0.0
 17
0.0
 27
1.0
 37
0.0
 76
     0
330
1B
  0
LAYOUT
  5
26
102
{ACAD_REACTORS
330
1A
102
}
330
1A
100
AcDbPlotSettings
  1

  2
none_device
  4

  6

 40
0.0
 41
0.0
 42
0.0
 43
0.0
 44
0.0
 45
0.0
 46
0.0
 47
0.0
 48
0.0
 49
0.0
140
0.0
141
0.0
142
1.0
143
1.0
 70
   688
 72
     1
 73
     0
 74
     5
  7

 75
    16
147
1.0
148
0.0
149
0.0
100
AcDbLayout
  1
Layout2
 70
     1
 71
     2
 10
0.0
 20
0.0
 11
0.0
 21
0.0
 12
0.0
 22
0.0
 32
0.0
 14
0.0
 24
0.0
 34
0.0
 15
0.0
 25
0.0
 35
0.0
146
0.0
 13
0.0
 23
0.0
 33
0.0
 16
1.0
 26
0.0
 36
0.0
 17
0.0
 27
1.0
 37
0.0
 76
     0
330
23
  0
LAYOUT
  5
22
102
{ACAD_REACTORS
330
1A
102
}
330
1A
100
AcDbPlotSettings
  1

  2
none_device
  4
Letter_(8.50_x_11.00_Inches)
  6

 40
6.35
 41
6.35
 42
6.35000508
 43
6.35000508
 44
215.9
 45
279.4
 46
0.0
 47
0.0
 48
0.0
 49
0.0
140
0.0
141
0.0
142
1.0
143
1.0
 70
  1712
 72
     1
 73
     0
 74
     0
  7

 75
     0
147
1.0
148
0.0
149
0.0
100
AcDbLayout
  1
Model
 70
     1
 71
     0
 10
0.0
 20
0.0
 11
20000.0
 21
10000.0
 12
0.0
 22
0.0
 32
0.0
 14
0.0
 24
0.0
 34
0.0
 15
20000.0
 25
10000.0
 35
0.0
146
0.0
 13
0.0
 23
0.0
 33
0.0
 16
1.0
 26
0.0
 36
0.0
 17
0.0
 27
1.0
 37
0.0
 76
     0
330
1F
331
29
  0
MLINESTYLE
  5
18
102
{ACAD_REACTORS
330
17
102
}
330
17
100
AcDbMlineStyle
  2
Standard
 70
     0
  3

 62
   256
 51
90.0
 52
90.0
 71
     2
 49
0.5
 62
   256
  6
BYLAYER
 49
-0.5
 62
   256
  6
BYLAYER
  0
ACDBPLACEHOLDER
  5
F
102
{ACAD_REACTORS
330
E
102
}
330
E
  0
SCALE
  5
48
102
{ACAD_REACTORS
330
47
102
}
330
47
100
AcDbScale
 70
     0
300
1:1
140
1.0
141
1.0
290
     1
  0
SCALE
  5
49
102
{ACAD_REACTORS
330
47
102
}
330
47
100
AcDbScale
 70
     0
300
1:2
140
1.0
141
2.0
290
     0
  0
SCALE
  5
4A
102
{ACAD_REACTORS
330
47
102
}
330
47
100
AcDbScale
 70
     0
300
1:4
140
1.0
141
4.0
290
     0
  0
SCALE
  5
4B
102
{ACAD_REACTORS
330
47
102
}
330
47
100
AcDbScale
 70
     0
300
1:5
140
1.0
141
5.0
290
     0
  0
SCALE
  5
4C
102
{ACAD_REACTORS
330
47
102
}
330
47
100
AcDbScale
 70
     0
300
1:8
140
1.0
141
8.0
290
     0
  0
SCALE
  5
4D
102
{ACAD_REACTORS
330
47
102
}
330
47
100
AcDbScale
 70
     0
300
1:10
140
1.0
141
10.0
290
     0
  0
SCALE
  5
4E
102
{ACAD_REACTORS
330
47
102
}
330
47
100
AcDbScale
 70
     0
300
1:16
140
1.0
141
16.0
290
     0
  0
SCALE
  5
4F
102
{ACAD_REACTORS
330
47
102
}
330
47
100
AcDbScale
 70
     0
300
1:20
140
1.0
141
20.0
290
     0
  0
SCALE
  5
50
102
{ACAD_REACTORS
330
47
102
}
330
47
100
AcDbScale
 70
     0
300
1:30
140
1.0
141
30.0
290
     0
  0
SCALE
  5
51
102
{ACAD_REACTORS
330
47
102
}
330
47
100
AcDbScale
 70
     0
300
1:40
140
1.0
141
40.0
290
     0
  0
SCALE
  5
52
102
{ACAD_REACTORS
330
47
102
}
330
47
100
AcDbScale
 70
     0
300
1:50
140
1.0
141
50.0
290
     0
  0
SCALE
  5
53
102
{ACAD_REACTORS
330
47
102
}
330
47
100
AcDbScale
 70
     0
300
1:100
140
1.0
141
100.0
290
     0
  0
SCALE
  5
54
102
{ACAD_REACTORS
330
47
102
}
330
47
100
AcDbScale
 70
     0
300
2:1
140
2.0
141
1.0
290
     0
  0
SCALE
  5
55
102
{ACAD_REACTORS
330
47
102
}
330
47
100
AcDbScale
 70
     0
300
4:1
140
4.0
141
1.0
290
     0
  0
SCALE
  5
56
102
{ACAD_REACTORS
330
47
102
}
330
47
100
AcDbScale
 70
     0
300
8:1
140
8.0
141
1.0
290
     0
  0
SCALE
  5
57
102
{ACAD_REACTORS
330
47
102
}
330
47
100
AcDbScale
 70
     0
300
10:1
140
10.0
141
1.0
290
     0
  0
SCALE
  5
58
102
{ACAD_REACTORS
330
47
102
}
330
47
100
AcDbScale
 70
     0
300
100:1
140
100.0
141
1.0
290
     0
  0
SCALE
  5
59
102
{ACAD_REACTORS
330
47
102
}
330
47
100
AcDbScale
 70
     0
300
1/128" = 1'-0"
140
0.0078125
141
12.0
290
     0
  0
SCALE
  5
5A
102
{ACAD_REACTORS
330
47
102
}
330
47
100
AcDbScale
 70
     0
300
1/64" = 1'-0"
140
0.015625
141
12.0
290
     0
  0
SCALE
  5
5B
102
{ACAD_REACTORS
330
47
102
}
330
47
100
AcDbScale
 70
     0
300
1/32" = 1'-0"
140
0.03125
141
12.0
290
     0
  0
SCALE
  5
5C
102
{ACAD_REACTORS
330
47
102
}
330
47
100
AcDbScale
 70
     0
300
1/16" = 1'-0"
140
0.0625
141
12.0
290
     0
  0
SCALE
  5
5D
102
{ACAD_REACTORS
330
47
102
}
330
47
100
AcDbScale
 70
     0
300
3/32" = 1'-0"
140
0.09375
141
12.0
290
     0
  0
SCALE
  5
5E
102
{ACAD_REACTORS
330
47
102
}
330
47
100
AcDbScale
 70
     0
300
1/8" = 1'-0"
140
0.125
141
12.0
290
     0
  0
SCALE
  5
5F
102
{ACAD_REACTORS
330
47
102
}
330
47
100
AcDbScale
 70
     0
300
3/16" = 1'-0"
140
0.1875
141
12.0
290
     0
  0
SCALE
  5
60
102
{ACAD_REACTORS
330
47
102
}
330
47
100
AcDbScale
 70
     0
300
1/4" = 1'-0"
140
0.25
141
12.0
290
     0
  0
SCALE
  5
61
102
{ACAD_REACTORS
330
47
102
}
330
47
100
AcDbScale
 70
     0
300
3/8" = 1'-0"
140
0.375
141
12.0
290
     0
  0
SCALE
  5
62
102
{ACAD_REACTORS
330
47
102
}
330
47
100
AcDbScale
 70
     0
300
1/2" = 1'-0"
140
0.5
141
12.0
290
     0
  0
SCALE
  5
63
102
{ACAD_REACTORS
330
47
102
}
330
47
100
AcDbScale
 70
     0
300
3/4" = 1'-0"
140
0.75
141
12.0
290
     0
  0
SCALE
  5
64
102
{ACAD_REACTORS
330
47
102
}
330
47
100
AcDbScale
 70
     0
300
1" = 1'-0"
140
1.0
141
12.0
290
     0
  0
SCALE
  5
65
102
{ACAD_REACTORS
330
47
102
}
330
47
100
AcDbScale
 70
     0
300
1-1/2" = 1'-0"
140
1.5
141
12.0
290
     0
  0
SCALE
  5
66
102
{ACAD_REACTORS
330
47
102
}
330
47
100
AcDbScale
 70
     0
300
3" = 1'-0"
140
3.0
141
12.0
290
     0
  0
SCALE
  5
67
102
{ACAD_REACTORS
330
47
102
}
330
47
100
AcDbScale
 70
     0
300
6" = 1'-0"
140
6.0
141
12.0
290
     0
  0
SCALE
  5
68
102
{ACAD_REACTORS
330
47
102
}
330
47
100
AcDbScale
 70
     0
300
1'-0" = 1'-0"
140
12.0
141
12.0
290
     0
  0
ENDSEC
  0
EOF
