  0
SECTION
  2
HEADER
  9
$ACADVER
  1
AC1015
  9
$ACADMAINTVER
 70
     6
  9
$DWGCODEPAGE
  3
ANSI_1250
  9
$INSBASE
 10
0.0
 20
0.0
 30
0.0
  9
$EXTMIN
 10
0.0
 20
0.0
 30
0.0
  9
$EXTMAX
 10
20000.0
 20
10000.0
 30
0.0
  9
$LIMMIN
 10
0.0
 20
0.0
  9
$LIMMAX
 10
20000.0
 20
10000.0
  9
$ORTHOMODE
 70
     0
  9
$REGENMODE
 70
     1
  9
$FILLMODE
 70
     1
  9
$QTEXTMODE
 70
     0
  9
$MIRRTEXT
 70
     1
  9
$LTSCALE
 40
1.0
  9
$ATTMODE
 70
     1
  9
$TEXTSIZE
 40
2.0
  9
$TRACEWID
 40
1.0
  9
$TEXTSTYLE
  7
Standard
  9
$CLAYER
  8
0
  9
$CELTYPE
  6
ByLayer
  9
$CECOLOR
 62
   256
  9
$CELTSCALE
 40
1.0
  9
$DISPSILH
 70
     0
  9
$DIMSCALE
 40
1.0
  9
$DIMASZ
 40
2.0
  9
$DIMEXO
 40
1.0
  9
$DIMDLI
 40
3.75
  9
$DIMRND
 40
0.0
  9
$DIMDLE
 40
0.0
  9
$DIMEXE
 40
1.0
  9
$DIMTP
 40
0.0
  9
$DIMTM
 40
0.0
  9
$DIMTXT
 40
2.0
  9
$DIMCEN
 40
2.5
  9
$DIMTSZ
 40
0.0
  9
$DIMTOL
 70
     0
  9
$DIMLIM
 70
     0
  9
$DIMTIH
 70
     1
  9
$DIMTOH
 70
     1
  9
$DIMSE1
 70
     0
  9
$DIMSE2
 70
     0
  9
$DIMTAD
 70
     1
  9
$DIMZIN
 70
     0
  9
$DIMBLK
  1

  9
$DIMASO
 70
     1
  9
$DIMSHO
 70
     1
  9
$DIMPOST
  1

  9
$DIMAPOST
  1

  9
$DIMALT
 70
     0
  9
$DIMALTD
 70
     3
  9
$DIMALTF
 40
0.0393700787
  9
$DIMLFAC
 40
1.0
  9
$DIMTOFL
 70
     1
  9
$DIMTVP
 40
0.0
  9
$DIMTIX
 70
     0
  9
$DIMSOXD
 70
     0
  9
$DIMSAH
 70
     0
  9
$DIMBLK1
  1

  9
$DIMBLK2
  1

  9
$DIMSTYLE
  2
ISO-25
  9
$DIMCLRD
 70
     0
  9
$DIMCLRE
 70
     0
  9
$DIMCLRT
 70
     0
  9
$DIMTFAC
 40
1.0
  9
$DIMGAP
 40
1.524
  9
$DIMJUST
 70
     0
  9
$DIMSD1
 70
     0
  9
$DIMSD2
 70
     0
  9
$DIMTOLJ
 70
     0
  9
$DIMTZIN
 70
     0
  9
$DIMALTZ
 70
     0
  9
$DIMALTTZ
 70
     0
  9
$DIMUPT
 70
     0
  9
$DIMDEC
 70
     2
  9
$DIMTDEC
 70
     0
  9
$DIMALTU
 70
     2
  9
$DIMALTTD
 70
     3
  9
$DIMTXSTY
  7
Standard
  9
$DIMAUNIT
 70
     0
  9
$DIMADEC
 70
     2
  9
$DIMALTRND
 40
0.0
  9
$DIMAZIN
 70
     0
  9
$DIMDSEP
 70
    44
  9
$DIMATFIT
 70
     3
  9
$DIMFRAC
 70
     0
  9
$DIMLDRBLK
  1

  9
$DIMLUNIT
 70
     2
  9
$DIMLWD
 70
    -2
  9
$DIMLWE
 70
    -2
  9
$DIMTMOVE
 70
     0
  9
$LUNITS
 70
     2
  9
$LUPREC
 70
     3
  9
$SKETCHINC
 40
1.0
  9
$FILLETRAD
 40
10.0
  9
$AUNITS
 70
     0
  9
$AUPREC
 70
     2
  9
$MENU
  1
.
  9
$ELEVATION
 40
0.0
  9
$PELEVATION
 40
0.0
  9
$THICKNESS
 40
0.0
  9
$LIMCHECK
 70
     0
  9
$CHAMFERA
 40
0.0
  9
$CHAMFERB
 40
0.0
  9
$CHAMFERC
 40
0.0
  9
$CHAMFERD
 40
0.0
  9
$SKPOLY
 70
     0
  9
$TDCREATE
 40
2459157.451628438
  9
$TDUCREATE
 40
2459157.409961771
  9
$TDUPDATE
 40
2459157.451628669
  9
$TDUUPDATE
 40
2459157.409962002
  9
$TDINDWG
 40
0.0000000116
  9
$TDUSRTIMER
 40
0.0000000116
  9
$USRTIMER
 70
     1
  9
$ANGBASE
 50
0.0
  9
$ANGDIR
 70
     0
  9
$PDMODE
 70
     0
  9
$PDSIZE
 40
-1.0
  9
$PLINEWID
 40
0.0
  9
$SPLFRAME
 70
     0
  9
$SPLINETYPE
 70
     6
  9
$SPLINESEGS
 70
     8
  9
$HANDSEED
  5
354
  9
$SURFTAB1
 70
     6
  9
$SURFTAB2
 70
     6
  9
$SURFTYPE
 70
     6
  9
$SURFU
 70
     6
  9
$SURFV
 70
     6
  9
$UCSBASE
  2

  9
$UCSNAME
  2

  9
$UCSORG
 10
0.0
 20
0.0
 30
0.0
  9
$UCSXDIR
 10
1.0
 20
0.0
 30
0.0
  9
$UCSYDIR
 10
0.0
 20
1.0
 30
0.0
  9
$UCSORTHOREF
  2

  9
$UCSORTHOVIEW
 70
     0
  9
$UCSORGTOP
 10
0.0
 20
0.0
 30
0.0
  9
$UCSORGBOTTOM
 10
0.0
 20
0.0
 30
0.0
  9
$UCSORGLEFT
 10
0.0
 20
0.0
 30
0.0
  9
$UCSORGRIGHT
 10
0.0
 20
0.0
 30
0.0
  9
$UCSORGFRONT
 10
0.0
 20
0.0
 30
0.0
  9
$UCSORGBACK
 10
0.0
 20
0.0
 30
0.0
  9
$PUCSBASE
  2

  9
$PUCSNAME
  2

  9
$PUCSORG
 10
0.0
 20
0.0
 30
0.0
  9
$PUCSXDIR
 10
1.0
 20
0.0
 30
0.0
  9
$PUCSYDIR
 10
0.0
 20
1.0
 30
0.0
  9
$PUCSORTHOREF
  2

  9
$PUCSORTHOVIEW
 70
     0
  9
$PUCSORGTOP
 10
0.0
 20
0.0
 30
0.0
  9
$PUCSORGBOTTOM
 10
0.0
 20
0.0
 30
0.0
  9
$PUCSORGLEFT
 10
0.0
 20
0.0
 30
0.0
  9
$PUCSORGRIGHT
 10
0.0
 20
0.0
 30
0.0
  9
$PUCSORGFRONT
 10
0.0
 20
0.0
 30
0.0
  9
$PUCSORGBACK
 10
0.0
 20
0.0
 30
0.0
  9
$USERI1
 70
     0
  9
$USERI2
 70
     0
  9
$USERI3
 70
     0
  9
$USERI4
 70
     0
  9
$USERI5
 70
     0
  9
$USERR1
 40
0.0
  9
$USERR2
 40
0.0
  9
$USERR3
 40
0.0
  9
$USERR4
 40
0.0
  9
$USERR5
 40
0.0
  9
$WORLDVIEW
 70
     1
  9
$SHADEDGE
 70
     3
  9
$SHADEDIF
 70
    70
  9
$TILEMODE
 70
     1
  9
$MAXACTVP
 70
    64
  9
$PINSBASE
 10
0.0
 20
0.0
 30
0.0
  9
$PLIMCHECK
 70
     0
  9
$PEXTMIN
 10
1.0000000000E+20
 20
1.0000000000E+20
 30
1.0000000000E+20
  9
$PEXTMAX
 10
-1.0000000000E+20
 20
-1.0000000000E+20
 30
-1.0000000000E+20
  9
$PLIMMIN
 10
0.0
 20
0.0
  9
$PLIMMAX
 10
420.0
 20
297.0
  9
$UNITMODE
 70
     0
  9
$VISRETAIN
 70
     1
  9
$PLINEGEN
 70
     0
  9
$PSLTSCALE
 70
     1
  9
$TREEDEPTH
 70
  3020
  9
$CMLSTYLE
  2
Standard
  9
$CMLJUST
 70
     0
  9
$CMLSCALE
 40
20.0
  9
$PROXYGRAPHICS
 70
     1
  9
$MEASUREMENT
 70
     1
  9
$CELWEIGHT
370
    -1
  9
$ENDCAPS
280
     0
  9
$JOINSTYLE
280
     0
  9
$LWDISPLAY
290
     1
  9
$INSUNITS
 70
     4
  9
$HYPERLINKBASE
  1

  9
$STYLESHEET
  1

  9
$XEDIT
290
     1
  9
$CEPSNTYPE
380
     0
  9
$PSTYLEMODE
290
     1
  9
$FINGERPRINTGUID
  2
{ffb50a55-4711-4a71-85f9-fce6b4ffa0b0}
  9
$VERSIONGUID
  2
{FAEB1C32-E019-11D5-929B-00C0DF256EC4}
  9
$EXTNAMES
290
     1
  9
$PSVPSCALE
 40
0.0
  9
$OLESTARTUP
290
     0
  0
ENDSEC
  0
SECTION
  2
CLASSES
  0
CLASS
  1
ACDBDICTIONARYWDFLT
  2
AcDbDictionaryWithDefault
  3
ObjectDBX Classes
 90
        0
280
     0
281
     0
  0
CLASS
  1
VISUALSTYLE
  2
AcDbVisualStyle
  3
ObjectDBX Classes
 90
     4095
280
     0
281
     0
  0
CLASS
  1
MATERIAL
  2
AcDbMaterial
  3
ObjectDBX Classes
 90
     1153
280
     0
281
     0
  0
CLASS
  1
SCALE
  2
AcDbScale
  3
ObjectDBX Classes
 90
     1153
280
     0
281
     0
  0
CLASS
  1
TABLESTYLE
  2
AcDbTableStyle
  3
ObjectDBX Classes
 90
     4095
280
     0
281
     0
  0
CLASS
  1
MLEADERSTYLE
  2
AcDbMLeaderStyle
  3
ACDB_MLEADERSTYLE_CLASS
 90
     4095
280
     0
281
     0
  0
CLASS
  1
SUN
  2
AcDbSun
  3
SCENEOE
 90
     1153
280
     0
281
     0
  0
CLASS
  1
ACDBPLACEHOLDER
  2
AcDbPlaceHolder
  3
ObjectDBX Classes
 90
        0
280
     0
281
     0
  0
CLASS
  1
LAYOUT
  2
AcDbLayout
  3
ObjectDBX Classes
 90
        0
280
     0
281
     0
  0
ENDSEC
  0
SECTION
  2
TABLES
  0
TABLE
  2
VPORT
  5
8
330
0
100
AcDbSymbolTable
 70
     1
  0
VPORT
  5
29
330
8
100
AcDbSymbolTableRecord
100
AcDbViewportTableRecord
  2
*Active
 70
     0
 10
0.0
 20
0.0
 11
1.0
 21
1.0
 12
10000.0
 22
5000.0
 13
0.0
 23
0.0
 14
10.0
 24
10.0
 15
10.0
 25
10.0
 16
0.0
 26
0.0
 36
1.0
 17
0.0
 27
0.0
 37
0.0
 40
10000.0
 41
2.0
 42
50.0
 43
0.0
 44
0.0
 50
0.0
 51
0.0
 71
     0
 72
  2000
 73
     1
 74
     3
 75
     0
 76
     0
 77
     0
 78
     0
281
     0
 65
     1
110
0.0
120
0.0
130
0.0
111
1.0
121
0.0
131
0.0
112
0.0
122
1.0
132
0.0
 79
     0
146
0.0
  0
ENDTAB
  0
TABLE
  2
LTYPE
  5
5
330
0
100
AcDbSymbolTable
 70
     6
  0
LTYPE
  5
14
330
5
100
AcDbSymbolTableRecord
100
AcDbLinetypeTableRecord
  2
ByBlock
 70
     0
  3

 72
    65
 73
     0
 40
0.0
  0
LTYPE
  5
15
330
5
100
AcDbSymbolTableRecord
100
AcDbLinetypeTableRecord
  2
ByLayer
 70
     0
  3

 72
    65
 73
     0
 40
0.0
  0
LTYPE
  5
16
330
5
100
AcDbSymbolTableRecord
100
AcDbLinetypeTableRecord
  2
Continuous
 70
     0
  3
Solid line
 72
    65
 73
     0
 40
0.0
  0
LTYPE
  5
6E
330
5
100
AcDbSymbolTableRecord
100
AcDbLinetypeTableRecord
  2
HIDDEN
 70
     0
  3
Hidden __ __ __ __ __ __ __ __ __ __ __ __ __ __
 72
    65
 73
     2
 40
1.905
 49
1.27
 74
     0
 49
-0.635
 74
     0
  0
LTYPE
  5
6F
330
5
100
AcDbSymbolTableRecord
100
AcDbLinetypeTableRecord
  2
PHANTOM
 70
     0
  3
Phantom ______  __  __  ______  __  __  ______
 72
    65
 73
     6
 40
12.7
 49
6.35
 74
     0
 49
-1.27
 74
     0
 49
1.27
 74
     0
 49
-1.27
 74
     0
 49
1.27
 74
     0
 49
-1.27
 74
     0
  0
LTYPE
  5
70
330
5
100
AcDbSymbolTableRecord
100
AcDbLinetypeTableRecord
  2
CENTER
 70
     0
  3
Center ____ _ ____ _ ____ _ ____ _ ____ _ ____
 72
    65
 73
     4
 40
10.16
 49
6.35
 74
     0
 49
-1.27
 74
     0
 49
1.27
 74
     0
 49
-1.27
 74
     0
  0
LTYPE
  5
71
330
5
100
AcDbSymbolTableRecord
100
AcDbLinetypeTableRecord
  2
CENTERX2
 70
     0
  3
Center (2x) ________  __  ________  __  _____
 72
    65
 73
     4
 40
20.32
 49
12.7
 74
     0
 49
-2.54
 74
     0
 49
2.54
 74
     0
 49
-2.54
 74
     0
  0
LTYPE
  5
72
330
5
100
AcDbSymbolTableRecord
100
AcDbLinetypeTableRecord
  2
DOT2
 70
     0
  3
Dot (.5x) ........................................
 72
    65
 73
     2
 40
0.635
 49
0.0
 74
     0
 49
-0.635
 74
     0
  0
ENDTAB
  0
TABLE
  2
LAYER
  5
2
330
0
100
AcDbSymbolTable
 70
    13
  0
LAYER
  5
10
330
2
100
AcDbSymbolTableRecord
100
AcDbLayerTableRecord
  2
0
 70
     0
 62
     7
  6
Continuous
370
    -3
390
F
  0
LAYER
  5
73
330
2
100
AcDbSymbolTableRecord
100
AcDbLayerTableRecord
  2
FORMAT
 70
     0
 62
     7
  6
Continuous
370
    -3
390
F
  0
LAYER
  5
74
330
2
100
AcDbSymbolTableRecord
100
AcDbLayerTableRecord
  2
OSA
 70
     0
 62
     7
  6
CENTER
370
    -3
390
F
  0
LAYER
  5
75
330
2
100
AcDbSymbolTableRecord
100
AcDbLayerTableRecord
  2
0_35
 70
     0
 62
     7
  6
Continuous
370
    35
390
F
  0
LAYER
  5
76
330
2
100
AcDbSymbolTableRecord
100
AcDbLayerTableRecord
  2
0_5
 70
     0
 62
     7
  6
Continuous
370
    50
390
F
  0
LAYER
  5
77
330
2
100
AcDbSymbolTableRecord
100
AcDbLayerTableRecord
  2
0_25
 70
     0
 62
     7
  6
Continuous
370
    25
390
F
  0
LAYER
  5
78
330
2
100
AcDbSymbolTableRecord
100
AcDbLayerTableRecord
  2
0_18
 70
     0
 62
     7
  6
Continuous
370
    -3
390
F
  0
LAYER
  5
79
330
2
100
AcDbSymbolTableRecord
100
AcDbLayerTableRecord
  2
SLD-0
 70
     0
 62
   179
  6
Continuous
370
    -3
390
F
  0
LAYER
  5
7A
330
2
100
AcDbSymbolTableRecord
100
AcDbLayerTableRecord
  2
KOTY
 70
     0
 62
     7
  6
Continuous
370
    -3
390
F
  0
LAYER
  5
7B
330
2
100
AcDbSymbolTableRecord
100
AcDbLayerTableRecord
  2
SILNA
 70
     0
 62
   179
  6
Continuous
370
    -3
390
F
  0
LAYER
  5
7C
330
2
100
AcDbSymbolTableRecord
100
AcDbLayerTableRecord
  2
0_18_1
 70
     0
 62
   179
  6
Continuous
370
    -3
390
F
  0
LAYER
  5
7D
330
2
100
AcDbSymbolTableRecord
100
AcDbLayerTableRecord
  2
0_35_1
 70
     0
 62
   179
  6
Continuous
370
    35
390
F
  0
LAYER
  5
7E
330
2
100
AcDbSymbolTableRecord
100
AcDbLayerTableRecord
  2
0_5_1
 70
     0
 62
   179
  6
Continuous
370
    50
390
F
  0
ENDTAB
  0
TABLE
  2
STYLE
  5
3
330
0
100
AcDbSymbolTable
 70
     1
  0
STYLE
  5
11
330
3
100
AcDbSymbolTableRecord
100
AcDbTextStyleTableRecord
  2
Standard
 70
     0
 40
0.0
 41
1.0
 50
0.0
 71
     0
 42
2.0
  3
txt
  4

  0
ENDTAB
  0
TABLE
  2
VIEW
  5
6
330
0
100
AcDbSymbolTable
 70
     0
  0
ENDTAB
  0
TABLE
  2
UCS
  5
7
330
0
100
AcDbSymbolTable
 70
     0
  0
ENDTAB
  0
TABLE
  2
APPID
  5
9
330
0
100
AcDbSymbolTable
 70
     1
  0
APPID
  5
12
330
9
100
AcDbSymbolTableRecord
100
AcDbRegAppTableRecord
  2
ACAD
 70
     0
  0
ENDTAB
  0
TABLE
  2
DIMSTYLE
  5
A
330
0
100
AcDbSymbolTable
 70
     1
100
AcDbDimStyleTable
  0
DIMSTYLE
105
27
330
A
100
AcDbSymbolTableRecord
100
AcDbDimStyleTableRecord
  2
ISO-25
 70
     0
 41
2.5
 42
0.625
 43
3.75
 44
1.25
 73
     0
 74
     0
 77
     1
 78
     8
140
2.5
141
2.5
143
0.0393700787
147
0.625
171
     3
172
     1
178
     0
271
     2
272
     2
274
     3
278
    44
283
     0
284
     8
340
11
  0
ENDTAB
  0
TABLE
  2
BLOCK_RECORD
  5
1
330
0
100
AcDbSymbolTable
 70
     1
  0
BLOCK_RECORD
  5
1F
330
1
100
AcDbSymbolTableRecord
100
AcDbBlockTableRecord
  2
*Model_Space
340
22
  0
BLOCK_RECORD
  5
1B
330
1
100
AcDbSymbolTableRecord
100
AcDbBlockTableRecord
  2
*Paper_Space
340
1E
  0
BLOCK_RECORD
  5
23
330
1
100
AcDbSymbolTableRecord
100
AcDbBlockTableRecord
  2
*Paper_Space0
340
26
  0
ENDTAB
  0
ENDSEC
  0
SECTION
  2
BLOCKS
  0
BLOCK
  5
20
330
1F
100
AcDbEntity
  8
0
100
AcDbBlockBegin
  2
*Model_Space
 70
     0
 10
0.0
 20
0.0
 30
0.0
  3
*Model_Space
  1

  0
ENDBLK
  5
21
330
1F
100
AcDbEntity
  8
0
100
AcDbBlockEnd
  0
BLOCK
  5
1C
330
1B
100
AcDbEntity
 67
     1
  8
0
100
AcDbBlockBegin
  2
*Paper_Space
 70
     0
 10
0.0
 20
0.0
 30
0.0
  3
*Paper_Space
  1

  0
ENDBLK
  5
1D
330
1B
100
AcDbEntity
 67
     1
  8
0
100
AcDbBlockEnd
  0
BLOCK
  5
24
330
23
100
AcDbEntity
  8
0
100
AcDbBlockBegin
  2
*Paper_Space0
 70
     0
 10
0.0
 20
0.0
 30
0.0
  3
*Paper_Space0
  1

  0
ENDBLK
  5
25
330
23
100
AcDbEntity
  8
0
100
AcDbBlockEnd
  0
ENDSEC
  0
SECTION
  2
ENTITIES
  0
LINE
  5
7F
330
1F
100
AcDbEntity
  8
0
  6
Continuous
 62
     7
370
    25
100
AcDbLine
 10
6492.5729377762
 20
4698.3325323907
 30
0.0
 11
6492.5729377762
 21
4697.2870397102
 31
0.0
  0
LINE
  5
80
330
1F
100
AcDbEntity
  8
0
  6
Continuous
 62
     7
370
    25
100
AcDbLine
 10
6559.0729377762
 20
4697.2870397102
 30
0.0
 11
6559.0729377762
 21
4698.3325323907
 31
0.0
  0
LINE
  5
81
330
1F
100
AcDbEntity
  8
0
  6
Continuous
 62
     7
370
    25
100
AcDbLine
 10
6485.8229377762
 20
4695.7789650962
 30
0.0
 11
6485.8229377762
 21
4695.2826759439
 31
0.0
  0
LINE
  5
82
330
1F
100
AcDbEntity
  8
0
  6
Continuous
 62
     7
370
    25
100
AcDbLine
 10
6565.8229377762
 20
4695.2826759439
 30
0.0
 11
6565.8229377762
 21
4695.7789650962
 31
0.0
  0
ARC
  5
83
330
1F
100
AcDbEntity
  8
0
  6
Continuous
 62
     7
370
    25
100
AcDbCircle
 10
6486.4732798237
 20
4695.8337346442
 30
0.0
 40
0.0547695479954696
100
AcDbArc
 50
270.0
 51
329.9999999995
  0
ARC
  5
84
330
1F
100
AcDbEntity
  8
0
  6
Continuous
 62
     7
370
    25
100
AcDbCircle
 10
6565.1725957287
 20
4695.8337346442
 30
0.0
 40
0.054769547994682
100
AcDbArc
 50
210.000000001
 51
270.0
  0
LINE
  5
85
330
1F
100
AcDbEntity
  8
0
  6
Continuous
 62
     7
370
    25
100
AcDbLine
 10
6565.1251639088
 20
4695.8063498702
 30
0.0
 11
6564.8860525236
 21
4696.2205029381
 31
0.0
  0
LINE
  5
86
330
1F
100
AcDbEntity
  8
0
  6
Continuous
 62
     7
370
    25
100
AcDbLine
 10
6486.7598230288
 20
4696.2205029381
 30
0.0
 11
6486.5207116436
 21
4695.8063498702
 31
0.0
  0
ARC
  5
87
330
1F
100
AcDbEntity
  8
0
  6
Continuous
 62
     7
370
    25
100
AcDbCircle
 10
6486.8546550803
 20
4696.1657516276
 30
0.0
 40
0.1095026209371498
100
AcDbArc
 50
90.0
 51
150.0000000001
  0
ARC
  5
88
330
1F
100
AcDbEntity
  8
0
  6
Continuous
 62
     7
370
    25
100
AcDbCircle
 10
6564.7912204721
 20
4696.1657516276
 30
0.0
 40
0.1095026209377465
100
AcDbArc
 50
29.9999999999
 51
90.0
  0
LINE
  5
89
330
1F
100
AcDbEntity
  8
0
  6
Continuous
 62
     7
370
    25
100
AcDbLine
 10
6564.7912204721
 20
4696.2752542485
 30
0.0
 11
6486.8546550803
 21
4696.2752542485
 31
0.0
  0
ARC
  5
8A
330
1F
100
AcDbEntity
  8
0
  6
Continuous
 62
     7
370
    25
100
AcDbCircle
 10
6565.8614959953
 20
4678.3446052234
 30
0.0
 40
6.853085275289731
100
AcDbArc
 50
305.7382565022
 51
359.7686518055
  0
LINE
  5
8B
330
1F
100
AcDbEntity
  8
0
  6
Continuous
 62
     7
370
    25
100
AcDbLine
 10
6572.7446859992
 20
4678.3159104395
 30
0.0
 11
6572.8229377762
 21
4687.2826759439
 31
0.0
  0
LINE
  5
8C
330
1F
100
AcDbEntity
  8
0
  6
Continuous
 62
     7
370
    25
100
AcDbLine
 10
6574.8229377762
 20
4687.2826759439
 30
0.0
 11
6574.8229377762
 21
4690.2826759439
 31
0.0
  0
ARC
  5
8D
330
1F
100
AcDbEntity
  8
0
  6
Continuous
 62
     7
370
    25
100
AcDbCircle
 10
6572.8229377762
 20
4690.2826759439
 30
0.0
 40
2.0
100
AcDbArc
 50
0.0
 51
90.0
  0
LINE
  5
8E
330
1F
100
AcDbEntity
  8
0
  6
Continuous
 62
     7
370
    25
100
AcDbLine
 10
6567.5729377762
 20
4692.2826759439
 30
0.0
 11
6567.5729377762
 21
4695.2826759439
 31
0.0
  0
LINE
  5
8F
330
1F
100
AcDbEntity
  8
0
  6
Continuous
 62
     7
370
    25
100
AcDbLine
 10
6484.0729377762
 20
4695.2826759439
 30
0.0
 11
6484.0729377762
 21
4692.2826759439
 31
0.0
  0
LINE
  5
90
330
1F
100
AcDbEntity
  8
0
  6
Continuous
 62
     7
370
    25
100
AcDbLine
 10
6558.0636827585
 20
4620.0994373058
 30
0.0
 11
6559.2655460973
 21
4665.9967464995
 31
0.0
  0
ARC
  5
91
330
1F
100
AcDbEntity
  8
0
  6
Continuous
 62
     7
370
    25
100
AcDbCircle
 10
6551.0660814837
 20
4620.2826759439
 30
0.0
 40
7.000000000000435
100
AcDbArc
 50
270.0
 51
358.5
  0
ARC
  5
92
330
1F
100
AcDbEntity
  8
0
  6
Continuous
 62
     7
370
    25
100
AcDbCircle
 10
6394.2571181728
 20
4660.1335283924
 30
0.0
 40
26.99999999999974
100
AcDbArc
 50
228.2942528904
 51
287.8227912466
  0
ARC
  5
93
330
1F
100
AcDbEntity
  8
0
  6
Continuous
 62
     7
370
    25
100
AcDbCircle
 10
6394.2571181728
 20
4660.1335283924
 30
0.0
 40
27.00000000000061
100
AcDbArc
 50
73.1772087534
 51
132.7057471096
  0
ARC
  5
94
330
1F
100
AcDbEntity
  8
0
  6
Continuous
 62
     7
370
    25
100
AcDbCircle
 10
6458.8229377762
 20
4685.2110548467
 30
0.0
 40
1.999999999999448
100
AcDbArc
 50
0.5
 51
92.0154937467
  0
ARC
  5
95
330
1F
100
AcDbEntity
  8
0
  6
Continuous
 62
     7
370
    25
100
AcDbCircle
 10
6459.2507672733
 20
4636.1866502926
 30
0.0
 40
2.000000000000357
100
AcDbArc
 50
268.9845062533
 51
0.5
  0
LINE
  5
96
330
1F
100
AcDbEntity
  8
0
  6
Continuous
 62
     7
370
    25
100
AcDbLine
 10
6461.2506911194
 20
4636.2041033636
 30
0.0
 11
6460.8228616224
 21
4685.2285079177
 31
0.0
  0
LINE
  5
97
330
1F
100
AcDbEntity
  8
0
  6
Continuous
 62
     7
370
    25
100
AcDbLine
 10
6458.7525982811
 20
4687.2098175529
 30
0.0
 11
6433.7525982811
 21
4686.3300295851
 31
0.0
  0
LINE
  5
98
330
1F
100
AcDbEntity
  8
0
  6
Continuous
 62
     7
370
    25
100
AcDbLine
 10
6434.2037749142
 20
4634.6303082251
 30
0.0
 11
6459.2153217103
 21
4634.1869644142
 31
0.0
  0
ARC
  5
99
330
1F
100
AcDbEntity
  8
0
  6
Continuous
 62
     7
370
    25
100
AcDbCircle
 10
6433.8229377762
 20
4684.3312668789
 30
0.0
 40
2.000000000000287
100
AcDbArc
 50
92.0154937467
 51
180.0
  0
ARC
  5
9A
330
1F
100
AcDbEntity
  8
0
  6
Continuous
 62
     7
370
    25
100
AcDbCircle
 10
6434.2392204772
 20
4636.6299941035
 30
0.0
 40
2.000000000000286
100
AcDbArc
 50
181.0
 51
268.9845062532
  0
LINE
  5
9B
330
1F
100
AcDbEntity
  8
0
  6
Continuous
 62
     7
370
    25
100
AcDbLine
 10
6431.8229377762
 20
4684.3312668789
 30
0.0
 11
6431.8229377762
 21
4680.4621219013
 31
0.0
  0
LINE
  5
9C
330
1F
100
AcDbEntity
  8
0
  6
Continuous
 62
     7
370
    25
100
AcDbLine
 10
6432.1719991962
 20
4640.4636449787
 30
0.0
 11
6432.2395250869
 21
4636.5950892906
 31
0.0
  0
LINE
  5
9D
330
1F
100
AcDbEntity
  8
0
  6
Continuous
 62
     7
370
    25
100
AcDbLine
 10
6410.648140408
 20
4637.0615072876
 30
0.0
 11
6411.4858314315
 21
4637.0761292388
 31
0.0
  0
LINE
  5
9E
330
1F
100
AcDbEntity
  8
0
  6
Continuous
 62
     7
370
    25
100
AcDbLine
 10
6411.0808003136
 20
4683.4880982987
 30
0.0
 11
6410.2429816863
 21
4683.4880982987
 31
0.0
  0
ARC
  5
9F
330
1F
100
AcDbEntity
  8
0
  6
Continuous
 62
     7
370
    25
100
AcDbCircle
 10
6410.2429816863
 20
4683.2380982987
 30
0.0
 40
0.2499999999991427
100
AcDbArc
 50
90.0
 51
168.5
  0
ARC
  5
A0
330
1F
100
AcDbEntity
  8
0
  6
Continuous
 62
     7
370
    25
100
AcDbCircle
 10
6410.6437773064
 20
4637.3114692114
 30
0.0
 40
0.2499999999996683
100
AcDbArc
 50
192.5
 51
271.0000000001
  0
ARC
  5
A1
330
1F
100
AcDbEntity
  8
0
  6
Continuous
 62
     7
370
    25
100
AcDbCircle
 10
6411.0808003136
 20
4683.2380982987
 30
0.0
 40
0.2499999999992811
100
AcDbArc
 50
10.4999999998
 51
90.0
  0
ARC
  5
A2
330
1F
100
AcDbEntity
  8
0
  6
Continuous
 62
     7
370
    25
100
AcDbCircle
 10
6411.4814683299
 20
4637.3260911626
 30
0.0
 40
0.2500000000003811
100
AcDbArc
 50
271.0000000001
 51
350.5
  0
LINE
  5
A3
330
1F
100
AcDbEntity
  8
0
  6
Continuous
 62
     7
370
    25
100
AcDbLine
 10
6409.9980005101
 20
4683.2879402823
 30
0.0
 11
6409.5818080626
 21
4681.2422890475
 31
0.0
  0
LINE
  5
A4
330
1F
100
AcDbEntity
  8
0
  6
Continuous
 62
     7
370
    25
100
AcDbLine
 10
6409.9478727084
 20
4639.2954354204
 30
0.0
 11
6410.3997033046
 21
4637.2573593079
 31
0.0
  0
LINE
  5
A5
330
1F
100
AcDbEntity
  8
0
  6
Continuous
 62
     7
370
    25
100
AcDbLine
 10
6411.7280397303
 20
4637.2848292611
 30
0.0
 11
6412.2308694825
 21
4640.2896213761
 31
0.0
  0
LINE
  5
A6
330
1F
100
AcDbEntity
  8
0
  6
Continuous
 62
     7
370
    25
100
AcDbLine
 10
6411.8818080626
 20
4680.2880982987
 30
0.0
 11
6411.3266140405
 21
4683.2836571801
 31
0.0
  0
ARC
  5
A7
330
1F
100
AcDbEntity
  8
0
  6
Continuous
 62
     7
370
    25
100
AcDbCircle
 10
6394.2571181728
 20
4660.1335283924
 30
0.0
 40
24.00000000000049
100
AcDbArc
 50
290.0012723466
 51
303.9103151897
  0
ARC
  5
A8
330
1F
100
AcDbEntity
  8
0
  6
Continuous
 62
     7
370
    25
100
AcDbCircle
 10
6394.2571181728
 20
4660.1335283924
 30
0.0
 40
24.00000000000049
100
AcDbArc
 50
57.0896848103
 51
70.9987276534
  0
LINE
  5
A9
330
1F
100
AcDbEntity
  8
0
  6
Continuous
 62
     7
370
    25
100
AcDbLine
 10
6499.7629702066
 20
4642.6435384465
 30
0.0
 11
6500.359733597
 21
4619.8540640028
 31
0.0
  0
LWPOLYLINE
  5
AA
330
1F
100
AcDbEntity
  8
0
  6
Continuous
 62
     7
370
    25
100
AcDbPolyline
 90
        7
 70
   128
 43
0.0
 10
6500.3588116698
 20
4619.8934891135
 10
6500.5340352328
 20
4618.7346167412
 10
6501.4865353991
 20
4616.8352043606
 10
6503.2387775569
 20
4615.0965355958
 10
6505.1766884071
 20
4613.97749992
 10
6506.3578545415
 20
4613.5603439256
 10
6508.390109476
 20
4613.2826759439
  0
LINE
  5
AB
330
1F
100
AcDbEntity
  8
0
  6
Continuous
 62
     7
370
    25
100
AcDbLine
 10
6466.8797138311
 20
4680.7680577511
 30
0.0
 11
6460.8622456609
 21
4680.7155441019
 31
0.0
  0
LINE
  5
AC
330
1F
100
AcDbEntity
  8
0
  6
Continuous
 62
     7
370
    25
100
AcDbLine
 10
6461.2113070809
 20
4640.7170671794
 30
0.0
 11
6468.4540497658
 21
4640.7802736372
 31
0.0
  0
ARC
  5
AD
330
1F
100
AcDbEntity
  8
0
  6
Continuous
 62
     7
370
    25
100
AcDbCircle
 10
6408.1119210057
 20
4681.5413409491
 30
0.0
 40
1.500000000001458
100
AcDbArc
 50
237.0896848103
 51
348.5
  0
ARC
  5
AE
330
1F
100
AcDbEntity
  8
0
  6
Continuous
 62
     7
370
    25
100
AcDbCircle
 10
6408.4834286978
 20
4638.9707759995
 30
0.0
 40
1.50000000000058
100
AcDbArc
 50
12.5
 51
123.9103151897
  0
LINE
  5
AF
330
1F
100
AcDbEntity
  8
0
  6
Continuous
 62
     7
370
    25
100
AcDbLine
 10
6431.8229377762
 20
4680.4621219013
 30
0.0
 11
6411.8818080626
 21
4680.2880982987
 31
0.0
  0
LINE
  5
B0
330
1F
100
AcDbEntity
  8
0
  6
Continuous
 62
     7
370
    25
100
AcDbLine
 10
6412.2308694825
 20
4640.2896213761
 30
0.0
 11
6432.1719991962
 21
4640.4636449787
 31
0.0
  0
LINE
  5
B1
330
1F
100
AcDbEntity
  8
0
  6
Continuous
 62
     7
370
    25
100
AcDbLine
 10
6375.9448168375
 20
4679.9743857279
 30
0.0
 11
6307.393467714
 21
4679.3761471672
 31
0.0
  0
LINE
  5
B2
330
1F
100
AcDbEntity
  8
0
  6
Continuous
 62
     7
370
    25
100
AcDbLine
 10
6307.7425274724
 20
4639.3778606293
 30
0.0
 11
6376.293876596
 21
4639.97609919
 31
0.0
  0
LINE
  5
B3
330
1F
100
AcDbEntity
  8
0
  6
Continuous
 62
     7
370
    25
100
AcDbLine
 10
6307.393467714
 20
4679.3761471672
 30
0.0
 11
6303.9077375411
 21
4679.0604175958
 31
0.0
  0
LINE
  5
B4
330
1F
100
AcDbEntity
  8
0
  6
Continuous
 62
     7
370
    25
100
AcDbLine
 10
6304.2518179524
 20
4639.6327077339
 30
0.0
 11
6307.7425274724
 21
4639.3778606293
 31
0.0
  0
LINE
  5
B5
330
1F
100
AcDbEntity
  8
0
  6
Continuous
 62
     7
370
    25
100
AcDbLine
 10
6303.9077375411
 20
4679.0604175958
 30
0.0
 11
6303.9077375411
 21
4676.8456324649
 31
0.0
  0
LINE
  5
B6
330
1F
100
AcDbEntity
  8
0
  6
Continuous
 62
     7
370
    25
100
AcDbLine
 10
6304.2131646221
 20
4641.8471555423
 30
0.0
 11
6304.2518179524
 21
4639.6327077339
 31
0.0
  0
ARC
  5
B7
330
1F
100
AcDbEntity
  8
0
  6
Continuous
 62
     7
370
    25
100
AcDbCircle
 10
6466.8622607601
 20
4682.7679815972
 30
0.0
 40
2.000000000000349
100
AcDbArc
 50
270.5
 51
0.5
  0
ARC
  5
B8
330
1F
100
AcDbEntity
  8
0
  6
Continuous
 62
     7
370
    25
100
AcDbCircle
 10
6474.7692338626
 20
4647.62216661
 30
0.0
 40
8.836610070290575
100
AcDbArc
 50
235.009226554
 51
282.7578591473
  0
LWPOLYLINE
  5
B9
330
1F
100
AcDbEntity
  8
0
  6
Continuous
 62
     7
370
    25
100
AcDbPolyline
 90
        3
 70
   128
 43
0.0
 10
6476.7675542354
 20
4639.0080638861
 10
6476.7730200607
 20
4639.0085705543
 10
6476.7626658699
 20
4639.0077082354
  0
ARC
  5
BA
330
1F
100
AcDbEntity
  8
0
  6
Continuous
 62
     7
370
    25
100
AcDbCircle
 10
6468.6348213377
 20
4639.1499718802
 30
0.0
 40
1.612651671838526
100
AcDbArc
 50
48.4360533131
 51
96.2068831878
  0
LINE
  5
BB
330
1F
100
AcDbEntity
  8
0
  6
Continuous
 62
     7
370
    25
100
AcDbLine
 10
6983.1229377762
 20
4603.0826759439
 30
0.0
 11
6983.1229377762
 21
4673.0826759439
 31
0.0
  0
LINE
  5
BC
330
1F
100
AcDbEntity
  8
0
  6
Continuous
 62
     7
370
    25
100
AcDbLine
 10
6973.1229377762
 20
4673.0826759439
 30
0.0
 11
6973.1229377762
 21
4603.0826759439
 31
0.0
  0
LINE
  5
BD
330
1F
100
AcDbEntity
  8
0
  6
Continuous
 62
     7
370
    25
100
AcDbLine
 10
6983.1229377762
 20
4682.0826759439
 30
0.0
 11
6982.1229377762
 21
4683.0826759439
 31
0.0
  0
LINE
  5
BE
330
1F
100
AcDbEntity
  8
0
  6
Continuous
 62
     7
370
    25
100
AcDbLine
 10
6974.1229377762
 20
4683.0826759439
 30
0.0
 11
6973.1229377762
 21
4682.0826759439
 31
0.0
  0
LINE
  5
BF
330
1F
100
AcDbEntity
  8
0
  6
Continuous
 62
     7
370
    25
100
AcDbLine
 10
6078.5229377762
 20
4682.0826759439
 30
0.0
 11
6077.5229377762
 21
4683.0826759439
 31
0.0
  0
LINE
  5
C0
330
1F
100
AcDbEntity
  8
0
  6
Continuous
 62
     7
370
    25
100
AcDbLine
 10
6069.5229377762
 20
4683.0826759439
 30
0.0
 11
6068.5229377762
 21
4682.0826759439
 31
0.0
  0
LINE
  5
C1
330
1F
100
AcDbEntity
  8
0
  6
Continuous
 62
     7
370
    25
100
AcDbLine
 10
6078.5229377762
 20
4598.0826759439
 30
0.0
 11
6078.5229377762
 21
4673.0826759439
 31
0.0
  0
LINE
  5
C2
330
1F
100
AcDbEntity
  8
0
  6
Continuous
 62
     7
370
    25
100
AcDbLine
 10
6068.5229377762
 20
4673.0826759439
 30
0.0
 11
6068.5229377762
 21
4598.0826759439
 31
0.0
  0
LINE
  5
C3
330
1F
100
AcDbEntity
  8
0
  6
Continuous
 62
     7
370
    25
100
AcDbLine
 10
6999.1229377762
 20
4717.0826759439
 30
0.0
 11
6996.4229377762
 21
4717.0826759439
 31
0.0
  0
LINE
  5
C4
330
1F
100
AcDbEntity
  8
0
  6
Continuous
 62
     7
370
    25
100
AcDbLine
 10
6996.4229377762
 20
4717.0826759439
 30
0.0
 11
6055.2229377762
 21
4717.0826759439
 31
0.0
  0
LINE
  5
C5
330
1F
100
AcDbEntity
  8
0
  6
Continuous
 62
     7
370
    25
100
AcDbLine
 10
6055.2229377762
 20
4717.0826759439
 30
0.0
 11
6052.5229377762
 21
4717.0826759439
 31
0.0
  0
LINE
  5
C6
330
1F
100
AcDbEntity
  8
0
  6
Continuous
 62
     7
370
    25
100
AcDbLine
 10
6490.0374810075
 20
4699.8826759439
 30
0.0
 11
6492.5729377762
 21
4698.3325323907
 31
0.0
  0
LINE
  5
C7
330
1F
100
AcDbEntity
  8
0
  6
Continuous
 62
     7
370
    25
100
AcDbLine
 10
6494.2829739131
 20
4697.2870397102
 30
0.0
 11
6495.9378776102
 21
4696.2752542485
 31
0.0
  0
LINE
  5
C8
330
1F
100
AcDbEntity
  8
0
  6
Continuous
 62
     7
370
    25
100
AcDbLine
 10
6555.7079979423
 20
4696.2752542485
 30
0.0
 11
6557.3629016393
 21
4697.2870397102
 31
0.0
  0
LINE
  5
C9
330
1F
100
AcDbEntity
  8
0
  6
Continuous
 62
     7
370
    25
100
AcDbLine
 10
6559.0729377762
 20
4698.3325323907
 30
0.0
 11
6561.6083945449
 21
4699.8826759439
 31
0.0
  0
LINE
  5
CA
330
1F
100
AcDbEntity
  8
0
  6
Continuous
 62
     7
370
    25
100
AcDbLine
 10
6559.0729377762
 20
4697.2870397102
 30
0.0
 11
6492.5729377762
 21
4697.2870397102
 31
0.0
  0
LINE
  5
CB
330
1F
100
AcDbEntity
  8
0
  6
Continuous
 62
     7
370
    25
100
AcDbLine
 10
6485.8229377762
 20
4695.7789650962
 30
0.0
 11
6565.8229377762
 21
4695.7789650962
 31
0.0
  0
LWPOLYLINE
  5
CC
330
1F
100
AcDbEntity
  8
0
  6
Continuous
 62
     7
370
    25
100
AcDbPolyline
 90
       18
 70
   128
 43
0.0
 10
6569.577052631
 20
4672.5821488264
 10
6569.6221298513
 20
4672.6130286633
 10
6568.8788256076
 20
4672.1100155018
 10
6567.337370771
 20
4671.0838600375
 10
6565.2555382775
 20
4669.7301188675
 10
6562.6177159692
 20
4668.0664275977
 10
6559.5187604181
 20
4666.1833649866
 10
6555.9341764977
 20
4664.1015607032
 10
6551.9707747711
 20
4661.9118665212
 10
6547.7055101462
 20
4659.682332804
 10
6541.2238311746
 20
4656.5420491539
 10
6534.3478311914
 20
4653.5144639805
 10
6527.6820089567
 20
4650.8701250615
 10
6520.9463914237
 20
4648.470379513
 10
6514.5157075802
 20
4646.4309218461
 10
6508.3517724797
 20
4644.6941438227
 10
6502.6901269635
 20
4643.2864907182
 10
6497.6657321905
 20
4642.1810800053
  0
LWPOLYLINE
  5
CD
330
1F
100
AcDbEntity
  8
0
  6
Continuous
 62
     7
370
    25
100
AcDbPolyline
 90
        9
 70
   128
 43
0.0
 10
6491.0323535984
 20
4648.9755110588
 10
6491.2961254045
 20
4647.5030008376
 10
6491.7863122788
 20
4646.1005710364
 10
6492.4805142523
 20
4644.8323082018
 10
6493.3470085202
 20
4643.75616788
 10
6494.3461990717
 20
4642.9213262343
 10
6495.4324261016
 20
4642.3659328519
 10
6496.5560525164
 20
4642.11536743
 10
6497.6657321905
 20
4642.1810800053
  0
LINE
  5
CE
330
1F
100
AcDbEntity
  8
0
  6
Continuous
 62
     7
370
    25
100
AcDbLine
 10
6491.0323535984
 20
4648.9755110588
 30
0.0
 11
6490.7831224271
 21
4687.2826759439
 31
0.0
  0
LINE
  5
CF
330
1F
100
AcDbEntity
  8
0
  6
Continuous
 62
     7
370
    25
100
AcDbLine
 10
6490.1047883292
 20
4687.2826759439
 30
0.0
 11
6574.8229377762
 21
4687.2826759439
 31
0.0
  0
LINE
  5
D0
330
1F
100
AcDbEntity
  8
0
  6
Continuous
 62
     7
370
    25
100
AcDbLine
 10
6490.1047883292
 20
4690.2826759439
 30
0.0
 11
6490.1047883292
 21
4687.2826759439
 31
0.0
  0
ARC
  5
D1
330
1F
100
AcDbEntity
  8
0
  6
Continuous
 62
     7
370
    25
100
AcDbCircle
 10
6491.8806296002
 20
4690.5200253604
 30
0.0
 40
1.791632486066309
100
AcDbArc
 50
100.3196220904
 51
187.6127302624
  0
LINE
  5
D2
330
1F
100
AcDbEntity
  8
0
  6
Continuous
 62
     7
370
    25
100
AcDbLine
 10
6491.5596780691
 20
4692.2826759439
 30
0.0
 11
6572.8229377762
 21
4692.2826759439
 31
0.0
  0
LINE
  5
D3
330
1F
100
AcDbEntity
  8
0
  6
Continuous
 62
     7
370
    25
100
AcDbLine
 10
6484.0729377762
 20
4695.2826759439
 30
0.0
 11
6567.5729377762
 21
4695.2826759439
 31
0.0
  0
LINE
  5
D4
330
1F
100
AcDbEntity
  8
0
  6
Continuous
 62
     7
370
    25
100
AcDbLine
 10
6501.9785699993
 20
4620.0994373058
 30
0.0
 11
6501.534689579
 21
4643.0195834477
 31
0.0
  0
LINE
  5
D5
330
1F
100
AcDbEntity
  8
0
  6
Continuous
 62
     7
370
    25
100
AcDbLine
 10
6472.5666901559
 20
4690.2826759439
 30
0.0
 11
6472.5666901559
 21
4687.2826759439
 31
0.0
  0
LINE
  5
D6
330
1F
100
AcDbEntity
  8
0
  6
Continuous
 62
     7
370
    25
100
AcDbLine
 10
6490.1047883292
 20
4690.2826759439
 30
0.0
 11
6472.5666901559
 21
4690.2826759439
 31
0.0
  0
LINE
  5
D7
330
1F
100
AcDbEntity
  8
0
  6
Continuous
 62
     7
370
    25
100
AcDbLine
 10
6472.5666901559
 20
4687.2826759439
 30
0.0
 11
6490.1047883292
 21
4687.2826759439
 31
0.0
  0
ARC
  5
D8
330
1F
100
AcDbEntity
  8
0
  6
Continuous
 62
     7
370
    25
100
AcDbCircle
 10
6475.6219610038
 20
4690.76657229
 30
0.0
 40
3.093353459906448
100
AcDbArc
 50
150.6517591701
 51
188.9997984493
  0
LINE
  5
D9
330
1F
100
AcDbEntity
  8
0
  6
Continuous
 62
     7
370
    25
100
AcDbLine
 10
6472.9256180474
 20
4692.2826759439
 30
0.0
 11
6491.5596780691
 21
4692.2826759439
 31
0.0
  0
ARC
  5
DA
330
1F
100
AcDbEntity
  8
0
  6
Continuous
 62
     7
370
    25
100
AcDbCircle
 10
6459.1978123024
 20
4773.6993528831
 30
0.0
 40
128.7224717714878
100
AcDbArc
 50
276.5444516408
 51
284.318474563
  0
LINE
  5
DB
330
1F
100
AcDbEntity
  8
0
  6
Continuous
 62
     7
370
    25
100
AcDbLine
 10
6473.868829872
 20
4645.8156714283
 30
0.0
 11
6473.8075914469
 21
4687.2826759439
 31
0.0
  0
LWPOLYLINE
  5
DC
330
1F
100
AcDbEntity
  8
0
  6
Continuous
 62
     7
370
    25
100
AcDbPolyline
 90
        6
 70
   128
 43
0.0
 10
6473.868829872
 20
4645.8156714283
 10
6474.041999547
 20
4644.4722068722
 10
6474.308490998
 20
4643.1317716368
 10
6475.0349392271
 20
4640.9056652847
 10
6475.9345736053
 20
4639.4636328411
 10
6476.8706586079
 20
4639.0186729749
  0
ARC
  5
DD
330
1F
100
AcDbEntity
  8
0
  6
Continuous
 62
     7
370
    25
100
AcDbCircle
 10
6457.2405493063
 20
4838.0529886317
 30
0.0
 40
200.0000000004307
100
AcDbArc
 50
275.6326806459
 51
281.6613043232
  0
LINE
  5
DE
330
1F
100
AcDbEntity
  8
0
  6
Continuous
 62
     7
370
    25
100
AcDbLine
 10
6551.0660814837
 20
4613.2826759439
 30
0.0
 11
6508.390109476
 21
4613.2826759439
 31
0.0
  0
ARC
  5
DF
330
1F
100
AcDbEntity
  8
0
  6
Continuous
 62
     7
370
    25
100
AcDbCircle
 10
6508.6896596799
 20
4619.9880030772
 30
0.0
 40
6.712014771170359
100
AcDbArc
 50
179.0487201604
 51
267.4420996519
  0
LINE
  5
E0
330
1F
100
AcDbEntity
  8
0
  6
Continuous
 62
     7
370
    25
100
AcDbLine
 10
6402.0712578008
 20
4685.9780485442
 30
0.0
 11
6402.5211167393
 21
4634.429320027
 31
0.0
  0
LINE
  5
E1
330
1F
100
AcDbEntity
  8
0
  6
Continuous
 62
     7
370
    25
100
AcDbLine
 10
6375.9448168375
 20
4679.9743857279
 30
0.0
 11
6376.293876596
 21
4639.97609919
 31
0.0
  0
LINE
  5
E2
330
1F
100
AcDbEntity
  8
0
  6
Continuous
 62
     7
370
    25
100
AcDbLine
 10
6466.8229377762
 20
4690.2826759439
 30
0.0
 11
6466.8229377762
 21
4687.2826759439
 31
0.0
  0
LINE
  5
E3
330
1F
100
AcDbEntity
  8
0
  6
Continuous
 62
     7
370
    25
100
AcDbLine
 10
6472.5666901559
 20
4690.2826759439
 30
0.0
 11
6466.8229377762
 21
4690.2826759439
 31
0.0
  0
LINE
  5
E4
330
1F
100
AcDbEntity
  8
0
  6
Continuous
 62
     7
370
    25
100
AcDbLine
 10
6466.8229377762
 20
4687.2826759439
 30
0.0
 11
6472.5666901559
 21
4687.2826759439
 31
0.0
  0
ARC
  5
E5
330
1F
100
AcDbEntity
  8
0
  6
Continuous
 62
     7
370
    25
100
AcDbCircle
 10
6468.8229377762
 20
4690.2826759439
 30
0.0
 40
2.0
100
AcDbArc
 50
90.0
 51
180.0
  0
LINE
  5
E6
330
1F
100
AcDbEntity
  8
0
  6
Continuous
 62
     7
370
    25
100
AcDbLine
 10
6468.8229377762
 20
4692.2826759439
 30
0.0
 11
6472.9256180474
 21
4692.2826759439
 31
0.0
  0
LINE
  5
E7
330
1F
100
AcDbEntity
  8
0
  6
Continuous
 62
     7
370
    25
100
AcDbLine
 10
6432.1719991962
 20
4640.4636449787
 30
0.0
 11
6431.8229377762
 21
4680.4621219013
 31
0.0
  0
LINE
  5
E8
330
1F
100
AcDbEntity
  8
0
  6
Continuous
 62
     7
370
    25
100
AcDbLine
 10
6411.8818080626
 20
4680.2880982987
 30
0.0
 11
6412.2308694825
 21
4640.2896213761
 31
0.0
  0
ARC
  5
E9
330
1F
100
AcDbEntity
  8
0
  6
Continuous
 62
     7
370
    25
100
AcDbCircle
 10
6472.4984301289
 20
4689.5557692785
 30
0.0
 40
43.76156024868033
100
AcDbArc
 50
265.6588877915
 51
271.794519202
  0
LWPOLYLINE
  5
EA
330
1F
100
AcDbEntity
  8
0
  6
Continuous
 62
     7
370
    25
100
AcDbPolyline
 90
       11
 70
   128
 43
0.0
 10
6468.9225057209
 20
4675.8733195676
 10
6469.0798019297
 20
4673.8292022976
 10
6469.4438690252
 20
4671.6369981768
 10
6470.1552430743
 20
4668.2219318994
 10
6470.8280535911
 20
4664.6063477635
 10
6471.1011396184
 20
4662.0722832778
 10
6471.1271245888
 20
4659.4728464941
 10
6470.5090496044
 20
4654.4715489912
 10
6469.8584384692
 20
4651.1113792429
 10
6469.3209351176
 20
4647.8380861447
 10
6469.1859366666
 20
4645.9197534973
  0
LINE
  5
EB
330
1F
100
AcDbEntity
  8
0
  6
Continuous
 62
     7
370
    25
100
AcDbLine
 10
6468.9225057209
 20
4675.8733195676
 30
0.0
 11
6468.8229377762
 21
4687.2826759439
 31
0.0
  0
ARC
  5
EC
330
1F
100
AcDbEntity
  8
0
  6
Continuous
 62
     7
370
    25
100
AcDbCircle
 10
6476.1836047823
 20
4645.9848740229
 30
0.0
 40
6.999999999999512
100
AcDbArc
 50
181.914945567
 51
275.6326806459
  0
LWPOLYLINE
  5
ED
330
1F
100
AcDbEntity
  8
0
  6
Continuous
 62
     7
370
    25
100
AcDbPolyline
 90
        4
 70
   128
 43
0.0
 10
6469.185945345
 20
4645.9197576793
 10
6469.1859446773
 20
4645.9197124252
 10
6469.1875171896
 20
4645.7510447895
 10
6469.1875186869
 20
4645.7510000842
  0
LWPOLYLINE
  5
EE
330
1F
100
AcDbEntity
  8
0
  6
Continuous
 62
     7
370
    25
100
AcDbPolyline
 90
       12
 70
   128
 43
0.0
 10
6467.1749384268
 20
4647.2538043228
 10
6467.3651114669
 20
4648.9979060302
 10
6468.0850880266
 20
4651.9046145786
 10
6468.9940584467
 20
4655.0296607865
 10
6469.5289095526
 20
4657.2624680023
 10
6469.8422435816
 20
4659.5769992189
 10
6469.8089450697
 20
4661.929468518
 10
6469.4540737653
 20
4664.2435429292
 10
6468.5609441949
 20
4667.5427979133
 10
6467.6177672221
 20
4670.6336308174
 10
6467.1366835486
 20
4672.6296935636
 10
6466.9345512081
 20
4674.4843167505
  0
ARC
  5
EF
330
1F
100
AcDbEntity
  8
0
  6
Continuous
 62
     7
370
    25
100
AcDbCircle
 10
6467.1840403331
 20
4676.2443369055
 30
0.0
 40
1.777615191624184
100
AcDbArc
 50
261.931873147
 51
347.9528628631
  0
ARC
  5
F0
330
1F
100
AcDbEntity
  8
0
  6
Continuous
 62
     7
370
    25
100
AcDbCircle
 10
6467.4278218602
 20
4645.452257802
 30
0.0
 40
1.819208590990059
100
AcDbArc
 50
14.8907936099
 51
97.990412116
  0
LINE
  5
F1
330
1F
100
AcDbEntity
  8
0
  6
Continuous
 62
     7
370
    25
100
AcDbLine
 10
6467.1766716778
 20
4647.0554047611
 30
0.0
 11
6467.1749554912
 21
4647.2538042194
 31
0.0
  0
LINE
  5
F2
330
1F
100
AcDbEntity
  8
0
  6
Continuous
 62
     7
370
    25
100
AcDbLine
 10
6467.576080097
 20
4644.8985145898
 30
0.0
 11
6467.176665796
 21
4647.0554046251
 31
0.0
  0
LINE
  5
F3
330
1F
100
AcDbEntity
  8
0
  6
Continuous
 62
     7
370
    25
100
AcDbLine
 10
6307.393467714
 20
4679.3761471672
 30
0.0
 11
6307.7425274724
 21
4639.3778606293
 31
0.0
  0
LINE
  5
F4
330
1F
100
AcDbEntity
  8
0
  6
Continuous
 62
     7
370
    25
100
AcDbLine
 10
6303.9077375411
 20
4679.0604175958
 30
0.0
 11
6304.2518179524
 21
4639.6327077339
 31
0.0
  0
LINE
  5
F5
330
1F
100
AcDbEntity
  8
0
  6
Continuous
 62
     7
370
    25
100
AcDbLine
 10
6303.9077375411
 20
4676.8456324649
 30
0.0
 11
6304.2131646221
 21
4641.8471555423
 31
0.0
  0
ARC
  5
F6
330
1F
100
AcDbEntity
  8
0
  6
Continuous
 62
     7
370
    25
100
AcDbCircle
 10
6467.4766481857
 20
4645.3157568769
 30
0.0
 40
1.765353851703631
100
AcDbArc
 50
14.2723990243
 51
99.7836484596
  0
ARC
  5
F7
330
1F
100
AcDbEntity
  8
0
  6
Continuous
 62
     7
370
    25
100
AcDbCircle
 10
6467.9355944614
 20
4643.2354952769
 30
0.0
 40
1.701435809413708
100
AcDbArc
 50
23.1834570491
 51
102.1985801329
  0
LINE
  5
F8
330
1F
100
AcDbEntity
  8
0
  6
Continuous
 62
     7
370
    25
100
AcDbLine
 10
6469.7376333588
 20
4640.4201853239
 30
0.0
 11
6469.7371705393
 21
4640.4096380807
 31
0.0
  0
LINE
  5
F9
330
1F
100
AcDbEntity
  8
0
  6
Continuous
 62
     7
370
    25
100
AcDbLine
 10
6969.6229377762
 20
4603.0826759439
 30
0.0
 11
6969.6229377762
 21
4596.0826759439
 31
0.0
  0
LINE
  5
FA
330
1F
100
AcDbEntity
  8
0
  6
Continuous
 62
     7
370
    25
100
AcDbLine
 10
6969.6229377762
 20
4603.0826759439
 30
0.0
 11
6978.1229377762
 21
4603.0826759439
 31
0.0
  0
LINE
  5
FB
330
1F
100
AcDbEntity
  8
0
  6
Continuous
 62
     7
370
    25
100
AcDbLine
 10
6978.1229377762
 20
4603.0826759439
 30
0.0
 11
6978.1229377762
 21
4596.0826759439
 31
0.0
  0
LINE
  5
FC
330
1F
100
AcDbEntity
  8
0
  6
Continuous
 62
     7
370
    25
100
AcDbLine
 10
6969.6229377762
 20
4596.0826759439
 30
0.0
 11
6978.1229377762
 21
4596.0826759439
 31
0.0
  0
LINE
  5
FD
330
1F
100
AcDbEntity
  8
0
  6
Continuous
 62
     7
370
    25
100
AcDbLine
 10
6978.1229377762
 20
4603.0826759439
 30
0.0
 11
6986.6229377762
 21
4603.0826759439
 31
0.0
  0
LINE
  5
FE
330
1F
100
AcDbEntity
  8
0
  6
Continuous
 62
     7
370
    25
100
AcDbLine
 10
6986.6229377762
 20
4603.0826759439
 30
0.0
 11
6986.6229377762
 21
4596.0826759439
 31
0.0
  0
LINE
  5
FF
330
1F
100
AcDbEntity
  8
0
  6
Continuous
 62
     7
370
    25
100
AcDbLine
 10
6978.1229377762
 20
4596.0826759439
 30
0.0
 11
6986.6229377762
 21
4596.0826759439
 31
0.0
  0
LINE
  5
100
330
1F
100
AcDbEntity
  8
0
  6
Continuous
 62
     7
370
    25
100
AcDbLine
 10
6978.1229377762
 20
4683.0826759439
 30
0.0
 11
6982.1229377762
 21
4683.0826759439
 31
0.0
  0
LINE
  5
101
330
1F
100
AcDbEntity
  8
0
  6
Continuous
 62
     7
370
    25
100
AcDbLine
 10
6974.1229377762
 20
4683.0826759439
 30
0.0
 11
6978.1229377762
 21
4683.0826759439
 31
0.0
  0
LINE
  5
102
330
1F
100
AcDbEntity
  8
0
  6
Continuous
 62
     7
370
    25
100
AcDbLine
 10
6065.0229377762
 20
4603.0826759439
 30
0.0
 11
6065.0229377762
 21
4598.0826759439
 31
0.0
  0
LINE
  5
103
330
1F
100
AcDbEntity
  8
0
  6
Continuous
 62
     7
370
    25
100
AcDbLine
 10
6065.0229377762
 20
4603.0826759439
 30
0.0
 11
6068.5229377762
 21
4603.0826759439
 31
0.0
  0
LINE
  5
104
330
1F
100
AcDbEntity
  8
0
  6
Continuous
 62
     7
370
    25
100
AcDbLine
 10
6078.5229377762
 20
4603.0826759439
 30
0.0
 11
6082.0229377762
 21
4603.0826759439
 31
0.0
  0
LINE
  5
105
330
1F
100
AcDbEntity
  8
0
  6
Continuous
 62
     7
370
    25
100
AcDbLine
 10
6082.0229377762
 20
4603.0826759439
 30
0.0
 11
6082.0229377762
 21
4598.0826759439
 31
0.0
  0
LINE
  5
106
330
1F
100
AcDbEntity
  8
0
  6
Continuous
 62
     7
370
    25
100
AcDbLine
 10
6059.5229377762
 20
4598.0826759439
 30
0.0
 11
6059.5229377762
 21
4596.0826759439
 31
0.0
  0
LINE
  5
107
330
1F
100
AcDbEntity
  8
0
  6
Continuous
 62
     7
370
    25
100
AcDbLine
 10
6059.5229377762
 20
4598.0826759439
 30
0.0
 11
6109.5229377762
 21
4598.0826759439
 31
0.0
  0
LINE
  5
108
330
1F
100
AcDbEntity
  8
0
  6
Continuous
 62
     7
370
    25
100
AcDbLine
 10
6109.5229377762
 20
4598.0826759439
 30
0.0
 11
6109.5229377762
 21
4596.0826759439
 31
0.0
  0
LINE
  5
109
330
1F
100
AcDbEntity
  8
0
  6
Continuous
 62
     7
370
    25
100
AcDbLine
 10
6059.5229377762
 20
4596.0826759439
 30
0.0
 11
6109.5229377762
 21
4596.0826759439
 31
0.0
  0
LINE
  5
10A
330
1F
100
AcDbEntity
  8
0
  6
Continuous
 62
     7
370
    25
100
AcDbLine
 10
6069.5229377762
 20
4683.0826759439
 30
0.0
 11
6077.5229377762
 21
4683.0826759439
 31
0.0
  0
LINE
  5
10B
330
1F
100
AcDbEntity
  8
0
  6
Continuous
 62
     7
370
    25
100
AcDbLine
 10
6942.1229377762
 20
4598.0826759439
 30
0.0
 11
6969.6229377762
 21
4598.0826759439
 31
0.0
  0
LINE
  5
10C
330
1F
100
AcDbEntity
  8
0
  6
Continuous
 62
     7
370
    25
100
AcDbLine
 10
6986.6229377762
 20
4598.0826759439
 30
0.0
 11
6992.1229377762
 21
4598.0826759439
 31
0.0
  0
LINE
  5
10D
330
1F
100
AcDbEntity
  8
0
  6
Continuous
 62
     7
370
    25
100
AcDbLine
 10
6992.1229377762
 20
4598.0826759439
 30
0.0
 11
6992.1229377762
 21
4596.0826759439
 31
0.0
  0
LINE
  5
10E
330
1F
100
AcDbEntity
  8
0
  6
Continuous
 62
     7
370
    25
100
AcDbLine
 10
6942.1229377762
 20
4596.0826759439
 30
0.0
 11
6969.6229377762
 21
4596.0826759439
 31
0.0
  0
LINE
  5
10F
330
1F
100
AcDbEntity
  8
0
  6
Continuous
 62
     7
370
    25
100
AcDbLine
 10
6986.6229377762
 20
4596.0826759439
 30
0.0
 11
6992.1229377762
 21
4596.0826759439
 31
0.0
  0
LINE
  5
110
330
1F
100
AcDbEntity
  8
0
  6
Continuous
 62
     7
370
    25
100
AcDbLine
 10
6942.1229377762
 20
4598.0826759439
 30
0.0
 11
6942.1229377762
 21
4596.0826759439
 31
0.0
  0
LINE
  5
111
330
1F
100
AcDbEntity
  8
0
  6
Continuous
 62
     7
370
    25
100
AcDbLine
 10
6978.1229377762
 20
4682.0826759439
 30
0.0
 11
6978.1229377762
 21
4675.0826759439
 31
0.0
  0
LINE
  5
112
330
1F
100
AcDbEntity
  8
0
  6
Continuous
 62
     7
370
    25
100
AcDbLine
 10
6978.1229377762
 20
4682.0826759439
 30
0.0
 11
6986.6229377762
 21
4682.0826759439
 31
0.0
  0
LINE
  5
113
330
1F
100
AcDbEntity
  8
0
  6
Continuous
 62
     7
370
    25
100
AcDbLine
 10
6986.6229377762
 20
4682.0826759439
 30
0.0
 11
6986.6229377762
 21
4675.0826759439
 31
0.0
  0
LINE
  5
114
330
1F
100
AcDbEntity
  8
0
  6
Continuous
 62
     7
370
    25
100
AcDbLine
 10
6978.1229377762
 20
4675.0826759439
 30
0.0
 11
6980.1549149417
 21
4675.0826759439
 31
0.0
  0
LINE
  5
115
330
1F
100
AcDbEntity
  8
0
  6
Continuous
 62
     7
370
    25
100
AcDbLine
 10
6073.5229377762
 20
4682.0826759439
 30
0.0
 11
6073.5229377762
 21
4675.0826759439
 31
0.0
  0
LINE
  5
116
330
1F
100
AcDbEntity
  8
0
  6
Continuous
 62
     7
370
    25
100
AcDbLine
 10
6082.0229377762
 20
4682.0826759439
 30
0.0
 11
6073.5229377762
 21
4682.0826759439
 31
0.0
  0
LINE
  5
117
330
1F
100
AcDbEntity
  8
0
  6
Continuous
 62
     7
370
    25
100
AcDbLine
 10
6082.0229377762
 20
4682.0826759439
 30
0.0
 11
6082.0229377762
 21
4675.0826759439
 31
0.0
  0
LINE
  5
118
330
1F
100
AcDbEntity
  8
0
  6
Continuous
 62
     7
370
    25
100
AcDbLine
 10
6075.5549149417
 20
4675.0826759439
 30
0.0
 11
6073.5229377762
 21
4675.0826759439
 31
0.0
  0
LINE
  5
119
330
1F
100
AcDbEntity
  8
0
  6
Continuous
 62
     7
370
    25
100
AcDbLine
 10
6065.0229377762
 20
4682.0826759439
 30
0.0
 11
6065.0229377762
 21
4675.0826759439
 31
0.0
  0
LINE
  5
11A
330
1F
100
AcDbEntity
  8
0
  6
Continuous
 62
     7
370
    25
100
AcDbLine
 10
6073.5229377762
 20
4682.0826759439
 30
0.0
 11
6065.0229377762
 21
4682.0826759439
 31
0.0
  0
LINE
  5
11B
330
1F
100
AcDbEntity
  8
0
  6
Continuous
 62
     7
370
    25
100
AcDbLine
 10
6073.5229377762
 20
4675.0826759439
 30
0.0
 11
6071.4909606107
 21
4675.0826759439
 31
0.0
  0
LINE
  5
11C
330
1F
100
AcDbEntity
  8
0
  6
Continuous
 62
     7
370
    25
100
AcDbLine
 10
6969.6229377762
 20
4682.0826759439
 30
0.0
 11
6969.6229377762
 21
4675.0826759439
 31
0.0
  0
LINE
  5
11D
330
1F
100
AcDbEntity
  8
0
  6
Continuous
 62
     7
370
    25
100
AcDbLine
 10
6976.0909606107
 20
4675.0826759439
 30
0.0
 11
6978.1229377762
 21
4675.0826759439
 31
0.0
  0
LINE
  5
11E
330
1F
100
AcDbEntity
  8
0
  6
Continuous
 62
     7
370
    25
100
AcDbLine
 10
6969.6229377762
 20
4682.0826759439
 30
0.0
 11
6978.1229377762
 21
4682.0826759439
 31
0.0
  0
LINE
  5
11F
330
1F
100
AcDbEntity
  8
0
  6
Continuous
 62
     7
370
    25
100
AcDbLine
 10
6071.4909606107
 20
4675.0826759439
 30
0.0
 11
6063.5229377762
 21
4675.0826759439
 31
0.0
  0
LINE
  5
120
330
1F
100
AcDbEntity
  8
0
  6
Continuous
 62
     7
370
    25
100
AcDbLine
 10
6083.5229377762
 20
4675.0826759439
 30
0.0
 11
6075.5549149417
 21
4675.0826759439
 31
0.0
  0
LINE
  5
121
330
1F
100
AcDbEntity
  8
0
  6
Continuous
 62
     7
370
    25
100
AcDbLine
 10
6083.5229377762
 20
4675.0826759439
 30
0.0
 11
6083.5229377762
 21
4673.0826759439
 31
0.0
  0
LINE
  5
122
330
1F
100
AcDbEntity
  8
0
  6
Continuous
 62
     7
370
    25
100
AcDbLine
 10
6083.5229377762
 20
4673.0826759439
 30
0.0
 11
6063.5229377762
 21
4673.0826759439
 31
0.0
  0
LINE
  5
123
330
1F
100
AcDbEntity
  8
0
  6
Continuous
 62
     7
370
    25
100
AcDbLine
 10
6063.5229377762
 20
4675.0826759439
 30
0.0
 11
6063.5229377762
 21
4673.0826759439
 31
0.0
  0
LINE
  5
124
330
1F
100
AcDbEntity
  8
0
  6
Continuous
 62
     7
370
    25
100
AcDbLine
 10
6968.1229377762
 20
4673.0826759439
 30
0.0
 11
6988.1229377762
 21
4673.0826759439
 31
0.0
  0
LINE
  5
125
330
1F
100
AcDbEntity
  8
0
  6
Continuous
 62
     7
370
    25
100
AcDbLine
 10
6968.1229377762
 20
4675.0826759439
 30
0.0
 11
6968.1229377762
 21
4673.0826759439
 31
0.0
  0
LINE
  5
126
330
1F
100
AcDbEntity
  8
0
  6
Continuous
 62
     7
370
    25
100
AcDbLine
 10
6980.1549149417
 20
4675.0826759439
 30
0.0
 11
6988.1229377762
 21
4675.0826759439
 31
0.0
  0
LINE
  5
127
330
1F
100
AcDbEntity
  8
0
  6
Continuous
 62
     7
370
    25
100
AcDbLine
 10
6968.1229377762
 20
4675.0826759439
 30
0.0
 11
6976.0909606107
 21
4675.0826759439
 31
0.0
  0
LINE
  5
128
330
1F
100
AcDbEntity
  8
0
  6
Continuous
 62
     7
370
    25
100
AcDbLine
 10
6988.1229377762
 20
4675.0826759439
 30
0.0
 11
6988.1229377762
 21
4673.0826759439
 31
0.0
  0
LINE
  5
129
330
1F
100
AcDbEntity
  8
0
  6
Continuous
 62
     7
370
    25
100
AcDbLine
 10
6083.5229377762
 20
4675.3325619615
 30
0.0
 11
6083.5229377762
 21
4675.0826759439
 31
0.0
  0
LINE
  5
12A
330
1F
100
AcDbEntity
  8
0
  6
Continuous
 62
     7
370
    25
100
AcDbLine
 10
6063.5229377762
 20
4675.3325619615
 30
0.0
 11
6063.5229377762
 21
4675.0826759439
 31
0.0
  0
LINE
  5
12B
330
1F
100
AcDbEntity
  8
0
  6
Continuous
 62
     7
370
    25
100
AcDbLine
 10
6968.1229377762
 20
4675.3325619615
 30
0.0
 11
6968.1229377762
 21
4675.0826759439
 31
0.0
  0
LINE
  5
12C
330
1F
100
AcDbEntity
  8
0
  6
Continuous
 62
     7
370
    25
100
AcDbLine
 10
6988.1229377762
 20
4675.3325619615
 30
0.0
 11
6988.1229377762
 21
4675.0826759439
 31
0.0
  0
LINE
  5
12D
330
1F
100
AcDbEntity
  8
0
  6
Continuous
 62
     7
370
    25
100
AcDbLine
 10
6968.1229377762
 20
4699.1330178911
 30
0.0
 11
6988.1229377762
 21
4699.1330178911
 31
0.0
  0
LINE
  5
12E
330
1F
100
AcDbEntity
  8
0
  6
Continuous
 62
     7
370
    25
100
AcDbLine
 10
6968.1229377762
 20
4699.1330178911
 30
0.0
 11
6968.1229377762
 21
4675.3325619615
 31
0.0
  0
LINE
  5
12F
330
1F
100
AcDbEntity
  8
0
  6
Continuous
 62
     7
370
    25
100
AcDbLine
 10
6988.1229377762
 20
4699.1330178911
 30
0.0
 11
6988.1229377762
 21
4675.3325619615
 31
0.0
  0
LINE
  5
130
330
1F
100
AcDbEntity
  8
0
  6
Continuous
 62
     7
370
    25
100
AcDbLine
 10
6083.5229377762
 20
4699.1330178911
 30
0.0
 11
6063.5229377762
 21
4699.1330178911
 31
0.0
  0
LINE
  5
131
330
1F
100
AcDbEntity
  8
0
  6
Continuous
 62
     7
370
    25
100
AcDbLine
 10
6083.5229377762
 20
4699.1330178911
 30
0.0
 11
6083.5229377762
 21
4675.3325619615
 31
0.0
  0
LINE
  5
132
330
1F
100
AcDbEntity
  8
0
  6
Continuous
 62
     7
370
    25
100
AcDbLine
 10
6063.5229377762
 20
4699.1330178911
 30
0.0
 11
6063.5229377762
 21
4675.3325619615
 31
0.0
  0
LINE
  5
133
330
1F
100
AcDbEntity
  8
0
  6
Continuous
 62
     7
370
    25
100
AcDbLine
 10
7028.1229377762
 20
4701.0826759439
 30
0.0
 11
7028.1229377762
 21
4699.8826759439
 31
0.0
  0
LINE
  5
134
330
1F
100
AcDbEntity
  8
0
  6
Continuous
 62
     7
370
    25
100
AcDbLine
 10
6023.5229377762
 20
4699.8826759439
 30
0.0
 11
7028.1229377762
 21
4699.8826759439
 31
0.0
  0
LINE
  5
135
330
1F
100
AcDbEntity
  8
0
  6
Continuous
 62
     7
370
    25
100
AcDbLine
 10
6023.5229377762
 20
4701.0826759439
 30
0.0
 11
7028.1229377762
 21
4701.0826759439
 31
0.0
  0
LINE
  5
136
330
1F
100
AcDbEntity
  8
0
  6
Continuous
 62
     7
370
    25
100
AcDbLine
 10
6023.5229377762
 20
4701.0826759439
 30
0.0
 11
6023.5229377762
 21
4699.8826759439
 31
0.0
  0
LINE
  5
137
330
1F
100
AcDbEntity
  8
0
  6
Continuous
 62
     7
370
    25
100
AcDbLine
 10
7000.7861932263
 20
4715.0311346125
 30
0.0
 11
6996.4229377762
 21
4715.0311346125
 31
0.0
  0
ARC
  5
138
330
1F
100
AcDbEntity
  8
0
  6
Continuous
 62
     7
370
    25
100
AcDbCircle
 10
6999.1229377762
 20
4715.3826759439
 30
0.0
 40
1.699999999999818
100
AcDbArc
 50
348.0657534268
 51
90.0
  0
LINE
  5
139
330
1F
100
AcDbEntity
  8
0
  6
Continuous
 62
     7
370
    25
100
AcDbLine
 10
6996.4229377762
 20
4715.0311346125
 30
0.0
 11
6055.2229377762
 21
4715.0311346125
 31
0.0
  0
LINE
  5
13A
330
1F
100
AcDbEntity
  8
0
  6
Continuous
 62
     7
370
    25
100
AcDbLine
 10
6055.2229377762
 20
4715.0311346125
 30
0.0
 11
6050.8596823261
 21
4715.0311346125
 31
0.0
  0
ARC
  5
13B
330
1F
100
AcDbEntity
  8
0
  6
Continuous
 62
     7
370
    25
100
AcDbCircle
 10
6052.5229377762
 20
4715.3826759439
 30
0.0
 40
1.700000000000129
100
AcDbArc
 50
90.0
 51
191.9342465732
  0
LINE
  5
13C
330
1F
100
AcDbEntity
  8
0
  6
Continuous
 62
     7
370
    25
100
AcDbLine
 10
6999.8970004469
 20
4710.8240767093
 30
0.0
 11
6996.4229377762
 21
4710.8240767093
 31
0.0
  0
LINE
  5
13D
330
1F
100
AcDbEntity
  8
0
  6
Continuous
 62
     7
370
    25
100
AcDbLine
 10
6996.4229377762
 20
4715.0311346125
 30
0.0
 11
6996.4229377762
 21
4710.8240767093
 31
0.0
  0
LINE
  5
13E
330
1F
100
AcDbEntity
  8
0
  6
Continuous
 62
     7
370
    25
100
AcDbLine
 10
7000.7861932263
 20
4715.0311346125
 30
0.0
 11
6999.8970004469
 21
4710.8240767093
 31
0.0
  0
LINE
  5
13F
330
1F
100
AcDbEntity
  8
0
  6
Continuous
 62
     7
370
    25
100
AcDbLine
 10
6055.2229377762
 20
4710.8240767093
 30
0.0
 11
6051.7488751056
 21
4710.8240767093
 31
0.0
  0
LINE
  5
140
330
1F
100
AcDbEntity
  8
0
  6
Continuous
 62
     7
370
    25
100
AcDbLine
 10
6050.8596823261
 20
4715.0311346125
 30
0.0
 11
6051.7488751056
 21
4710.8240767093
 31
0.0
  0
LINE
  5
141
330
1F
100
AcDbEntity
  8
0
  6
Continuous
 62
     7
370
    25
100
AcDbLine
 10
6055.2229377762
 20
4715.0311346125
 30
0.0
 11
6055.2229377762
 21
4710.8240767093
 31
0.0
  0
LINE
  5
142
330
1F
100
AcDbEntity
  8
0
  6
Continuous
 62
     7
370
    25
100
AcDbLine
 10
6996.4229377762
 20
4710.8240767093
 30
0.0
 11
6055.2229377762
 21
4710.8240767093
 31
0.0
  0
LINE
  5
143
330
1F
100
AcDbEntity
  8
0
  6
Continuous
 62
     7
370
    25
100
AcDbLine
 10
6998.6229377762
 20
4710.8240767093
 30
0.0
 11
6998.6229377762
 21
4701.0826759439
 31
0.0
  0
LINE
  5
144
330
1F
100
AcDbEntity
  8
0
  6
Continuous
 62
     7
370
    25
100
AcDbLine
 10
6053.0229377762
 20
4710.8240767093
 30
0.0
 11
6053.0229377762
 21
4701.0826759439
 31
0.0
  0
LINE
  5
145
330
1F
100
AcDbEntity
  8
0
  6
Continuous
 62
     7
370
    25
100
AcDbLine
 10
6083.5229377762
 20
4699.8826759439
 30
0.0
 11
6083.5229377762
 21
4699.1330178911
 31
0.0
  0
LINE
  5
146
330
1F
100
AcDbEntity
  8
0
  6
Continuous
 62
     7
370
    25
100
AcDbLine
 10
6063.5229377762
 20
4699.8826759439
 30
0.0
 11
6063.5229377762
 21
4699.1330178911
 31
0.0
  0
LINE
  5
147
330
1F
100
AcDbEntity
  8
0
  6
Continuous
 62
     7
370
    25
100
AcDbLine
 10
6968.1229377762
 20
4699.8826759439
 30
0.0
 11
6968.1229377762
 21
4699.1330178911
 31
0.0
  0
LINE
  5
148
330
1F
100
AcDbEntity
  8
0
  6
Continuous
 62
     7
370
    25
100
AcDbLine
 10
6988.1229377762
 20
4699.8826759439
 30
0.0
 11
6988.1229377762
 21
4699.1330178911
 31
0.0
  0
LINE
  5
149
330
1F
100
AcDbEntity
  8
0
  6
Continuous
 62
     8
370
    25
100
AcDbLine
 10
6486.5207116436
 20
4695.8063498702
 30
0.0
 11
6565.1251639088
 21
4695.8063498702
 31
0.0
  0
LINE
  5
14A
330
1F
100
AcDbEntity
  8
0
  6
Continuous
 62
     8
370
    25
100
AcDbLine
 10
6486.7598230288
 20
4696.2205029381
 30
0.0
 11
6564.8860525236
 21
4696.2205029381
 31
0.0
  0
LWPOLYLINE
  5
14B
330
1F
100
AcDbEntity
  8
0
  6
Continuous
 62
     8
370
    25
100
AcDbPolyline
 90
       21
 70
   128
 43
0.0
 10
6491.0323535984
 20
4648.9755110588
 10
6496.6226625507
 20
4650.0186195691
 10
6503.1659276064
 20
4651.4006176425
 10
6510.0422879884
 20
4653.0443356676
 10
6517.464340477
 20
4655.0446850836
 10
6524.9993203787
 20
4657.3236491037
 10
6532.6747295594
 20
4659.9122265948
 10
6540.3832174342
 20
4662.7954899366
 10
6544.1767578286
 20
4664.3231739591
 10
6547.8298187186
 20
4665.8642200095
 10
6551.4589168845
 20
4667.4654194351
 10
6554.8886209835
 20
4669.044418855
 10
6558.1893639973
 20
4670.6265560284
 10
6561.226573169
 20
4672.1377160656
 10
6563.8896059831
 20
4673.5078464179
 10
6566.2537001921
 20
4674.7602140796
 10
6568.3623523817
 20
4675.9066559261
 10
6570.0893803805
 20
4676.8666937898
 10
6571.827156382
 20
4677.8522098344
 10
6572.6786176275
 20
4678.3423415137
 10
6572.6346385476
 20
4678.3169183452
  0
LINE
  5
14C
330
1F
100
AcDbEntity
  8
0
  6
Continuous
 62
     8
370
    25
100
AcDbLine
 10
6574.8229377762
 20
4690.2826759439
 30
0.0
 11
6490.1047883292
 21
4690.2826759439
 31
0.0
  0
LINE
  5
14D
330
1F
100
AcDbEntity
  8
0
  6
Continuous
 62
     8
370
    25
100
AcDbLine
 10
6501.9785699993
 20
4620.0994373058
 30
0.0
 11
6558.0636827585
 21
4620.0994373058
 31
0.0
  0
LINE
  5
14E
330
1F
100
AcDbEntity
  8
0
  6
Continuous
 62
     8
370
    25
100
AcDbLine
 10
6459.2153217103
 20
4634.1869644142
 30
0.0
 11
6458.7525982811
 21
4687.2098175529
 31
0.0
  0
LINE
  5
14F
330
1F
100
AcDbEntity
  8
0
  6
Continuous
 62
     8
370
    25
100
AcDbLine
 10
6433.7525982811
 20
4686.3300295851
 30
0.0
 11
6434.2037749142
 21
4634.6303082251
 31
0.0
  0
LINE
  5
150
330
1F
100
AcDbEntity
  8
0
  6
Continuous
 62
     8
370
    25
100
AcDbLine
 10
6432.2395250869
 20
4636.5950892906
 30
0.0
 11
6431.8229377762
 21
4684.3312668789
 31
0.0
  0
LINE
  5
151
330
1F
100
AcDbEntity
  8
0
  6
Continuous
 62
     8
370
    25
100
AcDbLine
 10
6411.0808003136
 20
4683.4880982987
 30
0.0
 11
6411.4858314315
 21
4637.0761292388
 31
0.0
  0
LINE
  5
152
330
1F
100
AcDbEntity
  8
0
  6
Continuous
 62
     8
370
    25
100
AcDbLine
 10
6410.2429816863
 20
4683.4880982987
 30
0.0
 11
6410.648140408
 21
4637.0615072876
 31
0.0
  0
LINE
  5
153
330
1F
100
AcDbEntity
  8
0
  6
Continuous
 62
     8
370
    25
100
AcDbLine
 10
6409.9980005101
 20
4683.2879402823
 30
0.0
 11
6410.3997033046
 21
4637.2573593079
 31
0.0
  0
LINE
  5
154
330
1F
100
AcDbEntity
  8
0
  6
Continuous
 62
     8
370
    25
100
AcDbLine
 10
6411.3266140405
 20
4683.2836571801
 30
0.0
 11
6411.7280397303
 21
4637.2848292611
 31
0.0
  0
LINE
  5
155
330
1F
100
AcDbEntity
  8
0
  6
Continuous
 62
     8
370
    25
100
AcDbLine
 10
6409.5818080626
 20
4681.2422890475
 30
0.0
 11
6409.9478727084
 21
4639.2954354204
 31
0.0
  0
LINE
  5
156
330
1F
100
AcDbEntity
  8
0
  6
Continuous
 62
     8
370
    25
100
AcDbLine
 10
6407.2969326037
 20
4680.2820578576
 30
0.0
 11
6407.6465869022
 21
4640.2156437873
 31
0.0
  0
ARC
  5
157
330
1F
100
AcDbEntity
  8
0
  6
Continuous
 62
     8
370
    25
100
AcDbCircle
 10
6501.7725984287
 20
4615.6061683913
 30
0.0
 40
4.497987308352481
100
AcDbArc
 50
87.3753972295
 51
107.4379694264
  0
LINE
  5
158
330
1F
100
AcDbEntity
  8
0
  6
Continuous
 62
     8
370
    25
100
AcDbLine
 10
6466.9345512081
 20
4674.4843167505
 30
0.0
 11
6466.8797138311
 21
4680.7680577511
 31
0.0
  0
LWPOLYLINE
  5
159
330
1F
100
AcDbEntity
  8
0
  6
Continuous
 62
     8
370
    25
100
AcDbPolyline
 90
        6
 70
   128
 43
0.0
 10
6468.4535685522
 20
4640.8354152514
 10
6468.4595474578
 20
4640.7997897448
 10
6468.3973423437
 20
4641.1688588639
 10
6468.2480409775
 20
4642.0238636157
 10
6468.0083233078
 20
4643.25301326
 10
6467.576080097
 20
4644.8985145898
  0
ARC
  5
15A
330
1F
100
AcDbEntity
  8
0
  6
Continuous
 62
     8
370
    25
100
AcDbCircle
 10
6455.7202460927
 20
4641.2136410897
 30
0.0
 40
14.0398261320783
100
AcDbArc
 50
356.7602233054
 51
11.052987354
  0
LINE
  5
15B
330
1F
100
AcDbEntity
  8
0
  6
Continuous
 62
     8
370
    25
100
AcDbLine
 10
6083.5229377762
 20
4675.3325619615
 30
0.0
 11
6082.0229377762
 21
4675.3325619615
 31
0.0
  0
LINE
  5
15C
330
1F
100
AcDbEntity
  8
0
  6
Continuous
 62
     8
370
    25
100
AcDbLine
 10
6065.0229377762
 20
4675.3325619615
 30
0.0
 11
6063.5229377762
 21
4675.3325619615
 31
0.0
  0
LINE
  5
15D
330
1F
100
AcDbEntity
  8
0
  6
Continuous
 62
     8
370
    25
100
AcDbLine
 10
6968.1229377762
 20
4675.3325619615
 30
0.0
 11
6969.6229377762
 21
4675.3325619615
 31
0.0
  0
LINE
  5
15E
330
1F
100
AcDbEntity
  8
0
  6
Continuous
 62
     8
370
    25
100
AcDbLine
 10
6986.6229377762
 20
4675.3325619615
 30
0.0
 11
6988.1229377762
 21
4675.3325619615
 31
0.0
  0
LINE
  5
15F
330
1F
100
AcDbEntity
  8
0
  6
Continuous
 62
     8
370
    25
100
AcDbLine
 10
6996.4229377762
 20
4717.0826759439
 30
0.0
 11
6996.4229377762
 21
4715.0311346125
 31
0.0
  0
LINE
  5
160
330
1F
100
AcDbEntity
  8
0
  6
Continuous
 62
     8
370
    25
100
AcDbLine
 10
6055.2229377762
 20
4717.0826759439
 30
0.0
 11
6055.2229377762
 21
4715.0311346125
 31
0.0
  0
LINE
  5
161
330
1F
100
AcDbEntity
  8
0
  6
Continuous
 62
     8
370
    25
100
AcDbLine
 10
6055.2229377762
 20
4710.8240767093
 30
0.0
 11
6055.2229377762
 21
4701.0826759439
 31
0.0
  0
LINE
  5
162
330
1F
100
AcDbEntity
  8
0
  6
Continuous
 62
     8
370
    25
100
AcDbLine
 10
6996.4229377762
 20
4710.8240767093
 30
0.0
 11
6996.4229377762
 21
4701.0826759439
 31
0.0
  0
LINE
  5
163
330
1F
100
AcDbEntity
  8
0
  6
Continuous
 62
     7
370
    25
100
AcDbLine
 10
7308.056715303
 20
4697.8826759439
 30
0.0
 11
7308.056715303
 21
4697.2870397102
 31
0.0
  0
LINE
  5
164
330
1F
100
AcDbEntity
  8
0
  6
Continuous
 62
     7
370
    25
100
AcDbLine
 10
7374.556715303
 20
4697.2870397102
 30
0.0
 11
7374.556715303
 21
4697.8826759439
 31
0.0
  0
LINE
  5
165
330
1F
100
AcDbEntity
  8
0
  6
Continuous
 62
     7
370
    25
100
AcDbLine
 10
7301.306715303
 20
4695.7789650962
 30
0.0
 11
7301.306715303
 21
4695.2826759439
 31
0.0
  0
LINE
  5
166
330
1F
100
AcDbEntity
  8
0
  6
Continuous
 62
     7
370
    25
100
AcDbLine
 10
7381.306715303
 20
4695.2826759439
 30
0.0
 11
7381.306715303
 21
4695.7789650962
 31
0.0
  0
ARC
  5
167
330
1F
100
AcDbEntity
  8
0
  6
Continuous
 62
     7
370
    25
100
AcDbCircle
 10
7301.9570573505
 20
4695.8337346442
 30
0.0
 40
0.0547695479954696
100
AcDbArc
 50
270.000000001
 51
329.9999999995
  0
ARC
  5
168
330
1F
100
AcDbEntity
  8
0
  6
Continuous
 62
     7
370
    25
100
AcDbCircle
 10
7380.6563732556
 20
4695.8337346442
 30
0.0
 40
0.054769547994682
100
AcDbArc
 50
210.000000001
 51
270.0
  0
LINE
  5
169
330
1F
100
AcDbEntity
  8
0
  6
Continuous
 62
     7
370
    25
100
AcDbLine
 10
7380.6089414357
 20
4695.8063498702
 30
0.0
 11
7380.3698300505
 21
4696.2205029381
 31
0.0
  0
LINE
  5
16A
330
1F
100
AcDbEntity
  8
0
  6
Continuous
 62
     7
370
    25
100
AcDbLine
 10
7302.2436005556
 20
4696.2205029381
 30
0.0
 11
7302.0044891704
 21
4695.8063498702
 31
0.0
  0
ARC
  5
16B
330
1F
100
AcDbEntity
  8
0
  6
Continuous
 62
     7
370
    25
100
AcDbCircle
 10
7302.3384326071
 20
4696.1657516276
 30
0.0
 40
0.109502620936837
100
AcDbArc
 50
90.0
 51
149.9999999999
  0
ARC
  5
16C
330
1F
100
AcDbEntity
  8
0
  6
Continuous
 62
     7
370
    25
100
AcDbCircle
 10
7380.2749979989
 20
4696.1657516276
 30
0.0
 40
0.1095026209371498
100
AcDbArc
 50
29.9999999999
 51
90.0
  0
LINE
  5
16D
330
1F
100
AcDbEntity
  8
0
  6
Continuous
 62
     7
370
    25
100
AcDbLine
 10
7380.2749979989
 20
4696.2752542485
 30
0.0
 11
7347.0802179949
 21
4696.2752542485
 31
0.0
  0
LINE
  5
16E
330
1F
100
AcDbEntity
  8
0
  6
Continuous
 62
     7
370
    25
100
AcDbLine
 10
7335.5332126111
 20
4696.2752542485
 30
0.0
 11
7302.3384326071
 21
4696.2752542485
 31
0.0
  0
LINE
  5
16F
330
1F
100
AcDbEntity
  8
0
  6
Continuous
 62
     7
370
    25
100
AcDbLine
 10
7321.306810499
 20
4659.9752424589
 30
0.0
 11
7321.306810499
 21
4659.3770038982
 31
0.0
  0
LINE
  5
170
330
1F
100
AcDbEntity
  8
0
  6
Continuous
 62
     7
370
    25
100
AcDbLine
 10
7361.3066201071
 20
4659.3770038983
 30
0.0
 11
7361.3066201071
 21
4659.9752424589
 31
0.0
  0
ARC
  5
171
330
1F
100
AcDbEntity
  8
0
  6
Continuous
 62
     7
370
    25
100
AcDbCircle
 10
7341.306715303
 20
4660.1335283924
 30
0.0
 40
27.00000000000091
100
AcDbArc
 50
0.0
 51
83.6206297916
  0
ARC
  5
172
330
1F
100
AcDbEntity
  8
0
  6
Continuous
 62
     7
370
    25
100
AcDbCircle
 10
7341.306715303
 20
4660.1335283924
 30
0.0
 40
27.00000000000091
100
AcDbArc
 50
96.3793702084
 51
0.0
  0
ARC
  5
173
330
1F
100
AcDbEntity
  8
0
  6
Continuous
 62
     7
370
    25
100
AcDbCircle
 10
7376.931017894
 20
4589.9517274956
 30
0.0
 40
52.79442234733107
100
AcDbArc
 50
98.6113344955
 51
109.5792512048
  0
ARC
  5
174
330
1F
100
AcDbEntity
  8
0
  6
Continuous
 62
     7
370
    25
100
AcDbCircle
 10
7305.955221274
 20
4590.9923835031
 30
0.0
 40
51.72268379434419
100
AcDbArc
 50
70.3260562123
 51
81.523490746
  0
LINE
  5
175
330
1F
100
AcDbEntity
  8
0
  6
Continuous
 62
     7
370
    25
100
AcDbLine
 10
7383.056715303
 20
4692.2826759439
 30
0.0
 11
7383.056715303
 21
4695.2826759439
 31
0.0
  0
LINE
  5
176
330
1F
100
AcDbEntity
  8
0
  6
Continuous
 62
     7
370
    25
100
AcDbLine
 10
7299.556715303
 20
4695.2826759439
 30
0.0
 11
7299.556715303
 21
4692.2826759439
 31
0.0
  0
LWPOLYLINE
  5
177
330
1F
100
AcDbEntity
  8
0
  6
Continuous
 62
     7
370
    25
100
AcDbPolyline
 90
       14
 70
   128
 43
0.0
 10
7294.602168798
 20
4657.6167621252
 10
7294.6168794549
 20
4656.6065209216
 10
7294.9598246663
 20
4654.6259451915
 10
7295.6022913543
 20
4652.7758867335
 10
7296.5115091475
 20
4651.0755244766
 10
7297.6624176217
 20
4649.5275176158
 10
7299.0496408432
 20
4648.1189571394
 10
7300.690165866
 20
4646.8326894227
 10
7302.622088687
 20
4645.6544679421
 10
7304.8859807314
 20
4644.5833561362
 10
7307.4808785074
 20
4643.6383828973
 10
7310.3138848562
 20
4642.8496829205
 10
7313.3483985386
 20
4642.1984657924
 10
7313.6177838937
 20
4642.1535450275
  0
LWPOLYLINE
  5
178
330
1F
100
AcDbEntity
  8
0
  6
Continuous
 62
     7
370
    25
100
AcDbPolyline
 90
       13
 70
   128
 43
0.0
 10
7368.9752388859
 20
4642.1633854976
 10
7370.5368808883
 20
4642.4522519679
 10
7373.4143530893
 20
4643.1351412839
 10
7376.1796670557
 20
4643.9933984035
 10
7378.6845617411
 20
4645.014447688
 10
7381.0490047467
 20
4646.2843512514
 10
7382.8751391433
 20
4647.5692216604
 10
7384.4026456264
 20
4648.9620513196
 10
7385.6573725639
 20
4650.4630445425
 10
7386.6523162386
 20
4652.0725255293
 10
7387.4484737484
 20
4653.968720032
 10
7387.9060817079
 20
4655.9050483487
 10
7388.0279851835
 20
4657.6260245847
  0
LINE
  5
179
330
1F
100
AcDbEntity
  8
0
  6
Continuous
 62
     7
370
    25
100
AcDbLine
 10
7294.4230112738
 20
4673.956477641
 30
0.0
 11
7294.5658076034
 21
4657.5936389893
 31
0.0
  0
LINE
  5
17A
330
1F
100
AcDbEntity
  8
0
  6
Continuous
 62
     7
370
    25
100
AcDbLine
 10
7388.0476747819
 20
4657.5995722942
 30
0.0
 11
7388.306715303
 21
4687.2826759439
 31
0.0
  0
ARC
  5
17B
330
1F
100
AcDbEntity
  8
0
  6
Continuous
 62
     7
370
    25
100
AcDbCircle
 10
7294.306715303
 20
4690.2826759439
 30
0.0
 40
2.000000000000374
100
AcDbArc
 50
120.0010464823
 51
180.0
  0
ARC
  5
17C
330
1F
100
AcDbEntity
  8
0
  6
Continuous
 62
     7
370
    25
100
AcDbCircle
 10
7388.306715303
 20
4690.2826759439
 30
0.0
 40
2.0
100
AcDbArc
 50
0.0
 51
90.0
  0
LINE
  5
17D
330
1F
100
AcDbEntity
  8
0
  6
Continuous
 62
     7
370
    25
100
AcDbLine
 10
7390.306715303
 20
4687.2826759439
 30
0.0
 11
7390.306715303
 21
4690.2826759439
 31
0.0
  0
LINE
  5
17E
330
1F
100
AcDbEntity
  8
0
  6
Continuous
 62
     7
370
    25
100
AcDbLine
 10
7292.306715303
 20
4690.2826759439
 30
0.0
 11
7292.306715303
 21
4687.2826759439
 31
0.0
  0
LINE
  5
17F
330
1F
100
AcDbEntity
  8
0
  6
Continuous
 62
     7
370
    25
100
AcDbLine
 10
7308.4566951164
 20
4643.3667186502
 30
0.0
 11
7309.0659703208
 21
4620.0994373058
 31
0.0
  0
LINE
  5
180
330
1F
100
AcDbEntity
  8
0
  6
Continuous
 62
     7
370
    25
100
AcDbLine
 10
7373.5474602853
 20
4620.0994373058
 30
0.0
 11
7374.156704661
 21
4643.3655413504
 31
0.0
  0
ARC
  5
181
330
1F
100
AcDbEntity
  8
0
  6
Continuous
 62
     7
370
    25
100
AcDbCircle
 10
7366.5498590105
 20
4620.2826759439
 30
0.0
 40
7.000000000000435
100
AcDbArc
 50
270.0
 51
358.5
  0
ARC
  5
182
330
1F
100
AcDbEntity
  8
0
  6
Continuous
 62
     7
370
    25
100
AcDbCircle
 10
7316.0635715956
 20
4620.2826759439
 30
0.0
 40
7.0
100
AcDbArc
 50
181.5
 51
270.0
  0
LINE
  5
183
330
1F
100
AcDbEntity
  8
0
  6
Continuous
 62
     7
370
    25
100
AcDbLine
 10
7286.306715303
 20
4603.0826759439
 30
0.0
 11
7286.306715303
 21
4673.0826759439
 31
0.0
  0
LINE
  5
184
330
1F
100
AcDbEntity
  8
0
  6
Continuous
 62
     7
370
    25
100
AcDbLine
 10
7276.306715303
 20
4673.0826759439
 30
0.0
 11
7276.306715303
 21
4603.0826759439
 31
0.0
  0
LINE
  5
185
330
1F
100
AcDbEntity
  8
0
  6
Continuous
 62
     7
370
    25
100
AcDbLine
 10
7286.306715303
 20
4682.0826759439
 30
0.0
 11
7285.306715303
 21
4683.0826759439
 31
0.0
  0
LINE
  5
186
330
1F
100
AcDbEntity
  8
0
  6
Continuous
 62
     7
370
    25
100
AcDbLine
 10
7277.306715303
 20
4683.0826759439
 30
0.0
 11
7276.306715303
 21
4682.0826759439
 31
0.0
  0
LINE
  5
187
330
1F
100
AcDbEntity
  8
0
  6
Continuous
 62
     7
370
    25
100
AcDbLine
 10
7433.306715303
 20
4682.0826759439
 30
0.0
 11
7432.306715303
 21
4683.0826759439
 31
0.0
  0
LINE
  5
188
330
1F
100
AcDbEntity
  8
0
  6
Continuous
 62
     7
370
    25
100
AcDbLine
 10
7424.306715303
 20
4683.0826759439
 30
0.0
 11
7423.306715303
 21
4682.0826759439
 31
0.0
  0
LINE
  5
189
330
1F
100
AcDbEntity
  8
0
  6
Continuous
 62
     7
370
    25
100
AcDbLine
 10
7433.306715303
 20
4598.0826759439
 30
0.0
 11
7433.306715303
 21
4673.0826759439
 31
0.0
  0
LINE
  5
18A
330
1F
100
AcDbEntity
  8
0
  6
Continuous
 62
     7
370
    25
100
AcDbLine
 10
7423.306715303
 20
4673.0826759439
 30
0.0
 11
7423.306715303
 21
4598.0826759439
 31
0.0
  0
LINE
  5
18B
330
1F
100
AcDbEntity
  8
0
  6
Continuous
 62
     7
370
    25
100
AcDbLine
 10
7291.306715303
 20
4717.0826759439
 30
0.0
 11
7288.606715303
 21
4717.0826759439
 31
0.0
  0
LINE
  5
18C
330
1F
100
AcDbEntity
  8
0
  6
Continuous
 62
     7
370
    25
100
AcDbLine
 10
7391.306715303
 20
4717.0826759439
 30
0.0
 11
7291.306715303
 21
4717.0826759439
 31
0.0
  0
LINE
  5
18D
330
1F
100
AcDbEntity
  8
0
  6
Continuous
 62
     7
370
    25
100
AcDbLine
 10
7394.006715303
 20
4717.0826759439
 30
0.0
 11
7391.306715303
 21
4717.0826759439
 31
0.0
  0
LINE
  5
18E
330
1F
100
AcDbEntity
  8
0
  6
Continuous
 62
     7
370
    25
100
AcDbLine
 10
7338.306715303
 20
4692.8826759439
 30
0.0
 11
7338.306715303
 21
4677.8826759439
 31
0.0
  0
LINE
  5
18F
330
1F
100
AcDbEntity
  8
0
  6
Continuous
 62
     7
370
    25
100
AcDbLine
 10
7344.306715303
 20
4677.8826759439
 30
0.0
 11
7344.306715303
 21
4692.8826759439
 31
0.0
  0
LINE
  5
190
330
1F
100
AcDbEntity
  8
0
  6
Continuous
 62
     7
370
    25
100
AcDbLine
 10
7309.76675144
 20
4697.2870397102
 30
0.0
 11
7311.421655137
 21
4696.2752542485
 31
0.0
  0
LINE
  5
191
330
1F
100
AcDbEntity
  8
0
  6
Continuous
 62
     7
370
    25
100
AcDbLine
 10
7371.1917754691
 20
4696.2752542485
 30
0.0
 11
7372.8466791661
 21
4697.2870397102
 31
0.0
  0
LINE
  5
192
330
1F
100
AcDbEntity
  8
0
  6
Continuous
 62
     7
370
    25
100
AcDbLine
 10
7374.556715303
 20
4697.2870397102
 30
0.0
 11
7347.0802179949
 21
4697.2870397102
 31
0.0
  0
LINE
  5
193
330
1F
100
AcDbEntity
  8
0
  6
Continuous
 62
     7
370
    25
100
AcDbLine
 10
7335.5332126111
 20
4697.2870397102
 30
0.0
 11
7308.056715303
 21
4697.2870397102
 31
0.0
  0
LINE
  5
194
330
1F
100
AcDbEntity
  8
0
  6
Continuous
 62
     7
370
    25
100
AcDbLine
 10
7301.306715303
 20
4695.7789650962
 30
0.0
 11
7335.5332126111
 21
4695.7789650962
 31
0.0
  0
LINE
  5
195
330
1F
100
AcDbEntity
  8
0
  6
Continuous
 62
     7
370
    25
100
AcDbLine
 10
7347.0802179949
 20
4695.7789650962
 30
0.0
 11
7381.306715303
 21
4695.7789650962
 31
0.0
  0
LWPOLYLINE
  5
196
330
1F
100
AcDbEntity
  8
0
  6
Continuous
 62
     7
370
    25
100
AcDbPolyline
 90
        8
 70
   128
 43
0.0
 10
7351.391754113
 20
4673.2124396862
 10
7350.9510023674
 20
4673.2090335915
 10
7347.3802708555
 20
4673.1832545308
 10
7343.64598023
 20
4673.1579754444
 10
7339.8587152499
 20
4673.1337053085
 10
7336.1274944634
 20
4673.1087308842
 10
7332.543081412
 20
4673.0830344446
 10
7331.2818136067
 20
4673.073310687
  0
LINE
  5
197
330
1F
100
AcDbEntity
  8
0
  6
Continuous
 62
     7
370
    25
100
AcDbLine
 10
7341.306715303
 20
4671.7826759439
 30
0.0
 11
7350.9975604467
 21
4671.7826759439
 31
0.0
  0
LINE
  5
198
330
1F
100
AcDbEntity
  8
0
  6
Continuous
 62
     7
370
    25
100
AcDbLine
 10
7331.6158701594
 20
4671.7826759439
 30
0.0
 11
7341.306715303
 21
4671.7826759439
 31
0.0
  0
LWPOLYLINE
  5
199
330
1F
100
AcDbEntity
  8
0
  6
Continuous
 62
     7
370
    25
100
AcDbPolyline
 90
        7
 70
   128
 43
0.0
 10
7332.1741772702
 20
4674.1233947384
 10
7332.4284596722
 20
4674.1264259398
 10
7336.8241077915
 20
4674.1746783123
 10
7341.306715303
 20
4674.2201759398
 10
7345.7893228146
 20
4674.2656735674
 10
7350.1849709339
 20
4674.3139259398
 10
7350.2521963636
 20
4674.314727308
  0
LWPOLYLINE
  5
19A
330
1F
100
AcDbEntity
  8
0
  6
Continuous
 62
     7
370
    25
100
AcDbPolyline
 90
        5
 70
   128
 43
0.0
 10
7332.5425267566
 20
4674.3151780932
 10
7336.8241077915
 20
4674.3621783164
 10
7341.306715303
 20
4674.4076759439
 10
7345.7893228146
 20
4674.4531735715
 10
7349.8474400015
 20
4674.4977207638
  0
LWPOLYLINE
  5
19B
330
1F
100
AcDbEntity
  8
0
  6
Continuous
 62
     7
370
    25
100
AcDbPolyline
 90
        7
 70
   128
 43
0.0
 10
7331.4148829886
 20
4673.6413172707
 10
7332.7391598965
 20
4673.6576759419
 10
7336.9809795034
 20
4673.7059283143
 10
7341.306715303
 20
4673.7514259419
 10
7345.6324511027
 20
4673.7969235695
 10
7349.8742707096
 20
4673.8451759419
 10
7350.9930237278
 20
4673.8589957953
  0
LWPOLYLINE
  5
19C
330
1F
100
AcDbEntity
  8
0
  6
Continuous
 62
     7
370
    25
100
AcDbPolyline
 90
        4
 70
   128
 43
0.0
 10
7334.1924249257
 20
4675.1742074053
 10
7336.9809795034
 20
4675.2059283143
 10
7341.306715303
 20
4675.2514259419
 10
7344.2778428062
 20
4675.2826759439
  0
LWPOLYLINE
  5
19D
330
1F
100
AcDbEntity
  8
0
  6
Continuous
 62
     7
370
    25
100
AcDbPolyline
 90
        7
 70
   128
 43
0.0
 10
7331.4031972484
 20
4673.2661729178
 10
7332.7391598965
 20
4673.2826759419
 10
7336.9809795034
 20
4673.3309283143
 10
7341.306715303
 20
4673.3764259419
 10
7345.6324511027
 20
4673.4219235695
 10
7349.8742707096
 20
4673.4701759419
 10
7351.2033580542
 20
4673.486594036
  0
LWPOLYLINE
  5
19E
330
1F
100
AcDbEntity
  8
0
  6
Continuous
 62
     7
370
    25
100
AcDbPolyline
 90
        5
 70
   128
 43
0.0
 10
7333.4560920928
 20
4674.7908313286
 10
7336.9809795034
 20
4674.8309283143
 10
7341.306715303
 20
4674.8764259419
 10
7345.6324511027
 20
4674.9219235695
 10
7348.8287404972
 20
4674.958282623
  0
ARC
  5
19F
330
1F
100
AcDbEntity
  8
0
  6
Continuous
 62
     7
370
    25
100
AcDbCircle
 10
7341.306715303
 20
4659.3460871138
 30
0.0
 40
19.71434232641759
100
AcDbArc
 50
98.7529037444
 51
81.2470962556
  0
CIRCLE
  5
1A0
330
1F
100
AcDbEntity
  8
0
  6
Continuous
 62
     7
370
    25
100
AcDbCircle
 10
7341.3066520839
 20
4659.3459520275
 30
0.0
 40
17.49968043751192
  0
ARC
  5
1A1
330
1F
100
AcDbEntity
  8
0
  6
Continuous
 62
     7
370
    25
100
AcDbCircle
 10
7341.306715303
 20
4659.3765212127
 30
0.0
 40
19.99963762810013
100
AcDbArc
 50
98.6270840614
 51
81.3729159386
  0
ARC
  5
1A2
330
1F
100
AcDbEntity
  8
0
  6
Continuous
 62
     7
370
    25
100
AcDbCircle
 10
7341.307275558
 20
4659.9749712098
 30
0.0
 40
19.99934455095127
100
AcDbArc
 50
0.0007770969
 51
81.3744119802
  0
ARC
  5
1A3
330
1F
100
AcDbEntity
  8
0
  6
Continuous
 62
     7
370
    25
100
AcDbCircle
 10
7341.3062271868
 20
4659.9749091879
 30
0.0
 40
19.99941669060367
100
AcDbArc
 50
98.6257657018
 51
179.9990452211
  0
ARC
  5
1A4
330
1F
100
AcDbEntity
  8
0
  6
Continuous
 62
     7
370
    25
100
AcDbCircle
 10
7338.8670985588
 20
4660.2237474277
 30
0.0
 40
15.04056685101074
100
AcDbArc
 50
177.7865545128
 51
205.5322813903
  0
ARC
  5
1A5
330
1F
100
AcDbEntity
  8
0
  6
Continuous
 62
     7
370
    25
100
AcDbCircle
 10
7341.306715303
 20
4660.8045886501
 30
0.0
 40
17.50023986067646
100
AcDbArc
 50
203.8052968746
 51
336.1947031254
  0
ARC
  5
1A6
330
1F
100
AcDbEntity
  8
0
  6
Continuous
 62
     7
370
    25
100
AcDbCircle
 10
7342.9604075773
 20
4660.329980521
 30
0.0
 40
15.79739587785709
100
AcDbArc
 50
335.348694842
 51
1.7302785812
  0
ARC
  5
1A7
330
1F
100
AcDbEntity
  8
0
  6
Continuous
 62
     7
370
    25
100
AcDbCircle
 10
7341.3067659381
 20
4660.696669357
 30
0.0
 40
26.51314433504189
100
AcDbArc
 50
59.5202020561
 51
83.5030967341
  0
ARC
  5
1A8
330
1F
100
AcDbEntity
  8
0
  6
Continuous
 62
     7
370
    25
100
AcDbCircle
 10
7341.3066584446
 20
4660.6966887173
 30
0.0
 40
26.51312449345656
100
AcDbArc
 50
96.248458015
 51
120.4798075851
  0
LINE
  5
1A9
330
1F
100
AcDbEntity
  8
0
  6
Continuous
 62
     7
370
    25
100
AcDbLine
 10
7317.2870989681
 20
4690.2826759439
 30
0.0
 11
7317.2870989681
 21
4687.2826759439
 31
0.0
  0
LINE
  5
1AA
330
1F
100
AcDbEntity
  8
0
  6
Continuous
 62
     7
370
    25
100
AcDbLine
 10
7324.1734508264
 20
4690.2826759439
 30
0.0
 11
7317.2870989681
 21
4690.2826759439
 31
0.0
  0
LINE
  5
1AB
330
1F
100
AcDbEntity
  8
0
  6
Continuous
 62
     7
370
    25
100
AcDbLine
 10
7324.1734508264
 20
4690.2826759439
 30
0.0
 11
7324.1734508264
 21
4687.2826759439
 31
0.0
  0
LINE
  5
1AC
330
1F
100
AcDbEntity
  8
0
  6
Continuous
 62
     7
370
    25
100
AcDbLine
 10
7317.2870989681
 20
4687.2826759439
 30
0.0
 11
7324.1734508264
 21
4687.2826759439
 31
0.0
  0
LINE
  5
1AD
330
1F
100
AcDbEntity
  8
0
  6
Continuous
 62
     7
370
    25
100
AcDbLine
 10
7319.2546280704
 20
4692.2826759439
 30
0.0
 11
7324.1734508264
 21
4692.2826759439
 31
0.0
  0
LINE
  5
1AE
330
1F
100
AcDbEntity
  8
0
  6
Continuous
 62
     7
370
    25
100
AcDbLine
 10
7324.1734508264
 20
4692.2826759439
 30
0.0
 11
7324.1734508264
 21
4690.2826759439
 31
0.0
  0
ARC
  5
1AF
330
1F
100
AcDbEntity
  8
0
  6
Continuous
 62
     7
370
    25
100
AcDbCircle
 10
7319.2709974892
 20
4690.2987795979
 30
0.0
 40
1.983963878169449
100
AcDbArc
 50
90.4727451245
 51
180.4650697254
  0
LINE
  5
1B0
330
1F
100
AcDbEntity
  8
0
  6
Continuous
 62
     7
370
    25
100
AcDbLine
 10
7324.1734508264
 20
4692.2826759439
 30
0.0
 11
7338.306715303
 21
4692.2826759439
 31
0.0
  0
LINE
  5
1B1
330
1F
100
AcDbEntity
  8
0
  6
Continuous
 62
     7
370
    25
100
AcDbLine
 10
7344.306715303
 20
4692.2826759439
 30
0.0
 11
7358.4399797797
 21
4692.2826759439
 31
0.0
  0
LINE
  5
1B2
330
1F
100
AcDbEntity
  8
0
  6
Continuous
 62
     7
370
    25
100
AcDbLine
 10
7358.4399797797
 20
4692.2826759439
 30
0.0
 11
7358.4399797797
 21
4690.2826759439
 31
0.0
  0
LINE
  5
1B3
330
1F
100
AcDbEntity
  8
0
  6
Continuous
 62
     7
370
    25
100
AcDbLine
 10
7358.4399797797
 20
4690.2826759439
 30
0.0
 11
7358.4399797797
 21
4687.2826759439
 31
0.0
  0
LINE
  5
1B4
330
1F
100
AcDbEntity
  8
0
  6
Continuous
 62
     7
370
    25
100
AcDbLine
 10
7324.1734508264
 20
4687.2826759439
 30
0.0
 11
7338.306715303
 21
4687.2826759439
 31
0.0
  0
LINE
  5
1B5
330
1F
100
AcDbEntity
  8
0
  6
Continuous
 62
     7
370
    25
100
AcDbLine
 10
7344.306715303
 20
4687.2826759439
 30
0.0
 11
7358.4399797797
 21
4687.2826759439
 31
0.0
  0
LINE
  5
1B6
330
1F
100
AcDbEntity
  8
0
  6
Continuous
 62
     7
370
    25
100
AcDbLine
 10
7365.326331638
 20
4690.2826759439
 30
0.0
 11
7358.4399797797
 21
4690.2826759439
 31
0.0
  0
LINE
  5
1B7
330
1F
100
AcDbEntity
  8
0
  6
Continuous
 62
     7
370
    25
100
AcDbLine
 10
7365.326331638
 20
4690.2826759439
 30
0.0
 11
7365.326331638
 21
4687.2826759439
 31
0.0
  0
LINE
  5
1B8
330
1F
100
AcDbEntity
  8
0
  6
Continuous
 62
     7
370
    25
100
AcDbLine
 10
7358.4399797797
 20
4687.2826759439
 30
0.0
 11
7365.326331638
 21
4687.2826759439
 31
0.0
  0
LINE
  5
1B9
330
1F
100
AcDbEntity
  8
0
  6
Continuous
 62
     7
370
    25
100
AcDbLine
 10
7358.4399797797
 20
4692.2826759439
 30
0.0
 11
7363.3588025356
 21
4692.2826759439
 31
0.0
  0
ARC
  5
1BA
330
1F
100
AcDbEntity
  8
0
  6
Continuous
 62
     7
370
    25
100
AcDbCircle
 10
7363.3424331169
 20
4690.2987795979
 30
0.0
 40
1.983963878170381
100
AcDbArc
 50
359.5349302747
 51
89.5272548754
  0
LWPOLYLINE
  5
1BB
330
1F
100
AcDbEntity
  8
0
  6
Continuous
 62
     7
370
    25
100
AcDbPolyline
 90
        3
 70
   128
 43
0.0
 10
7359.0797561065
 20
4639.6840614624
 10
7358.7477606976
 20
4639.4636328411
 10
7358.3717101439
 20
4639.3982298611
  0
LWPOLYLINE
  5
1BC
330
1F
100
AcDbEntity
  8
0
  6
Continuous
 62
     7
370
    25
100
AcDbPolyline
 90
        3
 70
   128
 43
0.0
 10
7323.5336744996
 20
4639.6840614624
 10
7323.8656699085
 20
4639.4636328411
 10
7324.263211409
 20
4639.3944921403
  0
LINE
  5
1BD
330
1F
100
AcDbEntity
  8
0
  6
Continuous
 62
     7
370
    25
100
AcDbLine
 10
7307.7625086485
 20
4690.2826759439
 30
0.0
 11
7307.7625086485
 21
4687.2826759439
 31
0.0
  0
LINE
  5
1BE
330
1F
100
AcDbEntity
  8
0
  6
Continuous
 62
     7
370
    25
100
AcDbLine
 10
7317.2870989681
 20
4690.2826759439
 30
0.0
 11
7307.7625086485
 21
4690.2826759439
 31
0.0
  0
LINE
  5
1BF
330
1F
100
AcDbEntity
  8
0
  6
Continuous
 62
     7
370
    25
100
AcDbLine
 10
7307.7625086485
 20
4687.2826759439
 30
0.0
 11
7317.2870989681
 21
4687.2826759439
 31
0.0
  0
ARC
  5
1C0
330
1F
100
AcDbEntity
  8
0
  6
Continuous
 62
     7
370
    25
100
AcDbCircle
 10
7309.5204429471
 20
4690.5472635257
 30
0.0
 40
1.777734397020043
100
AcDbArc
 50
102.5271579555
 51
188.5593696972
  0
LINE
  5
1C1
330
1F
100
AcDbEntity
  8
0
  6
Continuous
 62
     7
370
    25
100
AcDbLine
 10
7309.1348481791
 20
4692.2826759439
 30
0.0
 11
7319.2546280704
 21
4692.2826759439
 31
0.0
  0
ARC
  5
1C2
330
1F
100
AcDbEntity
  8
0
  6
Continuous
 62
     7
370
    25
100
AcDbCircle
 10
7373.0899350025
 20
4690.5451688851
 30
0.0
 40
1.780443090939666
100
AcDbArc
 50
351.5219073503
 51
77.3915649969
  0
LINE
  5
1C3
330
1F
100
AcDbEntity
  8
0
  6
Continuous
 62
     7
370
    25
100
AcDbLine
 10
7374.8509219575
 20
4690.2826759439
 30
0.0
 11
7365.326331638
 21
4690.2826759439
 31
0.0
  0
LINE
  5
1C4
330
1F
100
AcDbEntity
  8
0
  6
Continuous
 62
     7
370
    25
100
AcDbLine
 10
7363.3588025356
 20
4692.2826759439
 30
0.0
 11
7373.478582427
 21
4692.2826759439
 31
0.0
  0
LINE
  5
1C5
330
1F
100
AcDbEntity
  8
0
  6
Continuous
 62
     7
370
    25
100
AcDbLine
 10
7374.8509219575
 20
4690.2826759439
 30
0.0
 11
7374.8509219575
 21
4687.2826759439
 31
0.0
  0
LINE
  5
1C6
330
1F
100
AcDbEntity
  8
0
  6
Continuous
 62
     7
370
    25
100
AcDbLine
 10
7365.326331638
 20
4687.2826759439
 30
0.0
 11
7374.8509219575
 21
4687.2826759439
 31
0.0
  0
LINE
  5
1C7
330
1F
100
AcDbEntity
  8
0
  6
Continuous
 62
     7
370
    25
100
AcDbLine
 10
7310.2052255775
 20
4648.9755110588
 30
0.0
 11
7309.9824221697
 21
4687.2826759439
 31
0.0
  0
LINE
  5
1C8
330
1F
100
AcDbEntity
  8
0
  6
Continuous
 62
     7
370
    25
100
AcDbLine
 10
7372.4082050285
 20
4648.9755110588
 30
0.0
 11
7372.6310084363
 21
4687.2826759439
 31
0.0
  0
LINE
  5
1C9
330
1F
100
AcDbEntity
  8
0
  6
Continuous
 62
     7
370
    25
100
AcDbLine
 10
7334.0774522328
 20
4675.2826759439
 30
0.0
 11
7348.5359783733
 21
4675.2826759439
 31
0.0
  0
LINE
  5
1CA
330
1F
100
AcDbEntity
  8
0
  6
Continuous
 62
     7
370
    25
100
AcDbLine
 10
7347.0802179949
 20
4695.2826759439
 30
0.0
 11
7383.056715303
 21
4695.2826759439
 31
0.0
  0
LINE
  5
1CB
330
1F
100
AcDbEntity
  8
0
  6
Continuous
 62
     7
370
    25
100
AcDbLine
 10
7299.556715303
 20
4695.2826759439
 30
0.0
 11
7335.5332126111
 21
4695.2826759439
 31
0.0
  0
LINE
  5
1CC
330
1F
100
AcDbEntity
  8
0
  6
Continuous
 62
     7
370
    25
100
AcDbLine
 10
7373.478582427
 20
4692.2826759439
 30
0.0
 11
7388.306715303
 21
4692.2826759439
 31
0.0
  0
LINE
  5
1CD
330
1F
100
AcDbEntity
  8
0
  6
Continuous
 62
     7
370
    25
100
AcDbLine
 10
7295.3066854095
 20
4692.2826759439
 30
0.0
 11
7309.1348481791
 21
4692.2826759439
 31
0.0
  0
LINE
  5
1CE
330
1F
100
AcDbEntity
  8
0
  6
Continuous
 62
     7
370
    25
100
AcDbLine
 10
7374.8509219575
 20
4687.2826759439
 30
0.0
 11
7390.306715303
 21
4687.2826759439
 31
0.0
  0
LINE
  5
1CF
330
1F
100
AcDbEntity
  8
0
  6
Continuous
 62
     7
370
    25
100
AcDbLine
 10
7292.306715303
 20
4687.2826759439
 30
0.0
 11
7293.3066529165
 21
4687.2826759439
 31
0.0
  0
LINE
  5
1D0
330
1F
100
AcDbEntity
  8
0
  6
Continuous
 62
     7
370
    25
100
AcDbLine
 10
7295.306715303
 20
4687.2826759439
 30
0.0
 11
7307.7625086485
 21
4687.2826759439
 31
0.0
  0
LINE
  5
1D1
330
1F
100
AcDbEntity
  8
0
  6
Continuous
 62
     7
370
    25
100
AcDbLine
 10
7330.0474602853
 20
4620.0994373058
 30
0.0
 11
7330.4484632998
 21
4635.4131246046
 31
0.0
  0
ARC
  5
1D2
330
1F
100
AcDbEntity
  8
0
  6
Continuous
 62
     7
370
    25
100
AcDbCircle
 10
7324.826837079
 20
4668.5108090377
 30
0.0
 40
48.69205088749322
100
AcDbArc
 50
263.8450785085
 51
276.1549214915
  0
ARC
  5
1D3
330
1F
100
AcDbEntity
  8
0
  6
Continuous
 62
     7
370
    25
100
AcDbCircle
 10
7357.7865935271
 20
4668.5108089547
 30
0.0
 40
48.692050804955
100
AcDbArc
 50
263.845078498
 51
276.154921502
  0
LINE
  5
1D4
330
1F
100
AcDbEntity
  8
0
  6
Continuous
 62
     7
370
    25
100
AcDbLine
 10
7352.5659703208
 20
4620.0994373058
 30
0.0
 11
7352.1649673062
 21
4635.4131246046
 31
0.0
  0
LINE
  5
1D5
330
1F
100
AcDbEntity
  8
0
  6
Continuous
 62
     7
370
    25
100
AcDbLine
 10
7330.7452224664
 20
4646.8505880852
 30
0.0
 11
7331.6158701594
 21
4671.7826759439
 31
0.0
  0
LINE
  5
1D6
330
1F
100
AcDbEntity
  8
0
  6
Continuous
 62
     7
370
    25
100
AcDbLine
 10
7351.8682081397
 20
4646.8505880852
 30
0.0
 11
7350.9975604467
 21
4671.7826759439
 31
0.0
  0
LWPOLYLINE
  5
1D7
330
1F
100
AcDbEntity
  8
0
  6
Continuous
 62
     7
370
    25
100
AcDbPolyline
 90
        6
 70
   128
 43
0.0
 10
7323.0498590105
 20
4613.2826759439
 10
7321.772241388
 20
4613.7752385356
 10
7320.667721728
 20
4615.2125832666
 10
7319.9037035947
 20
4617.4215705352
 10
7319.6907927984
 20
4618.7252894875
 10
7319.6062138727
 20
4620.0994373058
  0
ARC
  5
1D8
330
1F
100
AcDbEntity
  8
0
  6
Continuous
 62
     7
370
    25
100
AcDbCircle
 10
7323.0498590105
 20
4620.2826759439
 30
0.0
 40
7.000000000000435
100
AcDbArc
 50
270.0
 51
358.5
  0
LWPOLYLINE
  5
1D9
330
1F
100
AcDbEntity
  8
0
  6
Continuous
 62
     7
370
    25
100
AcDbPolyline
 90
        6
 70
   128
 43
0.0
 10
7363.0072167334
 20
4620.0994373058
 10
7362.9226405335
 20
4618.7253077963
 10
7362.7097338176
 20
4617.4215933874
 10
7361.9457088781
 20
4615.2125832666
 10
7360.8411892181
 20
4613.7752385356
 10
7359.5635715956
 20
4613.2826759439
  0
ARC
  5
1DA
330
1F
100
AcDbEntity
  8
0
  6
Continuous
 62
     7
370
    25
100
AcDbCircle
 10
7359.5635715956
 20
4620.2826759439
 30
0.0
 40
7.0
100
AcDbArc
 50
181.5
 51
270.0
  0
LINE
  5
1DB
330
1F
100
AcDbEntity
  8
0
  6
Continuous
 62
     7
370
    25
100
AcDbLine
 10
7323.0498590105
 20
4613.2826759439
 30
0.0
 11
7316.0635715956
 21
4613.2826759439
 31
0.0
  0
LINE
  5
1DC
330
1F
100
AcDbEntity
  8
0
  6
Continuous
 62
     7
370
    25
100
AcDbLine
 10
7366.5498590105
 20
4613.2826759439
 30
0.0
 11
7359.5635715956
 21
4613.2826759439
 31
0.0
  0
LINE
  5
1DD
330
1F
100
AcDbEntity
  8
0
  6
Continuous
 62
     7
370
    25
100
AcDbLine
 10
7330.0474602853
 20
4620.0994373058
 30
0.0
 11
7331.4414138066
 21
4620.0994373058
 31
0.0
  0
LWPOLYLINE
  5
1DE
330
1F
100
AcDbEntity
  8
0
  6
Continuous
 62
     7
370
    25
100
AcDbPolyline
 90
        9
 70
   128
 43
0.0
 10
7326.4933624931
 20
4613.2826759439
 10
7327.4431184078
 20
4613.41274673
 10
7328.3575784659
 20
4613.7981252568
 10
7329.2027585134
 20
4614.4244896708
 10
7329.9472490551
 20
4615.26856234
 10
7330.5633825283
 20
4616.2989749228
 10
7331.0282615144
 20
4617.4774341122
 10
7331.3246096775
 20
4618.7601447331
 10
7331.4414138066
 20
4620.0994373058
  0
LINE
  5
1DF
330
1F
100
AcDbEntity
  8
0
  6
Continuous
 62
     7
370
    25
100
AcDbLine
 10
7326.4933624931
 20
4613.2826759439
 30
0.0
 11
7323.0498590105
 21
4613.2826759439
 31
0.0
  0
LINE
  5
1E0
330
1F
100
AcDbEntity
  8
0
  6
Continuous
 62
     7
370
    25
100
AcDbLine
 10
7351.1720167995
 20
4620.0994373058
 30
0.0
 11
7352.5659703208
 21
4620.0994373058
 31
0.0
  0
LWPOLYLINE
  5
1E1
330
1F
100
AcDbEntity
  8
0
  6
Continuous
 62
     7
370
    25
100
AcDbPolyline
 90
        9
 70
   128
 43
0.0
 10
7351.1720167995
 20
4620.0994373058
 10
7351.2888209286
 20
4618.7601447331
 10
7351.5851690917
 20
4617.4774341122
 10
7352.0500480777
 20
4616.2989749228
 10
7352.6661815509
 20
4615.26856234
 10
7353.4106720927
 20
4614.4244896708
 10
7354.2558521402
 20
4613.7981252568
 10
7355.1703121982
 20
4613.41274673
 10
7356.120068113
 20
4613.2826759439
  0
LINE
  5
1E2
330
1F
100
AcDbEntity
  8
0
  6
Continuous
 62
     7
370
    25
100
AcDbLine
 10
7359.5635715956
 20
4613.2826759439
 30
0.0
 11
7356.120068113
 21
4613.2826759439
 31
0.0
  0
LINE
  5
1E3
330
1F
100
AcDbEntity
  8
0
  6
Continuous
 62
     7
370
    25
100
AcDbLine
 10
7331.4414138066
 20
4620.0994373058
 30
0.0
 11
7335.1840544937
 21
4620.0994373058
 31
0.0
  0
LINE
  5
1E4
330
1F
100
AcDbEntity
  8
0
  6
Continuous
 62
     7
370
    25
100
AcDbLine
 10
7347.4293761124
 20
4620.0994373058
 30
0.0
 11
7351.1720167995
 21
4620.0994373058
 31
0.0
  0
LWPOLYLINE
  5
1E5
330
1F
100
AcDbEntity
  8
0
  6
Continuous
 62
     7
370
    25
100
AcDbPolyline
 90
        9
 70
   128
 43
0.0
 10
7330.2360031803
 20
4613.2826759439
 10
7331.185759095
 20
4613.41274673
 10
7332.100219153
 20
4613.7981252568
 10
7332.9453992005
 20
4614.4244896708
 10
7333.6898897423
 20
4615.26856234
 10
7334.3060232155
 20
4616.2989749228
 10
7334.7709022015
 20
4617.4774341122
 10
7335.0672503646
 20
4618.7601447331
 10
7335.1840544937
 20
4620.0994373058
  0
LINE
  5
1E6
330
1F
100
AcDbEntity
  8
0
  6
Continuous
 62
     7
370
    25
100
AcDbLine
 10
7330.2360031803
 20
4613.2826759439
 30
0.0
 11
7326.4933624931
 21
4613.2826759439
 31
0.0
  0
LWPOLYLINE
  5
1E7
330
1F
100
AcDbEntity
  8
0
  6
Continuous
 62
     7
370
    25
100
AcDbPolyline
 90
        9
 70
   128
 43
0.0
 10
7347.4293761124
 20
4620.0994373058
 10
7347.5461802415
 20
4618.7601447331
 10
7347.8425284046
 20
4617.4774341122
 10
7348.3074073906
 20
4616.2989749228
 10
7348.9235408638
 20
4615.26856234
 10
7349.6680314056
 20
4614.4244896708
 10
7350.5132114531
 20
4613.7981252568
 10
7351.4276715111
 20
4613.41274673
 10
7352.3774274258
 20
4613.2826759439
  0
LINE
  5
1E8
330
1F
100
AcDbEntity
  8
0
  6
Continuous
 62
     7
370
    25
100
AcDbLine
 10
7356.120068113
 20
4613.2826759439
 30
0.0
 11
7352.3774274258
 21
4613.2826759439
 31
0.0
  0
LINE
  5
1E9
330
1F
100
AcDbEntity
  8
0
  6
Continuous
 62
     7
370
    25
100
AcDbLine
 10
7335.1840544937
 20
4620.0994373058
 30
0.0
 11
7338.5493559902
 21
4620.0994373058
 31
0.0
  0
LINE
  5
1EA
330
1F
100
AcDbEntity
  8
0
  6
Continuous
 62
     7
370
    25
100
AcDbLine
 10
7344.0640746159
 20
4620.0994373058
 30
0.0
 11
7347.4293761124
 21
4620.0994373058
 31
0.0
  0
LINE
  5
1EB
330
1F
100
AcDbEntity
  8
0
  6
Continuous
 62
     7
370
    25
100
AcDbLine
 10
7338.5493559902
 20
4613.2826759439
 30
0.0
 11
7338.5493559902
 21
4620.0994373058
 31
0.0
  0
LINE
  5
1EC
330
1F
100
AcDbEntity
  8
0
  6
Continuous
 62
     7
370
    25
100
AcDbLine
 10
7338.5493559902
 20
4613.2826759439
 30
0.0
 11
7330.2360031803
 21
4613.2826759439
 31
0.0
  0
LINE
  5
1ED
330
1F
100
AcDbEntity
  8
0
  6
Continuous
 62
     7
370
    25
100
AcDbLine
 10
7344.0640746159
 20
4620.0994373058
 30
0.0
 11
7344.0640746159
 21
4613.2826759439
 31
0.0
  0
LINE
  5
1EE
330
1F
100
AcDbEntity
  8
0
  6
Continuous
 62
     7
370
    25
100
AcDbLine
 10
7352.3774274258
 20
4613.2826759439
 30
0.0
 11
7344.0640746159
 21
4613.2826759439
 31
0.0
  0
LINE
  5
1EF
330
1F
100
AcDbEntity
  8
0
  6
Continuous
 62
     7
370
    25
100
AcDbLine
 10
7338.5493559902
 20
4620.0994373058
 30
0.0
 11
7344.0640746159
 21
4620.0994373058
 31
0.0
  0
LINE
  5
1F0
330
1F
100
AcDbEntity
  8
0
  6
Continuous
 62
     7
370
    25
100
AcDbLine
 10
7344.0640746159
 20
4613.2826759439
 30
0.0
 11
7338.5493559902
 21
4613.2826759439
 31
0.0
  0
LINE
  5
1F1
330
1F
100
AcDbEntity
  8
0
  6
Continuous
 62
     7
370
    25
100
AcDbLine
 10
7418.4917607268
 20
4603.0826759439
 30
0.0
 11
7418.4917607268
 21
4598.0826759439
 31
0.0
  0
LINE
  5
1F2
330
1F
100
AcDbEntity
  8
0
  6
Continuous
 62
     7
370
    25
100
AcDbLine
 10
7418.4917607268
 20
4603.0826759439
 30
0.0
 11
7423.306715303
 21
4603.0826759439
 31
0.0
  0
LINE
  5
1F3
330
1F
100
AcDbEntity
  8
0
  6
Continuous
 62
     7
370
    25
100
AcDbLine
 10
7438.1216698793
 20
4603.0826759439
 30
0.0
 11
7438.1216698793
 21
4598.0826759439
 31
0.0
  0
LINE
  5
1F4
330
1F
100
AcDbEntity
  8
0
  6
Continuous
 62
     7
370
    25
100
AcDbLine
 10
7433.306715303
 20
4603.0826759439
 30
0.0
 11
7438.1216698793
 21
4603.0826759439
 31
0.0
  0
LINE
  5
1F5
330
1F
100
AcDbEntity
  8
0
  6
Continuous
 62
     7
370
    25
100
AcDbLine
 10
7276.3992380149
 20
4603.0826759439
 30
0.0
 11
7276.3992380149
 21
4596.0826759439
 31
0.0
  0
LINE
  5
1F6
330
1F
100
AcDbEntity
  8
0
  6
Continuous
 62
     7
370
    25
100
AcDbLine
 10
7276.3992380149
 20
4603.0826759439
 30
0.0
 11
7286.2141925912
 21
4603.0826759439
 31
0.0
  0
LINE
  5
1F7
330
1F
100
AcDbEntity
  8
0
  6
Continuous
 62
     7
370
    25
100
AcDbLine
 10
7286.2141925912
 20
4603.0826759439
 30
0.0
 11
7286.2141925912
 21
4596.0826759439
 31
0.0
  0
LINE
  5
1F8
330
1F
100
AcDbEntity
  8
0
  6
Continuous
 62
     7
370
    25
100
AcDbLine
 10
7276.3992380149
 20
4596.0826759439
 30
0.0
 11
7286.2141925912
 21
4596.0826759439
 31
0.0
  0
LINE
  5
1F9
330
1F
100
AcDbEntity
  8
0
  6
Continuous
 62
     7
370
    25
100
AcDbLine
 10
7271.4917607268
 20
4603.0826759439
 30
0.0
 11
7271.4917607268
 21
4596.0826759439
 31
0.0
  0
LINE
  5
1FA
330
1F
100
AcDbEntity
  8
0
  6
Continuous
 62
     7
370
    25
100
AcDbLine
 10
7271.4917607268
 20
4603.0826759439
 30
0.0
 11
7276.3992380149
 21
4603.0826759439
 31
0.0
  0
LINE
  5
1FB
330
1F
100
AcDbEntity
  8
0
  6
Continuous
 62
     7
370
    25
100
AcDbLine
 10
7271.4917607268
 20
4596.0826759439
 30
0.0
 11
7276.3992380149
 21
4596.0826759439
 31
0.0
  0
LINE
  5
1FC
330
1F
100
AcDbEntity
  8
0
  6
Continuous
 62
     7
370
    25
100
AcDbLine
 10
7291.1216698793
 20
4603.0826759439
 30
0.0
 11
7291.1216698793
 21
4596.0826759439
 31
0.0
  0
LINE
  5
1FD
330
1F
100
AcDbEntity
  8
0
  6
Continuous
 62
     7
370
    25
100
AcDbLine
 10
7286.2141925912
 20
4603.0826759439
 30
0.0
 11
7291.1216698793
 21
4603.0826759439
 31
0.0
  0
LINE
  5
1FE
330
1F
100
AcDbEntity
  8
0
  6
Continuous
 62
     7
370
    25
100
AcDbLine
 10
7286.2141925912
 20
4596.0826759439
 30
0.0
 11
7291.1216698793
 21
4596.0826759439
 31
0.0
  0
LINE
  5
1FF
330
1F
100
AcDbEntity
  8
0
  6
Continuous
 62
     7
370
    25
100
AcDbLine
 10
7277.306715303
 20
4683.0826759439
 30
0.0
 11
7285.306715303
 21
4683.0826759439
 31
0.0
  0
LINE
  5
200
330
1F
100
AcDbEntity
  8
0
  6
Continuous
 62
     7
370
    25
100
AcDbLine
 10
7413.306715303
 20
4598.0826759439
 30
0.0
 11
7413.306715303
 21
4596.0826759439
 31
0.0
  0
LINE
  5
201
330
1F
100
AcDbEntity
  8
0
  6
Continuous
 62
     7
370
    25
100
AcDbLine
 10
7413.306715303
 20
4598.0826759439
 30
0.0
 11
7443.306715303
 21
4598.0826759439
 31
0.0
  0
LINE
  5
202
330
1F
100
AcDbEntity
  8
0
  6
Continuous
 62
     7
370
    25
100
AcDbLine
 10
7443.306715303
 20
4598.0826759439
 30
0.0
 11
7443.306715303
 21
4596.0826759439
 31
0.0
  0
LINE
  5
203
330
1F
100
AcDbEntity
  8
0
  6
Continuous
 62
     7
370
    25
100
AcDbLine
 10
7413.306715303
 20
4596.0826759439
 30
0.0
 11
7443.306715303
 21
4596.0826759439
 31
0.0
  0
LINE
  5
204
330
1F
100
AcDbEntity
  8
0
  6
Continuous
 62
     7
370
    25
100
AcDbLine
 10
7424.306715303
 20
4683.0826759439
 30
0.0
 11
7432.306715303
 21
4683.0826759439
 31
0.0
  0
LINE
  5
205
330
1F
100
AcDbEntity
  8
0
  6
Continuous
 62
     7
370
    25
100
AcDbLine
 10
7296.306715303
 20
4598.0826759439
 30
0.0
 11
7296.306715303
 21
4596.0826759439
 31
0.0
  0
LINE
  5
206
330
1F
100
AcDbEntity
  8
0
  6
Continuous
 62
     7
370
    25
100
AcDbLine
 10
7266.306715303
 20
4598.0826759439
 30
0.0
 11
7271.4917607268
 21
4598.0826759439
 31
0.0
  0
LINE
  5
207
330
1F
100
AcDbEntity
  8
0
  6
Continuous
 62
     7
370
    25
100
AcDbLine
 10
7291.1216698793
 20
4598.0826759439
 30
0.0
 11
7296.306715303
 21
4598.0826759439
 31
0.0
  0
LINE
  5
208
330
1F
100
AcDbEntity
  8
0
  6
Continuous
 62
     7
370
    25
100
AcDbLine
 10
7266.306715303
 20
4598.0826759439
 30
0.0
 11
7266.306715303
 21
4596.0826759439
 31
0.0
  0
LINE
  5
209
330
1F
100
AcDbEntity
  8
0
  6
Continuous
 62
     7
370
    25
100
AcDbLine
 10
7266.306715303
 20
4596.0826759439
 30
0.0
 11
7271.4917607268
 21
4596.0826759439
 31
0.0
  0
LINE
  5
20A
330
1F
100
AcDbEntity
  8
0
  6
Continuous
 62
     7
370
    25
100
AcDbLine
 10
7291.1216698793
 20
4596.0826759439
 30
0.0
 11
7296.306715303
 21
4596.0826759439
 31
0.0
  0
LINE
  5
20B
330
1F
100
AcDbEntity
  8
0
  6
Continuous
 62
     7
370
    25
100
AcDbLine
 10
7412.506715303
 20
4701.0826759439
 30
0.0
 11
7412.506715303
 21
4699.8826759439
 31
0.0
  0
LINE
  5
20C
330
1F
100
AcDbEntity
  8
0
  6
Continuous
 62
     7
370
    25
100
AcDbLine
 10
7270.106715303
 20
4699.8826759439
 30
0.0
 11
7412.506715303
 21
4699.8826759439
 31
0.0
  0
LINE
  5
20D
330
1F
100
AcDbEntity
  8
0
  6
Continuous
 62
     7
370
    25
100
AcDbLine
 10
7270.106715303
 20
4701.0826759439
 30
0.0
 11
7412.506715303
 21
4701.0826759439
 31
0.0
  0
LINE
  5
20E
330
1F
100
AcDbEntity
  8
0
  6
Continuous
 62
     7
370
    25
100
AcDbLine
 10
7270.106715303
 20
4701.0826759439
 30
0.0
 11
7270.106715303
 21
4699.8826759439
 31
0.0
  0
LINE
  5
20F
330
1F
100
AcDbEntity
  8
0
  6
Continuous
 62
     7
370
    25
100
AcDbLine
 10
7291.306715303
 20
4715.0311346125
 30
0.0
 11
7286.9434598529
 21
4715.0311346125
 31
0.0
  0
ARC
  5
210
330
1F
100
AcDbEntity
  8
0
  6
Continuous
 62
     7
370
    25
100
AcDbCircle
 10
7288.5883459701
 20
4715.3899109742
 30
0.0
 40
1.683558973215626
100
AcDbArc
 50
89.3750030156
 51
192.3044287047
  0
LINE
  5
211
330
1F
100
AcDbEntity
  8
0
  6
Continuous
 62
     7
370
    25
100
AcDbLine
 10
7391.306715303
 20
4715.0311346125
 30
0.0
 11
7291.306715303
 21
4715.0311346125
 31
0.0
  0
LINE
  5
212
330
1F
100
AcDbEntity
  8
0
  6
Continuous
 62
     7
370
    25
100
AcDbLine
 10
7395.6699707532
 20
4715.0311346125
 30
0.0
 11
7391.306715303
 21
4715.0311346125
 31
0.0
  0
ARC
  5
213
330
1F
100
AcDbEntity
  8
0
  6
Continuous
 62
     7
370
    25
100
AcDbCircle
 10
7394.006715303
 20
4715.3826759439
 30
0.0
 40
1.700000000000129
100
AcDbArc
 50
348.0657534268
 51
90.0
  0
LINE
  5
214
330
1F
100
AcDbEntity
  8
0
  6
Continuous
 62
     7
370
    25
100
AcDbLine
 10
7291.306715303
 20
4710.8240767093
 30
0.0
 11
7287.8326526324
 21
4710.8240767093
 31
0.0
  0
LINE
  5
215
330
1F
100
AcDbEntity
  8
0
  6
Continuous
 62
     7
370
    25
100
AcDbLine
 10
7286.9434598529
 20
4715.0311346125
 30
0.0
 11
7287.8326526324
 21
4710.8240767093
 31
0.0
  0
LINE
  5
216
330
1F
100
AcDbEntity
  8
0
  6
Continuous
 62
     7
370
    25
100
AcDbLine
 10
7291.306715303
 20
4715.0311346125
 30
0.0
 11
7291.306715303
 21
4710.8240767093
 31
0.0
  0
LINE
  5
217
330
1F
100
AcDbEntity
  8
0
  6
Continuous
 62
     7
370
    25
100
AcDbLine
 10
7391.306715303
 20
4710.8240767093
 30
0.0
 11
7291.306715303
 21
4710.8240767093
 31
0.0
  0
LINE
  5
218
330
1F
100
AcDbEntity
  8
0
  6
Continuous
 62
     7
370
    25
100
AcDbLine
 10
7391.306715303
 20
4715.0311346125
 30
0.0
 11
7391.306715303
 21
4710.8240767093
 31
0.0
  0
LINE
  5
219
330
1F
100
AcDbEntity
  8
0
  6
Continuous
 62
     7
370
    25
100
AcDbLine
 10
7394.7807779737
 20
4710.8240767093
 30
0.0
 11
7391.306715303
 21
4710.8240767093
 31
0.0
  0
LINE
  5
21A
330
1F
100
AcDbEntity
  8
0
  6
Continuous
 62
     7
370
    25
100
AcDbLine
 10
7395.6699707532
 20
4715.0311346125
 30
0.0
 11
7394.7807779737
 21
4710.8240767093
 31
0.0
  0
LINE
  5
21B
330
1F
100
AcDbEntity
  8
0
  6
Continuous
 62
     7
370
    25
100
AcDbLine
 10
7289.106715303
 20
4710.8240767093
 30
0.0
 11
7289.106715303
 21
4701.0826759439
 31
0.0
  0
LINE
  5
21C
330
1F
100
AcDbEntity
  8
0
  6
Continuous
 62
     7
370
    25
100
AcDbLine
 10
7393.506715303
 20
4710.8240767093
 30
0.0
 11
7393.506715303
 21
4701.0826759439
 31
0.0
  0
LINE
  5
21D
330
1F
100
AcDbEntity
  8
0
  6
Continuous
 62
     7
370
    25
100
AcDbLine
 10
7271.3065801323
 20
4675.0826759439
 30
0.0
 11
7292.3065801323
 21
4675.0826759439
 31
0.0
  0
ARC
  5
21E
330
1F
100
AcDbEntity
  8
0
  6
Continuous
 62
     7
370
    25
100
AcDbCircle
 10
7292.3065801323
 20
4676.0826759439
 30
0.0
 40
1.000000000000197
100
AcDbArc
 50
270.0
 51
359.9996276583
  0
LINE
  5
21F
330
1F
100
AcDbEntity
  8
0
  6
Continuous
 62
     7
370
    25
100
AcDbLine
 10
7293.3065801323
 20
4676.0826694454
 30
0.0
 11
7293.3067153031
 21
4696.8826954397
 31
0.0
  0
ARC
  5
220
330
1F
100
AcDbEntity
  8
0
  6
Continuous
 62
     7
370
    25
100
AcDbCircle
 10
7296.306715303
 20
4696.8826759439
 30
0.0
 40
3.000000000000592
100
AcDbArc
 50
90.0
 51
179.9996276583
  0
ARC
  5
221
330
1F
100
AcDbEntity
  8
0
  6
Continuous
 62
     7
370
    25
100
AcDbCircle
 10
7386.306715303
 20
4696.8826759439
 30
0.0
 40
3.000000000000782
100
AcDbArc
 50
48.6002523617
 51
90.0
  0
LINE
  5
222
330
1F
100
AcDbEntity
  8
0
  6
Continuous
 62
     7
370
    25
100
AcDbLine
 10
7388.2906409873
 20
4699.1330178911
 30
0.0
 11
7415.2871987544
 21
4675.3325619615
 31
0.0
  0
ARC
  5
223
330
1F
100
AcDbEntity
  8
0
  6
Continuous
 62
     7
370
    25
100
AcDbCircle
 10
7415.9485073158
 20
4676.0826759439
 30
0.0
 40
1.000000000000033
100
AcDbArc
 50
228.6002523617
 51
270.0
  0
LINE
  5
224
330
1F
100
AcDbEntity
  8
0
  6
Continuous
 62
     7
370
    25
100
AcDbLine
 10
7415.9485073158
 20
4675.0826759439
 30
0.0
 11
7436.9485073158
 21
4675.0826759439
 31
0.0
  0
LINE
  5
225
330
1F
100
AcDbEntity
  8
0
  6
Continuous
 62
     7
370
    25
100
AcDbLine
 10
7436.9485073158
 20
4675.0826759439
 30
0.0
 11
7436.9485073158
 21
4673.0826759439
 31
0.0
  0
LINE
  5
226
330
1F
100
AcDbEntity
  8
0
  6
Continuous
 62
     7
370
    25
100
AcDbLine
 10
7436.9485073158
 20
4673.0826759439
 30
0.0
 11
7415.9485073158
 21
4673.0826759439
 31
0.0
  0
ARC
  5
227
330
1F
100
AcDbEntity
  8
0
  6
Continuous
 62
     7
370
    25
100
AcDbCircle
 10
7415.9485073158
 20
4676.0826759439
 30
0.0
 40
3.000000000000782
100
AcDbArc
 50
228.6002523617
 51
270.0
  0
LINE
  5
228
330
1F
100
AcDbEntity
  8
0
  6
Continuous
 62
     7
370
    25
100
AcDbLine
 10
7413.9645816315
 20
4673.8323339967
 30
0.0
 11
7386.9680238645
 21
4697.6327899263
 31
0.0
  0
ARC
  5
229
330
1F
100
AcDbEntity
  8
0
  6
Continuous
 62
     7
370
    25
100
AcDbCircle
 10
7386.306715303
 20
4696.8826759439
 30
0.0
 40
1.000000000000033
100
AcDbArc
 50
48.6002523617
 51
90.0
  0
LINE
  5
22A
330
1F
100
AcDbEntity
  8
0
  6
Continuous
 62
     7
370
    25
100
AcDbLine
 10
7386.306715303
 20
4697.8826759439
 30
0.0
 11
7296.306715303
 21
4697.8826759439
 31
0.0
  0
ARC
  5
22B
330
1F
100
AcDbEntity
  8
0
  6
Continuous
 62
     7
370
    25
100
AcDbCircle
 10
7296.306715303
 20
4696.8826759439
 30
0.0
 40
1.000000000000197
100
AcDbArc
 50
90.0
 51
179.9996276583
  0
LINE
  5
22C
330
1F
100
AcDbEntity
  8
0
  6
Continuous
 62
     7
370
    25
100
AcDbLine
 10
7295.3067153031
 20
4696.8826824425
 30
0.0
 11
7295.3065801323
 21
4676.0826564482
 31
0.0
  0
ARC
  5
22D
330
1F
100
AcDbEntity
  8
0
  6
Continuous
 62
     7
370
    25
100
AcDbCircle
 10
7292.3065801323
 20
4676.0826759439
 30
0.0
 40
3.000000000000592
100
AcDbArc
 50
270.0
 51
359.9996276583
  0
LINE
  5
22E
330
1F
100
AcDbEntity
  8
0
  6
Continuous
 62
     7
370
    25
100
AcDbLine
 10
7292.3065801323
 20
4673.0826759439
 30
0.0
 11
7271.3065801323
 21
4673.0826759439
 31
0.0
  0
LINE
  5
22F
330
1F
100
AcDbEntity
  8
0
  6
Continuous
 62
     7
370
    25
100
AcDbLine
 10
7271.3065801323
 20
4673.0826759439
 30
0.0
 11
7271.3065801323
 21
4675.0826759439
 31
0.0
  0
LINE
  5
230
330
1F
100
AcDbEntity
  8
0
  6
Continuous
 62
     7
370
    25
100
AcDbLine
 10
7271.4917607268
 20
4682.0826759439
 30
0.0
 11
7271.4917607268
 21
4675.0826759439
 31
0.0
  0
LINE
  5
231
330
1F
100
AcDbEntity
  8
0
  6
Continuous
 62
     7
370
    25
100
AcDbLine
 10
7276.3992380149
 20
4682.0826759439
 30
0.0
 11
7271.4917607268
 21
4682.0826759439
 31
0.0
  0
LINE
  5
232
330
1F
100
AcDbEntity
  8
0
  6
Continuous
 62
     7
370
    25
100
AcDbLine
 10
7276.3992380149
 20
4682.0826759439
 30
0.0
 11
7276.3992380149
 21
4675.0826759439
 31
0.0
  0
LINE
  5
233
330
1F
100
AcDbEntity
  8
0
  6
Continuous
 62
     7
370
    25
100
AcDbLine
 10
7286.2141925912
 20
4682.0826759439
 30
0.0
 11
7286.2141925912
 21
4675.0826759439
 31
0.0
  0
LINE
  5
234
330
1F
100
AcDbEntity
  8
0
  6
Continuous
 62
     7
370
    25
100
AcDbLine
 10
7286.2141925912
 20
4682.0826759439
 30
0.0
 11
7276.3992380149
 21
4682.0826759439
 31
0.0
  0
LINE
  5
235
330
1F
100
AcDbEntity
  8
0
  6
Continuous
 62
     7
370
    25
100
AcDbLine
 10
7291.1216698793
 20
4682.0826759439
 30
0.0
 11
7291.1216698793
 21
4675.0826759439
 31
0.0
  0
LINE
  5
236
330
1F
100
AcDbEntity
  8
0
  6
Continuous
 62
     7
370
    25
100
AcDbLine
 10
7291.1216698793
 20
4682.0826759439
 30
0.0
 11
7286.2141925912
 21
4682.0826759439
 31
0.0
  0
LINE
  5
237
330
1F
100
AcDbEntity
  8
0
  6
Continuous
 62
     7
370
    25
100
AcDbLine
 10
7418.4917607268
 20
4682.0826759439
 30
0.0
 11
7418.4917607268
 21
4675.0826759439
 31
0.0
  0
LINE
  5
238
330
1F
100
AcDbEntity
  8
0
  6
Continuous
 62
     7
370
    25
100
AcDbLine
 10
7423.3992380149
 20
4682.0826759439
 30
0.0
 11
7418.4917607268
 21
4682.0826759439
 31
0.0
  0
LINE
  5
239
330
1F
100
AcDbEntity
  8
0
  6
Continuous
 62
     7
370
    25
100
AcDbLine
 10
7423.3992380149
 20
4682.0826759439
 30
0.0
 11
7423.3992380149
 21
4675.0826759439
 31
0.0
  0
LINE
  5
23A
330
1F
100
AcDbEntity
  8
0
  6
Continuous
 62
     7
370
    25
100
AcDbLine
 10
7433.2141925912
 20
4682.0826759439
 30
0.0
 11
7433.2141925912
 21
4675.0826759439
 31
0.0
  0
LINE
  5
23B
330
1F
100
AcDbEntity
  8
0
  6
Continuous
 62
     7
370
    25
100
AcDbLine
 10
7433.2141925912
 20
4682.0826759439
 30
0.0
 11
7423.3992380149
 21
4682.0826759439
 31
0.0
  0
LINE
  5
23C
330
1F
100
AcDbEntity
  8
0
  6
Continuous
 62
     7
370
    25
100
AcDbLine
 10
7438.1216698793
 20
4682.0826759439
 30
0.0
 11
7438.1216698793
 21
4675.0826759439
 31
0.0
  0
LINE
  5
23D
330
1F
100
AcDbEntity
  8
0
  6
Continuous
 62
     7
370
    25
100
AcDbLine
 10
7438.1216698793
 20
4675.0826759439
 30
0.0
 11
7436.9485073158
 21
4675.0826759439
 31
0.0
  0
LINE
  5
23E
330
1F
100
AcDbEntity
  8
0
  6
Continuous
 62
     7
370
    25
100
AcDbLine
 10
7438.1216698793
 20
4682.0826759439
 30
0.0
 11
7433.2141925912
 21
4682.0826759439
 31
0.0
  0
LINE
  5
23F
330
1F
100
AcDbEntity
  8
0
  6
Continuous
 62
     7
370
    25
100
AcDbLine
 10
7344.193466649
 20
4692.8826759439
 30
0.0
 11
7344.193466649
 21
4697.8826759439
 31
0.0
  0
LINE
  5
240
330
1F
100
AcDbEntity
  8
0
  6
Continuous
 62
     7
370
    25
100
AcDbLine
 10
7338.4199639571
 20
4692.8826759439
 30
0.0
 11
7344.193466649
 21
4692.8826759439
 31
0.0
  0
LINE
  5
241
330
1F
100
AcDbEntity
  8
0
  6
Continuous
 62
     7
370
    25
100
AcDbLine
 10
7338.4199639571
 20
4692.8826759439
 30
0.0
 11
7338.4199639571
 21
4697.8826759439
 31
0.0
  0
LINE
  5
242
330
1F
100
AcDbEntity
  8
0
  6
Continuous
 62
     7
370
    25
100
AcDbLine
 10
7347.0802179949
 20
4692.8826759439
 30
0.0
 11
7347.0802179949
 21
4697.8826759439
 31
0.0
  0
LINE
  5
243
330
1F
100
AcDbEntity
  8
0
  6
Continuous
 62
     7
370
    25
100
AcDbLine
 10
7344.193466649
 20
4692.8826759439
 30
0.0
 11
7347.0802179949
 21
4692.8826759439
 31
0.0
  0
LINE
  5
244
330
1F
100
AcDbEntity
  8
0
  6
Continuous
 62
     7
370
    25
100
AcDbLine
 10
7335.5332126111
 20
4692.8826759439
 30
0.0
 11
7335.5332126111
 21
4697.8826759439
 31
0.0
  0
LINE
  5
245
330
1F
100
AcDbEntity
  8
0
  6
Continuous
 62
     7
370
    25
100
AcDbLine
 10
7335.5332126111
 20
4692.8826759439
 30
0.0
 11
7338.4199639571
 21
4692.8826759439
 31
0.0
  0
LINE
  5
246
330
1F
100
AcDbEntity
  8
0
  6
Continuous
 62
     7
370
    25
100
AcDbLine
 10
7338.306715303
 20
4677.8826759439
 30
0.0
 11
7344.306715303
 21
4677.8826759439
 31
0.0
  0
LINE
  5
247
330
1F
100
AcDbEntity
  8
0
  6
Continuous
 62
     8
370
    25
100
AcDbLine
 10
7302.0044891704
 20
4695.8063498702
 30
0.0
 11
7335.5332126111
 21
4695.8063498702
 31
0.0
  0
LINE
  5
248
330
1F
100
AcDbEntity
  8
0
  6
Continuous
 62
     8
370
    25
100
AcDbLine
 10
7347.0802179949
 20
4695.8063498702
 30
0.0
 11
7380.6089414357
 21
4695.8063498702
 31
0.0
  0
LINE
  5
249
330
1F
100
AcDbEntity
  8
0
  6
Continuous
 62
     8
370
    25
100
AcDbLine
 10
7302.2436005556
 20
4696.2205029381
 30
0.0
 11
7335.5332126111
 21
4696.2205029381
 31
0.0
  0
LINE
  5
24A
330
1F
100
AcDbEntity
  8
0
  6
Continuous
 62
     8
370
    25
100
AcDbLine
 10
7347.0802179949
 20
4696.2205029381
 30
0.0
 11
7380.3698300505
 21
4696.2205029381
 31
0.0
  0
ARC
  5
24B
330
1F
100
AcDbEntity
  8
0
  6
Continuous
 62
     8
370
    25
100
AcDbCircle
 10
7341.3070484699
 20
4660.2891930169
 30
0.0
 40
17.49966683633134
100
AcDbArc
 50
269.9989091762
 51
359.9989091346
  0
ARC
  5
24C
330
1F
100
AcDbEntity
  8
0
  6
Continuous
 62
     8
370
    25
100
AcDbCircle
 10
7341.3063812312
 20
4660.2891911975
 30
0.0
 40
17.49966501687783
100
AcDbArc
 50
180.0011153103
 51
270.0010937871
  0
LINE
  5
24D
330
1F
100
AcDbEntity
  8
0
  6
Continuous
 62
     8
370
    25
100
AcDbLine
 10
7358.4399797797
 20
4690.2826759439
 30
0.0
 11
7344.306715303
 21
4690.2826759439
 31
0.0
  0
LINE
  5
24E
330
1F
100
AcDbEntity
  8
0
  6
Continuous
 62
     8
370
    25
100
AcDbLine
 10
7338.306715303
 20
4690.2826759439
 30
0.0
 11
7324.1734508264
 21
4690.2826759439
 31
0.0
  0
LINE
  5
24F
330
1F
100
AcDbEntity
  8
0
  6
Continuous
 62
     8
370
    25
100
AcDbLine
 10
7363.1347138703
 20
4676.0249876882
 30
0.0
 11
7363.2315413029
 21
4687.2826759439
 31
0.0
  0
LINE
  5
250
330
1F
100
AcDbEntity
  8
0
  6
Continuous
 62
     8
370
    25
100
AcDbLine
 10
7357.3180760049
 20
4681.8737291384
 30
0.0
 11
7357.3180760049
 21
4687.2826759439
 31
0.0
  0
LINE
  5
251
330
1F
100
AcDbEntity
  8
0
  6
Continuous
 62
     8
370
    25
100
AcDbLine
 10
7319.4787167358
 20
4676.0249876882
 30
0.0
 11
7319.3818893031
 21
4687.2826759439
 31
0.0
  0
LINE
  5
252
330
1F
100
AcDbEntity
  8
0
  6
Continuous
 62
     8
370
    25
100
AcDbLine
 10
7325.2953546012
 20
4681.8737291384
 30
0.0
 11
7325.2953546012
 21
4687.2826759439
 31
0.0
  0
ARC
  5
253
330
1F
100
AcDbEntity
  8
0
  6
Continuous
 62
     8
370
    25
100
AcDbCircle
 10
7356.8671082083
 20
4645.0842242146
 30
0.0
 40
5.835886262678185
100
AcDbArc
 50
292.2807405458
 51
346.2292893367
  0
ARC
  5
254
330
1F
100
AcDbEntity
  8
0
  6
Continuous
 62
     8
370
    25
100
AcDbCircle
 10
7325.7479219593
 20
4645.0858219605
 30
0.0
 40
5.837971247923466
100
AcDbArc
 50
193.7452696729
 51
247.7106782336
  0
ARC
  5
255
330
1F
100
AcDbEntity
  8
0
  6
Continuous
 62
     8
370
    25
100
AcDbCircle
 10
7382.4536478038
 20
4601.1616172921
 30
0.0
 40
48.8577461379526
100
AcDbArc
 50
101.8649724379
 51
111.5369123433
  0
LWPOLYLINE
  5
256
330
1F
100
AcDbEntity
  8
0
  6
Continuous
 62
     8
370
    25
100
AcDbPolyline
 90
        8
 70
   128
 43
0.0
 10
7372.4082050285
 20
4648.9755110588
 10
7372.44399634
 20
4647.5030008376
 10
7372.2649700396
 20
4646.1005710364
 10
7371.8793070553
 20
4644.8323082018
 10
7371.3046309493
 20
4643.75616788
 10
7370.5672025775
 20
4642.9213262343
 10
7369.7007200529
 20
4642.3659328519
 10
7369.0234757827
 20
4642.1547145335
  0
ARC
  5
257
330
1F
100
AcDbEntity
  8
0
  6
Continuous
 62
     8
370
    25
100
AcDbCircle
 10
7300.2422911639
 20
4601.4361560574
 30
0.0
 40
48.57211479926431
100
AcDbArc
 50
68.5846849951
 51
78.1636904354
  0
LWPOLYLINE
  5
258
330
1F
100
AcDbEntity
  8
0
  6
Continuous
 62
     8
370
    25
100
AcDbPolyline
 90
        8
 70
   128
 43
0.0
 10
7310.2052255775
 20
4648.9755110588
 10
7310.1694342661
 20
4647.5030008376
 10
7310.3484605665
 20
4646.1005710364
 10
7310.7341235508
 20
4644.8323082018
 10
7311.3087996568
 20
4643.75616788
 10
7312.0462280286
 20
4642.9213262343
 10
7312.9127105532
 20
4642.3659328519
 10
7313.5816970338
 20
4642.1562842314
  0
LWPOLYLINE
  5
259
330
1F
100
AcDbEntity
  8
0
  6
Continuous
 62
     8
370
    25
100
AcDbPolyline
 90
        7
 70
   128
 43
0.0
 10
7372.4082050285
 20
4648.9755110588
 10
7377.7193645124
 20
4650.0186195691
 10
7382.127334793
 20
4651.4006176425
 10
7385.2609390333
 20
4653.0443356676
 10
7387.2715644077
 20
4655.0446850836
 10
7388.0380094628
 20
4657.3236491037
 10
7387.9805001623
 20
4657.6371436066
  0
LWPOLYLINE
  5
25A
330
1F
100
AcDbEntity
  8
0
  6
Continuous
 62
     8
370
    25
100
AcDbPolyline
 90
       11
 70
   128
 43
0.0
 10
7294.5944135556
 20
4657.616159101
 10
7294.5732189602
 20
4657.3671730777
 10
7294.8455876998
 20
4656.034952993
 10
7295.5471333009
 20
4654.7490684653
 10
7296.6751010541
 20
4653.5643461851
 10
7298.0562673961
 20
4652.5885454871
 10
7299.7756940394
 20
4651.7017904248
 10
7301.8992421333
 20
4650.8803045815
 10
7304.359539921
 20
4650.1535806201
 10
7307.1216308358
 20
4649.5229999965
 10
7310.2052255775
 20
4648.9755110588
  0
LINE
  5
25B
330
1F
100
AcDbEntity
  8
0
  6
Continuous
 62
     8
370
    25
100
AcDbLine
 10
7307.7625086485
 20
4690.2826759439
 30
0.0
 11
7295.3066724123
 21
4690.2826759439
 31
0.0
  0
LINE
  5
25C
330
1F
100
AcDbEntity
  8
0
  6
Continuous
 62
     8
370
    25
100
AcDbLine
 10
7293.3066724123
 20
4690.2826759439
 30
0.0
 11
7292.306715303
 21
4690.2826759439
 31
0.0
  0
LINE
  5
25D
330
1F
100
AcDbEntity
  8
0
  6
Continuous
 62
     8
370
    25
100
AcDbLine
 10
7390.306715303
 20
4690.2826759439
 30
0.0
 11
7374.8509219575
 21
4690.2826759439
 31
0.0
  0
LINE
  5
25E
330
1F
100
AcDbEntity
  8
0
  6
Continuous
 62
     8
370
    25
100
AcDbLine
 10
7319.6062138727
 20
4620.0994373058
 30
0.0
 11
7319.23895176
 21
4640.9368390379
 31
0.0
  0
LINE
  5
25F
330
1F
100
AcDbEntity
  8
0
  6
Continuous
 62
     8
370
    25
100
AcDbLine
 10
7363.0072167334
 20
4620.0994373058
 30
0.0
 11
7373.5474602853
 21
4620.0994373058
 31
0.0
  0
LINE
  5
260
330
1F
100
AcDbEntity
  8
0
  6
Continuous
 62
     8
370
    25
100
AcDbLine
 10
7309.0659703208
 20
4620.0994373058
 30
0.0
 11
7319.6062138727
 21
4620.0994373058
 31
0.0
  0
LINE
  5
261
330
1F
100
AcDbEntity
  8
0
  6
Continuous
 62
     8
370
    25
100
AcDbLine
 10
7363.0072167334
 20
4620.0994373058
 30
0.0
 11
7363.3745620195
 21
4640.9415580547
 31
0.0
  0
LINE
  5
262
330
1F
100
AcDbEntity
  8
0
  6
Continuous
 62
     8
370
    25
100
AcDbLine
 10
7331.4414138066
 20
4620.0994373058
 30
0.0
 11
7331.7153637245
 21
4634.8945510975
 31
0.0
  0
LINE
  5
263
330
1F
100
AcDbEntity
  8
0
  6
Continuous
 62
     8
370
    25
100
AcDbLine
 10
7351.1720167995
 20
4620.0994373058
 30
0.0
 11
7350.8980668816
 21
4634.8945510975
 31
0.0
  0
LINE
  5
264
330
1F
100
AcDbEntity
  8
0
  6
Continuous
 62
     8
370
    25
100
AcDbLine
 10
7331.6264760371
 20
4646.2254271055
 30
0.0
 11
7332.2575538455
 21
4671.7826759439
 31
0.0
  0
LINE
  5
265
330
1F
100
AcDbEntity
  8
0
  6
Continuous
 62
     8
370
    25
100
AcDbLine
 10
7350.986954569
 20
4646.2254271055
 30
0.0
 11
7350.3558767606
 21
4671.7826759439
 31
0.0
  0
LINE
  5
266
330
1F
100
AcDbEntity
  8
0
  6
Continuous
 62
     8
370
    25
100
AcDbLine
 10
7335.7336987607
 20
4644.2154606003
 30
0.0
 11
7336.414408095
 21
4671.7826759439
 31
0.0
  0
LINE
  5
267
330
1F
100
AcDbEntity
  8
0
  6
Continuous
 62
     8
370
    25
100
AcDbLine
 10
7346.8797318454
 20
4644.2154606003
 30
0.0
 11
7346.1990225111
 21
4671.7826759439
 31
0.0
  0
LINE
  5
268
330
1F
100
AcDbEntity
  8
0
  6
Continuous
 62
     8
370
    25
100
AcDbLine
 10
7335.1840544937
 20
4620.0994373058
 30
0.0
 11
7335.4373523165
 21
4633.7792008895
 31
0.0
  0
LINE
  5
269
330
1F
100
AcDbEntity
  8
0
  6
Continuous
 62
     8
370
    25
100
AcDbLine
 10
7347.4293761124
 20
4620.0994373058
 30
0.0
 11
7347.1760782896
 21
4633.7792008895
 31
0.0
  0
LINE
  5
26A
330
1F
100
AcDbEntity
  8
0
  6
Continuous
 62
     8
370
    25
100
AcDbLine
 10
7337.9635695525
 20
4643.6266795292
 30
0.0
 11
7337.9635695525
 21
4671.7826759439
 31
0.0
  0
LINE
  5
26B
330
1F
100
AcDbEntity
  8
0
  6
Continuous
 62
     8
370
    25
100
AcDbLine
 10
7344.6498610536
 20
4643.6266795292
 30
0.0
 11
7344.6498610536
 21
4671.7826759439
 31
0.0
  0
LINE
  5
26C
330
1F
100
AcDbEntity
  8
0
  6
Continuous
 62
     8
370
    25
100
AcDbLine
 10
7338.5493559902
 20
4620.0994373058
 30
0.0
 11
7338.5493559902
 21
4633.2746942848
 31
0.0
  0
LINE
  5
26D
330
1F
100
AcDbEntity
  8
0
  6
Continuous
 62
     8
370
    25
100
AcDbLine
 10
7344.0640746159
 20
4620.0994373058
 30
0.0
 11
7344.0640746159
 21
4633.2746942848
 31
0.0
  0
LINE
  5
26E
330
1F
100
AcDbEntity
  8
0
  6
Continuous
 62
     8
370
    25
100
AcDbLine
 10
7291.306715303
 20
4717.0826759439
 30
0.0
 11
7291.306715303
 21
4715.0311346125
 31
0.0
  0
LINE
  5
26F
330
1F
100
AcDbEntity
  8
0
  6
Continuous
 62
     8
370
    25
100
AcDbLine
 10
7391.306715303
 20
4717.0826759439
 30
0.0
 11
7391.306715303
 21
4715.0311346125
 31
0.0
  0
LINE
  5
270
330
1F
100
AcDbEntity
  8
0
  6
Continuous
 62
     8
370
    25
100
AcDbLine
 10
7291.306715303
 20
4710.8240767093
 30
0.0
 11
7291.306715303
 21
4701.0826759439
 31
0.0
  0
LINE
  5
271
330
1F
100
AcDbEntity
  8
0
  6
Continuous
 62
     8
370
    25
100
AcDbLine
 10
7391.306715303
 20
4710.8240767093
 30
0.0
 11
7391.306715303
 21
4701.0826759439
 31
0.0
  0
ARC
  5
272
330
1F
100
AcDbEntity
  8
0
  6
Continuous
 62
     7
370
    25
100
AcDbCircle
 10
6525.8229377762
 20
4211.9958818618
 30
0.0
 40
18.15000000000055
100
AcDbArc
 50
90.0
 51
176.8328746966
  0
ARC
  5
273
330
1F
100
AcDbEntity
  8
0
  6
Continuous
 62
     7
370
    25
100
AcDbCircle
 10
6525.8229377762
 20
4211.9958818618
 30
0.0
 40
18.15000000000055
100
AcDbArc
 50
3.1671253034
 51
90.0
  0
ARC
  5
274
330
1F
100
AcDbEntity
  8
0
  6
Continuous
 62
     7
370
    25
100
AcDbCircle
 10
6525.8229377762
 20
4211.9958818618
 30
0.0
 40
20.05000000000015
100
AcDbArc
 50
3.1671253034
 51
176.8328746966
  0
ARC
  5
275
330
1F
100
AcDbEntity
  8
0
  6
Continuous
 62
     7
370
    25
100
AcDbCircle
 10
6507.750583198
 20
4212.9958818618
 30
0.0
 40
0.0499999999993724
100
AcDbArc
 50
176.8328746962
 51
270.0
  0
ARC
  5
276
330
1F
100
AcDbEntity
  8
0
  6
Continuous
 62
     7
370
    25
100
AcDbCircle
 10
6507.750583198
 20
4212.9958818618
 30
0.0
 40
1.949999999999818
100
AcDbArc
 50
176.8328746966
 51
270.0
  0
ARC
  5
277
330
1F
100
AcDbEntity
  8
0
  6
Continuous
 62
     7
370
    25
100
AcDbCircle
 10
6543.8952923544
 20
4212.9958818618
 30
0.0
 40
0.0499999999993724
100
AcDbArc
 50
270.0
 51
3.1671253038
  0
ARC
  5
278
330
1F
100
AcDbEntity
  8
0
  6
Continuous
 62
     7
370
    25
100
AcDbCircle
 10
6543.8952923544
 20
4212.9958818618
 30
0.0
 40
1.949999999999818
100
AcDbArc
 50
270.0
 51
3.1671253034
  0
LINE
  5
279
330
1F
100
AcDbEntity
  8
0
  6
Continuous
 62
     7
370
    25
100
AcDbLine
 10
6507.750583198
 20
4211.0458818618
 30
0.0
 11
6507.9229377762
 21
4211.0458818618
 31
0.0
  0
LINE
  5
27A
330
1F
100
AcDbEntity
  8
0
  6
Continuous
 62
     7
370
    25
100
AcDbLine
 10
6512.1229377762
 20
4211.0458818618
 30
0.0
 11
6512.250583198
 21
4211.0458818618
 31
0.0
  0
LINE
  5
27B
330
1F
100
AcDbEntity
  8
0
  6
Continuous
 62
     7
370
    25
100
AcDbLine
 10
6512.250583198
 20
4212.9458818618
 30
0.0
 11
6512.1229377762
 21
4212.9458818618
 31
0.0
  0
LINE
  5
27C
330
1F
100
AcDbEntity
  8
0
  6
Continuous
 62
     7
370
    25
100
AcDbLine
 10
6507.9229377762
 20
4212.9458818618
 30
0.0
 11
6507.750583198
 21
4212.9458818618
 31
0.0
  0
LINE
  5
27D
330
1F
100
AcDbEntity
  8
0
  6
Continuous
 62
     7
370
    25
100
AcDbLine
 10
6539.3952923544
 20
4211.0458818618
 30
0.0
 11
6539.5222565476
 21
4211.0458818618
 31
0.0
  0
LINE
  5
27E
330
1F
100
AcDbEntity
  8
0
  6
Continuous
 62
     7
370
    25
100
AcDbLine
 10
6543.7222565476
 20
4211.0458818618
 30
0.0
 11
6543.8952923544
 21
4211.0458818618
 31
0.0
  0
LINE
  5
27F
330
1F
100
AcDbEntity
  8
0
  6
Continuous
 62
     7
370
    25
100
AcDbLine
 10
6543.8952923544
 20
4212.9458818618
 30
0.0
 11
6543.7222565476
 21
4212.9458818618
 31
0.0
  0
LINE
  5
280
330
1F
100
AcDbEntity
  8
0
  6
Continuous
 62
     7
370
    25
100
AcDbLine
 10
6539.5222565476
 20
4212.9458818618
 30
0.0
 11
6539.3952923544
 21
4212.9458818618
 31
0.0
  0
LINE
  5
281
330
1F
100
AcDbEntity
  8
0
  6
Continuous
 62
     7
370
    25
100
AcDbLine
 10
6508.1562693681
 20
4221.5822694691
 30
0.0
 11
6508.2131770554
 21
4221.5822694691
 31
0.0
  0
LINE
  5
282
330
1F
100
AcDbEntity
  8
0
  6
Continuous
 62
     7
370
    25
100
AcDbLine
 10
6508.3271190574
 20
4202.4094942545
 30
0.0
 11
6508.1562693681
 21
4202.4094942545
 31
0.0
  0
LINE
  5
283
330
1F
100
AcDbEntity
  8
0
  6
Continuous
 62
     7
370
    25
100
AcDbLine
 10
6996.4229377762
 20
4266.3958818618
 30
0.0
 11
6055.2228877762
 21
4266.3958818618
 31
0.0
  0
ARC
  5
284
330
1F
100
AcDbEntity
  8
0
  6
Continuous
 62
     7
370
    25
100
AcDbCircle
 10
6055.2229377762
 20
4261.9958818618
 30
0.0
 40
4.400000000000546
100
AcDbArc
 50
90.0
 51
180.0
  0
ARC
  5
285
330
1F
100
AcDbEntity
  8
0
  6
Continuous
 62
     7
370
    25
100
AcDbCircle
 10
6996.4229377762
 20
4261.9958818618
 30
0.0
 40
4.400000000000546
100
AcDbArc
 50
0.0
 51
90.0
  0
LINE
  5
286
330
1F
100
AcDbEntity
  8
0
  6
Continuous
 62
     7
370
    25
100
AcDbLine
 10
6050.8229377762
 20
4261.9958818618
 30
0.0
 11
6050.8229377762
 21
4161.9958818618
 31
0.0
  0
LINE
  5
287
330
1F
100
AcDbEntity
  8
0
  6
Continuous
 62
     7
370
    25
100
AcDbLine
 10
7000.8229377762
 20
4161.9958818618
 30
0.0
 11
7000.8229377762
 21
4261.9958818618
 31
0.0
  0
ARC
  5
288
330
1F
100
AcDbEntity
  8
0
  6
Continuous
 62
     7
370
    25
100
AcDbCircle
 10
6055.2229377762
 20
4161.9958818618
 30
0.0
 40
4.400000000000546
100
AcDbArc
 50
180.0
 51
270.0
  0
ARC
  5
289
330
1F
100
AcDbEntity
  8
0
  6
Continuous
 62
     7
370
    25
100
AcDbCircle
 10
6996.4229377762
 20
4161.9958818618
 30
0.0
 40
4.400000000000546
100
AcDbArc
 50
270.0
 51
0.0
  0
LINE
  5
28A
330
1F
100
AcDbEntity
  8
0
  6
Continuous
 62
     7
370
    25
100
AcDbLine
 10
6055.2229377762
 20
4157.5958818618
 30
0.0
 11
6996.4229377762
 21
4157.5958818618
 31
0.0
  0
LINE
  5
28B
330
1F
100
AcDbEntity
  8
0
  6
Continuous
 62
     7
370
    25
100
AcDbLine
 10
6508.6229377762
 20
4215.4958818618
 30
0.0
 11
6508.6229377762
 21
4211.9958818618
 31
0.0
  0
LINE
  5
28C
330
1F
100
AcDbEntity
  8
0
  6
Continuous
 62
     7
370
    25
100
AcDbLine
 10
6508.6229377762
 20
4215.4958818618
 30
0.0
 11
6511.4229377762
 21
4215.4958818618
 31
0.0
  0
LINE
  5
28D
330
1F
100
AcDbEntity
  8
0
  6
Continuous
 62
     7
370
    25
100
AcDbLine
 10
6511.4229377762
 20
4211.9958818618
 30
0.0
 11
6511.4229377762
 21
4215.4958818618
 31
0.0
  0
LINE
  5
28E
330
1F
100
AcDbEntity
  8
0
  6
Continuous
 62
     7
370
    25
100
AcDbLine
 10
6508.6229377762
 20
4211.9958818618
 30
0.0
 11
6511.4229377762
 21
4211.9958818618
 31
0.0
  0
LINE
  5
28F
330
1F
100
AcDbEntity
  8
0
  6
Continuous
 62
     7
370
    25
100
AcDbLine
 10
6508.6229377762
 20
4211.9958818618
 30
0.0
 11
6507.9229377762
 21
4211.9958818618
 31
0.0
  0
LINE
  5
290
330
1F
100
AcDbEntity
  8
0
  6
Continuous
 62
     7
370
    25
100
AcDbLine
 10
6507.9229377762
 20
4211.9958818618
 30
0.0
 11
6507.9229377762
 21
4214.7958818618
 31
0.0
  0
ARC
  5
291
330
1F
100
AcDbEntity
  8
0
  6
Continuous
 62
     7
370
    25
100
AcDbCircle
 10
6508.6229377762
 20
4214.7958818618
 30
0.0
 40
0.7000000000007276
100
AcDbArc
 50
90.0
 51
180.0
  0
LINE
  5
292
330
1F
100
AcDbEntity
  8
0
  6
Continuous
 62
     7
370
    25
100
AcDbLine
 10
6543.0222565476
 20
4211.9958818618
 30
0.0
 11
6543.0222565476
 21
4215.4958818618
 31
0.0
  0
LINE
  5
293
330
1F
100
AcDbEntity
  8
0
  6
Continuous
 62
     7
370
    25
100
AcDbLine
 10
6540.2222565476
 20
4211.9958818618
 30
0.0
 11
6543.0222565476
 21
4211.9958818618
 31
0.0
  0
LINE
  5
294
330
1F
100
AcDbEntity
  8
0
  6
Continuous
 62
     7
370
    25
100
AcDbLine
 10
6540.2222565476
 20
4215.4958818618
 30
0.0
 11
6540.2222565476
 21
4211.9958818618
 31
0.0
  0
LINE
  5
295
330
1F
100
AcDbEntity
  8
0
  6
Continuous
 62
     7
370
    25
100
AcDbLine
 10
6540.2222565476
 20
4215.4958818618
 30
0.0
 11
6543.0222565476
 21
4215.4958818618
 31
0.0
  0
ARC
  5
296
330
1F
100
AcDbEntity
  8
0
  6
Continuous
 62
     7
370
    25
100
AcDbCircle
 10
6543.0222565476
 20
4214.7958818618
 30
0.0
 40
0.7000000000007276
100
AcDbArc
 50
0.0
 51
90.0
  0
LINE
  5
297
330
1F
100
AcDbEntity
  8
0
  6
Continuous
 62
     7
370
    25
100
AcDbLine
 10
6543.7222565476
 20
4214.7958818618
 30
0.0
 11
6543.7222565476
 21
4211.9958818618
 31
0.0
  0
LINE
  5
298
330
1F
100
AcDbEntity
  8
0
  6
Continuous
 62
     7
370
    25
100
AcDbLine
 10
6543.0222565476
 20
4211.9958818618
 30
0.0
 11
6543.7222565476
 21
4211.9958818618
 31
0.0
  0
ARC
  5
299
330
1F
100
AcDbEntity
  8
0
  6
Continuous
 62
     7
370
    25
100
AcDbCircle
 10
6511.4229377762
 20
4214.7958818618
 30
0.0
 40
0.7000000000007276
100
AcDbArc
 50
0.0
 51
90.0
  0
LINE
  5
29A
330
1F
100
AcDbEntity
  8
0
  6
Continuous
 62
     7
370
    25
100
AcDbLine
 10
6512.1229377762
 20
4214.7958818618
 30
0.0
 11
6512.1229377762
 21
4211.9958818618
 31
0.0
  0
LINE
  5
29B
330
1F
100
AcDbEntity
  8
0
  6
Continuous
 62
     7
370
    25
100
AcDbLine
 10
6512.1229377762
 20
4211.9958818618
 30
0.0
 11
6511.4229377762
 21
4211.9958818618
 31
0.0
  0
LINE
  5
29C
330
1F
100
AcDbEntity
  8
0
  6
Continuous
 62
     7
370
    25
100
AcDbLine
 10
6539.5222565476
 20
4211.9958818618
 30
0.0
 11
6539.5222565476
 21
4214.7958818618
 31
0.0
  0
ARC
  5
29D
330
1F
100
AcDbEntity
  8
0
  6
Continuous
 62
     7
370
    25
100
AcDbCircle
 10
6540.2222565476
 20
4214.7958818618
 30
0.0
 40
0.7000000000007276
100
AcDbArc
 50
90.0
 51
180.0
  0
LINE
  5
29E
330
1F
100
AcDbEntity
  8
0
  6
Continuous
 62
     7
370
    25
100
AcDbLine
 10
6540.2222565476
 20
4211.9958818618
 30
0.0
 11
6539.5222565476
 21
4211.9958818618
 31
0.0
  0
LINE
  5
29F
330
1F
100
AcDbEntity
  8
0
  6
Continuous
 62
     7
370
    25
100
AcDbLine
 10
6508.6229377762
 20
4211.9958818618
 30
0.0
 11
6508.6229377762
 21
4208.4958818618
 31
0.0
  0
LINE
  5
2A0
330
1F
100
AcDbEntity
  8
0
  6
Continuous
 62
     7
370
    25
100
AcDbLine
 10
6511.4229377762
 20
4208.4958818618
 30
0.0
 11
6511.4229377762
 21
4211.9958818618
 31
0.0
  0
LINE
  5
2A1
330
1F
100
AcDbEntity
  8
0
  6
Continuous
 62
     7
370
    25
100
AcDbLine
 10
6511.4229377762
 20
4208.4958818618
 30
0.0
 11
6508.6229377762
 21
4208.4958818618
 31
0.0
  0
LINE
  5
2A2
330
1F
100
AcDbEntity
  8
0
  6
Continuous
 62
     7
370
    25
100
AcDbLine
 10
6543.0222565476
 20
4208.4958818618
 30
0.0
 11
6543.0222565476
 21
4211.9958818618
 31
0.0
  0
LINE
  5
2A3
330
1F
100
AcDbEntity
  8
0
  6
Continuous
 62
     7
370
    25
100
AcDbLine
 10
6543.7222565476
 20
4211.9958818618
 30
0.0
 11
6543.7222565476
 21
4209.1958818618
 31
0.0
  0
ARC
  5
2A4
330
1F
100
AcDbEntity
  8
0
  6
Continuous
 62
     7
370
    25
100
AcDbCircle
 10
6543.0222565476
 20
4209.1958818618
 30
0.0
 40
0.6999999999998181
100
AcDbArc
 50
270.0
 51
0.0
  0
LINE
  5
2A5
330
1F
100
AcDbEntity
  8
0
  6
Continuous
 62
     7
370
    25
100
AcDbLine
 10
6540.2222565476
 20
4211.9958818618
 30
0.0
 11
6540.2222565476
 21
4208.4958818618
 31
0.0
  0
ARC
  5
2A6
330
1F
100
AcDbEntity
  8
0
  6
Continuous
 62
     7
370
    25
100
AcDbCircle
 10
6540.2222565476
 20
4209.1958818618
 30
0.0
 40
0.7000000000007276
100
AcDbArc
 50
180.0
 51
270.0
  0
LINE
  5
2A7
330
1F
100
AcDbEntity
  8
0
  6
Continuous
 62
     7
370
    25
100
AcDbLine
 10
6539.5222565476
 20
4209.1958818618
 30
0.0
 11
6539.5222565476
 21
4211.9958818618
 31
0.0
  0
LINE
  5
2A8
330
1F
100
AcDbEntity
  8
0
  6
Continuous
 62
     7
370
    25
100
AcDbLine
 10
6512.1229377762
 20
4211.9958818618
 30
0.0
 11
6512.1229377762
 21
4209.1958818618
 31
0.0
  0
ARC
  5
2A9
330
1F
100
AcDbEntity
  8
0
  6
Continuous
 62
     7
370
    25
100
AcDbCircle
 10
6511.4229377762
 20
4209.1958818618
 30
0.0
 40
0.7000000000007276
100
AcDbArc
 50
270.0
 51
0.0
  0
ARC
  5
2AA
330
1F
100
AcDbEntity
  8
0
  6
Continuous
 62
     7
370
    25
100
AcDbCircle
 10
6508.6229377762
 20
4209.1958818618
 30
0.0
 40
0.7000000000007276
100
AcDbArc
 50
180.0
 51
270.0
  0
LINE
  5
2AB
330
1F
100
AcDbEntity
  8
0
  6
Continuous
 62
     7
370
    25
100
AcDbLine
 10
6507.9229377762
 20
4209.1958818618
 30
0.0
 11
6507.9229377762
 21
4211.9958818618
 31
0.0
  0
LINE
  5
2AC
330
1F
100
AcDbEntity
  8
0
  6
Continuous
 62
     7
370
    25
100
AcDbLine
 10
6543.0222565476
 20
4208.4958818618
 30
0.0
 11
6540.2222565476
 21
4208.4958818618
 31
0.0
  0
LINE
  5
2AD
330
1F
100
AcDbEntity
  8
0
  6
Continuous
 62
     7
370
    25
100
AcDbLine
 10
6512.250583198
 20
4212.9458818618
 30
0.0
 11
6512.250583198
 21
4211.0458818618
 31
0.0
  0
LINE
  5
2AE
330
1F
100
AcDbEntity
  8
0
  6
Continuous
 62
     7
370
    25
100
AcDbLine
 10
6539.3952923544
 20
4212.9458818618
 30
0.0
 11
6539.3952923544
 21
4211.0458818618
 31
0.0
  0
LINE
  5
2AF
330
1F
100
AcDbEntity
  8
0
  6
Continuous
 62
     7
370
    25
100
AcDbLine
 10
6507.9229377762
 20
4209.1958818618
 30
0.0
 11
6507.2229377762
 21
4209.1958818618
 31
0.0
  0
LINE
  5
2B0
330
1F
100
AcDbEntity
  8
0
  6
Continuous
 62
     7
370
    25
100
AcDbLine
 10
6543.7222565476
 20
4209.1958818618
 30
0.0
 11
6544.4222565476
 21
4209.1958818618
 31
0.0
  0
LINE
  5
2B1
330
1F
100
AcDbEntity
  8
0
  6
Continuous
 62
     7
370
    25
100
AcDbLine
 10
6543.0222565476
 20
4208.4958818618
 30
0.0
 11
6543.0222565476
 21
4207.7958818618
 31
0.0
  0
LINE
  5
2B2
330
1F
100
AcDbEntity
  8
0
  6
Continuous
 62
     7
370
    25
100
AcDbLine
 10
6543.0222565476
 20
4207.7958818618
 30
0.0
 11
6541.5499215765
 21
4207.7958818618
 31
0.0
  0
ARC
  5
2B3
330
1F
100
AcDbEntity
  8
0
  6
Continuous
 62
     7
370
    25
100
AcDbCircle
 10
6536.7623132265
 20
4209.2438262668
 30
0.0
 40
5.001773356821064
100
AcDbArc
 50
343.1728014175
 51
351.3999709405
  0
LINE
  5
2B4
330
1F
100
AcDbEntity
  8
0
  6
Continuous
 62
     7
370
    25
100
AcDbLine
 10
6508.6229377762
 20
4215.4958818618
 30
0.0
 11
6508.6229377762
 21
4216.1958818618
 31
0.0
  0
LINE
  5
2B5
330
1F
100
AcDbEntity
  8
0
  6
Continuous
 62
     7
370
    25
100
AcDbLine
 10
6508.6229377762
 20
4216.1958818618
 30
0.0
 11
6509.672991023
 21
4216.1958818618
 31
0.0
  0
ARC
  5
2B6
330
1F
100
AcDbEntity
  8
0
  6
Continuous
 62
     7
370
    25
100
AcDbCircle
 10
6524.3483999806
 20
4213.2070974431
 30
0.0
 40
14.97666385991626
100
AcDbArc
 50
168.488608232
 51
171.2094187131
  0
LINE
  5
2B7
330
1F
100
AcDbEntity
  8
0
  6
Continuous
 62
     7
370
    25
100
AcDbLine
 10
6509.936099835
 20
4207.7958818618
 30
0.0
 11
6508.6229377762
 21
4207.7958818618
 31
0.0
  0
LINE
  5
2B8
330
1F
100
AcDbEntity
  8
0
  6
Continuous
 62
     7
370
    25
100
AcDbLine
 10
6508.6229377762
 20
4208.4958818618
 30
0.0
 11
6508.6229377762
 21
4207.7958818618
 31
0.0
  0
ARC
  5
2B9
330
1F
100
AcDbEntity
  8
0
  6
Continuous
 62
     7
370
    25
100
AcDbCircle
 10
6524.2179422366
 20
4211.922455769
 30
0.0
 40
14.86605645748586
100
AcDbArc
 50
193.3263042336
 51
196.1160409616
  0
LINE
  5
2BA
330
1F
100
AcDbEntity
  8
0
  6
Continuous
 62
     7
370
    25
100
AcDbLine
 10
6541.5499215765
 20
4216.1958818618
 30
0.0
 11
6543.0222565476
 21
4216.1958818618
 31
0.0
  0
LINE
  5
2BB
330
1F
100
AcDbEntity
  8
0
  6
Continuous
 62
     7
370
    25
100
AcDbLine
 10
6543.0222565476
 20
4215.4958818618
 30
0.0
 11
6543.0222565476
 21
4216.1958818618
 31
0.0
  0
ARC
  5
2BC
330
1F
100
AcDbEntity
  8
0
  6
Continuous
 62
     7
370
    25
100
AcDbCircle
 10
6535.4412947918
 20
4214.4499032543
 30
0.0
 40
6.353248184379293
100
AcDbArc
 50
9.4761375319
 51
15.9510901101
  0
ARC
  5
2BD
330
1F
100
AcDbEntity
  8
0
  6
Continuous
 62
     7
370
    25
100
AcDbCircle
 10
6508.6229377762
 20
4209.1958818618
 30
0.0
 40
1.400000000000546
100
AcDbArc
 50
180.0
 51
270.0
  0
ARC
  5
2BE
330
1F
100
AcDbEntity
  8
0
  6
Continuous
 62
     7
370
    25
100
AcDbCircle
 10
6543.0222565476
 20
4209.1958818618
 30
0.0
 40
1.400000000000546
100
AcDbArc
 50
270.0
 51
0.0
  0
ARC
  5
2BF
330
1F
100
AcDbEntity
  8
0
  6
Continuous
 62
     7
370
    25
100
AcDbCircle
 10
6520.0742988501
 20
4224.9399500882
 30
0.0
 40
2.114962488156538
100
AcDbArc
 50
113.9466658893
 51
122.6187463668
  0
ARC
  5
2C0
330
1F
100
AcDbEntity
  8
0
  6
Continuous
 62
     7
370
    25
100
AcDbCircle
 10
6520.0742988501
 20
4199.0518136354
 30
0.0
 40
2.11496248815665
100
AcDbArc
 50
236.8243605215
 51
246.0533341107
  0
ARC
  5
2C1
330
1F
100
AcDbEntity
  8
0
  6
Continuous
 62
     7
370
    25
100
AcDbCircle
 10
6525.8229377762
 20
4211.9958818618
 30
0.0
 40
19.94999999999982
100
AcDbArc
 50
270.0
 51
1.3083677853
  0
ARC
  5
2C2
330
1F
100
AcDbEntity
  8
0
  6
Continuous
 62
     7
370
    25
100
AcDbCircle
 10
6525.8229377762
 20
4211.9958818618
 30
0.0
 40
19.94999999999982
100
AcDbArc
 50
178.6916322147
 51
270.0
  0
ARC
  5
2C3
330
1F
100
AcDbEntity
  8
0
  6
Continuous
 62
     7
370
    25
100
AcDbCircle
 10
6526.2132416525
 20
4212.6064630005
 30
0.0
 40
16.97312689633414
100
AcDbArc
 50
196.4646299597
 51
244.5405854637
  0
ARC
  5
2C4
330
1F
100
AcDbEntity
  8
0
  6
Continuous
 62
     7
370
    25
100
AcDbCircle
 10
6524.8983147981
 20
4212.1364290866
 30
0.0
 40
15.75720917195619
100
AcDbArc
 50
112.2407026115
 51
165.0708087808
  0
ARC
  5
2C5
330
1F
100
AcDbEntity
  8
0
  6
Continuous
 62
     7
370
    25
100
AcDbCircle
 10
6525.8229377762
 20
4211.9958818618
 30
0.0
 40
16.27814545502454
100
AcDbArc
 50
14.95229104
 51
113.9466658893
  0
ARC
  5
2C6
330
1F
100
AcDbEntity
  8
0
  6
Continuous
 62
     7
370
    25
100
AcDbCircle
 10
6525.8229377762
 20
4211.9958818618
 30
0.0
 40
16.27814545502523
100
AcDbArc
 50
246.0533341107
 51
345.04770896
  0
LINE
  5
2C7
330
1F
100
AcDbEntity
  8
0
  6
Continuous
 62
     7
370
    25
100
AcDbLine
 10
6509.6729910229
 20
4216.1958818611
 30
0.0
 11
6510.9500246309
 21
4216.1958818618
 31
0.0
  0
ARC
  5
2C8
330
1F
100
AcDbEntity
  8
0
  6
Continuous
 62
     7
370
    25
100
AcDbCircle
 10
6511.5637422557
 20
4216.1007557343
 30
0.0
 40
0.6210461360251542
100
AcDbArc
 50
171.1892765272
 51
256.89587381
  0
ARC
  5
2C9
330
1F
100
AcDbEntity
  8
0
  6
Continuous
 62
     7
370
    25
100
AcDbCircle
 10
6511.5637422557
 20
4207.8910079893
 30
0.0
 40
0.6210461360251542
100
AcDbArc
 50
103.10412619
 51
188.8107234728
  0
LINE
  5
2CA
330
1F
100
AcDbEntity
  8
0
  6
Continuous
 62
     7
370
    25
100
AcDbLine
 10
6510.9500246309
 20
4207.7958818618
 30
0.0
 11
6509.936099835
 21
4207.7958818618
 31
0.0
  0
LINE
  5
2CB
330
1F
100
AcDbEntity
  8
0
  6
Continuous
 62
     7
370
    25
100
AcDbLine
 10
6512.3500246309
 20
4214.7958818618
 30
0.0
 11
6512.3500246309
 21
4209.1958818618
 31
0.0
  0
ARC
  5
2CC
330
1F
100
AcDbEntity
  8
0
  6
Continuous
 62
     7
370
    25
100
AcDbCircle
 10
6510.9500246309
 20
4214.7958818618
 30
0.0
 40
1.400000000000546
100
AcDbArc
 50
0.0
 51
90.0
  0
ELLIPSE
  5
2CD
330
1F
100
AcDbEntity
  8
0
  6
Continuous
 62
     7
370
    25
100
AcDbEllipse
 10
6523.5711212087
 20
4224.9399500882
 30
0.0
 11
7.431956459165121
 21
0.0
 31
0.0
210
0.0
220
0.0
230
1.0
 40
0.9998720779
 41
3.118775151142044
 42
4.18784238573856
  0
ELLIPSE
  5
2CE
330
1F
100
AcDbEntity
  8
0
  6
Continuous
 62
     7
370
    25
100
AcDbEllipse
 10
6516.0805345814
 20
4211.9958818618
 30
0.0
 11
7.524669661681401
 21
0.0
 31
0.0
210
0.0
220
0.0
230
1.0
 40
0.9998720779
 41
5.236935575030834
 42
7.329435039328414
  0
ELLIPSE
  5
2CF
330
1F
100
AcDbEntity
  8
0
  6
Continuous
 62
     7
370
    25
100
AcDbEllipse
 10
6523.5711212087
 20
4199.0518136354
 30
0.0
 11
7.431956459165121
 21
0.0
 31
0.0
210
0.0
220
0.0
230
1.0
 40
0.9998720779
 41
2.095342921440979
 42
3.159634691503422
  0
ARC
  5
2D0
330
1F
100
AcDbEntity
  8
0
  6
Continuous
 62
     7
370
    25
100
AcDbCircle
 10
6510.9500246309
 20
4209.1958818618
 30
0.0
 40
1.399999999999636
100
AcDbArc
 50
270.0
 51
0.0
  0
LINE
  5
2D1
330
1F
100
AcDbEntity
  8
0
  6
Continuous
 62
     7
370
    25
100
AcDbLine
 10
6512.3500246309
 20
4214.7958818618
 30
0.0
 11
6512.1229377762
 21
4214.7958818618
 31
0.0
  0
LINE
  5
2D2
330
1F
100
AcDbEntity
  8
0
  6
Continuous
 62
     7
370
    25
100
AcDbLine
 10
6512.3500246309
 20
4209.1958818618
 30
0.0
 11
6512.1229377762
 21
4209.1958818618
 31
0.0
  0
ARC
  5
2D3
330
1F
100
AcDbEntity
  8
0
  6
Continuous
 62
     7
370
    25
100
AcDbCircle
 10
6516.6441441597
 20
4220.1021387521
 30
0.0
 40
3.579462495004569
100
AcDbArc
 50
333.554439929
 51
50.6354567782
  0
ARC
  5
2D4
330
1F
100
AcDbEntity
  8
0
  6
Continuous
 62
     7
370
    25
100
AcDbCircle
 10
6520.194842024
 20
4224.9400079175
 30
0.0
 40
2.4344209967347
100
AcDbArc
 50
143.877510115
 51
238.2668902283
  0
ARC
  5
2D5
330
1F
100
AcDbEntity
  8
0
  6
Continuous
 62
     7
370
    25
100
AcDbCircle
 10
6516.6441441597
 20
4203.8896249715
 30
0.0
 40
3.579462495004039
100
AcDbArc
 50
309.3645432218
 51
26.445560071
  0
ARC
  5
2D6
330
1F
100
AcDbEntity
  8
0
  6
Continuous
 62
     7
370
    25
100
AcDbCircle
 10
6520.1948930729
 20
4199.0517458013
 30
0.0
 40
2.434456355962694
100
AcDbArc
 50
121.73400777
 51
216.0920467522
  0
ARC
  5
2D7
330
1F
100
AcDbEntity
  8
0
  6
Continuous
 62
     7
370
    25
100
AcDbCircle
 10
6512.7044100221
 20
4211.9958818618
 30
0.0
 40
12.52198860922825
100
AcDbArc
 50
299.7310219646
 51
60.2689780354
  0
CIRCLE
  5
2D8
330
1F
100
AcDbEntity
  8
0
  6
Continuous
 62
     7
370
    25
100
AcDbCircle
 10
6525.8229377762
 20
4211.9958818618
 30
0.0
 40
20.10000000000036
  0
ARC
  5
2D9
330
1F
100
AcDbEntity
  8
0
  6
Continuous
 62
     7
370
    25
100
AcDbCircle
 10
6525.8229377762
 20
4211.9958818618
 30
0.0
 40
25.55435605731768
100
AcDbArc
 50
4.3156322274
 51
85.6843677726
  0
ARC
  5
2DA
330
1F
100
AcDbEntity
  8
0
  6
Continuous
 62
     7
370
    25
100
AcDbCircle
 10
6552.8229377762
 20
4211.9958818618
 30
0.0
 40
2.45000000000049
100
AcDbArc
 50
128.2893063631
 51
231.7106936369
  0
ARC
  5
2DB
330
1F
100
AcDbEntity
  8
0
  6
Continuous
 62
     7
370
    25
100
AcDbCircle
 10
6525.8229377762
 20
4211.9958818618
 30
0.0
 40
25.55435605731768
100
AcDbArc
 50
274.3156322274
 51
355.6843677726
  0
ARC
  5
2DC
330
1F
100
AcDbEntity
  8
0
  6
Continuous
 62
     7
370
    25
100
AcDbCircle
 10
6525.8229377762
 20
4184.9958818618
 30
0.0
 40
2.450000000002331
100
AcDbArc
 50
38.2893063631
 51
141.7106936368
  0
ARC
  5
2DD
330
1F
100
AcDbEntity
  8
0
  6
Continuous
 62
     7
370
    25
100
AcDbCircle
 10
6525.8229377762
 20
4211.9958818618
 30
0.0
 40
25.55435605731768
100
AcDbArc
 50
184.3156322274
 51
265.6843677726
  0
ARC
  5
2DE
330
1F
100
AcDbEntity
  8
0
  6
Continuous
 62
     7
370
    25
100
AcDbCircle
 10
6498.8229377762
 20
4211.9958818618
 30
0.0
 40
2.450000000003457
100
AcDbArc
 50
308.2893063632
 51
51.7106936368
  0
ARC
  5
2DF
330
1F
100
AcDbEntity
  8
0
  6
Continuous
 62
     7
370
    25
100
AcDbCircle
 10
6525.8229377762
 20
4211.9958818618
 30
0.0
 40
25.55435605731768
100
AcDbArc
 50
94.3156322274
 51
175.6843677726
  0
ARC
  5
2E0
330
1F
100
AcDbEntity
  8
0
  6
Continuous
 62
     7
370
    25
100
AcDbCircle
 10
6525.8229377762
 20
4238.9958818618
 30
0.0
 40
2.450000000002894
100
AcDbArc
 50
218.2893063632
 51
321.7106936368
  0
CIRCLE
  5
2E1
330
1F
100
AcDbEntity
  8
0
  6
Continuous
 62
     7
370
    25
100
AcDbCircle
 10
6525.8229377762
 20
4211.9958818618
 30
0.0
 40
34.90000000000055
  0
ARC
  5
2E2
330
1F
100
AcDbEntity
  8
0
  6
Continuous
 62
     7
370
    25
100
AcDbCircle
 10
6525.8229377762
 20
4184.9958818618
 30
0.0
 40
2.45000000000049
100
AcDbArc
 50
141.7106936369
 51
38.2893063631
  0
ARC
  5
2E3
330
1F
100
AcDbEntity
  8
0
  6
Continuous
 62
     7
370
    25
100
AcDbCircle
 10
6552.8229377762
 20
4211.9958818618
 30
0.0
 40
2.45000000000049
100
AcDbArc
 50
231.7106936369
 51
128.2893063631
  0
ARC
  5
2E4
330
1F
100
AcDbEntity
  8
0
  6
Continuous
 62
     7
370
    25
100
AcDbCircle
 10
6498.8229377762
 20
4211.9958818618
 30
0.0
 40
2.45000000000049
100
AcDbArc
 50
51.7106936369
 51
308.2893063631
  0
ARC
  5
2E5
330
1F
100
AcDbEntity
  8
0
  6
Continuous
 62
     7
370
    25
100
AcDbCircle
 10
6525.8229377762
 20
4238.9958818618
 30
0.0
 40
2.45000000000049
100
AcDbArc
 50
321.7106936369
 51
218.2893063631
  0
ELLIPSE
  5
2E6
330
1F
100
AcDbEntity
  8
0
  6
Continuous
 62
     7
370
    25
100
AcDbEllipse
 10
6457.2405493064
 20
4204.4432558598
 30
0.0
 11
198.0
 21
0.0
 31
0.0
210
0.0
220
0.0
230
1.0
 40
0.0261859216
 41
4.982746857090191
 42
4.983749892019284
  0
LINE
  5
2E7
330
1F
100
AcDbEntity
  8
0
  6
Continuous
 62
     7
370
    25
100
AcDbLine
 10
6517.9284115269
 20
4223.7582098619
 30
0.0
 11
6519.3417635886
 21
4225.1715619236
 31
0.0
  0
LINE
  5
2E8
330
1F
100
AcDbEntity
  8
0
  6
Continuous
 62
     7
370
    25
100
AcDbLine
 10
6519.3417635886
 20
4225.1715619236
 30
0.0
 11
6523.498617838
 21
4221.0147076741
 31
0.0
  0
ARC
  5
2E9
330
1F
100
AcDbEntity
  8
0
  6
Continuous
 62
     7
370
    25
100
AcDbCircle
 10
6517.8229377762
 20
4215.3390276123
 30
0.0
 40
8.02662371911963
100
AcDbArc
 50
0.0
 51
45.0
  0
LINE
  5
2EA
330
1F
100
AcDbEntity
  8
0
  6
Continuous
 62
     7
370
    25
100
AcDbLine
 10
6525.8495614953
 20
4215.3390276123
 30
0.0
 11
6525.8495614953
 21
4208.6527361113
 31
0.0
  0
ARC
  5
2EB
330
1F
100
AcDbEntity
  8
0
  6
Continuous
 62
     7
370
    25
100
AcDbCircle
 10
6517.8229377762
 20
4208.6527361113
 30
0.0
 40
8.02662371911963
100
AcDbArc
 50
315.0
 51
0.0
  0
LINE
  5
2EC
330
1F
100
AcDbEntity
  8
0
  6
Continuous
 62
     7
370
    25
100
AcDbLine
 10
6519.3417635886
 20
4198.8202018
 30
0.0
 11
6517.9284115269
 21
4200.2335538617
 31
0.0
  0
LINE
  5
2ED
330
1F
100
AcDbEntity
  8
0
  6
Continuous
 62
     7
370
    25
100
AcDbLine
 10
6523.498617838
 20
4202.9770560495
 30
0.0
 11
6519.3417635886
 21
4198.8202018
 31
0.0
  0
CIRCLE
  5
2EE
330
1F
100
AcDbEntity
  8
0
  6
Continuous
 62
     7
370
    25
100
AcDbCircle
 10
6978.1229377762
 20
4124.9958818618
 30
0.0
 40
4.0
  0
CIRCLE
  5
2EF
330
1F
100
AcDbEntity
  8
0
  6
Continuous
 62
     7
370
    25
100
AcDbCircle
 10
6978.1229377762
 20
4124.9958818618
 30
0.0
 40
5.0
  0
ARC
  5
2F0
330
1F
100
AcDbEntity
  8
0
  6
Continuous
 62
     7
370
    25
100
AcDbCircle
 10
6073.5229377762
 20
4271.9958818618
 30
0.0
 40
4.0
100
AcDbArc
 50
270.0
 51
25.5142078116
  0
ARC
  5
2F1
330
1F
100
AcDbEntity
  8
0
  6
Continuous
 62
     7
370
    25
100
AcDbCircle
 10
6073.5229377762
 20
4271.9958818618
 30
0.0
 40
4.000000000000597
100
AcDbArc
 50
154.4857922183
 51
270.0
  0
CIRCLE
  5
2F2
330
1F
100
AcDbEntity
  8
0
  6
Continuous
 62
     7
370
    25
100
AcDbCircle
 10
6073.5229377762
 20
4124.9958818618
 30
0.0
 40
3.999999999999091
  0
CIRCLE
  5
2F3
330
1F
100
AcDbEntity
  8
0
  6
Continuous
 62
     7
370
    25
100
AcDbCircle
 10
6073.5229377762
 20
4124.9958818618
 30
0.0
 40
5.0
  0
LINE
  5
2F4
330
1F
100
AcDbEntity
  8
0
  6
Continuous
 62
     7
370
    25
100
AcDbLine
 10
6059.5229377762
 20
4109.9958818618
 30
0.0
 11
6109.5229377762
 21
4109.9958818618
 31
0.0
  0
CIRCLE
  5
2F5
330
1F
100
AcDbEntity
  8
0
  6
Continuous
 62
     7
370
    25
100
AcDbCircle
 10
6095.5229377762
 20
4124.9958818618
 30
0.0
 40
2.750000000000909
  0
LINE
  5
2F6
330
1F
100
AcDbEntity
  8
0
  6
Continuous
 62
     7
370
    25
100
AcDbLine
 10
6109.5229377762
 20
4139.9958818618
 30
0.0
 11
6083.5229377762
 21
4139.9958818618
 31
0.0
  0
LINE
  5
2F7
330
1F
100
AcDbEntity
  8
0
  6
Continuous
 62
     7
370
    25
100
AcDbLine
 10
6063.5229377762
 20
4139.9958818618
 30
0.0
 11
6059.5229377762
 21
4139.9958818618
 31
0.0
  0
LINE
  5
2F8
330
1F
100
AcDbEntity
  8
0
  6
Continuous
 62
     7
370
    25
100
AcDbLine
 10
6059.5229377762
 20
4139.9958818618
 30
0.0
 11
6059.5229377762
 21
4109.9958818618
 31
0.0
  0
LINE
  5
2F9
330
1F
100
AcDbEntity
  8
0
  6
Continuous
 62
     7
370
    25
100
AcDbLine
 10
6109.5229377762
 20
4109.9958818618
 30
0.0
 11
6109.5229377762
 21
4139.9958818618
 31
0.0
  0
ARC
  5
2FA
330
1F
100
AcDbEntity
  8
0
  6
Continuous
 62
     7
370
    25
100
AcDbCircle
 10
6978.1229377762
 20
4271.9958818618
 30
0.0
 40
3.99999999999945
100
AcDbArc
 50
270.0
 51
25.514208078
  0
ARC
  5
2FB
330
1F
100
AcDbEntity
  8
0
  6
Continuous
 62
     7
370
    25
100
AcDbCircle
 10
6978.1229377762
 20
4271.9958818618
 30
0.0
 40
4.000000000000764
100
AcDbArc
 50
154.4857919014
 51
270.0
  0
LINE
  5
2FC
330
1F
100
AcDbEntity
  8
0
  6
Continuous
 62
     7
370
    25
100
AcDbLine
 10
6992.1229377762
 20
4283.1958818618
 30
0.0
 11
6992.1229377762
 21
4286.9958818618
 31
0.0
  0
LINE
  5
2FD
330
1F
100
AcDbEntity
  8
0
  6
Continuous
 62
     7
370
    25
100
AcDbLine
 10
6942.1229377762
 20
4286.9958818618
 30
0.0
 11
6942.1229377762
 21
4283.1958818618
 31
0.0
  0
LINE
  5
2FE
330
1F
100
AcDbEntity
  8
0
  6
Continuous
 62
     7
370
    25
100
AcDbLine
 10
6992.1229377762
 20
4286.9958818618
 30
0.0
 11
6942.1229377762
 21
4286.9958818618
 31
0.0
  0
LINE
  5
2FF
330
1F
100
AcDbEntity
  8
0
  6
Continuous
 62
     7
370
    25
100
AcDbLine
 10
6996.4229377762
 20
4262.9958818618
 30
0.0
 11
6055.2229377762
 21
4262.9958818618
 31
0.0
  0
ARC
  5
300
330
1F
100
AcDbEntity
  8
0
  6
Continuous
 62
     7
370
    25
100
AcDbCircle
 10
6055.2229377762
 20
4261.9958818618
 30
0.0
 40
1.0
100
AcDbArc
 50
90.0
 51
180.0
  0
ARC
  5
301
330
1F
100
AcDbEntity
  8
0
  6
Continuous
 62
     7
370
    25
100
AcDbCircle
 10
6996.4229377762
 20
4261.9958818618
 30
0.0
 40
1.0
100
AcDbArc
 50
0.0
 51
90.0
  0
LINE
  5
302
330
1F
100
AcDbEntity
  8
0
  6
Continuous
 62
     7
370
    25
100
AcDbLine
 10
6054.2229377762
 20
4161.9958818618
 30
0.0
 11
6054.2229377762
 21
4261.9958818618
 31
0.0
  0
LINE
  5
303
330
1F
100
AcDbEntity
  8
0
  6
Continuous
 62
     7
370
    25
100
AcDbLine
 10
6997.4229377762
 20
4261.9958818618
 30
0.0
 11
6997.4229377762
 21
4161.9958818618
 31
0.0
  0
ARC
  5
304
330
1F
100
AcDbEntity
  8
0
  6
Continuous
 62
     7
370
    25
100
AcDbCircle
 10
6055.2229377762
 20
4161.9958818618
 30
0.0
 40
1.0
100
AcDbArc
 50
180.0
 51
270.0
  0
ARC
  5
305
330
1F
100
AcDbEntity
  8
0
  6
Continuous
 62
     7
370
    25
100
AcDbCircle
 10
6996.4229377762
 20
4161.9958818618
 30
0.0
 40
1.0
100
AcDbArc
 50
270.0
 51
0.0
  0
LINE
  5
306
330
1F
100
AcDbEntity
  8
0
  6
Continuous
 62
     7
370
    25
100
AcDbLine
 10
6996.4229377762
 20
4160.9958818618
 30
0.0
 11
6055.2229377762
 21
4160.9958818618
 31
0.0
  0
CIRCLE
  5
307
330
1F
100
AcDbEntity
  8
0
  6
Continuous
 62
     7
370
    25
100
AcDbCircle
 10
6525.8229377762
 20
4211.9958818618
 30
0.0
 40
40.0
  0
CIRCLE
  5
308
330
1F
100
AcDbEntity
  8
0
  6
Continuous
 62
     7
370
    25
100
AcDbCircle
 10
6525.8229377762
 20
4211.9958818618
 30
0.0
 40
35.20108727315801
  0
LINE
  5
309
330
1F
100
AcDbEntity
  8
0
  6
Continuous
 62
     7
370
    25
100
AcDbLine
 10
7028.1229377762
 20
4283.1958818618
 30
0.0
 11
6023.5229377762
 21
4283.1958818618
 31
0.0
  0
LINE
  5
30A
330
1F
100
AcDbEntity
  8
0
  6
Continuous
 62
     7
370
    25
100
AcDbLine
 10
7028.1229377762
 20
4140.7958818618
 30
0.0
 11
7028.1229377762
 21
4283.1958818618
 31
0.0
  0
LINE
  5
30B
330
1F
100
AcDbEntity
  8
0
  6
Continuous
 62
     7
370
    25
100
AcDbLine
 10
6023.5229377762
 20
4140.7958818618
 30
0.0
 11
7028.1229377762
 21
4140.7958818618
 31
0.0
  0
LINE
  5
30C
330
1F
100
AcDbEntity
  8
0
  6
Continuous
 62
     7
370
    25
100
AcDbLine
 10
6023.5229377762
 20
4283.1958818618
 30
0.0
 11
6023.5229377762
 21
4140.7958818618
 31
0.0
  0
CIRCLE
  5
30D
330
1F
100
AcDbEntity
  8
0
  6
Continuous
 62
     7
370
    25
100
AcDbCircle
 10
6978.1229377762
 20
4271.4758277473
 30
0.0
 40
4.25
  0
CIRCLE
  5
30E
330
1F
100
AcDbEntity
  8
0
  6
Continuous
 62
     7
370
    25
100
AcDbCircle
 10
6073.5229377762
 20
4271.4758277473
 30
0.0
 40
4.25
  0
LINE
  5
30F
330
1F
100
AcDbEntity
  8
0
  6
Continuous
 62
     7
370
    25
100
AcDbLine
 10
6083.5229377762
 20
4138.0153984105
 30
0.0
 11
6063.5229377762
 21
4138.0153984105
 31
0.0
  0
LINE
  5
310
330
1F
100
AcDbEntity
  8
0
  6
Continuous
 62
     7
370
    25
100
AcDbLine
 10
6083.5229377762
 20
4140.7958818618
 30
0.0
 11
6083.5229377762
 21
4138.0153984105
 31
0.0
  0
LINE
  5
311
330
1F
100
AcDbEntity
  8
0
  6
Continuous
 62
     7
370
    25
100
AcDbLine
 10
6063.5229377762
 20
4140.7958818618
 30
0.0
 11
6063.5229377762
 21
4138.0153984105
 31
0.0
  0
LINE
  5
312
330
1F
100
AcDbEntity
  8
0
  6
Continuous
 62
     7
370
    25
100
AcDbLine
 10
6968.1229377762
 20
4138.0153984105
 30
0.0
 11
6988.1229377762
 21
4138.0153984105
 31
0.0
  0
LINE
  5
313
330
1F
100
AcDbEntity
  8
0
  6
Continuous
 62
     7
370
    25
100
AcDbLine
 10
6968.1229377762
 20
4140.7958818618
 30
0.0
 11
6968.1229377762
 21
4138.0153984105
 31
0.0
  0
LINE
  5
314
330
1F
100
AcDbEntity
  8
0
  6
Continuous
 62
     7
370
    25
100
AcDbLine
 10
6988.1229377762
 20
4140.7958818618
 30
0.0
 11
6988.1229377762
 21
4138.0153984105
 31
0.0
  0
LINE
  5
315
330
1F
100
AcDbEntity
  8
0
  6
Continuous
 62
     7
370
    25
100
AcDbLine
 10
6978.1229377762
 20
4134.810836438
 30
0.0
 11
6969.6229377762
 21
4129.9033591499
 31
0.0
  0
LINE
  5
316
330
1F
100
AcDbEntity
  8
0
  6
Continuous
 62
     7
370
    25
100
AcDbLine
 10
6986.6229377762
 20
4129.9033591499
 30
0.0
 11
6978.1229377762
 21
4134.810836438
 31
0.0
  0
LINE
  5
317
330
1F
100
AcDbEntity
  8
0
  6
Continuous
 62
     7
370
    25
100
AcDbLine
 10
6986.6229377762
 20
4120.0884045737
 30
0.0
 11
6986.6229377762
 21
4129.9033591499
 31
0.0
  0
LINE
  5
318
330
1F
100
AcDbEntity
  8
0
  6
Continuous
 62
     7
370
    25
100
AcDbLine
 10
6978.1229377762
 20
4115.1809272856
 30
0.0
 11
6986.6229377762
 21
4120.0884045737
 31
0.0
  0
LINE
  5
319
330
1F
100
AcDbEntity
  8
0
  6
Continuous
 62
     7
370
    25
100
AcDbLine
 10
6969.6229377762
 20
4120.0884045737
 30
0.0
 11
6978.1229377762
 21
4115.1809272856
 31
0.0
  0
LINE
  5
31A
330
1F
100
AcDbEntity
  8
0
  6
Continuous
 62
     7
370
    25
100
AcDbLine
 10
6969.6229377762
 20
4129.9033591499
 30
0.0
 11
6969.6229377762
 21
4120.0884045737
 31
0.0
  0
LINE
  5
31B
330
1F
100
AcDbEntity
  8
0
  6
Continuous
 62
     7
370
    25
100
AcDbLine
 10
6082.0229377762
 20
4120.0884045737
 30
0.0
 11
6073.5229377762
 21
4115.1809272856
 31
0.0
  0
LINE
  5
31C
330
1F
100
AcDbEntity
  8
0
  6
Continuous
 62
     7
370
    25
100
AcDbLine
 10
6073.5229377762
 20
4115.1809272856
 30
0.0
 11
6065.0229377762
 21
4120.0884045737
 31
0.0
  0
LINE
  5
31D
330
1F
100
AcDbEntity
  8
0
  6
Continuous
 62
     7
370
    25
100
AcDbLine
 10
6065.0229377762
 20
4120.0884045737
 30
0.0
 11
6065.0229377762
 21
4129.9033591499
 31
0.0
  0
LINE
  5
31E
330
1F
100
AcDbEntity
  8
0
  6
Continuous
 62
     7
370
    25
100
AcDbLine
 10
6073.5229377762
 20
4134.810836438
 30
0.0
 11
6082.0229377762
 21
4129.9033591499
 31
0.0
  0
LINE
  5
31F
330
1F
100
AcDbEntity
  8
0
  6
Continuous
 62
     7
370
    25
100
AcDbLine
 10
6082.0229377762
 20
4129.9033591499
 30
0.0
 11
6082.0229377762
 21
4120.0884045737
 31
0.0
  0
LINE
  5
320
330
1F
100
AcDbEntity
  8
0
  6
Continuous
 62
     7
370
    25
100
AcDbLine
 10
6065.0229377762
 20
4129.9033591499
 30
0.0
 11
6073.5229377762
 21
4134.810836438
 31
0.0
  0
LINE
  5
321
330
1F
100
AcDbEntity
  8
0
  6
Continuous
 62
     7
370
    25
100
AcDbLine
 10
6083.5229377762
 20
4137.3540898491
 30
0.0
 11
6063.5229377762
 21
4137.3540898491
 31
0.0
  0
LINE
  5
322
330
1F
100
AcDbEntity
  8
0
  6
Continuous
 62
     7
370
    25
100
AcDbLine
 10
6083.5229377762
 20
4138.0153984105
 30
0.0
 11
6083.5229377762
 21
4137.3540898491
 31
0.0
  0
LINE
  5
323
330
1F
100
AcDbEntity
  8
0
  6
Continuous
 62
     7
370
    25
100
AcDbLine
 10
6063.5229377762
 20
4138.0153984105
 30
0.0
 11
6063.5229377762
 21
4137.3540898491
 31
0.0
  0
LINE
  5
324
330
1F
100
AcDbEntity
  8
0
  6
Continuous
 62
     7
370
    25
100
AcDbLine
 10
6968.1229377762
 20
4137.3540898491
 30
0.0
 11
6988.1229377762
 21
4137.3540898491
 31
0.0
  0
LINE
  5
325
330
1F
100
AcDbEntity
  8
0
  6
Continuous
 62
     7
370
    25
100
AcDbLine
 10
6968.1229377762
 20
4138.0153984105
 30
0.0
 11
6968.1229377762
 21
4137.3540898491
 31
0.0
  0
LINE
  5
326
330
1F
100
AcDbEntity
  8
0
  6
Continuous
 62
     7
370
    25
100
AcDbLine
 10
6988.1229377762
 20
4138.0153984105
 30
0.0
 11
6988.1229377762
 21
4137.3540898491
 31
0.0
  0
LINE
  5
327
330
1F
100
AcDbEntity
  8
0
  6
Continuous
 62
     7
370
    25
100
AcDbLine
 10
6980.1549149417
 20
4116.3540898491
 30
0.0
 11
6988.1229377762
 21
4116.3540898491
 31
0.0
  0
LINE
  5
328
330
1F
100
AcDbEntity
  8
0
  6
Continuous
 62
     7
370
    25
100
AcDbLine
 10
6968.1229377762
 20
4116.3540898491
 30
0.0
 11
6976.0909606107
 21
4116.3540898491
 31
0.0
  0
LINE
  5
329
330
1F
100
AcDbEntity
  8
0
  6
Continuous
 62
     7
370
    25
100
AcDbLine
 10
6968.1229377762
 20
4137.3540898491
 30
0.0
 11
6968.1229377762
 21
4116.3540898491
 31
0.0
  0
LINE
  5
32A
330
1F
100
AcDbEntity
  8
0
  6
Continuous
 62
     7
370
    25
100
AcDbLine
 10
6988.1229377762
 20
4137.3540898491
 30
0.0
 11
6988.1229377762
 21
4116.3540898491
 31
0.0
  0
LINE
  5
32B
330
1F
100
AcDbEntity
  8
0
  6
Continuous
 62
     7
370
    25
100
AcDbLine
 10
6083.5229377762
 20
4116.3540898491
 30
0.0
 11
6075.5549149417
 21
4116.3540898491
 31
0.0
  0
LINE
  5
32C
330
1F
100
AcDbEntity
  8
0
  6
Continuous
 62
     7
370
    25
100
AcDbLine
 10
6071.4909606107
 20
4116.3540898491
 30
0.0
 11
6063.5229377762
 21
4116.3540898491
 31
0.0
  0
LINE
  5
32D
330
1F
100
AcDbEntity
  8
0
  6
Continuous
 62
     7
370
    25
100
AcDbLine
 10
6083.5229377762
 20
4137.3540898491
 30
0.0
 11
6083.5229377762
 21
4116.3540898491
 31
0.0
  0
LINE
  5
32E
330
1F
100
AcDbEntity
  8
0
  6
Continuous
 62
     7
370
    25
100
AcDbLine
 10
6063.5229377762
 20
4137.3540898491
 30
0.0
 11
6063.5229377762
 21
4116.3540898491
 31
0.0
  0
LINE
  5
32F
330
1F
100
AcDbEntity
  8
0
  6
Continuous
 62
     8
370
    25
100
AcDbLine
 10
6507.7006595666
 20
4212.9986442927
 30
0.0
 11
6505.8035615722
 21
4213.1036166684
 31
0.0
  0
LINE
  5
330
330
1F
100
AcDbEntity
  8
0
  6
Continuous
 62
     8
370
    25
100
AcDbLine
 10
6543.9452159859
 20
4212.9986442927
 30
0.0
 11
6545.8423139802
 21
4213.1036166684
 31
0.0
  0
LINE
  5
331
330
1F
100
AcDbEntity
  8
0
  6
Continuous
 62
     8
370
    25
100
AcDbLine
 10
6507.750583198
 20
4212.9458818618
 30
0.0
 11
6507.750583198
 21
4211.0458818618
 31
0.0
  0
LINE
  5
332
330
1F
100
AcDbEntity
  8
0
  6
Continuous
 62
     8
370
    25
100
AcDbLine
 10
6543.8952923544
 20
4212.9458818618
 30
0.0
 11
6543.8952923544
 21
4211.0458818618
 31
0.0
  0
LINE
  5
333
330
1F
100
AcDbEntity
  8
0
  6
Continuous
 62
     8
370
    25
100
AcDbLine
 10
6507.2229377762
 20
4209.1958818618
 30
0.0
 11
6507.2229377762
 21
4211.1186258034
 31
0.0
  0
LINE
  5
334
330
1F
100
AcDbEntity
  8
0
  6
Continuous
 62
     8
370
    25
100
AcDbLine
 10
6507.9229377762
 20
4214.7958818618
 30
0.0
 11
6507.8902162873
 21
4214.7958818618
 31
0.0
  0
LINE
  5
335
330
1F
100
AcDbEntity
  8
0
  6
Continuous
 62
     8
370
    25
100
AcDbLine
 10
6543.7222565476
 20
4214.7958818618
 30
0.0
 11
6543.7556592652
 21
4214.7958818618
 31
0.0
  0
LINE
  5
336
330
1F
100
AcDbEntity
  8
0
  6
Continuous
 62
     8
370
    25
100
AcDbLine
 10
6544.4222565476
 20
4211.118434462
 30
0.0
 11
6544.4222565476
 21
4209.1958818618
 31
0.0
  0
LWPOLYLINE
  5
337
330
1F
100
AcDbEntity
  8
0
  6
Continuous
 62
     8
370
    25
100
AcDbPolyline
 90
        3
 70
   128
 43
0.0
 10
6508.6229377762
 20
4216.1958818618
 10
6508.3498113254
 20
4216.1689812544
 10
6508.1458515367
 20
4216.1120842475
  0
LWPOLYLINE
  5
338
330
1F
100
AcDbEntity
  8
0
  6
Continuous
 62
     8
370
    25
100
AcDbPolyline
 90
        3
 70
   128
 43
0.0
 10
6543.5000868724
 20
4216.1118142996
 10
6543.2953829985
 20
4216.1689812544
 10
6543.0222565476
 20
4216.1958818618
  0
LINE
  5
339
330
1F
100
AcDbEntity
  8
0
  6
Continuous
 62
     8
370
    25
100
AcDbLine
 10
6509.1172203669
 20
4223.0828790134
 30
0.0
 11
6509.0572438102
 21
4223.0828790134
 31
0.0
  0
LINE
  5
33A
330
1F
100
AcDbEntity
  8
0
  6
Continuous
 62
     8
370
    25
100
AcDbLine
 10
6509.0572438102
 20
4200.9088847102
 30
0.0
 11
6509.2373719384
 21
4200.9088847102
 31
0.0
  0
LINE
  5
33B
330
1F
100
AcDbEntity
  8
0
  6
Continuous
 62
     8
370
    25
100
AcDbLine
 10
6508.6105211813
 20
4201.9094942545
 30
0.0
 11
6508.4368863258
 21
4201.9094942545
 31
0.0
  0
LINE
  5
33C
330
1F
100
AcDbEntity
  8
0
  6
Continuous
 62
     8
370
    25
100
AcDbLine
 10
6508.4368863258
 20
4222.0822694691
 30
0.0
 11
6508.494715564
 21
4222.0822694691
 31
0.0
  0
LINE
  5
33D
330
1F
100
AcDbEntity
  8
0
  6
Continuous
 62
     8
370
    25
100
AcDbLine
 10
6509.3986096194
 20
4223.5825744269
 30
0.0
 11
6509.4598373548
 21
4223.5825744269
 31
0.0
  0
LINE
  5
33E
330
1F
100
AcDbEntity
  8
0
  6
Continuous
 62
     8
370
    25
100
AcDbLine
 10
6509.5825235142
 20
4200.4091892967
 30
0.0
 11
6509.3986096194
 21
4200.4091892967
 31
0.0
  0
LINE
  5
33F
330
1F
100
AcDbEntity
  8
0
  6
Continuous
 62
     8
370
    25
100
AcDbLine
 10
6511.0242895588
 20
4225.5237239269
 30
0.0
 11
6510.9566171466
 21
4225.5237239269
 31
0.0
  0
LINE
  5
340
330
1F
100
AcDbEntity
  8
0
  6
Continuous
 62
     8
370
    25
100
AcDbLine
 10
6519.0190649253
 20
4222.6675564635
 30
0.0
 11
6517.9284115269
 21
4223.7582098619
 31
0.0
  0
LINE
  5
341
330
1F
100
AcDbEntity
  8
0
  6
Continuous
 62
     8
370
    25
100
AcDbLine
 10
6517.9284115269
 20
4200.2335538617
 30
0.0
 11
6519.0104240433
 21
4201.315566378
 31
0.0
  0
LINE
  5
342
330
1F
100
AcDbEntity
  8
0
  6
Continuous
 62
     8
370
    25
100
AcDbLine
 10
6510.9566171466
 20
4198.4680397967
 30
0.0
 11
6511.1600598506
 21
4198.4680397967
 31
0.0
  0
LWPOLYLINE
  5
343
330
1F
100
AcDbEntity
  8
0
  6
Continuous
 62
     8
370
    25
100
AcDbPolyline
 90
        3
 70
   128
 43
0.0
 10
6518.1325840583
 20
4226.1649943462
 10
6518.7581197087
 20
4225.7005459019
 10
6519.3417635886
 20
4225.1715619236
  0
LINE
  5
344
330
1F
100
AcDbEntity
  8
0
  6
Continuous
 62
     8
370
    25
100
AcDbLine
 10
6513.0583791906
 20
4227.5225055809
 30
0.0
 11
6513.1372586109
 21
4227.5225055809
 31
0.0
  0
LINE
  5
345
330
1F
100
AcDbEntity
  8
0
  6
Continuous
 62
     8
370
    25
100
AcDbLine
 10
6522.3733384912
 20
4219.8894283273
 30
0.0
 11
6523.498617838
 21
4221.0147076741
 31
0.0
  0
LINE
  5
346
330
1F
100
AcDbEntity
  8
0
  6
Continuous
 62
     8
370
    25
100
AcDbLine
 10
6525.8495614953
 20
4215.3390276123
 30
0.0
 11
6524.7111132917
 21
4215.3390276123
 31
0.0
  0
LINE
  5
347
330
1F
100
AcDbEntity
  8
0
  6
Continuous
 62
     8
370
    25
100
AcDbLine
 10
6525.8495614953
 20
4208.6527361113
 30
0.0
 11
6524.697165158
 21
4208.6527361113
 31
0.0
  0
LINE
  5
348
330
1F
100
AcDbEntity
  8
0
  6
Continuous
 62
     8
370
    25
100
AcDbLine
 10
6523.498617838
 20
4202.9770560495
 30
0.0
 11
6522.2930086487
 21
4204.1826652388
 31
0.0
  0
ARC
  5
349
330
1F
100
AcDbEntity
  8
0
  6
Continuous
 62
     8
370
    25
100
AcDbCircle
 10
6513.6660835267
 20
4204.4958818618
 30
0.0
 40
8.026623719119183
100
AcDbArc
 50
303.715507283
 51
315.0
  0
LINE
  5
34A
330
1F
100
AcDbEntity
  8
0
  6
Continuous
 62
     8
370
    25
100
AcDbLine
 10
6513.2959087635
 20
4196.4692581427
 30
0.0
 11
6513.0583791906
 21
4196.4692581427
 31
0.0
  0
LINE
  5
34B
330
1F
100
AcDbEntity
  8
0
  6
Continuous
 62
     8
370
    25
100
AcDbLine
 10
6996.4229377762
 20
4262.9958818618
 30
0.0
 11
6996.4229377762
 21
4266.3958818618
 31
0.0
  0
LINE
  5
34C
330
1F
100
AcDbEntity
  8
0
  6
Continuous
 62
     8
370
    25
100
AcDbLine
 10
6055.2229377762
 20
4262.9958818618
 30
0.0
 11
6055.2229377762
 21
4266.3958808779
 31
0.0
  0
LINE
  5
34D
330
1F
100
AcDbEntity
  8
0
  6
Continuous
 62
     8
370
    25
100
AcDbLine
 10
6054.2229377762
 20
4261.9958818618
 30
0.0
 11
6050.8229377762
 21
4261.9958818618
 31
0.0
  0
LINE
  5
34E
330
1F
100
AcDbEntity
  8
0
  6
Continuous
 62
     8
370
    25
100
AcDbLine
 10
6997.4229377762
 20
4261.9958818618
 30
0.0
 11
7000.8229377762
 21
4261.9958818618
 31
0.0
  0
LINE
  5
34F
330
1F
100
AcDbEntity
  8
0
  6
Continuous
 62
     8
370
    25
100
AcDbLine
 10
6054.2229377762
 20
4161.9958818618
 30
0.0
 11
6050.8229377762
 21
4161.9958818618
 31
0.0
  0
LINE
  5
350
330
1F
100
AcDbEntity
  8
0
  6
Continuous
 62
     8
370
    25
100
AcDbLine
 10
6997.4229377762
 20
4161.9958818618
 30
0.0
 11
7000.8229377762
 21
4161.9958818618
 31
0.0
  0
LINE
  5
351
330
1F
100
AcDbEntity
  8
0
  6
Continuous
 62
     8
370
    25
100
AcDbLine
 10
6055.2229377762
 20
4160.9958818618
 30
0.0
 11
6055.2229377762
 21
4157.5958818618
 31
0.0
  0
LINE
  5
352
330
1F
100
AcDbEntity
  8
0
  6
Continuous
 62
     8
370
    25
100
AcDbLine
 10
6996.4229377762
 20
4160.9958818618
 30
0.0
 11
6996.4229377762
 21
4157.5958818618
 31
0.0
  0
ENDSEC
  0
SECTION
  2
OBJECTS
  0
DICTIONARY
  5
C
330
0
100
AcDbDictionary
281
     1
  3
ACAD_GROUP
350
D
  3
ACAD_LAYOUT
350
1A
  3
ACAD_MLINESTYLE
350
17
  3
ACAD_PLOTSETTINGS
350
19
  3
ACAD_PLOTSTYLENAME
350
E
  3
ACAD_SCALELIST
350
47
  3
DWGPROPS
350
353
  0
DICTIONARY
  5
D
102
{ACAD_REACTORS
330
C
102
}
330
C
100
AcDbDictionary
281
     1
  0
DICTIONARY
  5
1A
102
{ACAD_REACTORS
330
C
102
}
330
C
100
AcDbDictionary
281
     1
  3
Layout1
350
1E
  3
Layout2
350
26
  3
Model
350
22
  0
DICTIONARY
  5
17
102
{ACAD_REACTORS
330
C
102
}
330
C
100
AcDbDictionary
281
     1
  3
Standard
350
18
  0
DICTIONARY
  5
19
102
{ACAD_REACTORS
330
C
102
}
330
C
100
AcDbDictionary
281
     1
  0
ACDBDICTIONARYWDFLT
  5
E
102
{ACAD_REACTORS
330
C
102
}
330
C
100
AcDbDictionary
281
     1
  3
Normal
350
F
100
AcDbDictionaryWithDefault
340
F
  0
DICTIONARY
  5
47
102
{ACAD_REACTORS
330
C
102
}
330
C
100
AcDbDictionary
281
     1
  3
A0
350
48
  3
A1
350
49
  3
A2
350
4A
  3
A3
350
4B
  3
A4
350
4C
  3
A5
350
4D
  3
A6
350
4E
  3
A7
350
4F
  3
A8
350
50
  3
A9
350
51
  3
B0
350
52
  3
B1
350
53
  3
B2
350
54
  3
B3
350
55
  3
B4
350
56
  3
B5
350
57
  3
B6
350
58
  3
B7
350
59
  3
B8
350
5A
  3
B9
350
5B
  3
C0
350
5C
  3
C1
350
5D
  3
C2
350
5E
  3
C3
350
5F
  3
C4
350
60
  3
C5
350
61
  3
C6
350
62
  3
C7
350
63
  3
C8
350
64
  3
C9
350
65
  3
D0
350
66
  3
D1
350
67
  3
D2
350
68
  0
XRECORD
  5
353
102
{ACAD_REACTORS
330
C
102
}
330
C
100
AcDbXrecord
280
     1
  1
DWGPROPS COOKIE
  2

  3

  4

  6

  7

  8
radek.stransky
  9

300
=
301
=
302
=
303
=
304
=
305
=
306
=
307
=
308
=
309
=
 40
0.0
 41
2459157.409961771
 42
2459157.409962002
  1

 90
        0
  0
LAYOUT
  5
1E
102
{ACAD_REACTORS
330
1A
102
}
330
1A
100
AcDbPlotSettings
  1

  2
none_device
  4

  6

 40
0.0
 41
0.0
 42
0.0
 43
0.0
 44
0.0
 45
0.0
 46
0.0
 47
0.0
 48
0.0
 49
0.0
140
0.0
141
0.0
142
1.0
143
1.0
 70
   688
 72
     1
 73
     0
 74
     5
  7

 75
    16
147
1.0
148
0.0
149
0.0
100
AcDbLayout
  1
Layout1
 70
     1
 71
     1
 10
0.0
 20
0.0
 11
420.0
 21
297.0
 12
0.0
 22
0.0
 32
0.0
 14
1.0000000000E+20
 24
1.0000000000E+20
 34
1.0000000000E+20
 15
-1.0000000000E+20
 25
-1.0000000000E+20
 35
-1.0000000000E+20
146
0.0
 13
0.0
 23
0.0
 33
0.0
 16
1.0
 26
0.0
 36
0.0
 17
0.0
 27
1.0
 37
0.0
 76
     0
330
1B
  0
LAYOUT
  5
26
102
{ACAD_REACTORS
330
1A
102
}
330
1A
100
AcDbPlotSettings
  1

  2
none_device
  4

  6

 40
0.0
 41
0.0
 42
0.0
 43
0.0
 44
0.0
 45
0.0
 46
0.0
 47
0.0
 48
0.0
 49
0.0
140
0.0
141
0.0
142
1.0
143
1.0
 70
   688
 72
     1
 73
     0
 74
     5
  7

 75
    16
147
1.0
148
0.0
149
0.0
100
AcDbLayout
  1
Layout2
 70
     1
 71
     2
 10
0.0
 20
0.0
 11
0.0
 21
0.0
 12
0.0
 22
0.0
 32
0.0
 14
0.0
 24
0.0
 34
0.0
 15
0.0
 25
0.0
 35
0.0
146
0.0
 13
0.0
 23
0.0
 33
0.0
 16
1.0
 26
0.0
 36
0.0
 17
0.0
 27
1.0
 37
0.0
 76
     0
330
23
  0
LAYOUT
  5
22
102
{ACAD_REACTORS
330
1A
102
}
330
1A
100
AcDbPlotSettings
  1

  2
none_device
  4
Letter_(8.50_x_11.00_Inches)
  6

 40
6.35
 41
6.35
 42
6.35000508
 43
6.35000508
 44
215.9
 45
279.4
 46
0.0
 47
0.0
 48
0.0
 49
0.0
140
0.0
141
0.0
142
1.0
143
1.0
 70
  1712
 72
     1
 73
     0
 74
     0
  7

 75
     0
147
1.0
148
0.0
149
0.0
100
AcDbLayout
  1
Model
 70
     1
 71
     0
 10
0.0
 20
0.0
 11
20000.0
 21
10000.0
 12
0.0
 22
0.0
 32
0.0
 14
0.0
 24
0.0
 34
0.0
 15
20000.0
 25
10000.0
 35
0.0
146
0.0
 13
0.0
 23
0.0
 33
0.0
 16
1.0
 26
0.0
 36
0.0
 17
0.0
 27
1.0
 37
0.0
 76
     0
330
1F
331
29
  0
MLINESTYLE
  5
18
102
{ACAD_REACTORS
330
17
102
}
330
17
100
AcDbMlineStyle
  2
Standard
 70
     0
  3

 62
   256
 51
90.0
 52
90.0
 71
     2
 49
0.5
 62
   256
  6
BYLAYER
 49
-0.5
 62
   256
  6
BYLAYER
  0
ACDBPLACEHOLDER
  5
F
102
{ACAD_REACTORS
330
E
102
}
330
E
  0
SCALE
  5
48
102
{ACAD_REACTORS
330
47
102
}
330
47
100
AcDbScale
 70
     0
300
1:1
140
1.0
141
1.0
290
     1
  0
SCALE
  5
49
102
{ACAD_REACTORS
330
47
102
}
330
47
100
AcDbScale
 70
     0
300
1:2
140
1.0
141
2.0
290
     0
  0
SCALE
  5
4A
102
{ACAD_REACTORS
330
47
102
}
330
47
100
AcDbScale
 70
     0
300
1:4
140
1.0
141
4.0
290
     0
  0
SCALE
  5
4B
102
{ACAD_REACTORS
330
47
102
}
330
47
100
AcDbScale
 70
     0
300
1:5
140
1.0
141
5.0
290
     0
  0
SCALE
  5
4C
102
{ACAD_REACTORS
330
47
102
}
330
47
100
AcDbScale
 70
     0
300
1:8
140
1.0
141
8.0
290
     0
  0
SCALE
  5
4D
102
{ACAD_REACTORS
330
47
102
}
330
47
100
AcDbScale
 70
     0
300
1:10
140
1.0
141
10.0
290
     0
  0
SCALE
  5
4E
102
{ACAD_REACTORS
330
47
102
}
330
47
100
AcDbScale
 70
     0
300
1:16
140
1.0
141
16.0
290
     0
  0
SCALE
  5
4F
102
{ACAD_REACTORS
330
47
102
}
330
47
100
AcDbScale
 70
     0
300
1:20
140
1.0
141
20.0
290
     0
  0
SCALE
  5
50
102
{ACAD_REACTORS
330
47
102
}
330
47
100
AcDbScale
 70
     0
300
1:30
140
1.0
141
30.0
290
     0
  0
SCALE
  5
51
102
{ACAD_REACTORS
330
47
102
}
330
47
100
AcDbScale
 70
     0
300
1:40
140
1.0
141
40.0
290
     0
  0
SCALE
  5
52
102
{ACAD_REACTORS
330
47
102
}
330
47
100
AcDbScale
 70
     0
300
1:50
140
1.0
141
50.0
290
     0
  0
SCALE
  5
53
102
{ACAD_REACTORS
330
47
102
}
330
47
100
AcDbScale
 70
     0
300
1:100
140
1.0
141
100.0
290
     0
  0
SCALE
  5
54
102
{ACAD_REACTORS
330
47
102
}
330
47
100
AcDbScale
 70
     0
300
2:1
140
2.0
141
1.0
290
     0
  0
SCALE
  5
55
102
{ACAD_REACTORS
330
47
102
}
330
47
100
AcDbScale
 70
     0
300
4:1
140
4.0
141
1.0
290
     0
  0
SCALE
  5
56
102
{ACAD_REACTORS
330
47
102
}
330
47
100
AcDbScale
 70
     0
300
8:1
140
8.0
141
1.0
290
     0
  0
SCALE
  5
57
102
{ACAD_REACTORS
330
47
102
}
330
47
100
AcDbScale
 70
     0
300
10:1
140
10.0
141
1.0
290
     0
  0
SCALE
  5
58
102
{ACAD_REACTORS
330
47
102
}
330
47
100
AcDbScale
 70
     0
300
100:1
140
100.0
141
1.0
290
     0
  0
SCALE
  5
59
102
{ACAD_REACTORS
330
47
102
}
330
47
100
AcDbScale
 70
     0
300
1/128" = 1'-0"
140
0.0078125
141
12.0
290
     0
  0
SCALE
  5
5A
102
{ACAD_REACTORS
330
47
102
}
330
47
100
AcDbScale
 70
     0
300
1/64" = 1'-0"
140
0.015625
141
12.0
290
     0
  0
SCALE
  5
5B
102
{ACAD_REACTORS
330
47
102
}
330
47
100
AcDbScale
 70
     0
300
1/32" = 1'-0"
140
0.03125
141
12.0
290
     0
  0
SCALE
  5
5C
102
{ACAD_REACTORS
330
47
102
}
330
47
100
AcDbScale
 70
     0
300
1/16" = 1'-0"
140
0.0625
141
12.0
290
     0
  0
SCALE
  5
5D
102
{ACAD_REACTORS
330
47
102
}
330
47
100
AcDbScale
 70
     0
300
3/32" = 1'-0"
140
0.09375
141
12.0
290
     0
  0
SCALE
  5
5E
102
{ACAD_REACTORS
330
47
102
}
330
47
100
AcDbScale
 70
     0
300
1/8" = 1'-0"
140
0.125
141
12.0
290
     0
  0
SCALE
  5
5F
102
{ACAD_REACTORS
330
47
102
}
330
47
100
AcDbScale
 70
     0
300
3/16" = 1'-0"
140
0.1875
141
12.0
290
     0
  0
SCALE
  5
60
102
{ACAD_REACTORS
330
47
102
}
330
47
100
AcDbScale
 70
     0
300
1/4" = 1'-0"
140
0.25
141
12.0
290
     0
  0
SCALE
  5
61
102
{ACAD_REACTORS
330
47
102
}
330
47
100
AcDbScale
 70
     0
300
3/8" = 1'-0"
140
0.375
141
12.0
290
     0
  0
SCALE
  5
62
102
{ACAD_REACTORS
330
47
102
}
330
47
100
AcDbScale
 70
     0
300
1/2" = 1'-0"
140
0.5
141
12.0
290
     0
  0
SCALE
  5
63
102
{ACAD_REACTORS
330
47
102
}
330
47
100
AcDbScale
 70
     0
300
3/4" = 1'-0"
140
0.75
141
12.0
290
     0
  0
SCALE
  5
64
102
{ACAD_REACTORS
330
47
102
}
330
47
100
AcDbScale
 70
     0
300
1" = 1'-0"
140
1.0
141
12.0
290
     0
  0
SCALE
  5
65
102
{ACAD_REACTORS
330
47
102
}
330
47
100
AcDbScale
 70
     0
300
1-1/2" = 1'-0"
140
1.5
141
12.0
290
     0
  0
SCALE
  5
66
102
{ACAD_REACTORS
330
47
102
}
330
47
100
AcDbScale
 70
     0
300
3" = 1'-0"
140
3.0
141
12.0
290
     0
  0
SCALE
  5
67
102
{ACAD_REACTORS
330
47
102
}
330
47
100
AcDbScale
 70
     0
300
6" = 1'-0"
140
6.0
141
12.0
290
     0
  0
SCALE
  5
68
102
{ACAD_REACTORS
330
47
102
}
330
47
100
AcDbScale
 70
     0
300
1'-0" = 1'-0"
140
12.0
141
12.0
290
     0
  0
ENDSEC
  0
EOF
