  0
SECTION
  2
HEADER
  9
$ACADVER
  1
AC1015
  9
$ACADMAINTVER
 70
     6
  9
$DWGCODEPAGE
  3
ANSI_1250
  9
$INSBASE
 10
0.0
 20
0.0
 30
0.0
  9
$EXTMIN
 10
0.0
 20
0.0
 30
0.0
  9
$EXTMAX
 10
20000.0
 20
10000.0
 30
0.0
  9
$LIMMIN
 10
0.0
 20
0.0
  9
$LIMMAX
 10
20000.0
 20
10000.0
  9
$ORTHOMODE
 70
     0
  9
$REGENMODE
 70
     1
  9
$FILLMODE
 70
     1
  9
$QTEXTMODE
 70
     0
  9
$MIRRTEXT
 70
     1
  9
$LTSCALE
 40
1.0
  9
$ATTMODE
 70
     1
  9
$TEXTSIZE
 40
2.0
  9
$TRACEWID
 40
1.0
  9
$TEXTSTYLE
  7
Standard
  9
$CLAYER
  8
0
  9
$CELTYPE
  6
ByLayer
  9
$CECOLOR
 62
   256
  9
$CELTSCALE
 40
1.0
  9
$DISPSILH
 70
     0
  9
$DIMSCALE
 40
1.0
  9
$DIMASZ
 40
2.0
  9
$DIMEXO
 40
1.0
  9
$DIMDLI
 40
3.75
  9
$DIMRND
 40
0.0
  9
$DIMDLE
 40
0.0
  9
$DIMEXE
 40
1.0
  9
$DIMTP
 40
0.0
  9
$DIMTM
 40
0.0
  9
$DIMTXT
 40
2.0
  9
$DIMCEN
 40
2.5
  9
$DIMTSZ
 40
0.0
  9
$DIMTOL
 70
     0
  9
$DIMLIM
 70
     0
  9
$DIMTIH
 70
     1
  9
$DIMTOH
 70
     1
  9
$DIMSE1
 70
     0
  9
$DIMSE2
 70
     0
  9
$DIMTAD
 70
     1
  9
$DIMZIN
 70
     0
  9
$DIMBLK
  1

  9
$DIMASO
 70
     1
  9
$DIMSHO
 70
     1
  9
$DIMPOST
  1

  9
$DIMAPOST
  1

  9
$DIMALT
 70
     0
  9
$DIMALTD
 70
     3
  9
$DIMALTF
 40
0.0393700787
  9
$DIMLFAC
 40
1.0
  9
$DIMTOFL
 70
     1
  9
$DIMTVP
 40
0.0
  9
$DIMTIX
 70
     0
  9
$DIMSOXD
 70
     0
  9
$DIMSAH
 70
     0
  9
$DIMBLK1
  1

  9
$DIMBLK2
  1

  9
$DIMSTYLE
  2
ISO-25
  9
$DIMCLRD
 70
     0
  9
$DIMCLRE
 70
     0
  9
$DIMCLRT
 70
     0
  9
$DIMTFAC
 40
1.0
  9
$DIMGAP
 40
1.524
  9
$DIMJUST
 70
     0
  9
$DIMSD1
 70
     0
  9
$DIMSD2
 70
     0
  9
$DIMTOLJ
 70
     0
  9
$DIMTZIN
 70
     0
  9
$DIMALTZ
 70
     0
  9
$DIMALTTZ
 70
     0
  9
$DIMUPT
 70
     0
  9
$DIMDEC
 70
     2
  9
$DIMTDEC
 70
     0
  9
$DIMALTU
 70
     2
  9
$DIMALTTD
 70
     3
  9
$DIMTXSTY
  7
Standard
  9
$DIMAUNIT
 70
     0
  9
$DIMADEC
 70
     2
  9
$DIMALTRND
 40
0.0
  9
$DIMAZIN
 70
     0
  9
$DIMDSEP
 70
    44
  9
$DIMATFIT
 70
     3
  9
$DIMFRAC
 70
     0
  9
$DIMLDRBLK
  1

  9
$DIMLUNIT
 70
     2
  9
$DIMLWD
 70
    -2
  9
$DIMLWE
 70
    -2
  9
$DIMTMOVE
 70
     0
  9
$LUNITS
 70
     2
  9
$LUPREC
 70
     3
  9
$SKETCHINC
 40
1.0
  9
$FILLETRAD
 40
10.0
  9
$AUNITS
 70
     0
  9
$AUPREC
 70
     2
  9
$MENU
  1
.
  9
$ELEVATION
 40
0.0
  9
$PELEVATION
 40
0.0
  9
$THICKNESS
 40
0.0
  9
$LIMCHECK
 70
     0
  9
$CHAMFERA
 40
0.0
  9
$CHAMFERB
 40
0.0
  9
$CHAMFERC
 40
0.0
  9
$CHAMFERD
 40
0.0
  9
$SKPOLY
 70
     0
  9
$TDCREATE
 40
2459136.569995926
  9
$TDUCREATE
 40
2459136.486662593
  9
$TDUPDATE
 40
2459136.569996354
  9
$TDUUPDATE
 40
2459136.486663021
  9
$TDINDWG
 40
0.0000000116
  9
$TDUSRTIMER
 40
0.0000000116
  9
$USRTIMER
 70
     1
  9
$ANGBASE
 50
0.0
  9
$ANGDIR
 70
     0
  9
$PDMODE
 70
     0
  9
$PDSIZE
 40
-1.0
  9
$PLINEWID
 40
0.0
  9
$SPLFRAME
 70
     0
  9
$SPLINETYPE
 70
     6
  9
$SPLINESEGS
 70
     8
  9
$HANDSEED
  5
379
  9
$SURFTAB1
 70
     6
  9
$SURFTAB2
 70
     6
  9
$SURFTYPE
 70
     6
  9
$SURFU
 70
     6
  9
$SURFV
 70
     6
  9
$UCSBASE
  2

  9
$UCSNAME
  2

  9
$UCSORG
 10
0.0
 20
0.0
 30
0.0
  9
$UCSXDIR
 10
1.0
 20
0.0
 30
0.0
  9
$UCSYDIR
 10
0.0
 20
1.0
 30
0.0
  9
$UCSORTHOREF
  2

  9
$UCSORTHOVIEW
 70
     0
  9
$UCSORGTOP
 10
0.0
 20
0.0
 30
0.0
  9
$UCSORGBOTTOM
 10
0.0
 20
0.0
 30
0.0
  9
$UCSORGLEFT
 10
0.0
 20
0.0
 30
0.0
  9
$UCSORGRIGHT
 10
0.0
 20
0.0
 30
0.0
  9
$UCSORGFRONT
 10
0.0
 20
0.0
 30
0.0
  9
$UCSORGBACK
 10
0.0
 20
0.0
 30
0.0
  9
$PUCSBASE
  2

  9
$PUCSNAME
  2

  9
$PUCSORG
 10
0.0
 20
0.0
 30
0.0
  9
$PUCSXDIR
 10
1.0
 20
0.0
 30
0.0
  9
$PUCSYDIR
 10
0.0
 20
1.0
 30
0.0
  9
$PUCSORTHOREF
  2

  9
$PUCSORTHOVIEW
 70
     0
  9
$PUCSORGTOP
 10
0.0
 20
0.0
 30
0.0
  9
$PUCSORGBOTTOM
 10
0.0
 20
0.0
 30
0.0
  9
$PUCSORGLEFT
 10
0.0
 20
0.0
 30
0.0
  9
$PUCSORGRIGHT
 10
0.0
 20
0.0
 30
0.0
  9
$PUCSORGFRONT
 10
0.0
 20
0.0
 30
0.0
  9
$PUCSORGBACK
 10
0.0
 20
0.0
 30
0.0
  9
$USERI1
 70
     0
  9
$USERI2
 70
     0
  9
$USERI3
 70
     0
  9
$USERI4
 70
     0
  9
$USERI5
 70
     0
  9
$USERR1
 40
0.0
  9
$USERR2
 40
0.0
  9
$USERR3
 40
0.0
  9
$USERR4
 40
0.0
  9
$USERR5
 40
0.0
  9
$WORLDVIEW
 70
     1
  9
$SHADEDGE
 70
     3
  9
$SHADEDIF
 70
    70
  9
$TILEMODE
 70
     1
  9
$MAXACTVP
 70
    64
  9
$PINSBASE
 10
0.0
 20
0.0
 30
0.0
  9
$PLIMCHECK
 70
     0
  9
$PEXTMIN
 10
1.0000000000E+20
 20
1.0000000000E+20
 30
1.0000000000E+20
  9
$PEXTMAX
 10
-1.0000000000E+20
 20
-1.0000000000E+20
 30
-1.0000000000E+20
  9
$PLIMMIN
 10
0.0
 20
0.0
  9
$PLIMMAX
 10
420.0
 20
297.0
  9
$UNITMODE
 70
     0
  9
$VISRETAIN
 70
     1
  9
$PLINEGEN
 70
     0
  9
$PSLTSCALE
 70
     1
  9
$TREEDEPTH
 70
  3020
  9
$CMLSTYLE
  2
Standard
  9
$CMLJUST
 70
     0
  9
$CMLSCALE
 40
20.0
  9
$PROXYGRAPHICS
 70
     1
  9
$MEASUREMENT
 70
     1
  9
$CELWEIGHT
370
    -1
  9
$ENDCAPS
280
     0
  9
$JOINSTYLE
280
     0
  9
$LWDISPLAY
290
     1
  9
$INSUNITS
 70
     4
  9
$HYPERLINKBASE
  1

  9
$STYLESHEET
  1

  9
$XEDIT
290
     1
  9
$CEPSNTYPE
380
     0
  9
$PSTYLEMODE
290
     1
  9
$FINGERPRINTGUID
  2
{06fc9add-92ad-4e2b-afb1-da873db55ade}
  9
$VERSIONGUID
  2
{FAEB1C32-E019-11D5-929B-00C0DF256EC4}
  9
$EXTNAMES
290
     1
  9
$PSVPSCALE
 40
0.0
  9
$OLESTARTUP
290
     0
  0
ENDSEC
  0
SECTION
  2
CLASSES
  0
CLASS
  1
ACDBDICTIONARYWDFLT
  2
AcDbDictionaryWithDefault
  3
ObjectDBX Classes
 90
        0
280
     0
281
     0
  0
CLASS
  1
VISUALSTYLE
  2
AcDbVisualStyle
  3
ObjectDBX Classes
 90
     4095
280
     0
281
     0
  0
CLASS
  1
MATERIAL
  2
AcDbMaterial
  3
ObjectDBX Classes
 90
     1153
280
     0
281
     0
  0
CLASS
  1
SCALE
  2
AcDbScale
  3
ObjectDBX Classes
 90
     1153
280
     0
281
     0
  0
CLASS
  1
TABLESTYLE
  2
AcDbTableStyle
  3
ObjectDBX Classes
 90
     4095
280
     0
281
     0
  0
CLASS
  1
MLEADERSTYLE
  2
AcDbMLeaderStyle
  3
ACDB_MLEADERSTYLE_CLASS
 90
     4095
280
     0
281
     0
  0
CLASS
  1
SUN
  2
AcDbSun
  3
SCENEOE
 90
     1153
280
     0
281
     0
  0
CLASS
  1
ACDBPLACEHOLDER
  2
AcDbPlaceHolder
  3
ObjectDBX Classes
 90
        0
280
     0
281
     0
  0
CLASS
  1
LAYOUT
  2
AcDbLayout
  3
ObjectDBX Classes
 90
        0
280
     0
281
     0
  0
ENDSEC
  0
SECTION
  2
TABLES
  0
TABLE
  2
VPORT
  5
8
330
0
100
AcDbSymbolTable
 70
     1
  0
VPORT
  5
29
330
8
100
AcDbSymbolTableRecord
100
AcDbViewportTableRecord
  2
*Active
 70
     0
 10
0.0
 20
0.0
 11
1.0
 21
1.0
 12
10000.0
 22
5000.0
 13
0.0
 23
0.0
 14
10.0
 24
10.0
 15
10.0
 25
10.0
 16
0.0
 26
0.0
 36
1.0
 17
0.0
 27
0.0
 37
0.0
 40
10000.0
 41
2.0
 42
50.0
 43
0.0
 44
0.0
 50
0.0
 51
0.0
 71
     0
 72
  2000
 73
     1
 74
     3
 75
     0
 76
     0
 77
     0
 78
     0
281
     0
 65
     1
110
0.0
120
0.0
130
0.0
111
1.0
121
0.0
131
0.0
112
0.0
122
1.0
132
0.0
 79
     0
146
0.0
  0
ENDTAB
  0
TABLE
  2
LTYPE
  5
5
330
0
100
AcDbSymbolTable
 70
     6
  0
LTYPE
  5
14
330
5
100
AcDbSymbolTableRecord
100
AcDbLinetypeTableRecord
  2
ByBlock
 70
     0
  3

 72
    65
 73
     0
 40
0.0
  0
LTYPE
  5
15
330
5
100
AcDbSymbolTableRecord
100
AcDbLinetypeTableRecord
  2
ByLayer
 70
     0
  3

 72
    65
 73
     0
 40
0.0
  0
LTYPE
  5
16
330
5
100
AcDbSymbolTableRecord
100
AcDbLinetypeTableRecord
  2
Continuous
 70
     0
  3
Solid line
 72
    65
 73
     0
 40
0.0
  0
LTYPE
  5
6E
330
5
100
AcDbSymbolTableRecord
100
AcDbLinetypeTableRecord
  2
HIDDEN
 70
     0
  3
Hidden __ __ __ __ __ __ __ __ __ __ __ __ __ __
 72
    65
 73
     2
 40
1.905
 49
1.27
 74
     0
 49
-0.635
 74
     0
  0
LTYPE
  5
6F
330
5
100
AcDbSymbolTableRecord
100
AcDbLinetypeTableRecord
  2
PHANTOM
 70
     0
  3
Phantom ______  __  __  ______  __  __  ______
 72
    65
 73
     6
 40
12.7
 49
6.35
 74
     0
 49
-1.27
 74
     0
 49
1.27
 74
     0
 49
-1.27
 74
     0
 49
1.27
 74
     0
 49
-1.27
 74
     0
  0
LTYPE
  5
70
330
5
100
AcDbSymbolTableRecord
100
AcDbLinetypeTableRecord
  2
CENTER
 70
     0
  3
Center ____ _ ____ _ ____ _ ____ _ ____ _ ____
 72
    65
 73
     4
 40
10.16
 49
6.35
 74
     0
 49
-1.27
 74
     0
 49
1.27
 74
     0
 49
-1.27
 74
     0
  0
LTYPE
  5
71
330
5
100
AcDbSymbolTableRecord
100
AcDbLinetypeTableRecord
  2
CENTERX2
 70
     0
  3
Center (2x) ________  __  ________  __  _____
 72
    65
 73
     4
 40
20.32
 49
12.7
 74
     0
 49
-2.54
 74
     0
 49
2.54
 74
     0
 49
-2.54
 74
     0
  0
LTYPE
  5
72
330
5
100
AcDbSymbolTableRecord
100
AcDbLinetypeTableRecord
  2
DOT2
 70
     0
  3
Dot (.5x) ........................................
 72
    65
 73
     2
 40
0.635
 49
0.0
 74
     0
 49
-0.635
 74
     0
  0
ENDTAB
  0
TABLE
  2
LAYER
  5
2
330
0
100
AcDbSymbolTable
 70
    13
  0
LAYER
  5
10
330
2
100
AcDbSymbolTableRecord
100
AcDbLayerTableRecord
  2
0
 70
     0
 62
     7
  6
Continuous
370
    -3
390
F
  0
LAYER
  5
73
330
2
100
AcDbSymbolTableRecord
100
AcDbLayerTableRecord
  2
FORMAT
 70
     0
 62
     7
  6
Continuous
370
    -3
390
F
  0
LAYER
  5
74
330
2
100
AcDbSymbolTableRecord
100
AcDbLayerTableRecord
  2
OSA
 70
     0
 62
     7
  6
CENTER
370
    -3
390
F
  0
LAYER
  5
75
330
2
100
AcDbSymbolTableRecord
100
AcDbLayerTableRecord
  2
0_35
 70
     0
 62
     7
  6
Continuous
370
    35
390
F
  0
LAYER
  5
76
330
2
100
AcDbSymbolTableRecord
100
AcDbLayerTableRecord
  2
0_5
 70
     0
 62
     7
  6
Continuous
370
    50
390
F
  0
LAYER
  5
77
330
2
100
AcDbSymbolTableRecord
100
AcDbLayerTableRecord
  2
0_25
 70
     0
 62
     7
  6
Continuous
370
    25
390
F
  0
LAYER
  5
78
330
2
100
AcDbSymbolTableRecord
100
AcDbLayerTableRecord
  2
0_18
 70
     0
 62
     7
  6
Continuous
370
    -3
390
F
  0
LAYER
  5
79
330
2
100
AcDbSymbolTableRecord
100
AcDbLayerTableRecord
  2
SLD-0
 70
     0
 62
   179
  6
Continuous
370
    -3
390
F
  0
LAYER
  5
7A
330
2
100
AcDbSymbolTableRecord
100
AcDbLayerTableRecord
  2
KOTY
 70
     0
 62
     7
  6
Continuous
370
    -3
390
F
  0
LAYER
  5
7B
330
2
100
AcDbSymbolTableRecord
100
AcDbLayerTableRecord
  2
SILNA
 70
     0
 62
   179
  6
Continuous
370
    -3
390
F
  0
LAYER
  5
7C
330
2
100
AcDbSymbolTableRecord
100
AcDbLayerTableRecord
  2
0_18_1
 70
     0
 62
   179
  6
Continuous
370
    -3
390
F
  0
LAYER
  5
7D
330
2
100
AcDbSymbolTableRecord
100
AcDbLayerTableRecord
  2
0_35_1
 70
     0
 62
   179
  6
Continuous
370
    35
390
F
  0
LAYER
  5
7E
330
2
100
AcDbSymbolTableRecord
100
AcDbLayerTableRecord
  2
0_5_1
 70
     0
 62
   179
  6
Continuous
370
    50
390
F
  0
ENDTAB
  0
TABLE
  2
STYLE
  5
3
330
0
100
AcDbSymbolTable
 70
     1
  0
STYLE
  5
11
330
3
100
AcDbSymbolTableRecord
100
AcDbTextStyleTableRecord
  2
Standard
 70
     0
 40
0.0
 41
1.0
 50
0.0
 71
     0
 42
2.0
  3
txt
  4

  0
ENDTAB
  0
TABLE
  2
VIEW
  5
6
330
0
100
AcDbSymbolTable
 70
     0
  0
ENDTAB
  0
TABLE
  2
UCS
  5
7
330
0
100
AcDbSymbolTable
 70
     0
  0
ENDTAB
  0
TABLE
  2
APPID
  5
9
330
0
100
AcDbSymbolTable
 70
     1
  0
APPID
  5
12
330
9
100
AcDbSymbolTableRecord
100
AcDbRegAppTableRecord
  2
ACAD
 70
     0
  0
ENDTAB
  0
TABLE
  2
DIMSTYLE
  5
A
330
0
100
AcDbSymbolTable
 70
     1
100
AcDbDimStyleTable
  0
DIMSTYLE
105
27
330
A
100
AcDbSymbolTableRecord
100
AcDbDimStyleTableRecord
  2
ISO-25
 70
     0
 41
2.5
 42
0.625
 43
3.75
 44
1.25
 73
     0
 74
     0
 77
     1
 78
     8
140
2.5
141
2.5
143
0.0393700787
147
0.625
171
     3
172
     1
178
     0
271
     2
272
     2
274
     3
278
    44
283
     0
284
     8
340
11
  0
ENDTAB
  0
TABLE
  2
BLOCK_RECORD
  5
1
330
0
100
AcDbSymbolTable
 70
     1
  0
BLOCK_RECORD
  5
1F
330
1
100
AcDbSymbolTableRecord
100
AcDbBlockTableRecord
  2
*Model_Space
340
22
  0
BLOCK_RECORD
  5
1B
330
1
100
AcDbSymbolTableRecord
100
AcDbBlockTableRecord
  2
*Paper_Space
340
1E
  0
BLOCK_RECORD
  5
23
330
1
100
AcDbSymbolTableRecord
100
AcDbBlockTableRecord
  2
*Paper_Space0
340
26
  0
ENDTAB
  0
ENDSEC
  0
SECTION
  2
BLOCKS
  0
BLOCK
  5
20
330
1F
100
AcDbEntity
  8
0
100
AcDbBlockBegin
  2
*Model_Space
 70
     0
 10
0.0
 20
0.0
 30
0.0
  3
*Model_Space
  1

  0
ENDBLK
  5
21
330
1F
100
AcDbEntity
  8
0
100
AcDbBlockEnd
  0
BLOCK
  5
1C
330
1B
100
AcDbEntity
 67
     1
  8
0
100
AcDbBlockBegin
  2
*Paper_Space
 70
     0
 10
0.0
 20
0.0
 30
0.0
  3
*Paper_Space
  1

  0
ENDBLK
  5
1D
330
1B
100
AcDbEntity
 67
     1
  8
0
100
AcDbBlockEnd
  0
BLOCK
  5
24
330
23
100
AcDbEntity
  8
0
100
AcDbBlockBegin
  2
*Paper_Space0
 70
     0
 10
0.0
 20
0.0
 30
0.0
  3
*Paper_Space0
  1

  0
ENDBLK
  5
25
330
23
100
AcDbEntity
  8
0
100
AcDbBlockEnd
  0
ENDSEC
  0
SECTION
  2
ENTITIES
  0
LINE
  5
7F
330
1F
100
AcDbEntity
  8
0
  6
Continuous
 62
     7
370
    25
100
AcDbLine
 10
6463.5739541138
 20
5102.8341173154
 30
0.0
 11
6463.5489302614
 21
5106.4327737559
 31
0.0
  0
LINE
  5
80
330
1F
100
AcDbEntity
  8
0
  6
Continuous
 62
     7
370
    25
100
AcDbLine
 10
6453.5491720199
 20
5106.3632387841
 30
0.0
 11
6453.5741383128
 21
5102.7728599212
 31
0.0
  0
ARC
  5
81
330
1F
100
AcDbEntity
  8
0
  6
Continuous
 62
     7
370
    25
100
AcDbCircle
 10
6463.0489423493
 20
5106.4292970073
 30
0.0
 40
0.5000000000001382
100
AcDbArc
 50
0.3984092518
 51
77.0560454547
  0
ARC
  5
82
330
1F
100
AcDbEntity
  8
0
  6
Continuous
 62
     7
370
    25
100
AcDbCircle
 10
6454.049159932
 20
5106.3667155327
 30
0.0
 40
0.5000000000010414
100
AcDbArc
 50
103.740773049
 51
180.3984092517
  0
ARC
  5
83
330
1F
100
AcDbEntity
  8
0
  6
Continuous
 62
     7
370
    25
100
AcDbCircle
 10
6458.6809844734
 20
5087.4247990136
 30
0.0
 40
20.00000000000049
100
AcDbArc
 50
77.0560454547
 51
103.7407730489
  0
LINE
  5
84
330
1F
100
AcDbEntity
  8
0
  6
Continuous
 62
     7
370
    25
100
AcDbLine
 10
6509.9889938118
 20
4942.3248981345
 30
0.0
 11
6510.9889938118
 21
4941.3248981345
 31
0.0
  0
LINE
  5
85
330
1F
100
AcDbEntity
  8
0
  6
Continuous
 62
     7
370
    25
100
AcDbLine
 10
6535.4299938118
 20
4941.3248981345
 30
0.0
 11
6536.4299938118
 21
4942.3248981345
 31
0.0
  0
LINE
  5
86
330
1F
100
AcDbEntity
  8
0
  6
Continuous
 62
     7
370
    25
100
AcDbLine
 10
6509.9889938118
 20
4943.3248981346
 30
0.0
 11
6509.9889938118
 21
4942.3248981345
 31
0.0
  0
LINE
  5
87
330
1F
100
AcDbEntity
  8
0
  6
Continuous
 62
     7
370
    25
100
AcDbLine
 10
6536.4299938118
 20
4942.3248981345
 30
0.0
 11
6536.4299938118
 21
4943.3248981346
 31
0.0
  0
LINE
  5
88
330
1F
100
AcDbEntity
  8
0
  6
Continuous
 62
     7
370
    25
100
AcDbLine
 10
6380.9889938118
 20
4942.3248981345
 30
0.0
 11
6381.9889938118
 21
4941.3248981345
 31
0.0
  0
LINE
  5
89
330
1F
100
AcDbEntity
  8
0
  6
Continuous
 62
     7
370
    25
100
AcDbLine
 10
6406.4299938118
 20
4941.3248981345
 30
0.0
 11
6407.4299938118
 21
4942.3248981345
 31
0.0
  0
LINE
  5
8A
330
1F
100
AcDbEntity
  8
0
  6
Continuous
 62
     7
370
    25
100
AcDbLine
 10
6380.9889938118
 20
4943.3248981346
 30
0.0
 11
6380.9889938118
 21
4942.3248981345
 31
0.0
  0
LINE
  5
8B
330
1F
100
AcDbEntity
  8
0
  6
Continuous
 62
     7
370
    25
100
AcDbLine
 10
6407.4299938118
 20
4942.3248981345
 30
0.0
 11
6407.4299938118
 21
4943.3248981346
 31
0.0
  0
LINE
  5
8C
330
1F
100
AcDbEntity
  8
0
  6
Continuous
 62
     7
370
    25
100
AcDbLine
 10
6493.3460451327
 20
5178.4088468137
 30
0.0
 11
6491.9299938118
 21
5179.8248981346
 31
0.0
  0
LINE
  5
8D
330
1F
100
AcDbEntity
  8
0
  6
Continuous
 62
     7
370
    25
100
AcDbLine
 10
6468.4889938118
 20
5179.8248981346
 30
0.0
 11
6467.589305835
 21
5178.9252101577
 31
0.0
  0
LWPOLYLINE
  5
8E
330
1F
100
AcDbEntity
  8
0
  6
Continuous
 62
     7
370
    25
100
AcDbPolyline
 90
        3
 70
   128
 43
0.0
 10
6466.9954471074
 20
5177.6423663151
 10
6467.4253134806
 20
5177.3940532017
 10
6467.8482534021
 20
5177.1497324761
  0
LWPOLYLINE
  5
8F
330
1F
100
AcDbEntity
  8
0
  6
Continuous
 62
     7
370
    25
100
AcDbPolyline
 90
        3
 70
   128
 43
0.0
 10
6492.5638227767
 20
5177.939489925
 10
6492.993674143
 20
5178.1878032017
 10
6493.4235405163
 20
5178.4361163151
  0
LINE
  5
90
330
1F
100
AcDbEntity
  8
0
  6
Continuous
 62
     7
370
    25
100
AcDbLine
 10
6467.5939475747
 20
5178.8841379374
 30
0.0
 11
6467.8482534021
 21
5178.7372324761
 31
0.0
  0
LWPOLYLINE
  5
91
330
1F
100
AcDbEntity
  8
0
  6
Continuous
 62
     7
370
    25
100
AcDbPolyline
 90
        3
 70
   128
 43
0.0
 10
6467.8551683976
 20
5176.9634334242
 10
6467.4253167588
 20
5176.7151199852
 10
6467.0753426188
 20
5176.5129567691
  0
LWPOLYLINE
  5
92
330
1F
100
AcDbEntity
  8
0
  6
Continuous
 62
     7
370
    25
100
AcDbPolyline
 90
        3
 70
   128
 43
0.0
 10
6493.3121530866
 20
5177.3248981346
 10
6492.9936708648
 20
5177.5088699852
 10
6492.5707324128
 20
5177.7531898668
  0
LWPOLYLINE
  5
93
330
1F
100
AcDbEntity
  8
0
  6
Continuous
 62
     7
370
    25
100
AcDbPolyline
 90
        3
 70
   128
 43
0.0
 10
6467.8551683976
 20
5178.5509334242
 10
6467.4253167588
 20
5178.3026199852
 10
6466.995450106
 20
5178.0543067098
  0
LINE
  5
94
330
1F
100
AcDbEntity
  8
0
  6
Continuous
 62
     7
370
    25
100
AcDbLine
 10
6466.9889938118
 20
5178.0467255872
 30
0.0
 11
6466.9889938118
 21
5177.6500299453
 31
0.0
  0
LINE
  5
95
330
1F
100
AcDbEntity
  8
0
  6
Continuous
 62
     7
370
    25
100
AcDbLine
 10
6467.8482534021
 20
5177.1537970274
 30
0.0
 11
6467.8482534021
 21
5176.959438822
 31
0.0
  0
LINE
  5
96
330
1F
100
AcDbEntity
  8
0
  6
Continuous
 62
     7
370
    25
100
AcDbLine
 10
6492.5707324128
 20
5177.7489870808
 30
0.0
 11
6492.5707324128
 21
5177.9434814312
 31
0.0
  0
LINE
  5
97
330
1F
100
AcDbEntity
  8
0
  6
Continuous
 62
     7
370
    25
100
AcDbLine
 10
6467.8482534021
 20
5178.7412970274
 30
0.0
 11
6467.8482534021
 21
5178.546938822
 31
0.0
  0
ARC
  5
98
330
1F
100
AcDbEntity
  8
0
  6
Continuous
 62
     7
370
    25
100
AcDbCircle
 10
6458.7094938118
 20
5083.3248981346
 30
0.0
 40
23.50000000000058
100
AcDbArc
 50
102.6829031081
 51
162.8731624209
  0
ARC
  5
99
330
1F
100
AcDbEntity
  8
0
  6
Continuous
 62
     7
370
    25
100
AcDbCircle
 10
6458.7094938118
 20
5083.3248981346
 30
0.0
 40
23.50000000000019
100
AcDbArc
 50
312.4470505525
 51
78.1139153954
  0
ARC
  5
9A
330
1F
100
AcDbEntity
  8
0
  6
Continuous
 62
     7
370
    25
100
AcDbCircle
 10
6458.7094938118
 20
5083.3248981346
 30
0.0
 40
23.50000000000058
100
AcDbArc
 50
162.8731624209
 51
228.349767951
  0
ARC
  5
9B
330
1F
100
AcDbEntity
  8
0
  6
Continuous
 62
     7
370
    25
100
AcDbCircle
 10
6458.7094938118
 20
5083.3248981346
 30
0.0
 40
28.50000000000044
100
AcDbArc
 50
297.1971285412
 51
162.8731624209
  0
ARC
  5
9C
330
1F
100
AcDbEntity
  8
0
  6
Continuous
 62
     7
370
    25
100
AcDbCircle
 10
6458.7094938118
 20
5083.3248981346
 30
0.0
 40
28.50000000000044
100
AcDbArc
 50
162.8731624209
 51
243.5996899623
  0
ARC
  5
9D
330
1F
100
AcDbEntity
  8
0
  6
Continuous
 62
     7
370
    25
100
AcDbCircle
 10
6458.8325707119
 20
5065.6253260472
 30
0.0
 40
12.99999999999976
100
AcDbArc
 50
197.1447788348
 51
343.6520396688
  0
LINE
  5
9E
330
1F
100
AcDbEntity
  8
0
  6
Continuous
 62
     7
370
    25
100
AcDbLine
 10
6471.3069809624
 20
5061.9662156497
 30
0.0
 11
6473.2261210009
 21
5061.4032755885
 31
0.0
  0
ARC
  5
9F
330
1F
100
AcDbEntity
  8
0
  6
Continuous
 62
     7
370
    25
100
AcDbCircle
 10
6458.8325707119
 20
5065.6253260472
 30
0.0
 40
15.00000000000068
100
AcDbArc
 50
197.1447788348
 51
343.6520396688
  0
LINE
  5
A0
330
1F
100
AcDbEntity
  8
0
  6
Continuous
 62
     7
370
    25
100
AcDbLine
 10
6446.4102527622
 20
5061.793092135
 30
0.0
 11
6444.4991269238
 21
5061.203517687
 31
0.0
  0
LINE
  5
A1
330
1F
100
AcDbEntity
  8
0
  6
Continuous
 62
     7
370
    25
100
AcDbLine
 10
6441.4138049742
 20
5077.9892493799
 30
0.0
 11
6446.4102527622
 21
5061.793092135
 31
0.0
  0
ARC
  5
A2
330
1F
100
AcDbEntity
  8
0
  6
Continuous
 62
     7
370
    25
100
AcDbCircle
 10
6458.7094938118
 20
5083.3248981346
 30
0.0
 40
18.10000000000002
100
AcDbArc
 50
343.6520396688
 51
197.1447788348
  0
LINE
  5
A3
330
1F
100
AcDbEntity
  8
0
  6
Continuous
 62
     7
370
    25
100
AcDbLine
 10
6471.3069809624
 20
5061.9662156497
 30
0.0
 11
6476.0777111606
 21
5078.2302905811
 31
0.0
  0
LINE
  5
A4
330
1F
100
AcDbEntity
  8
0
  6
Continuous
 62
     7
370
    25
100
AcDbLine
 10
6444.4991269238
 20
5061.203517687
 30
0.0
 11
6439.5026791358
 21
5077.3996749319
 31
0.0
  0
LINE
  5
A5
330
1F
100
AcDbEntity
  8
0
  6
Continuous
 62
     7
370
    25
100
AcDbLine
 10
6439.5026791358
 20
5077.3996749319
 30
0.0
 11
6441.4138049742
 21
5077.9892493799
 31
0.0
  0
LINE
  5
A6
330
1F
100
AcDbEntity
  8
0
  6
Continuous
 62
     7
370
    25
100
AcDbLine
 10
6477.9968511992
 20
5077.66735052
 30
0.0
 11
6476.0777111606
 21
5078.2302905811
 31
0.0
  0
LINE
  5
A7
330
1F
100
AcDbEntity
  8
0
  6
Continuous
 62
     7
370
    25
100
AcDbLine
 10
6477.9968511992
 20
5077.66735052
 30
0.0
 11
6473.2261210009
 21
5061.4032755885
 31
0.0
  0
ARC
  5
A8
330
1F
100
AcDbEntity
  8
0
  6
Continuous
 62
     7
370
    25
100
AcDbCircle
 10
6458.7094938118
 20
5083.3248981346
 30
0.0
 40
20.10000000000034
100
AcDbArc
 50
343.6520396688
 51
197.1447788348
  0
LWPOLYLINE
  5
A9
330
1F
100
AcDbEntity
  8
0
  6
Continuous
 62
     7
370
    25
100
AcDbPolyline
 90
        3
 70
   128
 43
0.0
 10
6373.2094938118
 20
5144.9991742913
 10
6373.596811832
 20
5145.4375801143
 10
6374.0352176551
 20
5145.8248981346
  0
LINE
  5
AA
330
1F
100
AcDbEntity
  8
0
  6
Continuous
 62
     7
370
    25
100
AcDbLine
 10
6438.7094938118
 20
4975.3248981346
 30
0.0
 11
6438.7094938118
 21
4974.8248981346
 31
0.0
  0
LWPOLYLINE
  5
AB
330
1F
100
AcDbEntity
  8
0
  6
Continuous
 62
     7
370
    25
100
AcDbPolyline
 90
        3
 70
   128
 43
0.0
 10
6543.3837699686
 20
5145.8248981346
 10
6543.8221757916
 20
5145.4375801143
 10
6544.2094938118
 20
5144.9991742913
  0
LWPOLYLINE
  5
AC
330
1F
100
AcDbEntity
  8
0
  6
Continuous
 62
     7
370
    25
100
AcDbPolyline
 90
        3
 70
   128
 43
0.0
 10
6544.2094938118
 20
4975.6506219778
 10
6543.8221757916
 20
4975.2122161548
 10
6543.3837699686
 20
4974.8248981346
  0
LINE
  5
AD
330
1F
100
AcDbEntity
  8
0
  6
Continuous
 62
     7
370
    25
100
AcDbLine
 10
6478.7094938118
 20
4974.8248981346
 30
0.0
 11
6478.7094938118
 21
4975.3248981346
 31
0.0
  0
LWPOLYLINE
  5
AE
330
1F
100
AcDbEntity
  8
0
  6
Continuous
 62
     7
370
    25
100
AcDbPolyline
 90
        3
 70
   128
 43
0.0
 10
6374.0352176551
 20
4974.8248981346
 10
6373.596811832
 20
4975.2122161548
 10
6373.2094938118
 20
4975.6506219778
  0
LINE
  5
AF
330
1F
100
AcDbEntity
  8
0
  6
Continuous
 62
     7
370
    25
100
AcDbLine
 10
6374.2094938118
 20
4975.8248981346
 30
0.0
 11
6543.2094938118
 21
4975.8248981346
 31
0.0
  0
LINE
  5
B0
330
1F
100
AcDbEntity
  8
0
  6
Continuous
 62
     7
370
    25
100
AcDbLine
 10
6543.2094938118
 20
4975.8248981346
 30
0.0
 11
6543.7094938118
 21
4975.3248981346
 31
0.0
  0
LINE
  5
B1
330
1F
100
AcDbEntity
  8
0
  6
Continuous
 62
     7
370
    25
100
AcDbLine
 10
6543.7094938118
 20
4975.3248981346
 30
0.0
 11
6373.7094938118
 21
4975.3248981346
 31
0.0
  0
LINE
  5
B2
330
1F
100
AcDbEntity
  8
0
  6
Continuous
 62
     7
370
    25
100
AcDbLine
 10
6373.7094938118
 20
4975.3248981346
 30
0.0
 11
6374.2094938118
 21
4975.8248981346
 31
0.0
  0
LINE
  5
B3
330
1F
100
AcDbEntity
  8
0
  6
Continuous
 62
     7
370
    25
100
AcDbLine
 10
6373.7094938118
 20
4975.3248981346
 30
0.0
 11
6373.7094938118
 21
5145.3248981346
 31
0.0
  0
LINE
  5
B4
330
1F
100
AcDbEntity
  8
0
  6
Continuous
 62
     7
370
    25
100
AcDbLine
 10
6373.7094938118
 20
5145.3248981346
 30
0.0
 11
6374.2094938118
 21
5144.8248981346
 31
0.0
  0
LINE
  5
B5
330
1F
100
AcDbEntity
  8
0
  6
Continuous
 62
     7
370
    25
100
AcDbLine
 10
6374.2094938118
 20
5144.8248981346
 30
0.0
 11
6374.2094938118
 21
4975.8248981346
 31
0.0
  0
LINE
  5
B6
330
1F
100
AcDbEntity
  8
0
  6
Continuous
 62
     7
370
    25
100
AcDbLine
 10
6543.2094938118
 20
5144.8248981346
 30
0.0
 11
6374.2094938118
 21
5144.8248981346
 31
0.0
  0
LINE
  5
B7
330
1F
100
AcDbEntity
  8
0
  6
Continuous
 62
     7
370
    25
100
AcDbLine
 10
6373.7094938118
 20
5145.3248981346
 30
0.0
 11
6543.7094938118
 21
5145.3248981346
 31
0.0
  0
LINE
  5
B8
330
1F
100
AcDbEntity
  8
0
  6
Continuous
 62
     7
370
    25
100
AcDbLine
 10
6543.2094938118
 20
5144.8248981346
 30
0.0
 11
6543.7094938118
 21
5145.3248981346
 31
0.0
  0
LINE
  5
B9
330
1F
100
AcDbEntity
  8
0
  6
Continuous
 62
     7
370
    25
100
AcDbLine
 10
6543.2094938118
 20
4975.8248981346
 30
0.0
 11
6543.2094938118
 21
5144.8248981346
 31
0.0
  0
LINE
  5
BA
330
1F
100
AcDbEntity
  8
0
  6
Continuous
 62
     7
370
    25
100
AcDbLine
 10
6543.7094938118
 20
5145.3248981346
 30
0.0
 11
6543.7094938118
 21
4975.3248981346
 31
0.0
  0
ARC
  5
BB
330
1F
100
AcDbEntity
  8
0
  6
Continuous
 62
     7
370
    25
100
AcDbCircle
 10
6458.7094938118
 20
5083.3248981346
 30
0.0
 40
23.24999999999986
100
AcDbArc
 50
102.8170907576
 51
227.3172794737
  0
ARC
  5
BC
330
1F
100
AcDbEntity
  8
0
  6
Continuous
 62
     7
370
    25
100
AcDbCircle
 10
6458.7094938118
 20
5083.3248981346
 30
0.0
 40
23.25000000000036
100
AcDbArc
 50
313.4795390298
 51
77.9797277459
  0
LINE
  5
BD
330
1F
100
AcDbEntity
  8
0
  6
Continuous
 62
     7
370
    25
100
AcDbLine
 10
6545.7094938118
 20
4975.3905835595
 30
0.0
 11
6544.2094938118
 21
4975.3905835595
 31
0.0
  0
LINE
  5
BE
330
1F
100
AcDbEntity
  8
0
  6
Continuous
 62
     7
370
    25
100
AcDbLine
 10
6545.7094938118
 20
5145.2592127096
 30
0.0
 11
6545.7094938118
 21
4975.3905835595
 31
0.0
  0
LINE
  5
BF
330
1F
100
AcDbEntity
  8
0
  6
Continuous
 62
     7
370
    25
100
AcDbLine
 10
6545.7094938118
 20
5145.2592127096
 30
0.0
 11
6544.2094938118
 21
5145.2592127096
 31
0.0
  0
LINE
  5
C0
330
1F
100
AcDbEntity
  8
0
  6
Continuous
 62
     7
370
    25
100
AcDbLine
 10
6544.2094938118
 20
5145.2592127096
 30
0.0
 11
6544.2094938118
 21
4975.3905835595
 31
0.0
  0
LINE
  5
C1
330
1F
100
AcDbEntity
  8
0
  6
Continuous
 62
     7
370
    25
100
AcDbLine
 10
6543.6438083869
 20
5147.3248981346
 30
0.0
 11
6543.6438083869
 21
5145.8248981346
 31
0.0
  0
LINE
  5
C2
330
1F
100
AcDbEntity
  8
0
  6
Continuous
 62
     7
370
    25
100
AcDbLine
 10
6373.7751792368
 20
5145.8248981346
 30
0.0
 11
6543.6438083869
 21
5145.8248981346
 31
0.0
  0
LINE
  5
C3
330
1F
100
AcDbEntity
  8
0
  6
Continuous
 62
     7
370
    25
100
AcDbLine
 10
6373.7751792368
 20
5147.3248981346
 30
0.0
 11
6543.6438083869
 21
5147.3248981346
 31
0.0
  0
LINE
  5
C4
330
1F
100
AcDbEntity
  8
0
  6
Continuous
 62
     7
370
    25
100
AcDbLine
 10
6373.7751792368
 20
5147.3248981346
 30
0.0
 11
6373.7751792368
 21
5145.8248981346
 31
0.0
  0
LINE
  5
C5
330
1F
100
AcDbEntity
  8
0
  6
Continuous
 62
     7
370
    25
100
AcDbLine
 10
6543.6438083869
 20
4974.8248981346
 30
0.0
 11
6373.7751792368
 21
4974.8248981346
 31
0.0
  0
LINE
  5
C6
330
1F
100
AcDbEntity
  8
0
  6
Continuous
 62
     7
370
    25
100
AcDbLine
 10
6543.6438083869
 20
4973.3248981346
 30
0.0
 11
6373.7751792368
 21
4973.3248981346
 31
0.0
  0
LINE
  5
C7
330
1F
100
AcDbEntity
  8
0
  6
Continuous
 62
     7
370
    25
100
AcDbLine
 10
6543.6438083869
 20
4973.3248981346
 30
0.0
 11
6543.6438083869
 21
4974.8248981346
 31
0.0
  0
LINE
  5
C8
330
1F
100
AcDbEntity
  8
0
  6
Continuous
 62
     7
370
    25
100
AcDbLine
 10
6373.7751792368
 20
4973.3248981346
 30
0.0
 11
6373.7751792368
 21
4974.8248981346
 31
0.0
  0
LINE
  5
C9
330
1F
100
AcDbEntity
  8
0
  6
Continuous
 62
     7
370
    25
100
AcDbLine
 10
6371.7094938118
 20
5145.2592127096
 30
0.0
 11
6373.2094938118
 21
5145.2592127096
 31
0.0
  0
LINE
  5
CA
330
1F
100
AcDbEntity
  8
0
  6
Continuous
 62
     7
370
    25
100
AcDbLine
 10
6373.2094938118
 20
4975.3905835595
 30
0.0
 11
6373.2094938118
 21
5145.2592127096
 31
0.0
  0
LINE
  5
CB
330
1F
100
AcDbEntity
  8
0
  6
Continuous
 62
     7
370
    25
100
AcDbLine
 10
6371.7094938118
 20
4975.3905835595
 30
0.0
 11
6371.7094938118
 21
5145.2592127096
 31
0.0
  0
LINE
  5
CC
330
1F
100
AcDbEntity
  8
0
  6
Continuous
 62
     7
370
    25
100
AcDbLine
 10
6371.7094938118
 20
4975.3905835595
 30
0.0
 11
6373.2094938118
 21
4975.3905835595
 31
0.0
  0
LINE
  5
CD
330
1F
100
AcDbEntity
  8
0
  6
Continuous
 62
     7
370
    25
100
AcDbLine
 10
6523.0249742107
 20
4953.3248981346
 30
0.0
 11
6523.0249742107
 21
4959.3248981345
 31
0.0
  0
LINE
  5
CE
330
1F
100
AcDbEntity
  8
0
  6
Continuous
 62
     7
370
    25
100
AcDbLine
 10
6512.2080515988
 20
4959.3248981345
 30
0.0
 11
6512.2080515988
 21
4953.3248981346
 31
0.0
  0
LINE
  5
CF
330
1F
100
AcDbEntity
  8
0
  6
Continuous
 62
     7
370
    25
100
AcDbLine
 10
6526.2174786542
 20
4959.3248981345
 30
0.0
 11
6526.2174786542
 21
4953.3248981346
 31
0.0
  0
LINE
  5
D0
330
1F
100
AcDbEntity
  8
0
  6
Continuous
 62
     7
370
    25
100
AcDbLine
 10
6535.8901091531
 20
4953.3248981346
 30
0.0
 11
6535.8901091531
 21
4959.3248981345
 31
0.0
  0
LINE
  5
D1
330
1F
100
AcDbEntity
  8
0
  6
Continuous
 62
     7
370
    25
100
AcDbLine
 10
6511.0457684454
 20
4941.3248981345
 30
0.0
 11
6510.9889938118
 21
4941.3248981345
 31
0.0
  0
LINE
  5
D2
330
1F
100
AcDbEntity
  8
0
  6
Continuous
 62
     7
370
    25
100
AcDbLine
 10
6535.4299938118
 20
4941.3248981345
 30
0.0
 11
6511.0457684454
 21
4941.3248981345
 31
0.0
  0
LINE
  5
D3
330
1F
100
AcDbEntity
  8
0
  6
Continuous
 62
     7
370
    25
100
AcDbLine
 10
6509.9889938118
 20
4942.3248981345
 30
0.0
 11
6536.4299938118
 21
4942.3248981345
 31
0.0
  0
LINE
  5
D4
330
1F
100
AcDbEntity
  8
0
  6
Continuous
 62
     7
370
    25
100
AcDbLine
 10
6510.3443588695
 20
4953.3248981346
 30
0.0
 11
6510.3443588695
 21
4959.3248981345
 31
0.0
  0
LINE
  5
D5
330
1F
100
AcDbEntity
  8
0
  6
Continuous
 62
     7
370
    25
100
AcDbLine
 10
6537.2189208672
 20
4959.3248981345
 30
0.0
 11
6537.2189208672
 21
4953.3248981346
 31
0.0
  0
LINE
  5
D6
330
1F
100
AcDbEntity
  8
0
  6
Continuous
 62
     7
370
    25
100
AcDbLine
 10
6509.2000667564
 20
4959.3248981345
 30
0.0
 11
6509.2000667564
 21
4953.3248981346
 31
0.0
  0
LINE
  5
D7
330
1F
100
AcDbEntity
  8
0
  6
Continuous
 62
     7
370
    25
100
AcDbLine
 10
6394.0249742107
 20
4953.3248981346
 30
0.0
 11
6394.0249742107
 21
4959.3248981345
 31
0.0
  0
LINE
  5
D8
330
1F
100
AcDbEntity
  8
0
  6
Continuous
 62
     7
370
    25
100
AcDbLine
 10
6383.2080515988
 20
4959.3248981345
 30
0.0
 11
6383.2080515988
 21
4953.3248981346
 31
0.0
  0
LINE
  5
D9
330
1F
100
AcDbEntity
  8
0
  6
Continuous
 62
     7
370
    25
100
AcDbLine
 10
6397.2174786542
 20
4959.3248981345
 30
0.0
 11
6397.2174786542
 21
4953.3248981346
 31
0.0
  0
LINE
  5
DA
330
1F
100
AcDbEntity
  8
0
  6
Continuous
 62
     7
370
    25
100
AcDbLine
 10
6406.8901091531
 20
4953.3248981346
 30
0.0
 11
6406.890109153
 21
4959.3248981345
 31
0.0
  0
LINE
  5
DB
330
1F
100
AcDbEntity
  8
0
  6
Continuous
 62
     7
370
    25
100
AcDbLine
 10
6382.0457684454
 20
4941.3248981345
 30
0.0
 11
6381.9889938118
 21
4941.3248981345
 31
0.0
  0
LINE
  5
DC
330
1F
100
AcDbEntity
  8
0
  6
Continuous
 62
     7
370
    25
100
AcDbLine
 10
6406.4299938118
 20
4941.3248981345
 30
0.0
 11
6382.0457684454
 21
4941.3248981345
 31
0.0
  0
LINE
  5
DD
330
1F
100
AcDbEntity
  8
0
  6
Continuous
 62
     7
370
    25
100
AcDbLine
 10
6380.9889938118
 20
4942.3248981345
 30
0.0
 11
6407.4299938118
 21
4942.3248981345
 31
0.0
  0
LINE
  5
DE
330
1F
100
AcDbEntity
  8
0
  6
Continuous
 62
     7
370
    25
100
AcDbLine
 10
6381.3443588695
 20
4953.3248981346
 30
0.0
 11
6381.3443588695
 21
4959.3248981345
 31
0.0
  0
LINE
  5
DF
330
1F
100
AcDbEntity
  8
0
  6
Continuous
 62
     7
370
    25
100
AcDbLine
 10
6408.2189208672
 20
4959.3248981345
 30
0.0
 11
6408.2189208672
 21
4953.3248981346
 31
0.0
  0
LINE
  5
E0
330
1F
100
AcDbEntity
  8
0
  6
Continuous
 62
     7
370
    25
100
AcDbLine
 10
6380.2000667564
 20
4959.3248981345
 30
0.0
 11
6380.2000667564
 21
4953.3248981346
 31
0.0
  0
LINE
  5
E1
330
1F
100
AcDbEntity
  8
0
  6
Continuous
 62
     7
370
    25
100
AcDbLine
 10
6493.7094938118
 20
5166.4764102212
 30
0.0
 11
6493.7094938118
 21
5162.1733860479
 31
0.0
  0
LINE
  5
E2
330
1F
100
AcDbEntity
  8
0
  6
Continuous
 62
     7
370
    25
100
AcDbLine
 10
6480.2094938118
 20
5167.3248981346
 30
0.0
 11
6480.2094938118
 21
5161.3248981346
 31
0.0
  0
LINE
  5
E3
330
1F
100
AcDbEntity
  8
0
  6
Continuous
 62
     7
370
    25
100
AcDbLine
 10
6466.7094938118
 20
5167.3248981346
 30
0.0
 11
6466.7094938118
 21
5161.3248981346
 31
0.0
  0
ARC
  5
E4
330
1F
100
AcDbEntity
  8
0
  6
Continuous
 62
     7
370
    25
100
AcDbCircle
 10
6492.2212430677
 20
5186.3385978448
 30
0.0
 40
8.016541289478663
100
AcDbArc
 50
268.4744135156
 51
278.0028664232
  0
ARC
  5
E5
330
1F
100
AcDbEntity
  8
0
  6
Continuous
 62
     7
370
    25
100
AcDbCircle
 10
6471.7146414329
 20
5117.3306170955
 30
0.0
 40
61.70940835616316
100
AcDbArc
 50
89.7440538765
 51
93.812875746
  0
LWPOLYLINE
  5
E6
330
1F
100
AcDbEntity
  8
0
  6
Continuous
 62
     7
370
    25
100
AcDbPolyline
 90
        5
 70
   128
 43
0.0
 10
6476.4353704601
 20
5179.1058777882
 10
6476.6630123209
 20
5179.109090755
 10
6478.6928552941
 20
5179.1359773327
 10
6480.8204704358
 20
5179.1625780735
 10
6482.4940087177
 20
5179.1841577191
  0
LINE
  5
E7
330
1F
100
AcDbEntity
  8
0
  6
Continuous
 62
     7
370
    25
100
AcDbLine
 10
6492.0078157946
 20
5178.3248981346
 30
0.0
 11
6476.932114964
 21
5178.3248981346
 31
0.0
  0
ARC
  5
E8
330
1F
100
AcDbEntity
  8
0
  6
Continuous
 62
     7
370
    25
100
AcDbCircle
 10
6458.0292575696
 20
5653.1080710428
 30
0.0
 40
475.0291720789034
100
AcDbArc
 50
272.2760524206
 51
273.9092524258
  0
LINE
  5
E9
330
1F
100
AcDbEntity
  8
0
  6
Continuous
 62
     7
370
    25
100
AcDbLine
 10
6482.4940087177
 20
5179.1841577191
 30
0.0
 11
6490.4150369475
 21
5179.1841577191
 31
0.0
  0
LINE
  5
EA
330
1F
100
AcDbEntity
  8
0
  6
Continuous
 62
     7
370
    25
100
AcDbLine
 10
6468.4889938118
 20
5179.8248981346
 30
0.0
 11
6472.1678695224
 21
5179.8248981346
 31
0.0
  0
LINE
  5
EB
330
1F
100
AcDbEntity
  8
0
  6
Continuous
 62
     7
370
    25
100
AcDbLine
 10
6476.21014305
 20
5179.8248981346
 30
0.0
 11
6491.9299938118
 21
5179.8248981346
 31
0.0
  0
LWPOLYLINE
  5
EC
330
1F
100
AcDbEntity
  8
0
  6
Continuous
 62
     7
370
    25
100
AcDbPolyline
 90
        8
 70
   128
 43
0.0
 10
6492.0078157946
 20
5178.3248981346
 10
6491.7030702167
 20
5178.312320807
 10
6489.9960657015
 20
5178.2568315737
 10
6487.843097002
 20
5178.2032932842
 10
6485.2687601294
 20
5178.1459918846
 10
6482.4442084596
 20
5178.0886904849
 10
6479.5744292136
 20
5178.0351521955
 10
6477.3397365236
 20
5177.9919857573
  0
ARC
  5
ED
330
1F
100
AcDbEntity
  8
0
  6
Continuous
 62
     7
370
    25
100
AcDbCircle
 10
6470.9105993612
 20
5142.0686008216
 30
0.0
 40
35.79354156201841
100
AcDbArc
 50
89.325329368
 51
96.2406965414
  0
LWPOLYLINE
  5
EE
330
1F
100
AcDbEntity
  8
0
  6
Continuous
 62
     7
370
    25
100
AcDbPolyline
 90
        4
 70
   128
 43
0.0
 10
6482.4940087177
 20
5179.1841577191
 10
6481.1016618547
 20
5179.1557265136
 10
6478.4193783968
 20
5179.1024447348
 10
6476.4497681772
 20
5179.0601299643
  0
LWPOLYLINE
  5
EF
330
1F
100
AcDbEntity
  8
0
  6
Continuous
 62
     7
370
    25
100
AcDbPolyline
 90
        6
 70
   128
 43
0.0
 10
6471.967565504
 20
5178.9524412759
 10
6471.2617622113
 20
5178.9339713999
 10
6469.6173811068
 20
5178.878988282
 10
6468.4685602174
 20
5178.8212104114
 10
6467.905782005
 20
5178.7648489929
 10
6467.9202887923
 20
5178.7412493182
  0
LWPOLYLINE
  5
F0
330
1F
100
AcDbEntity
  8
0
  6
Continuous
 62
     7
370
    25
100
AcDbPolyline
 90
       11
 70
   128
 43
0.0
 10
6492.5210842761
 20
5177.9394674019
 10
6492.5384962367
 20
5177.9300072507
 10
6492.0427591859
 20
5177.8740581364
 10
6490.9560511413
 20
5177.8162270546
 10
6489.3599925049
 20
5177.7607378213
 10
6487.3469548966
 20
5177.7071995318
 10
6484.9399357223
 20
5177.6498981322
 10
6482.4940087177
 20
5177.5966577191
 10
6481.1016618547
 20
5177.5682265136
 10
6478.4193783968
 20
5177.5149447348
 10
6478.150271497
 20
5177.509163288
  0
LWPOLYLINE
  5
F1
330
1F
100
AcDbEntity
  8
0
  6
Continuous
 62
     7
370
    25
100
AcDbPolyline
 90
        5
 70
   128
 43
0.0
 10
6470.645035668
 20
5177.3258499344
 10
6469.6173811068
 20
5177.291488282
 10
6468.4685602174
 20
5177.2337104114
 10
6467.905782005
 20
5177.1773489929
 10
6467.9202887923
 20
5177.1537493182
  0
LWPOLYLINE
  5
F2
330
1F
100
AcDbEntity
  8
0
  6
Continuous
 62
     7
370
    25
100
AcDbPolyline
 90
        7
 70
   128
 43
0.0
 10
6490.4150369475
 20
5179.1841577191
 10
6488.5202481866
 20
5179.1265584431
 10
6486.3178299333
 20
5179.0710692097
 10
6483.783580436
 20
5179.0132381279
 10
6481.1016618547
 20
5178.9572890136
 10
6478.4193783968
 20
5178.9040072348
 10
6476.5930727672
 20
5178.8647711957
  0
LWPOLYLINE
  5
F3
330
1F
100
AcDbEntity
  8
0
  6
Continuous
 62
     7
370
    25
100
AcDbPolyline
 90
        6
 70
   128
 43
0.0
 10
6471.9153280898
 20
5178.7526367965
 10
6471.2617622113
 20
5178.7355338999
 10
6469.6173811068
 20
5178.680550782
 10
6468.4685602174
 20
5178.6227729114
 10
6467.905782005
 20
5178.5664114929
 10
6467.9152485741
 20
5178.5510112567
  0
LWPOLYLINE
  5
F4
330
1F
100
AcDbEntity
  8
0
  6
Continuous
 62
     7
370
    25
100
AcDbPolyline
 90
       10
 70
   128
 43
0.0
 10
6492.5062083903
 20
5177.7491121698
 10
6492.5384962367
 20
5177.7315697507
 10
6492.0427591859
 20
5177.6756206364
 10
6490.9560511413
 20
5177.6177895546
 10
6490.4150369475
 20
5177.5966577191
 10
6488.5202481866
 20
5177.5390584431
 10
6486.3178299333
 20
5177.4835692097
 10
6483.783580436
 20
5177.4257381279
 10
6481.1016618547
 20
5177.3697890136
 10
6479.1340458418
 20
5177.3307036288
  0
LWPOLYLINE
  5
F5
330
1F
100
AcDbEntity
  8
0
  6
Continuous
 62
     7
370
    25
100
AcDbPolyline
 90
        5
 70
   128
 43
0.0
 10
6470.2712175399
 20
5177.1149130897
 10
6469.6173811068
 20
5177.093050782
 10
6468.4685602174
 20
5177.0352729114
 10
6467.905782005
 20
5176.9789114929
 10
6467.9152485741
 20
5176.9635112567
  0
LWPOLYLINE
  5
F6
330
1F
100
AcDbEntity
  8
0
  6
Continuous
 62
     7
370
    25
100
AcDbPolyline
 90
        6
 70
   128
 43
0.0
 10
6471.6435427849
 20
5178.2639998951
 10
6470.6397838435
 20
5178.2394401475
 10
6468.8810978491
 20
5178.1844570296
 10
6467.6524196536
 20
5178.1266791589
 10
6467.0505213726
 20
5178.0703177405
 10
6467.0660316168
 20
5178.0467255872
  0
ARC
  5
F7
330
1F
100
AcDbEntity
  8
0
  6
Continuous
 62
     7
370
    25
100
AcDbCircle
 10
6555.8710161808
 20
4962.1248981345
 30
0.0
 40
1.800000000001091
100
AcDbArc
 50
306.5119568428
 51
0.0
  0
ARC
  5
F8
330
1F
100
AcDbEntity
  8
0
  6
Continuous
 62
     7
370
    25
100
AcDbCircle
 10
6555.8710161808
 20
4962.1248981345
 30
0.0
 40
0.8000000000003559
100
AcDbArc
 50
295.6033014814
 51
0.0
  0
LINE
  5
F9
330
1F
100
AcDbEntity
  8
0
  6
Continuous
 62
     7
370
    25
100
AcDbLine
 10
6556.6710161808
 20
4962.1248981345
 30
0.0
 11
6557.6710161808
 21
4962.1248981345
 31
0.0
  0
ARC
  5
FA
330
1F
100
AcDbEntity
  8
0
  6
Continuous
 62
     7
370
    25
100
AcDbCircle
 10
6555.8710161808
 20
5158.5248981346
 30
0.0
 40
1.800000000001091
100
AcDbArc
 50
0.0
 51
53.4880431565
  0
LINE
  5
FB
330
1F
100
AcDbEntity
  8
0
  6
Continuous
 62
     7
370
    25
100
AcDbLine
 10
6556.6710161808
 20
5158.5248981346
 30
0.0
 11
6557.6710161808
 21
5158.5248981346
 31
0.0
  0
ARC
  5
FC
330
1F
100
AcDbEntity
  8
0
  6
Continuous
 62
     7
370
    25
100
AcDbCircle
 10
6555.8710161808
 20
5158.5248981346
 30
0.0
 40
0.8000000000003734
100
AcDbArc
 50
0.0
 51
64.396698517
  0
ARC
  5
FD
330
1F
100
AcDbEntity
  8
0
  6
Continuous
 62
     7
370
    25
100
AcDbCircle
 10
6361.5479714429
 20
5158.5248981346
 30
0.0
 40
1.800000000000052
100
AcDbArc
 50
126.5119568428
 51
180.0
  0
ARC
  5
FE
330
1F
100
AcDbEntity
  8
0
  6
Continuous
 62
     7
370
    25
100
AcDbCircle
 10
6361.5479714429
 20
5158.5248981346
 30
0.0
 40
0.8000000000001819
100
AcDbArc
 50
115.6033014813
 51
180.0
  0
LINE
  5
FF
330
1F
100
AcDbEntity
  8
0
  6
Continuous
 62
     7
370
    25
100
AcDbLine
 10
6360.7479714429
 20
5158.5248981346
 30
0.0
 11
6359.7479714429
 21
5158.5248981346
 31
0.0
  0
LINE
  5
100
330
1F
100
AcDbEntity
  8
0
  6
Continuous
 62
     7
370
    25
100
AcDbLine
 10
6360.7479714429
 20
4962.1248981345
 30
0.0
 11
6359.7479714429
 21
4962.1248981345
 31
0.0
  0
ARC
  5
101
330
1F
100
AcDbEntity
  8
0
  6
Continuous
 62
     7
370
    25
100
AcDbCircle
 10
6361.5479714429
 20
4962.1248981345
 30
0.0
 40
0.8000000000001819
100
AcDbArc
 50
180.0
 51
244.3966985176
  0
ARC
  5
102
330
1F
100
AcDbEntity
  8
0
  6
Continuous
 62
     7
370
    25
100
AcDbCircle
 10
6361.5479714429
 20
4962.1248981345
 30
0.0
 40
1.799999999999967
100
AcDbArc
 50
180.0
 51
233.4880431568
  0
LINE
  5
103
330
1F
100
AcDbEntity
  8
0
  6
Continuous
 62
     7
370
    25
100
AcDbLine
 10
6360.7479714429
 20
4963.777589328
 30
0.0
 11
6360.7479714429
 21
4962.1248981345
 31
0.0
  0
LINE
  5
104
330
1F
100
AcDbEntity
  8
0
  6
Continuous
 62
     7
370
    25
100
AcDbLine
 10
6359.7479714429
 20
4962.777589328
 30
0.0
 11
6359.7479714429
 21
4962.1248981345
 31
0.0
  0
LINE
  5
105
330
1F
100
AcDbEntity
  8
0
  6
Continuous
 62
     7
370
    25
100
AcDbLine
 10
6556.6710161808
 20
4963.777589328
 30
0.0
 11
6556.6710161808
 21
4962.1248981345
 31
0.0
  0
LINE
  5
106
330
1F
100
AcDbEntity
  8
0
  6
Continuous
 62
     7
370
    25
100
AcDbLine
 10
6557.6710161808
 20
4962.777589328
 30
0.0
 11
6557.6710161808
 21
4962.1248981345
 31
0.0
  0
LINE
  5
107
330
1F
100
AcDbEntity
  8
0
  6
Continuous
 62
     7
370
    25
100
AcDbLine
 10
6359.7479714429
 20
5157.8722069411
 30
0.0
 11
6359.7479714429
 21
5158.5248981346
 31
0.0
  0
LINE
  5
108
330
1F
100
AcDbEntity
  8
0
  6
Continuous
 62
     7
370
    25
100
AcDbLine
 10
6360.7479714429
 20
5156.8722069411
 30
0.0
 11
6360.7479714429
 21
5158.5248981346
 31
0.0
  0
LINE
  5
109
330
1F
100
AcDbEntity
  8
0
  6
Continuous
 62
     7
370
    25
100
AcDbLine
 10
6557.6710161808
 20
5157.8722069411
 30
0.0
 11
6557.6710161808
 21
5158.5248981346
 31
0.0
  0
LINE
  5
10A
330
1F
100
AcDbEntity
  8
0
  6
Continuous
 62
     7
370
    25
100
AcDbLine
 10
6556.6710161808
 20
5156.8722069411
 30
0.0
 11
6556.6710161808
 21
5158.5248981346
 31
0.0
  0
LINE
  5
10B
330
1F
100
AcDbEntity
  8
0
  6
Continuous
 62
     7
370
    25
100
AcDbLine
 10
6359.7479714429
 20
5158.0855514981
 30
0.0
 11
6359.6126805396
 21
5158.0074978443
 31
0.0
  0
LINE
  5
10C
330
1F
100
AcDbEntity
  8
0
  6
Continuous
 62
     7
370
    25
100
AcDbLine
 10
6359.6126805396
 20
4962.6422984248
 30
0.0
 11
6359.7479714429
 21
4962.564244771
 31
0.0
  0
LINE
  5
10D
330
1F
100
AcDbEntity
  8
0
  6
Continuous
 62
     7
370
    25
100
AcDbLine
 10
6556.1106648649
 20
4961.5095135191
 30
0.0
 11
6556.6445402049
 21
4961.9207888892
 31
0.0
  0
LINE
  5
10E
330
1F
100
AcDbEntity
  8
0
  6
Continuous
 62
     7
370
    25
100
AcDbLine
 10
6557.806307084
 20
5158.0074978443
 30
0.0
 11
6557.6710161808
 21
5158.085551498
 31
0.0
  0
LINE
  5
10F
330
1F
100
AcDbEntity
  8
0
  6
Continuous
 62
     7
370
    25
100
AcDbLine
 10
6360.7744474187
 20
4961.9207888892
 30
0.0
 11
6361.3083227588
 21
4961.5095135191
 31
0.0
  0
LINE
  5
110
330
1F
100
AcDbEntity
  8
0
  6
Continuous
 62
     7
370
    25
100
AcDbLine
 10
6557.6710161808
 20
4962.564244771
 30
0.0
 11
6557.806307084
 21
4962.6422984247
 31
0.0
  0
LINE
  5
111
330
1F
100
AcDbEntity
  8
0
  6
Continuous
 62
     7
370
    25
100
AcDbLine
 10
6361.3083227588
 20
5159.14028275
 30
0.0
 11
6360.7744474187
 21
5158.7290073799
 31
0.0
  0
LINE
  5
112
330
1F
100
AcDbEntity
  8
0
  6
Continuous
 62
     7
370
    25
100
AcDbLine
 10
6556.6445402049
 20
5158.7290073799
 30
0.0
 11
6556.1106648649
 21
5159.14028275
 31
0.0
  0
ARC
  5
113
330
1F
100
AcDbEntity
  8
0
  6
Continuous
 62
     7
370
    25
100
AcDbCircle
 10
6344.1947751861
 20
4937.3248981346
 30
0.0
 40
5.0
100
AcDbArc
 50
135.0
 51
270.0
  0
LINE
  5
114
330
1F
100
AcDbEntity
  8
0
  6
Continuous
 62
     7
370
    25
100
AcDbLine
 10
6370.3237073742
 20
4970.5248981346
 30
0.0
 11
6340.6592412802
 21
4940.8604320405
 31
0.0
  0
LINE
  5
115
330
1F
100
AcDbEntity
  8
0
  6
Continuous
 62
     7
370
    25
100
AcDbLine
 10
6370.3237073742
 20
4970.5248981346
 30
0.0
 11
6547.0952802494
 21
4970.5248981346
 31
0.0
  0
LINE
  5
116
330
1F
100
AcDbEntity
  8
0
  6
Continuous
 62
     7
370
    25
100
AcDbLine
 10
6576.7597463435
 20
4940.8604320405
 30
0.0
 11
6547.0952802494
 21
4970.5248981346
 31
0.0
  0
ARC
  5
117
330
1F
100
AcDbEntity
  8
0
  6
Continuous
 62
     7
370
    25
100
AcDbCircle
 10
6573.2242124375
 20
4937.3248981346
 30
0.0
 40
5.0
100
AcDbArc
 50
270.0
 51
45.0
  0
LINE
  5
118
330
1F
100
AcDbEntity
  8
0
  6
Continuous
 62
     7
370
    25
100
AcDbLine
 10
6344.1947751861
 20
4932.3248981346
 30
0.0
 11
6573.2242124375
 21
4932.3248981346
 31
0.0
  0
ARC
  5
119
330
1F
100
AcDbEntity
  8
0
  6
Continuous
 62
     7
370
    25
100
AcDbCircle
 10
6458.7094938118
 20
5060.3248981346
 30
0.0
 40
122.9999999999999
100
AcDbArc
 50
265.0
 51
275.0
  0
ARC
  5
11A
330
1F
100
AcDbEntity
  8
0
  6
Continuous
 62
     7
370
    25
100
AcDbCircle
 10
6469.1681829415
 20
4940.7815343635
 30
0.0
 40
3.000000000000013
100
AcDbArc
 50
275.0
 51
95.0
  0
ARC
  5
11B
330
1F
100
AcDbEntity
  8
0
  6
Continuous
 62
     7
370
    25
100
AcDbCircle
 10
6458.7094938118
 20
5060.3248981346
 30
0.0
 40
117.0000000000009
100
AcDbArc
 50
265.0
 51
275.0
  0
ARC
  5
11C
330
1F
100
AcDbEntity
  8
0
  6
Continuous
 62
     7
370
    25
100
AcDbCircle
 10
6448.2508046821
 20
4940.7815343635
 30
0.0
 40
2.999999999999934
100
AcDbArc
 50
85.0
 51
265.0
  0
LINE
  5
11D
330
1F
100
AcDbEntity
  8
0
  6
Continuous
 62
     7
370
    25
100
AcDbLine
 10
6421.6188011656
 20
4959.3248981346
 30
0.0
 11
6367.4374158732
 21
4959.3248981346
 31
0.0
  0
ARC
  5
11E
330
1F
100
AcDbEntity
  8
0
  6
Continuous
 62
     7
370
    25
100
AcDbCircle
 10
6367.4374158732
 20
4956.3248981346
 30
0.0
 40
3.0
100
AcDbArc
 50
90.0
 51
270.0
  0
LINE
  5
11F
330
1F
100
AcDbEntity
  8
0
  6
Continuous
 62
     7
370
    25
100
AcDbLine
 10
6438.2508046821
 20
4943.3248981346
 30
0.0
 11
6351.4374158732
 21
4943.3248981346
 31
0.0
  0
ARC
  5
120
330
1F
100
AcDbEntity
  8
0
  6
Continuous
 62
     7
370
    25
100
AcDbCircle
 10
6351.4374158732
 20
4940.3248981346
 30
0.0
 40
3.0
100
AcDbArc
 50
90.0
 51
270.0
  0
ARC
  5
121
330
1F
100
AcDbEntity
  8
0
  6
Continuous
 62
     7
370
    25
100
AcDbCircle
 10
6438.2508046821
 20
4940.3248981346
 30
0.0
 40
3.0
100
AcDbArc
 50
270.0
 51
90.0
  0
LINE
  5
122
330
1F
100
AcDbEntity
  8
0
  6
Continuous
 62
     7
370
    25
100
AcDbLine
 10
6479.1681829415
 20
4937.3248981346
 30
0.0
 11
6565.9815717505
 21
4937.3248981346
 31
0.0
  0
ARC
  5
123
330
1F
100
AcDbEntity
  8
0
  6
Continuous
 62
     7
370
    25
100
AcDbCircle
 10
6565.9815717505
 20
4940.3248981346
 30
0.0
 40
3.0
100
AcDbArc
 50
270.0
 51
90.0
  0
LINE
  5
124
330
1F
100
AcDbEntity
  8
0
  6
Continuous
 62
     7
370
    25
100
AcDbLine
 10
6565.9815717505
 20
4943.3248981346
 30
0.0
 11
6479.1681829415
 21
4943.3248981346
 31
0.0
  0
ARC
  5
125
330
1F
100
AcDbEntity
  8
0
  6
Continuous
 62
     7
370
    25
100
AcDbCircle
 10
6479.1681829415
 20
4940.3248981346
 30
0.0
 40
3.0
100
AcDbArc
 50
90.0
 51
270.0
  0
LINE
  5
126
330
1F
100
AcDbEntity
  8
0
  6
Continuous
 62
     7
370
    25
100
AcDbLine
 10
6549.9815717504
 20
4959.3248981346
 30
0.0
 11
6495.800186458
 21
4959.3248981346
 31
0.0
  0
ARC
  5
127
330
1F
100
AcDbEntity
  8
0
  6
Continuous
 62
     7
370
    25
100
AcDbCircle
 10
6495.800186458
 20
4956.3248981346
 30
0.0
 40
3.0
100
AcDbArc
 50
90.0
 51
270.0
  0
LINE
  5
128
330
1F
100
AcDbEntity
  8
0
  6
Continuous
 62
     7
370
    25
100
AcDbLine
 10
6495.800186458
 20
4953.3248981346
 30
0.0
 11
6549.9815717504
 21
4953.3248981346
 31
0.0
  0
ARC
  5
129
330
1F
100
AcDbEntity
  8
0
  6
Continuous
 62
     7
370
    25
100
AcDbCircle
 10
6549.9815717504
 20
4956.3248981346
 30
0.0
 40
3.0
100
AcDbArc
 50
270.0
 51
90.0
  0
LINE
  5
12A
330
1F
100
AcDbEntity
  8
0
  6
Continuous
 62
     7
370
    25
100
AcDbLine
 10
6485.800186458
 20
4959.3248981346
 30
0.0
 11
6431.6188011656
 21
4959.3248981346
 31
0.0
  0
ARC
  5
12B
330
1F
100
AcDbEntity
  8
0
  6
Continuous
 62
     7
370
    25
100
AcDbCircle
 10
6431.6188011656
 20
4956.3248981346
 30
0.0
 40
3.0
100
AcDbArc
 50
90.0
 51
270.0
  0
LINE
  5
12C
330
1F
100
AcDbEntity
  8
0
  6
Continuous
 62
     7
370
    25
100
AcDbLine
 10
6431.6188011656
 20
4953.3248981346
 30
0.0
 11
6485.800186458
 21
4953.3248981346
 31
0.0
  0
ARC
  5
12D
330
1F
100
AcDbEntity
  8
0
  6
Continuous
 62
     7
370
    25
100
AcDbCircle
 10
6485.800186458
 20
4956.3248981346
 30
0.0
 40
3.0
100
AcDbArc
 50
270.0
 51
90.0
  0
ARC
  5
12E
330
1F
100
AcDbEntity
  8
0
  6
Continuous
 62
     7
370
    25
100
AcDbCircle
 10
6421.6188011656
 20
4956.3248981346
 30
0.0
 40
3.0
100
AcDbArc
 50
270.0
 51
90.0
  0
LINE
  5
12F
330
1F
100
AcDbEntity
  8
0
  6
Continuous
 62
     7
370
    25
100
AcDbLine
 10
6367.4374158732
 20
4953.3248981346
 30
0.0
 11
6421.6188011656
 21
4953.3248981346
 31
0.0
  0
LINE
  5
130
330
1F
100
AcDbEntity
  8
0
  6
Continuous
 62
     7
370
    25
100
AcDbLine
 10
6351.4374158732
 20
4937.3248981346
 30
0.0
 11
6438.2508046821
 21
4937.3248981346
 31
0.0
  0
LINE
  5
131
330
1F
100
AcDbEntity
  8
0
  6
Continuous
 62
     7
370
    25
100
AcDbLine
 10
6548.5094938118
 20
4971.939111697
 30
0.0
 11
6548.5094938118
 21
5148.7106845721
 31
0.0
  0
LINE
  5
132
330
1F
100
AcDbEntity
  8
0
  6
Continuous
 62
     7
370
    25
100
AcDbLine
 10
6578.1739599059
 20
5178.3751506662
 30
0.0
 11
6548.5094938118
 21
5148.7106845721
 31
0.0
  0
ARC
  5
133
330
1F
100
AcDbEntity
  8
0
  6
Continuous
 62
     7
370
    25
100
AcDbCircle
 10
6581.7094938118
 20
5174.8396167603
 30
0.0
 40
5.000000000000201
100
AcDbArc
 50
0.0
 51
135.0
  0
LINE
  5
134
330
1F
100
AcDbEntity
  8
0
  6
Continuous
 62
     7
370
    25
100
AcDbLine
 10
6586.7094938118
 20
4945.8101795088
 30
0.0
 11
6586.7094938118
 21
5174.8396167603
 31
0.0
  0
ARC
  5
135
330
1F
100
AcDbEntity
  8
0
  6
Continuous
 62
     7
370
    25
100
AcDbCircle
 10
6581.7094938118
 20
4945.8101795088
 30
0.0
 40
5.0
100
AcDbArc
 50
225.0
 51
0.0
  0
LINE
  5
136
330
1F
100
AcDbEntity
  8
0
  6
Continuous
 62
     7
370
    25
100
AcDbLine
 10
6548.5094938118
 20
4971.939111697
 30
0.0
 11
6578.1739599059
 21
4942.2746456029
 31
0.0
  0
ARC
  5
137
330
1F
100
AcDbEntity
  8
0
  6
Continuous
 62
     7
370
    25
100
AcDbCircle
 10
6578.2528575828
 20
5070.7835872643
 30
0.0
 40
3.000000000000013
100
AcDbArc
 50
5.0
 51
185.0
  0
ARC
  5
138
330
1F
100
AcDbEntity
  8
0
  6
Continuous
 62
     7
370
    25
100
AcDbCircle
 10
6458.7094938118
 20
5060.3248981346
 30
0.0
 40
117.0
100
AcDbArc
 50
355.0
 51
5.0
  0
LINE
  5
139
330
1F
100
AcDbEntity
  8
0
  6
Continuous
 62
     7
370
    25
100
AcDbLine
 10
6581.7094938118
 20
5080.7835872643
 30
0.0
 11
6581.7094938118
 21
5167.5969760732
 31
0.0
  0
ARC
  5
13A
330
1F
100
AcDbEntity
  8
0
  6
Continuous
 62
     7
370
    25
100
AcDbCircle
 10
6578.7094938118
 20
5167.5969760732
 30
0.0
 40
3.0
100
AcDbArc
 50
0.0
 51
180.0
  0
LINE
  5
13B
330
1F
100
AcDbEntity
  8
0
  6
Continuous
 62
     7
370
    25
100
AcDbLine
 10
6575.7094938118
 20
5167.5969760732
 30
0.0
 11
6575.7094938118
 21
5080.7835872643
 31
0.0
  0
LINE
  5
13C
330
1F
100
AcDbEntity
  8
0
  6
Continuous
 62
     7
370
    25
100
AcDbLine
 10
6559.7094938118
 20
5151.5969760732
 30
0.0
 11
6559.7094938118
 21
5097.4155907808
 31
0.0
  0
ARC
  5
13D
330
1F
100
AcDbEntity
  8
0
  6
Continuous
 62
     7
370
    25
100
AcDbCircle
 10
6562.7094938118
 20
5097.4155907808
 30
0.0
 40
3.0
100
AcDbArc
 50
180.0
 51
0.0
  0
LINE
  5
13E
330
1F
100
AcDbEntity
  8
0
  6
Continuous
 62
     7
370
    25
100
AcDbLine
 10
6565.7094938118
 20
5097.4155907808
 30
0.0
 11
6565.7094938118
 21
5151.5969760732
 31
0.0
  0
ARC
  5
13F
330
1F
100
AcDbEntity
  8
0
  6
Continuous
 62
     7
370
    25
100
AcDbCircle
 10
6562.7094938118
 20
5151.5969760732
 30
0.0
 40
3.0
100
AcDbArc
 50
0.0
 51
180.0
  0
LINE
  5
140
330
1F
100
AcDbEntity
  8
0
  6
Continuous
 62
     7
370
    25
100
AcDbLine
 10
6559.7094938118
 20
5087.4155907808
 30
0.0
 11
6559.7094938118
 21
5033.2342054884
 31
0.0
  0
ARC
  5
141
330
1F
100
AcDbEntity
  8
0
  6
Continuous
 62
     7
370
    25
100
AcDbCircle
 10
6562.7094938118
 20
5033.2342054884
 30
0.0
 40
3.0
100
AcDbArc
 50
180.0
 51
0.0
  0
LINE
  5
142
330
1F
100
AcDbEntity
  8
0
  6
Continuous
 62
     7
370
    25
100
AcDbLine
 10
6565.7094938118
 20
5033.2342054884
 30
0.0
 11
6565.7094938118
 21
5087.4155907808
 31
0.0
  0
ARC
  5
143
330
1F
100
AcDbEntity
  8
0
  6
Continuous
 62
     7
370
    25
100
AcDbCircle
 10
6562.7094938118
 20
5087.4155907808
 30
0.0
 40
3.0
100
AcDbArc
 50
0.0
 51
180.0
  0
LINE
  5
144
330
1F
100
AcDbEntity
  8
0
  6
Continuous
 62
     7
370
    25
100
AcDbLine
 10
6559.7094938118
 20
5023.2342054884
 30
0.0
 11
6559.7094938118
 21
4969.052820196
 31
0.0
  0
ARC
  5
145
330
1F
100
AcDbEntity
  8
0
  6
Continuous
 62
     7
370
    25
100
AcDbCircle
 10
6562.7094938118
 20
4969.052820196
 30
0.0
 40
3.0
100
AcDbArc
 50
180.0
 51
0.0
  0
LINE
  5
146
330
1F
100
AcDbEntity
  8
0
  6
Continuous
 62
     7
370
    25
100
AcDbLine
 10
6565.7094938118
 20
4969.052820196
 30
0.0
 11
6565.7094938118
 21
5023.2342054884
 31
0.0
  0
ARC
  5
147
330
1F
100
AcDbEntity
  8
0
  6
Continuous
 62
     7
370
    25
100
AcDbCircle
 10
6562.7094938118
 20
5023.2342054884
 30
0.0
 40
3.0
100
AcDbArc
 50
0.0
 51
180.0
  0
LINE
  5
148
330
1F
100
AcDbEntity
  8
0
  6
Continuous
 62
     7
370
    25
100
AcDbLine
 10
6575.7094938118
 20
5039.8662090048
 30
0.0
 11
6575.7094938118
 21
4953.0528201959
 31
0.0
  0
ARC
  5
149
330
1F
100
AcDbEntity
  8
0
  6
Continuous
 62
     7
370
    25
100
AcDbCircle
 10
6578.7094938118
 20
4953.0528201959
 30
0.0
 40
3.0
100
AcDbArc
 50
180.0
 51
0.0
  0
LINE
  5
14A
330
1F
100
AcDbEntity
  8
0
  6
Continuous
 62
     7
370
    25
100
AcDbLine
 10
6581.7094938118
 20
4953.0528201959
 30
0.0
 11
6581.7094938118
 21
5039.8662090048
 31
0.0
  0
ARC
  5
14B
330
1F
100
AcDbEntity
  8
0
  6
Continuous
 62
     7
370
    25
100
AcDbCircle
 10
6578.7094938118
 20
5039.8662090048
 30
0.0
 40
3.0
100
AcDbArc
 50
0.0
 51
180.0
  0
ARC
  5
14C
330
1F
100
AcDbEntity
  8
0
  6
Continuous
 62
     7
370
    25
100
AcDbCircle
 10
6458.7094938118
 20
5060.3248981346
 30
0.0
 40
122.9999999999999
100
AcDbArc
 50
355.0
 51
5.0
  0
ARC
  5
14D
330
1F
100
AcDbEntity
  8
0
  6
Continuous
 62
     7
370
    25
100
AcDbCircle
 10
6578.2528575828
 20
5049.8662090048
 30
0.0
 40
2.999999999999934
100
AcDbArc
 50
175.0
 51
355.0
  0
ARC
  5
14E
330
1F
100
AcDbEntity
  8
0
  6
Continuous
 62
     7
370
    25
100
AcDbCircle
 10
6578.7094938118
 20
5080.7835872643
 30
0.0
 40
3.0
100
AcDbArc
 50
180.0
 51
0.0
  0
ARC
  5
14F
330
1F
100
AcDbEntity
  8
0
  6
Continuous
 62
     7
370
    25
100
AcDbCircle
 10
6335.7094938118
 20
5174.8396167603
 30
0.0
 40
5.000000000000201
100
AcDbArc
 50
45.0
 51
180.0
  0
LINE
  5
150
330
1F
100
AcDbEntity
  8
0
  6
Continuous
 62
     7
370
    25
100
AcDbLine
 10
6368.9094938118
 20
5148.7106845721
 30
0.0
 11
6339.2450277177
 21
5178.3751506662
 31
0.0
  0
LINE
  5
151
330
1F
100
AcDbEntity
  8
0
  6
Continuous
 62
     7
370
    25
100
AcDbLine
 10
6368.9094938118
 20
5148.7106845721
 30
0.0
 11
6368.9094938118
 21
4971.9391116969
 31
0.0
  0
LINE
  5
152
330
1F
100
AcDbEntity
  8
0
  6
Continuous
 62
     7
370
    25
100
AcDbLine
 10
6339.2450277177
 20
4942.2746456029
 30
0.0
 11
6368.9094938118
 21
4971.9391116969
 31
0.0
  0
ARC
  5
153
330
1F
100
AcDbEntity
  8
0
  6
Continuous
 62
     7
370
    25
100
AcDbCircle
 10
6335.7094938118
 20
4945.8101795088
 30
0.0
 40
5.0
100
AcDbArc
 50
180.0
 51
315.0
  0
LINE
  5
154
330
1F
100
AcDbEntity
  8
0
  6
Continuous
 62
     7
370
    25
100
AcDbLine
 10
6330.7094938118
 20
5174.8396167603
 30
0.0
 11
6330.7094938118
 21
4945.8101795088
 31
0.0
  0
ARC
  5
155
330
1F
100
AcDbEntity
  8
0
  6
Continuous
 62
     7
370
    25
100
AcDbCircle
 10
6458.7094938118
 20
5060.3248981346
 30
0.0
 40
122.9999999999999
100
AcDbArc
 50
175.0
 51
185.0
  0
ARC
  5
156
330
1F
100
AcDbEntity
  8
0
  6
Continuous
 62
     7
370
    25
100
AcDbCircle
 10
6339.1661300408
 20
5049.8662090048
 30
0.0
 40
3.00000000000084
100
AcDbArc
 50
185.0
 51
5.0
  0
LINE
  5
157
330
1F
100
AcDbEntity
  8
0
  6
Continuous
 62
     7
370
    25
100
AcDbLine
 10
6341.7094938118
 20
5080.7835872643
 30
0.0
 11
6341.7094938118
 21
5167.5969760732
 31
0.0
  0
ARC
  5
158
330
1F
100
AcDbEntity
  8
0
  6
Continuous
 62
     7
370
    25
100
AcDbCircle
 10
6338.7094938118
 20
5167.5969760732
 30
0.0
 40
3.0
100
AcDbArc
 50
0.0
 51
180.0
  0
LINE
  5
159
330
1F
100
AcDbEntity
  8
0
  6
Continuous
 62
     7
370
    25
100
AcDbLine
 10
6335.7094938118
 20
5167.5969760732
 30
0.0
 11
6335.7094938118
 21
5080.7835872643
 31
0.0
  0
ARC
  5
15A
330
1F
100
AcDbEntity
  8
0
  6
Continuous
 62
     7
370
    25
100
AcDbCircle
 10
6338.7094938118
 20
5080.7835872643
 30
0.0
 40
3.0
100
AcDbArc
 50
180.0
 51
0.0
  0
LINE
  5
15B
330
1F
100
AcDbEntity
  8
0
  6
Continuous
 62
     7
370
    25
100
AcDbLine
 10
6357.7094938118
 20
5097.4155907807
 30
0.0
 11
6357.7094938118
 21
5151.5969760732
 31
0.0
  0
ARC
  5
15C
330
1F
100
AcDbEntity
  8
0
  6
Continuous
 62
     7
370
    25
100
AcDbCircle
 10
6354.7094938118
 20
5097.4155907807
 30
0.0
 40
3.0
100
AcDbArc
 50
180.0
 51
0.0
  0
LINE
  5
15D
330
1F
100
AcDbEntity
  8
0
  6
Continuous
 62
     7
370
    25
100
AcDbLine
 10
6357.7094938118
 20
5033.2342054883
 30
0.0
 11
6357.7094938118
 21
5087.4155907807
 31
0.0
  0
ARC
  5
15E
330
1F
100
AcDbEntity
  8
0
  6
Continuous
 62
     7
370
    25
100
AcDbCircle
 10
6354.7094938118
 20
5087.4155907807
 30
0.0
 40
3.0
100
AcDbArc
 50
0.0
 51
180.0
  0
ARC
  5
15F
330
1F
100
AcDbEntity
  8
0
  6
Continuous
 62
     7
370
    25
100
AcDbCircle
 10
6354.7094938118
 20
5033.2342054883
 30
0.0
 40
3.0
100
AcDbArc
 50
180.0
 51
0.0
  0
LINE
  5
160
330
1F
100
AcDbEntity
  8
0
  6
Continuous
 62
     7
370
    25
100
AcDbLine
 10
6335.7094938118
 20
5039.8662090048
 30
0.0
 11
6335.7094938118
 21
4953.0528201959
 31
0.0
  0
ARC
  5
161
330
1F
100
AcDbEntity
  8
0
  6
Continuous
 62
     7
370
    25
100
AcDbCircle
 10
6338.7094938118
 20
4953.0528201959
 30
0.0
 40
3.0
100
AcDbArc
 50
180.0
 51
0.0
  0
LINE
  5
162
330
1F
100
AcDbEntity
  8
0
  6
Continuous
 62
     7
370
    25
100
AcDbLine
 10
6341.7094938118
 20
4953.0528201959
 30
0.0
 11
6341.7094938118
 21
5039.8662090048
 31
0.0
  0
ARC
  5
163
330
1F
100
AcDbEntity
  8
0
  6
Continuous
 62
     7
370
    25
100
AcDbCircle
 10
6338.7094938118
 20
5039.8662090048
 30
0.0
 40
3.0
100
AcDbArc
 50
0.0
 51
180.0
  0
LINE
  5
164
330
1F
100
AcDbEntity
  8
0
  6
Continuous
 62
     7
370
    25
100
AcDbLine
 10
6357.7094938118
 20
4969.0528201959
 30
0.0
 11
6357.7094938118
 21
5023.2342054883
 31
0.0
  0
ARC
  5
165
330
1F
100
AcDbEntity
  8
0
  6
Continuous
 62
     7
370
    25
100
AcDbCircle
 10
6354.7094938118
 20
5023.2342054883
 30
0.0
 40
3.0
100
AcDbArc
 50
0.0
 51
180.0
  0
ARC
  5
166
330
1F
100
AcDbEntity
  8
0
  6
Continuous
 62
     7
370
    25
100
AcDbCircle
 10
6354.7094938118
 20
4969.0528201959
 30
0.0
 40
3.0
100
AcDbArc
 50
180.0
 51
0.0
  0
LINE
  5
167
330
1F
100
AcDbEntity
  8
0
  6
Continuous
 62
     7
370
    25
100
AcDbLine
 10
6351.7094938118
 20
5087.4155907807
 30
0.0
 11
6351.7094938118
 21
5033.2342054883
 31
0.0
  0
LINE
  5
168
330
1F
100
AcDbEntity
  8
0
  6
Continuous
 62
     7
370
    25
100
AcDbLine
 10
6351.7094938118
 20
5151.5969760732
 30
0.0
 11
6351.7094938118
 21
5097.4155907807
 31
0.0
  0
ARC
  5
169
330
1F
100
AcDbEntity
  8
0
  6
Continuous
 62
     7
370
    25
100
AcDbCircle
 10
6354.7094938118
 20
5151.5969760732
 30
0.0
 40
3.0
100
AcDbArc
 50
0.0
 51
180.0
  0
LINE
  5
16A
330
1F
100
AcDbEntity
  8
0
  6
Continuous
 62
     7
370
    25
100
AcDbLine
 10
6351.7094938118
 20
5023.2342054883
 30
0.0
 11
6351.7094938118
 21
4969.0528201959
 31
0.0
  0
ARC
  5
16B
330
1F
100
AcDbEntity
  8
0
  6
Continuous
 62
     7
370
    25
100
AcDbCircle
 10
6458.7094938118
 20
5060.3248981346
 30
0.0
 40
117.0
100
AcDbArc
 50
175.0
 51
185.0
  0
ARC
  5
16C
330
1F
100
AcDbEntity
  8
0
  6
Continuous
 62
     7
370
    25
100
AcDbCircle
 10
6339.1661300408
 20
5070.7835872643
 30
0.0
 40
3.000000000000919
100
AcDbArc
 50
355.0
 51
175.0
  0
LINE
  5
16D
330
1F
100
AcDbEntity
  8
0
  6
Continuous
 62
     7
370
    25
100
AcDbLine
 10
6547.0952802494
 20
5150.1248981346
 30
0.0
 11
6370.3237073742
 21
5150.1248981346
 31
0.0
  0
LINE
  5
16E
330
1F
100
AcDbEntity
  8
0
  6
Continuous
 62
     7
370
    25
100
AcDbLine
 10
6340.6592412802
 20
5179.7893642286
 30
0.0
 11
6370.3237073742
 21
5150.1248981346
 31
0.0
  0
ARC
  5
16F
330
1F
100
AcDbEntity
  8
0
  6
Continuous
 62
     7
370
    25
100
AcDbCircle
 10
6344.1947751861
 20
5183.3248981346
 30
0.0
 40
5.000000000000844
100
AcDbArc
 50
90.0
 51
225.0
  0
LINE
  5
170
330
1F
100
AcDbEntity
  8
0
  6
Continuous
 62
     7
370
    25
100
AcDbLine
 10
6573.2242124376
 20
5188.3248981346
 30
0.0
 11
6344.1947751861
 21
5188.3248981346
 31
0.0
  0
ARC
  5
171
330
1F
100
AcDbEntity
  8
0
  6
Continuous
 62
     7
370
    25
100
AcDbCircle
 10
6573.2242124376
 20
5183.3248981346
 30
0.0
 40
5.000000000000844
100
AcDbArc
 50
315.0
 51
90.0
  0
LINE
  5
172
330
1F
100
AcDbEntity
  8
0
  6
Continuous
 62
     7
370
    25
100
AcDbLine
 10
6547.0952802494
 20
5150.1248981346
 30
0.0
 11
6576.7597463435
 21
5179.7893642286
 31
0.0
  0
ARC
  5
173
330
1F
100
AcDbEntity
  8
0
  6
Continuous
 62
     7
370
    25
100
AcDbCircle
 10
6458.7094938118
 20
5060.3248981346
 30
0.0
 40
122.9999999999999
100
AcDbArc
 50
85.0
 51
95.0
  0
ARC
  5
174
330
1F
100
AcDbEntity
  8
0
  6
Continuous
 62
     7
370
    25
100
AcDbCircle
 10
6448.2508046821
 20
5179.8682619056
 30
0.0
 40
3.00000000000084
100
AcDbArc
 50
95.0
 51
275.0
  0
ARC
  5
175
330
1F
100
AcDbEntity
  8
0
  6
Continuous
 62
     7
370
    25
100
AcDbCircle
 10
6458.7094938118
 20
5060.3248981346
 30
0.0
 40
116.9999999999991
100
AcDbArc
 50
85.0
 51
95.0
  0
ARC
  5
176
330
1F
100
AcDbEntity
  8
0
  6
Continuous
 62
     7
370
    25
100
AcDbCircle
 10
6469.1681829415
 20
5179.8682619056
 30
0.0
 40
3.00000000000084
100
AcDbArc
 50
265.0
 51
85.0
  0
LINE
  5
177
330
1F
100
AcDbEntity
  8
0
  6
Continuous
 62
     7
370
    25
100
AcDbLine
 10
6438.2508046821
 20
5183.3248981346
 30
0.0
 11
6351.4374158732
 21
5183.3248981346
 31
0.0
  0
ARC
  5
178
330
1F
100
AcDbEntity
  8
0
  6
Continuous
 62
     7
370
    25
100
AcDbCircle
 10
6351.4374158732
 20
5180.3248981346
 30
0.0
 40
3.0
100
AcDbArc
 50
90.0
 51
270.0
  0
LINE
  5
179
330
1F
100
AcDbEntity
  8
0
  6
Continuous
 62
     7
370
    25
100
AcDbLine
 10
6351.4374158732
 20
5177.3248981346
 30
0.0
 11
6438.2508046821
 21
5177.3248981346
 31
0.0
  0
ARC
  5
17A
330
1F
100
AcDbEntity
  8
0
  6
Continuous
 62
     7
370
    25
100
AcDbCircle
 10
6438.2508046821
 20
5180.3248981346
 30
0.0
 40
3.0
100
AcDbArc
 50
270.0
 51
90.0
  0
ARC
  5
17B
330
1F
100
AcDbEntity
  8
0
  6
Continuous
 62
     7
370
    25
100
AcDbCircle
 10
6421.6188011656
 20
5164.3248981346
 30
0.0
 40
3.0
100
AcDbArc
 50
270.0
 51
90.0
  0
LINE
  5
17C
330
1F
100
AcDbEntity
  8
0
  6
Continuous
 62
     7
370
    25
100
AcDbLine
 10
6421.6188011656
 20
5167.3248981346
 30
0.0
 11
6367.4374158732
 21
5167.3248981346
 31
0.0
  0
ARC
  5
17D
330
1F
100
AcDbEntity
  8
0
  6
Continuous
 62
     7
370
    25
100
AcDbCircle
 10
6367.4374158732
 20
5164.3248981346
 30
0.0
 40
3.0
100
AcDbArc
 50
90.0
 51
270.0
  0
LINE
  5
17E
330
1F
100
AcDbEntity
  8
0
  6
Continuous
 62
     7
370
    25
100
AcDbLine
 10
6431.6188011656
 20
5161.3248981346
 30
0.0
 11
6485.800186458
 21
5161.3248981346
 31
0.0
  0
ARC
  5
17F
330
1F
100
AcDbEntity
  8
0
  6
Continuous
 62
     7
370
    25
100
AcDbCircle
 10
6485.800186458
 20
5164.3248981346
 30
0.0
 40
3.0
100
AcDbArc
 50
270.0
 51
90.0
  0
LINE
  5
180
330
1F
100
AcDbEntity
  8
0
  6
Continuous
 62
     7
370
    25
100
AcDbLine
 10
6549.9815717504
 20
5167.3248981346
 30
0.0
 11
6495.800186458
 21
5167.3248981346
 31
0.0
  0
LINE
  5
181
330
1F
100
AcDbEntity
  8
0
  6
Continuous
 62
     7
370
    25
100
AcDbLine
 10
6479.1681829415
 20
5177.3248981346
 30
0.0
 11
6565.9815717505
 21
5177.3248981346
 31
0.0
  0
ARC
  5
182
330
1F
100
AcDbEntity
  8
0
  6
Continuous
 62
     7
370
    25
100
AcDbCircle
 10
6565.9815717505
 20
5180.3248981346
 30
0.0
 40
3.0
100
AcDbArc
 50
270.0
 51
90.0
  0
LINE
  5
183
330
1F
100
AcDbEntity
  8
0
  6
Continuous
 62
     7
370
    25
100
AcDbLine
 10
6565.9815717505
 20
5183.3248981346
 30
0.0
 11
6479.1681829415
 21
5183.3248981346
 31
0.0
  0
LINE
  5
184
330
1F
100
AcDbEntity
  8
0
  6
Continuous
 62
     7
370
    25
100
AcDbLine
 10
6495.800186458
 20
5161.3248981346
 30
0.0
 11
6549.9815717504
 21
5161.3248981346
 31
0.0
  0
ARC
  5
185
330
1F
100
AcDbEntity
  8
0
  6
Continuous
 62
     7
370
    25
100
AcDbCircle
 10
6549.9815717504
 20
5164.3248981346
 30
0.0
 40
3.0
100
AcDbArc
 50
270.0
 51
90.0
  0
LINE
  5
186
330
1F
100
AcDbEntity
  8
0
  6
Continuous
 62
     7
370
    25
100
AcDbLine
 10
6367.4374158732
 20
5161.3248981346
 30
0.0
 11
6421.6188011656
 21
5161.3248981346
 31
0.0
  0
ARC
  5
187
330
1F
100
AcDbEntity
  8
0
  6
Continuous
 62
     7
370
    25
100
AcDbCircle
 10
6495.800186458
 20
5164.3248981346
 30
0.0
 40
3.0
100
AcDbArc
 50
90.0
 51
270.0
  0
ARC
  5
188
330
1F
100
AcDbEntity
  8
0
  6
Continuous
 62
     7
370
    25
100
AcDbCircle
 10
6479.1681829415
 20
5180.3248981346
 30
0.0
 40
3.0
100
AcDbArc
 50
90.0
 51
270.0
  0
ARC
  5
189
330
1F
100
AcDbEntity
  8
0
  6
Continuous
 62
     7
370
    25
100
AcDbCircle
 10
6431.6188011656
 20
5164.3248981346
 30
0.0
 40
3.0
100
AcDbArc
 50
90.0
 51
270.0
  0
LINE
  5
18A
330
1F
100
AcDbEntity
  8
0
  6
Continuous
 62
     7
370
    25
100
AcDbLine
 10
6485.800186458
 20
5167.3248981346
 30
0.0
 11
6431.6188011656
 21
5167.3248981346
 31
0.0
  0
LINE
  5
18B
330
1F
100
AcDbEntity
  8
0
  6
Continuous
 62
     7
370
    25
100
AcDbLine
 10
6370.3237073742
 20
5150.1248981345
 30
0.0
 11
6372.1237073742
 21
5148.3248981346
 31
0.0
  0
LINE
  5
18C
330
1F
100
AcDbEntity
  8
0
  6
Continuous
 62
     7
370
    25
100
AcDbLine
 10
6547.0952802494
 20
4970.5248981346
 30
0.0
 11
6545.2952802494
 21
4972.3248981346
 31
0.0
  0
LINE
  5
18D
330
1F
100
AcDbEntity
  8
0
  6
Continuous
 62
     7
370
    25
100
AcDbLine
 10
6370.7094938118
 20
5146.9106845721
 30
0.0
 11
6370.7094938118
 21
4973.7391116969
 31
0.0
  0
LINE
  5
18E
330
1F
100
AcDbEntity
  8
0
  6
Continuous
 62
     7
370
    25
100
AcDbLine
 10
6368.9094938118
 20
4971.9391116969
 30
0.0
 11
6370.7094938118
 21
4973.7391116969
 31
0.0
  0
LINE
  5
18F
330
1F
100
AcDbEntity
  8
0
  6
Continuous
 62
     7
370
    25
100
AcDbLine
 10
6370.7094938118
 20
5146.9106845721
 30
0.0
 11
6368.9094938118
 21
5148.7106845721
 31
0.0
  0
LINE
  5
190
330
1F
100
AcDbEntity
  8
0
  6
Continuous
 62
     7
370
    25
100
AcDbLine
 10
6548.5094938118
 20
5148.7106845721
 30
0.0
 11
6546.7094938118
 21
5146.9106845721
 31
0.0
  0
LINE
  5
191
330
1F
100
AcDbEntity
  8
0
  6
Continuous
 62
     7
370
    25
100
AcDbLine
 10
6372.1237073742
 20
4972.3248981346
 30
0.0
 11
6545.2952802494
 21
4972.3248981346
 31
0.0
  0
LINE
  5
192
330
1F
100
AcDbEntity
  8
0
  6
Continuous
 62
     7
370
    25
100
AcDbLine
 10
6372.1237073742
 20
4972.3248981346
 30
0.0
 11
6370.3237073742
 21
4970.5248981346
 31
0.0
  0
LINE
  5
193
330
1F
100
AcDbEntity
  8
0
  6
Continuous
 62
     7
370
    25
100
AcDbLine
 10
6545.2952802495
 20
5148.3248981346
 30
0.0
 11
6372.1237073742
 21
5148.3248981346
 31
0.0
  0
LINE
  5
194
330
1F
100
AcDbEntity
  8
0
  6
Continuous
 62
     7
370
    25
100
AcDbLine
 10
6545.2952802495
 20
5148.3248981346
 30
0.0
 11
6547.0952802495
 21
5150.1248981345
 31
0.0
  0
LINE
  5
195
330
1F
100
AcDbEntity
  8
0
  6
Continuous
 62
     7
370
    25
100
AcDbLine
 10
6546.7094938118
 20
4973.739111697
 30
0.0
 11
6546.7094938118
 21
5146.9106845721
 31
0.0
  0
LINE
  5
196
330
1F
100
AcDbEntity
  8
0
  6
Continuous
 62
     7
370
    25
100
AcDbLine
 10
6546.7094938118
 20
4973.739111697
 30
0.0
 11
6548.5094938118
 21
4971.939111697
 31
0.0
  0
LINE
  5
197
330
1F
100
AcDbEntity
  8
0
  6
Continuous
 62
     7
370
    25
100
AcDbLine
 10
6370.7094938118
 20
5146.9106845721
 30
0.0
 11
6371.5094938118
 21
5147.5248981345
 31
0.0
  0
LINE
  5
198
330
1F
100
AcDbEntity
  8
0
  6
Continuous
 62
     7
370
    25
100
AcDbLine
 10
6370.4550782241
 20
5147.1651001598
 30
0.0
 11
6371.5094938118
 21
5147.5248981345
 31
0.0
  0
LINE
  5
199
330
1F
100
AcDbEntity
  8
0
  6
Continuous
 62
     7
370
    25
100
AcDbLine
 10
6546.7094938118
 20
4973.7391116969
 30
0.0
 11
6545.9094938118
 21
4973.1248981345
 31
0.0
  0
LINE
  5
19A
330
1F
100
AcDbEntity
  8
0
  6
Continuous
 62
     7
370
    25
100
AcDbLine
 10
6545.9094938118
 20
4973.1248981346
 30
0.0
 11
6545.9094938118
 21
5147.5248981346
 31
0.0
  0
LINE
  5
19B
330
1F
100
AcDbEntity
  8
0
  6
Continuous
 62
     7
370
    25
100
AcDbLine
 10
6545.9094938118
 20
5147.5248981346
 30
0.0
 11
6546.7094938118
 21
5146.9106845722
 31
0.0
  0
LINE
  5
19C
330
1F
100
AcDbEntity
  8
0
  6
Continuous
 62
     7
370
    25
100
AcDbLine
 10
6545.5496958372
 20
5148.5793137223
 30
0.0
 11
6545.9094938118
 21
5147.5248981346
 31
0.0
  0
LINE
  5
19D
330
1F
100
AcDbEntity
  8
0
  6
Continuous
 62
     7
370
    25
100
AcDbLine
 10
6371.5094938118
 20
5147.5248981346
 30
0.0
 11
6371.8692917865
 21
5148.5793137223
 31
0.0
  0
LINE
  5
19E
330
1F
100
AcDbEntity
  8
0
  6
Continuous
 62
     7
370
    25
100
AcDbLine
 10
6545.9094938118
 20
5147.5248981346
 30
0.0
 11
6546.9639093996
 21
5147.1651001599
 31
0.0
  0
LINE
  5
19F
330
1F
100
AcDbEntity
  8
0
  6
Continuous
 62
     7
370
    25
100
AcDbLine
 10
6546.9639093996
 20
4973.4846961092
 30
0.0
 11
6545.9094938118
 21
4973.1248981345
 31
0.0
  0
LINE
  5
1A0
330
1F
100
AcDbEntity
  8
0
  6
Continuous
 62
     7
370
    25
100
AcDbLine
 10
6545.2952802495
 20
5148.3248981346
 30
0.0
 11
6545.9094938118
 21
5147.5248981346
 31
0.0
  0
LINE
  5
1A1
330
1F
100
AcDbEntity
  8
0
  6
Continuous
 62
     7
370
    25
100
AcDbLine
 10
6545.9094938118
 20
5147.5248981346
 30
0.0
 11
6371.5094938118
 21
5147.5248981346
 31
0.0
  0
LINE
  5
1A2
330
1F
100
AcDbEntity
  8
0
  6
Continuous
 62
     7
370
    25
100
AcDbLine
 10
6371.5094938118
 20
5147.5248981346
 30
0.0
 11
6372.1237073742
 21
5148.3248981346
 31
0.0
  0
LINE
  5
1A3
330
1F
100
AcDbEntity
  8
0
  6
Continuous
 62
     7
370
    25
100
AcDbLine
 10
6371.8692917865
 20
4972.0704825468
 30
0.0
 11
6371.5094938118
 21
4973.1248981346
 31
0.0
  0
LINE
  5
1A4
330
1F
100
AcDbEntity
  8
0
  6
Continuous
 62
     7
370
    25
100
AcDbLine
 10
6545.9094938118
 20
4973.1248981345
 30
0.0
 11
6545.5496958371
 21
4972.0704825468
 31
0.0
  0
LINE
  5
1A5
330
1F
100
AcDbEntity
  8
0
  6
Continuous
 62
     7
370
    25
100
AcDbLine
 10
6371.5094938118
 20
5147.5248981346
 30
0.0
 11
6371.5094938118
 21
4973.1248981346
 31
0.0
  0
LINE
  5
1A6
330
1F
100
AcDbEntity
  8
0
  6
Continuous
 62
     7
370
    25
100
AcDbLine
 10
6371.5094938118
 20
4973.1248981346
 30
0.0
 11
6370.7094938118
 21
4973.7391116969
 31
0.0
  0
LINE
  5
1A7
330
1F
100
AcDbEntity
  8
0
  6
Continuous
 62
     7
370
    25
100
AcDbLine
 10
6545.9094938118
 20
4973.1248981346
 30
0.0
 11
6545.2952802494
 21
4972.3248981346
 31
0.0
  0
LINE
  5
1A8
330
1F
100
AcDbEntity
  8
0
  6
Continuous
 62
     7
370
    25
100
AcDbLine
 10
6372.1237073742
 20
4972.3248981346
 30
0.0
 11
6371.5094938118
 21
4973.1248981345
 31
0.0
  0
LINE
  5
1A9
330
1F
100
AcDbEntity
  8
0
  6
Continuous
 62
     7
370
    25
100
AcDbLine
 10
6371.5094938118
 20
4973.1248981346
 30
0.0
 11
6545.9094938118
 21
4973.1248981346
 31
0.0
  0
LINE
  5
1AA
330
1F
100
AcDbEntity
  8
0
  6
Continuous
 62
     7
370
    25
100
AcDbLine
 10
6371.5094938118
 20
4973.1248981346
 30
0.0
 11
6370.4550782241
 21
4973.4846961092
 31
0.0
  0
ARC
  5
1AB
330
1F
100
AcDbEntity
  8
0
  6
Continuous
 62
     8
370
    25
100
AcDbCircle
 10
6458.7094938118
 20
5083.3248981346
 30
0.0
 40
28.30000000000068
100
AcDbArc
 50
297.8296120754
 51
162.8731624209
  0
ARC
  5
1AC
330
1F
100
AcDbEntity
  8
0
  6
Continuous
 62
     8
370
    25
100
AcDbCircle
 10
6458.7094938118
 20
5083.3248981346
 30
0.0
 40
28.30000000000068
100
AcDbArc
 50
162.8731624209
 51
242.9672064281
  0
LINE
  5
1AD
330
1F
100
AcDbEntity
  8
0
  6
Continuous
 62
     8
370
    25
100
AcDbLine
 10
6463.5489302614
 20
5106.4327737559
 30
0.0
 11
6453.5491720199
 21
5106.3632387841
 31
0.0
  0
LINE
  5
1AE
330
1F
100
AcDbEntity
  8
0
  6
Continuous
 62
     8
370
    25
100
AcDbLine
 10
6453.9303952002
 20
5106.8524056999
 30
0.0
 11
6463.1609412692
 21
5106.9165918277
 31
0.0
  0
LINE
  5
1AF
330
1F
100
AcDbEntity
  8
0
  6
Continuous
 62
     8
370
    25
100
AcDbLine
 10
6376.9460938118
 20
5145.8248981346
 30
0.0
 11
6376.9460938118
 21
5145.3248981346
 31
0.0
  0
LINE
  5
1B0
330
1F
100
AcDbEntity
  8
0
  6
Continuous
 62
     8
370
    25
100
AcDbLine
 10
6373.7094938118
 20
5142.0882981346
 30
0.0
 11
6373.2094938118
 21
5142.0882981346
 31
0.0
  0
LINE
  5
1B1
330
1F
100
AcDbEntity
  8
0
  6
Continuous
 62
     8
370
    25
100
AcDbLine
 10
6376.9460938118
 20
4975.3248981346
 30
0.0
 11
6376.9460938118
 21
4974.8248981346
 31
0.0
  0
LINE
  5
1B2
330
1F
100
AcDbEntity
  8
0
  6
Continuous
 62
     8
370
    25
100
AcDbLine
 10
6544.2094938118
 20
5142.0882981346
 30
0.0
 11
6543.7094938118
 21
5142.0882981346
 31
0.0
  0
LINE
  5
1B3
330
1F
100
AcDbEntity
  8
0
  6
Continuous
 62
     8
370
    25
100
AcDbLine
 10
6540.4728938118
 20
5145.3248981346
 30
0.0
 11
6540.4728938118
 21
5145.8248981346
 31
0.0
  0
LINE
  5
1B4
330
1F
100
AcDbEntity
  8
0
  6
Continuous
 62
     8
370
    25
100
AcDbLine
 10
6540.4728938118
 20
4974.8248981346
 30
0.0
 11
6540.4728938118
 21
4975.3248981346
 31
0.0
  0
LINE
  5
1B5
330
1F
100
AcDbEntity
  8
0
  6
Continuous
 62
     8
370
    25
100
AcDbLine
 10
6543.7094938118
 20
4978.5614981346
 30
0.0
 11
6544.2094938118
 21
4978.5614981346
 31
0.0
  0
LINE
  5
1B6
330
1F
100
AcDbEntity
  8
0
  6
Continuous
 62
     8
370
    25
100
AcDbLine
 10
6373.2094938118
 20
4978.5614981346
 30
0.0
 11
6373.7094938118
 21
4978.5614981346
 31
0.0
  0
LINE
  5
1B7
330
1F
100
AcDbEntity
  8
0
  6
Continuous
 62
     8
370
    25
100
AcDbLine
 10
6360.7479714429
 20
5158.5248981346
 30
0.0
 11
6361.9237073742
 21
5158.5248981346
 31
0.0
  0
LINE
  5
1B8
330
1F
100
AcDbEntity
  8
0
  6
Continuous
 62
     8
370
    25
100
AcDbLine
 10
6555.4952802494
 20
5158.5248981345
 30
0.0
 11
6556.6710161808
 21
5158.5248981345
 31
0.0
  0
LINE
  5
1B9
330
1F
100
AcDbEntity
  8
0
  6
Continuous
 62
     8
370
    25
100
AcDbLine
 10
6556.6710161808
 20
4962.1248981345
 30
0.0
 11
6555.4952802495
 21
4962.1248981345
 31
0.0
  0
LINE
  5
1BA
330
1F
100
AcDbEntity
  8
0
  6
Continuous
 62
     8
370
    25
100
AcDbLine
 10
6361.9237073742
 20
4962.1248981345
 30
0.0
 11
6360.7479714429
 21
4962.1248981345
 31
0.0
  0
ARC
  5
1BB
330
1F
100
AcDbEntity
  8
0
  6
Continuous
 62
     7
370
    25
100
AcDbCircle
 10
6829.1244015653
 20
5055.0248981346
 30
0.0
 40
0.2000000000007276
100
AcDbArc
 50
194.477512186
 51
270.0
  0
ARC
  5
1BC
330
1F
100
AcDbEntity
  8
0
  6
Continuous
 62
     7
370
    25
100
AcDbCircle
 10
6829.1244015653
 20
5111.6248981346
 30
0.0
 40
0.2000000000007276
100
AcDbArc
 50
90.0
 51
165.5224878138
  0
LINE
  5
1BD
330
1F
100
AcDbEntity
  8
0
  6
Continuous
 62
     7
370
    25
100
AcDbLine
 10
6829.1244015653
 20
5054.8248981346
 30
0.0
 11
6831.7244015653
 21
5054.8248981346
 31
0.0
  0
LINE
  5
1BE
330
1F
100
AcDbEntity
  8
0
  6
Continuous
 62
     7
370
    25
100
AcDbLine
 10
6831.7244015653
 20
5111.8248981346
 30
0.0
 11
6829.1244015653
 21
5111.8248981346
 31
0.0
  0
ARC
  5
1BF
330
1F
100
AcDbEntity
  8
0
  6
Continuous
 62
     7
370
    25
100
AcDbCircle
 10
6831.7244015653
 20
5055.0248981346
 30
0.0
 40
0.2000000000007276
100
AcDbArc
 50
270.0
 51
0.0
  0
ARC
  5
1C0
330
1F
100
AcDbEntity
  8
0
  6
Continuous
 62
     7
370
    25
100
AcDbCircle
 10
6831.7244015653
 20
5111.6248981346
 30
0.0
 40
0.2000000000007276
100
AcDbArc
 50
0.0000000003
 51
90.0
  0
LINE
  5
1C1
330
1F
100
AcDbEntity
  8
0
  6
Continuous
 62
     7
370
    25
100
AcDbLine
 10
6838.9244015623
 20
5063.2248981346
 30
0.0
 11
6871.7244015623
 21
5063.2248981346
 31
0.0
  0
LINE
  5
1C2
330
1F
100
AcDbEntity
  8
0
  6
Continuous
 62
     7
370
    25
100
AcDbLine
 10
6861.9930356
 20
5103.4248981346
 30
0.0
 11
6838.9244015623
 21
5103.4248981346
 31
0.0
  0
LINE
  5
1C3
330
1F
100
AcDbEntity
  8
0
  6
Continuous
 62
     7
370
    25
100
AcDbLine
 10
6877.9244015623
 20
5103.4248981346
 30
0.0
 11
6871.8534753123
 21
5103.4248981346
 31
0.0
  0
ARC
  5
1C4
330
1F
100
AcDbEntity
  8
0
  6
Continuous
 62
     7
370
    25
100
AcDbCircle
 10
6877.9244015623
 20
5101.4248981346
 30
0.0
 40
2.0
100
AcDbArc
 50
0.0
 51
90.0
  0
ARC
  5
1C5
330
1F
100
AcDbEntity
  8
0
  6
Continuous
 62
     7
370
    25
100
AcDbCircle
 10
6871.7244015623
 20
5060.2248981346
 30
0.0
 40
3.0
100
AcDbArc
 50
0.0
 51
90.0
  0
ARC
  5
1C6
330
1F
100
AcDbEntity
  8
0
  6
Continuous
 62
     7
370
    25
100
AcDbCircle
 10
6877.9244015623
 20
5052.6253260472
 30
0.0
 40
2.0
100
AcDbArc
 50
270.0
 51
0.0
  0
ARC
  5
1C7
330
1F
100
AcDbEntity
  8
0
  6
Continuous
 62
     7
370
    25
100
AcDbCircle
 10
6875.2244015623
 20
5051.1253260472
 30
0.0
 40
0.5
100
AcDbArc
 50
180.0
 51
270.0000000001
  0
LINE
  5
1C8
330
1F
100
AcDbEntity
  8
0
  6
Continuous
 62
     7
370
    25
100
AcDbLine
 10
6875.2244015623
 20
5050.6253260472
 30
0.0
 11
6877.9244015623
 21
5050.6253260472
 31
0.0
  0
ARC
  5
1C9
330
1F
100
AcDbEntity
  8
0
  6
Continuous
 62
     7
370
    25
100
AcDbCircle
 10
6862.3881659237
 20
5106.4103676571
 30
0.0
 40
0.4639290751393125
100
AcDbArc
 50
126.6055113409
 51
181.5268263548
  0
ARC
  5
1CA
330
1F
100
AcDbEntity
  8
0
  6
Continuous
 62
     7
370
    25
100
AcDbCircle
 10
6871.4703744759
 20
5106.426975659
 30
0.0
 40
0.4475961887576642
100
AcDbArc
 50
356.65182939
 51
57.6351432964
  0
LINE
  5
1CB
330
1F
100
AcDbEntity
  8
0
  6
Continuous
 62
     7
370
    25
100
AcDbLine
 10
6871.9244015623
 20
5103.4079771662
 30
0.0
 11
6871.9244015623
 21
5106.39800627
 31
0.0
  0
LINE
  5
1CC
330
1F
100
AcDbEntity
  8
0
  6
Continuous
 62
     7
370
    25
100
AcDbLine
 10
6861.9244015623
 20
5106.39800627
 30
0.0
 11
6861.9244015623
 21
5103.4244121999
 31
0.0
  0
ARC
  5
1CD
330
1F
100
AcDbEntity
  8
0
  6
Continuous
 62
     7
370
    25
100
AcDbCircle
 10
6866.9244015623
 20
5087.4247990136
 30
0.0
 40
20.00000000000034
100
AcDbArc
 50
76.6634780078
 51
103.3365219922
  0
LINE
  5
1CE
330
1F
100
AcDbEntity
  8
0
  6
Continuous
 62
     7
370
    25
100
AcDbLine
 10
6828.9244015653
 20
5054.9748981346
 30
0.0
 11
6828.930752398
 21
5054.9748981346
 31
0.0
  0
LINE
  5
1CF
330
1F
100
AcDbEntity
  8
0
  6
Continuous
 62
     7
370
    25
100
AcDbLine
 10
6828.930752398
 20
5111.6748981346
 30
0.0
 11
6828.9244015653
 21
5111.6748981346
 31
0.0
  0
LINE
  5
1D0
330
1F
100
AcDbEntity
  8
0
  6
Continuous
 62
     7
370
    25
100
AcDbLine
 10
6764.1744015623
 20
5135.0444877919
 30
0.0
 11
6764.1744015623
 21
5133.6381414917
 31
0.0
  0
LINE
  5
1D1
330
1F
100
AcDbEntity
  8
0
  6
Continuous
 62
     7
370
    25
100
AcDbLine
 10
6831.9244015653
 20
5060.0748981346
 30
0.0
 11
6838.9244015623
 21
5060.0748981346
 31
0.0
  0
LINE
  5
1D2
330
1F
100
AcDbEntity
  8
0
  6
Continuous
 62
     7
370
    25
100
AcDbLine
 10
6838.9244015623
 20
5106.5748981346
 30
0.0
 11
6831.9244015653
 21
5106.5748981346
 31
0.0
  0
ARC
  5
1D3
330
1F
100
AcDbEntity
  8
0
  6
Continuous
 62
     7
370
    25
100
AcDbCircle
 10
6734.273500758
 20
4948.8248981345
 30
0.0
 40
1.500000000000596
100
AcDbArc
 50
271.1268896477
 51
88.8731103524
  0
ARC
  5
1D4
330
1F
100
AcDbEntity
  8
0
  6
Continuous
 62
     7
370
    25
100
AcDbCircle
 10
6760.773500758
 20
4948.8248981345
 30
0.0
 40
1.499999999999704
100
AcDbArc
 50
91.1268896477
 51
268.8731103524
  0
LINE
  5
1D5
330
1F
100
AcDbEntity
  8
0
  6
Continuous
 62
     7
370
    25
100
AcDbLine
 10
6734.303000758
 20
4950.3248981345
 30
0.0
 11
6734.303000758
 21
4950.3246080231
 31
0.0
  0
LINE
  5
1D6
330
1F
100
AcDbEntity
  8
0
  6
Continuous
 62
     7
370
    25
100
AcDbLine
 10
6760.744000758
 20
4950.3246080231
 30
0.0
 11
6760.744000758
 21
4950.3248981345
 31
0.0
  0
LINE
  5
1D7
330
1F
100
AcDbEntity
  8
0
  6
Continuous
 62
     7
370
    25
100
AcDbLine
 10
6734.303000758
 20
4947.3251882459
 30
0.0
 11
6734.303000758
 21
4942.3248981345
 31
0.0
  0
LINE
  5
1D8
330
1F
100
AcDbEntity
  8
0
  6
Continuous
 62
     7
370
    25
100
AcDbLine
 10
6760.744000758
 20
4942.3248981345
 30
0.0
 11
6760.744000758
 21
4947.3251882459
 31
0.0
  0
LINE
  5
1D9
330
1F
100
AcDbEntity
  8
0
  6
Continuous
 62
     7
370
    25
100
AcDbLine
 10
6734.303000758
 20
4942.3248981345
 30
0.0
 11
6735.303000758
 21
4941.3248981345
 31
0.0
  0
LINE
  5
1DA
330
1F
100
AcDbEntity
  8
0
  6
Continuous
 62
     7
370
    25
100
AcDbLine
 10
6759.744000758
 20
4941.3248981345
 30
0.0
 11
6760.744000758
 21
4942.3248981345
 31
0.0
  0
LINE
  5
1DB
330
1F
100
AcDbEntity
  8
0
  6
Continuous
 62
     7
370
    25
100
AcDbLine
 10
6733.773500758
 20
4960.3248981345
 30
0.0
 11
6732.773500758
 21
4959.3248981345
 31
0.0
  0
LINE
  5
1DC
330
1F
100
AcDbEntity
  8
0
  6
Continuous
 62
     7
370
    25
100
AcDbLine
 10
6732.773500758
 20
4950.9022484037
 30
0.0
 11
6733.773500758
 21
4950.3248981345
 31
0.0
  0
LINE
  5
1DD
330
1F
100
AcDbEntity
  8
0
  6
Continuous
 62
     7
370
    25
100
AcDbLine
 10
6762.273500758
 20
4959.3248981345
 30
0.0
 11
6761.273500758
 21
4960.3248981345
 31
0.0
  0
LINE
  5
1DE
330
1F
100
AcDbEntity
  8
0
  6
Continuous
 62
     7
370
    25
100
AcDbLine
 10
6761.273500758
 20
4950.3248981345
 30
0.0
 11
6762.273500758
 21
4950.9022484037
 31
0.0
  0
LINE
  5
1DF
330
1F
100
AcDbEntity
  8
0
  6
Continuous
 62
     7
370
    25
100
AcDbLine
 10
6732.773500758
 20
4959.3248981345
 30
0.0
 11
6732.773500758
 21
4950.9022484037
 31
0.0
  0
LINE
  5
1E0
330
1F
100
AcDbEntity
  8
0
  6
Continuous
 62
     7
370
    25
100
AcDbLine
 10
6762.273500758
 20
4950.9022484037
 30
0.0
 11
6762.273500758
 21
4959.3248981345
 31
0.0
  0
LINE
  5
1E1
330
1F
100
AcDbEntity
  8
0
  6
Continuous
 62
     7
370
    25
100
AcDbLine
 10
6759.8952308653
 20
5179.173668027
 30
0.0
 11
6759.2440007577
 21
5179.8248981346
 31
0.0
  0
LINE
  5
1E2
330
1F
100
AcDbEntity
  8
0
  6
Continuous
 62
     7
370
    25
100
AcDbLine
 10
6760.7440007577
 20
5178.3248981346
 30
0.0
 11
6760.447530273
 21
5178.6213686193
 31
0.0
  0
LINE
  5
1E3
330
1F
100
AcDbEntity
  8
0
  6
Continuous
 62
     7
370
    25
100
AcDbLine
 10
6735.8030007577
 20
5179.8248981346
 30
0.0
 11
6734.6439178435
 21
5178.6658152204
 31
0.0
  0
LWPOLYLINE
  5
1E4
330
1F
100
AcDbEntity
  8
0
  6
Continuous
 62
     7
370
    25
100
AcDbPolyline
 90
        3
 70
   128
 43
0.0
 10
6734.3094540533
 20
5177.2454913151
 10
6734.7393204265
 20
5176.9971782017
 10
6735.162260348
 20
5176.7528574761
  0
LWPOLYLINE
  5
1E5
330
1F
100
AcDbEntity
  8
0
  6
Continuous
 62
     7
370
    25
100
AcDbPolyline
 90
        3
 70
   128
 43
0.0
 10
6734.3094540533
 20
5175.6579913151
 10
6734.7393204265
 20
5175.4096782017
 10
6735.162260348
 20
5175.1653574761
  0
LWPOLYLINE
  5
1E6
330
1F
100
AcDbEntity
  8
0
  6
Continuous
 62
     7
370
    25
100
AcDbPolyline
 90
        3
 70
   128
 43
0.0
 10
6734.3094540533
 20
5174.0704913151
 10
6734.7393204265
 20
5173.8221782017
 10
6735.162260348
 20
5173.5778574761
  0
LWPOLYLINE
  5
1E7
330
1F
100
AcDbEntity
  8
0
  6
Continuous
 62
     7
370
    25
100
AcDbPolyline
 90
        3
 70
   128
 43
0.0
 10
6734.3094540533
 20
5172.4829913151
 10
6734.7393204265
 20
5172.2346782017
 10
6735.162260348
 20
5171.9903574761
  0
LINE
  5
1E8
330
1F
100
AcDbEntity
  8
0
  6
Continuous
 62
     7
370
    25
100
AcDbLine
 10
6734.3094540533
 20
5170.8954913151
 30
0.0
 11
6734.4316611895
 21
5170.8248981346
 31
0.0
  0
LWPOLYLINE
  5
1E9
330
1F
100
AcDbEntity
  8
0
  6
Continuous
 62
     7
370
    25
100
AcDbPolyline
 90
        3
 70
   128
 43
0.0
 10
6759.8778297225
 20
5177.542614925
 10
6760.3076810889
 20
5177.7909282017
 10
6760.7375474622
 20
5178.039241315
  0
LWPOLYLINE
  5
1EA
330
1F
100
AcDbEntity
  8
0
  6
Continuous
 62
     7
370
    25
100
AcDbPolyline
 90
        3
 70
   128
 43
0.0
 10
6759.8778297225
 20
5175.955114925
 10
6760.3076810889
 20
5176.2034282017
 10
6760.7375474622
 20
5176.451741315
  0
LWPOLYLINE
  5
1EB
330
1F
100
AcDbEntity
  8
0
  6
Continuous
 62
     7
370
    25
100
AcDbPolyline
 90
        3
 70
   128
 43
0.0
 10
6759.8778297225
 20
5174.367614925
 10
6760.3076810889
 20
5174.6159282017
 10
6760.7375474622
 20
5174.864241315
  0
LWPOLYLINE
  5
1EC
330
1F
100
AcDbEntity
  8
0
  6
Continuous
 62
     7
370
    25
100
AcDbPolyline
 90
        3
 70
   128
 43
0.0
 10
6759.8778297225
 20
5172.780114925
 10
6760.3076810889
 20
5173.0284282017
 10
6760.7375474622
 20
5173.276741315
  0
LWPOLYLINE
  5
1ED
330
1F
100
AcDbEntity
  8
0
  6
Continuous
 62
     7
370
    25
100
AcDbPolyline
 90
        3
 70
   128
 43
0.0
 10
6759.8778297225
 20
5171.192614925
 10
6760.3076810889
 20
5171.4409282017
 10
6760.7375474622
 20
5171.689241315
  0
LWPOLYLINE
  5
1EE
330
1F
100
AcDbEntity
  8
0
  6
Continuous
 62
     7
370
    25
100
AcDbPolyline
 90
        3
 70
   128
 43
0.0
 10
6734.6328026539
 20
5178.646208392
 10
6734.7393204265
 20
5178.5846782017
 10
6735.162260348
 20
5178.3403574761
  0
LINE
  5
1EF
330
1F
100
AcDbEntity
  8
0
  6
Continuous
 62
     7
370
    25
100
AcDbLine
 10
6760.7440007577
 20
5178.0469387127
 30
0.0
 11
6760.7440007577
 21
5178.3248981346
 31
0.0
  0
LINE
  5
1F0
330
1F
100
AcDbEntity
  8
0
  6
Continuous
 62
     7
370
    25
100
AcDbLine
 10
6760.7440007577
 20
5176.4594387127
 30
0.0
 11
6760.7440007577
 21
5176.8563137078
 31
0.0
  0
LINE
  5
1F1
330
1F
100
AcDbEntity
  8
0
  6
Continuous
 62
     7
370
    25
100
AcDbLine
 10
6760.7440007577
 20
5174.8719387127
 30
0.0
 11
6760.7440007577
 21
5175.2688137078
 31
0.0
  0
LINE
  5
1F2
330
1F
100
AcDbEntity
  8
0
  6
Continuous
 62
     7
370
    25
100
AcDbLine
 10
6760.7440007577
 20
5173.2844387127
 30
0.0
 11
6760.7440007577
 21
5173.6813137078
 31
0.0
  0
LINE
  5
1F3
330
1F
100
AcDbEntity
  8
0
  6
Continuous
 62
     7
370
    25
100
AcDbLine
 10
6760.7440007577
 20
5171.6969387127
 30
0.0
 11
6760.7440007577
 21
5172.0938137078
 31
0.0
  0
LINE
  5
1F4
330
1F
100
AcDbEntity
  8
0
  6
Continuous
 62
     7
370
    25
100
AcDbLine
 10
6734.3030007577
 20
5171.2999456723
 30
0.0
 11
6734.3030007577
 21
5170.8248981346
 31
0.0
  0
LINE
  5
1F5
330
1F
100
AcDbEntity
  8
0
  6
Continuous
 62
     7
370
    25
100
AcDbLine
 10
6734.3030007577
 20
5172.8874456723
 30
0.0
 11
6734.3030007577
 21
5172.4905231346
 31
0.0
  0
LINE
  5
1F6
330
1F
100
AcDbEntity
  8
0
  6
Continuous
 62
     7
370
    25
100
AcDbLine
 10
6734.3030007577
 20
5174.4749456723
 30
0.0
 11
6734.3030007577
 21
5174.0780231346
 31
0.0
  0
LINE
  5
1F7
330
1F
100
AcDbEntity
  8
0
  6
Continuous
 62
     7
370
    25
100
AcDbLine
 10
6734.3030007577
 20
5176.0624456723
 30
0.0
 11
6734.3030007577
 21
5175.6655231346
 31
0.0
  0
LINE
  5
1F8
330
1F
100
AcDbEntity
  8
0
  6
Continuous
 62
     7
370
    25
100
AcDbLine
 10
6734.3030007577
 20
5177.6499456723
 30
0.0
 11
6734.3030007577
 21
5177.2530231346
 31
0.0
  0
LWPOLYLINE
  5
1F9
330
1F
100
AcDbEntity
  8
0
  6
Continuous
 62
     7
370
    25
100
AcDbPolyline
 90
        3
 70
   128
 43
0.0
 10
6735.1691753435
 20
5176.5665584242
 10
6734.7393237047
 20
5176.3182449852
 10
6734.3094570519
 20
5176.0699317098
  0
LWPOLYLINE
  5
1FA
330
1F
100
AcDbEntity
  8
0
  6
Continuous
 62
     7
370
    25
100
AcDbPolyline
 90
        3
 70
   128
 43
0.0
 10
6735.1691753435
 20
5174.9790584242
 10
6734.7393237047
 20
5174.7307449852
 10
6734.3094570519
 20
5174.4824317098
  0
LWPOLYLINE
  5
1FB
330
1F
100
AcDbEntity
  8
0
  6
Continuous
 62
     7
370
    25
100
AcDbPolyline
 90
        3
 70
   128
 43
0.0
 10
6735.1691753435
 20
5173.3915584242
 10
6734.7393237047
 20
5173.1432449852
 10
6734.3094570519
 20
5172.8949317098
  0
LWPOLYLINE
  5
1FC
330
1F
100
AcDbEntity
  8
0
  6
Continuous
 62
     7
370
    25
100
AcDbPolyline
 90
        3
 70
   128
 43
0.0
 10
6735.1691753435
 20
5171.8040584242
 10
6734.7393237047
 20
5171.5557449852
 10
6734.3094570519
 20
5171.3074317098
  0
LWPOLYLINE
  5
1FD
330
1F
100
AcDbEntity
  8
0
  6
Continuous
 62
     7
370
    25
100
AcDbPolyline
 90
        3
 70
   128
 43
0.0
 10
6760.7375444636
 20
5176.8636817098
 10
6760.3076778107
 20
5177.1119949852
 10
6759.8847411674
 20
5177.356313822
  0
LWPOLYLINE
  5
1FE
330
1F
100
AcDbEntity
  8
0
  6
Continuous
 62
     7
370
    25
100
AcDbPolyline
 90
        3
 70
   128
 43
0.0
 10
6760.7375444636
 20
5175.2761817098
 10
6760.3076778107
 20
5175.5244949852
 10
6759.8847411674
 20
5175.768813822
  0
LWPOLYLINE
  5
1FF
330
1F
100
AcDbEntity
  8
0
  6
Continuous
 62
     7
370
    25
100
AcDbPolyline
 90
        3
 70
   128
 43
0.0
 10
6760.7375444636
 20
5173.6886817098
 10
6760.3076778107
 20
5173.9369949852
 10
6759.8847411674
 20
5174.181313822
  0
LWPOLYLINE
  5
200
330
1F
100
AcDbEntity
  8
0
  6
Continuous
 62
     7
370
    25
100
AcDbPolyline
 90
        3
 70
   128
 43
0.0
 10
6760.7375444636
 20
5172.1011817098
 10
6760.3076778107
 20
5172.3494949852
 10
6759.8847411674
 20
5172.593813822
  0
LINE
  5
201
330
1F
100
AcDbEntity
  8
0
  6
Continuous
 62
     7
370
    25
100
AcDbLine
 10
6760.1677207096
 20
5170.8428443433
 30
0.0
 11
6759.8847411674
 21
5171.006313822
 31
0.0
  0
LWPOLYLINE
  5
202
330
1F
100
AcDbEntity
  8
0
  6
Continuous
 62
     7
370
    25
100
AcDbPolyline
 90
        3
 70
   128
 43
0.0
 10
6760.4057013188
 20
5178.6428715225
 10
6760.3076778107
 20
5178.6994949852
 10
6759.8847411674
 20
5178.943813822
  0
LWPOLYLINE
  5
203
330
1F
100
AcDbEntity
  8
0
  6
Continuous
 62
     7
370
    25
100
AcDbPolyline
 90
        3
 70
   128
 43
0.0
 10
6735.1691753435
 20
5178.1540584242
 10
6734.7393237047
 20
5177.9057449852
 10
6734.3094570519
 20
5177.6574317098
  0
LINE
  5
204
330
1F
100
AcDbEntity
  8
0
  6
Continuous
 62
     7
370
    25
100
AcDbLine
 10
6735.162260348
 20
5176.7569220274
 30
0.0
 11
6735.162260348
 21
5176.562563822
 31
0.0
  0
LINE
  5
205
330
1F
100
AcDbEntity
  8
0
  6
Continuous
 62
     7
370
    25
100
AcDbLine
 10
6735.162260348
 20
5175.1694220274
 30
0.0
 11
6735.162260348
 21
5174.975063822
 31
0.0
  0
LINE
  5
206
330
1F
100
AcDbEntity
  8
0
  6
Continuous
 62
     7
370
    25
100
AcDbLine
 10
6735.162260348
 20
5173.5819220274
 30
0.0
 11
6735.162260348
 21
5173.387563822
 31
0.0
  0
LINE
  5
207
330
1F
100
AcDbEntity
  8
0
  6
Continuous
 62
     7
370
    25
100
AcDbLine
 10
6735.162260348
 20
5171.9944220274
 30
0.0
 11
6735.162260348
 21
5171.800063822
 31
0.0
  0
LINE
  5
208
330
1F
100
AcDbEntity
  8
0
  6
Continuous
 62
     7
370
    25
100
AcDbLine
 10
6759.8847411674
 20
5177.3522345274
 30
0.0
 11
6759.8847411674
 21
5177.5466074761
 31
0.0
  0
LINE
  5
209
330
1F
100
AcDbEntity
  8
0
  6
Continuous
 62
     7
370
    25
100
AcDbLine
 10
6759.8847411674
 20
5175.7647345274
 30
0.0
 11
6759.8847411674
 21
5175.9591074761
 31
0.0
  0
LINE
  5
20A
330
1F
100
AcDbEntity
  8
0
  6
Continuous
 62
     7
370
    25
100
AcDbLine
 10
6759.8847411674
 20
5174.1772345274
 30
0.0
 11
6759.8847411674
 21
5174.3716074761
 31
0.0
  0
LINE
  5
20B
330
1F
100
AcDbEntity
  8
0
  6
Continuous
 62
     7
370
    25
100
AcDbLine
 10
6759.8847411674
 20
5172.5897345274
 30
0.0
 11
6759.8847411674
 21
5172.7841074761
 31
0.0
  0
LINE
  5
20C
330
1F
100
AcDbEntity
  8
0
  6
Continuous
 62
     7
370
    25
100
AcDbLine
 10
6759.8847411674
 20
5171.0022345274
 30
0.0
 11
6759.8847411674
 21
5171.1966074761
 31
0.0
  0
LINE
  5
20D
330
1F
100
AcDbEntity
  8
0
  6
Continuous
 62
     7
370
    25
100
AcDbLine
 10
6759.8847411674
 20
5178.9397345274
 30
0.0
 11
6759.8847411674
 21
5179.1381720274
 31
0.0
  0
LINE
  5
20E
330
1F
100
AcDbEntity
  8
0
  6
Continuous
 62
     7
370
    25
100
AcDbLine
 10
6735.162260348
 20
5178.3444220274
 30
0.0
 11
6735.162260348
 21
5178.150063822
 31
0.0
  0
LINE
  5
20F
330
1F
100
AcDbEntity
  8
0
  6
Continuous
 62
     7
370
    25
100
AcDbLine
 10
6818.5235007577
 20
4940.8101795088
 30
0.0
 11
6819.5235007577
 21
4940.8101795088
 31
0.0
  0
LINE
  5
210
330
1F
100
AcDbEntity
  8
0
  6
Continuous
 62
     7
370
    25
100
AcDbLine
 10
6819.5235007577
 20
5179.8396167603
 30
0.0
 11
6818.5235007577
 21
5179.8396167603
 31
0.0
  0
LINE
  5
211
330
1F
100
AcDbEntity
  8
0
  6
Continuous
 62
     7
370
    25
100
AcDbLine
 10
6831.9244015653
 20
5091.6589082613
 30
0.0
 11
6831.9244015653
 21
5111.6248981346
 31
0.0
  0
LINE
  5
212
330
1F
100
AcDbEntity
  8
0
  6
Continuous
 62
     7
370
    25
100
AcDbLine
 10
6831.9244015653
 20
5055.0248981346
 30
0.0
 11
6831.9244015653
 21
5091.6589082613
 31
0.0
  0
LWPOLYLINE
  5
213
330
1F
100
AcDbEntity
  8
0
  6
Continuous
 62
     7
370
    25
100
AcDbPolyline
 90
       11
 70
   128
 43
0.0
 10
6861.9244015623
 20
5103.4244121999
 10
6862.1964115682
 20
5103.3471708489
 10
6862.9774844623
 20
5103.1673172394
 10
6864.2058061075
 20
5102.9523228586
 10
6865.7658659965
 20
5102.7932257888
 10
6867.4317710864
 20
5102.7646287344
 10
6869.0017374997
 20
5102.8714956955
 10
6870.3584643818
 20
5103.0678825683
 10
6871.3689296991
 20
5103.27756056
 10
6871.878655244
 20
5103.4083893575
 10
6871.8578559899
 20
5103.4079628603
  0
LINE
  5
214
330
1F
100
AcDbEntity
  8
0
  6
Continuous
 62
     7
370
    25
100
AcDbLine
 10
6871.7244015623
 20
5077.3996749319
 30
0.0
 11
6877.9244015623
 21
5077.3996749319
 31
0.0
  0
LINE
  5
215
330
1F
100
AcDbEntity
  8
0
  6
Continuous
 62
     7
370
    25
100
AcDbLine
 10
6879.9244015623
 20
5101.4248981346
 30
0.0
 11
6879.9244015623
 21
5077.9892493799
 31
0.0
  0
LWPOLYLINE
  5
216
330
1F
100
AcDbEntity
  8
0
  6
Continuous
 62
     7
370
    25
100
AcDbPolyline
 90
        9
 70
   128
 43
0.0
 10
6877.9244015623
 20
5077.3996749319
 10
6878.3145822063
 20
5077.4110034396
 10
6878.689768427
 20
5077.4445536145
 10
6879.0355420283
 20
5077.4990361422
 10
6879.3386151247
 20
5077.5723572897
 10
6879.5873407869
 20
5077.6616993664
 10
6879.7721606273
 20
5077.7636290065
 10
6879.8859721231
 20
5077.874229111
 10
6879.9244015623
 20
5077.9892493799
  0
LWPOLYLINE
  5
217
330
1F
100
AcDbEntity
  8
0
  6
Continuous
 62
     7
370
    25
100
AcDbPolyline
 90
        9
 70
   128
 43
0.0
 10
6874.7244015623
 20
5065.8653362831
 10
6874.7340089221
 20
5065.8365812159
 10
6874.762461796
 20
5065.8089311897
 10
6874.8086667562
 20
5065.7834487797
 10
6874.8708481717
 20
5065.7611132605
 10
6874.9466164458
 20
5065.7427829737
 10
6875.0330598461
 20
5065.7291623417
 10
6875.1268564013
 20
5065.720774798
 10
6875.2244015623
 20
5065.7179426711
  0
LWPOLYLINE
  5
218
330
1F
100
AcDbEntity
  8
0
  6
Continuous
 62
     7
370
    25
100
AcDbPolyline
 90
        6
 70
   128
 43
0.0
 10
6874.7244015623
 20
5065.8653362831
 10
6874.4972434519
 20
5068.3952301147
 10
6873.9327934246
 20
5070.8934936768
 10
6873.5816162739
 20
5072.0992960772
 10
6871.7338487679
 20
5077.3741167839
 10
6871.7244015623
 20
5077.3996749319
  0
LWPOLYLINE
  5
219
330
1F
100
AcDbEntity
  8
0
  6
Continuous
 62
     7
370
    25
100
AcDbPolyline
 90
        6
 70
   128
 43
0.0
 10
6871.7244015623
 20
5077.3996749319
 10
6871.7353005343
 20
5077.3750293282
 10
6873.1069253535
 20
5074.1962774802
 10
6874.300858735
 20
5070.9457743088
 10
6874.9541660488
 20
5068.3866838798
 10
6875.2244015623
 20
5065.7179426711
  0
LINE
  5
21A
330
1F
100
AcDbEntity
  8
0
  6
Continuous
 62
     7
370
    25
100
AcDbLine
 10
6875.2244015623
 20
5065.7179426711
 30
0.0
 11
6875.2244015623
 21
5061.203517687
 31
0.0
  0
LINE
  5
21B
330
1F
100
AcDbEntity
  8
0
  6
Continuous
 62
     7
370
    25
100
AcDbLine
 10
6877.9244015623
 20
5061.203517687
 30
0.0
 11
6877.9244015623
 21
5077.3996749319
 31
0.0
  0
LINE
  5
21C
330
1F
100
AcDbEntity
  8
0
  6
Continuous
 62
     7
370
    25
100
AcDbLine
 10
6875.2244015623
 20
5061.203517687
 30
0.0
 11
6877.9244015623
 21
5061.203517687
 31
0.0
  0
LINE
  5
21D
330
1F
100
AcDbEntity
  8
0
  6
Continuous
 62
     7
370
    25
100
AcDbLine
 10
6879.9244015623
 20
5077.9892493799
 30
0.0
 11
6879.9244015623
 21
5061.793092135
 31
0.0
  0
LWPOLYLINE
  5
21E
330
1F
100
AcDbEntity
  8
0
  6
Continuous
 62
     7
370
    25
100
AcDbPolyline
 90
        9
 70
   128
 43
0.0
 10
6879.9244015623
 20
5061.793092135
 10
6879.8859721231
 20
5061.6780718661
 10
6879.7721606273
 20
5061.5674717616
 10
6879.5873407869
 20
5061.4655421215
 10
6879.3386151247
 20
5061.3762000448
 10
6879.0355420283
 20
5061.3028788973
 10
6878.689768427
 20
5061.2483963696
 10
6878.3145822063
 20
5061.2148461947
 10
6877.9244015623
 20
5061.203517687
  0
LINE
  5
21F
330
1F
100
AcDbEntity
  8
0
  6
Continuous
 62
     7
370
    25
100
AcDbLine
 10
6874.7244015623
 20
5061.350911299
 30
0.0
 11
6874.7244015623
 21
5065.8653362831
 31
0.0
  0
LWPOLYLINE
  5
220
330
1F
100
AcDbEntity
  8
0
  6
Continuous
 62
     7
370
    25
100
AcDbPolyline
 90
        9
 70
   128
 43
0.0
 10
6874.7244015623
 20
5061.350911299
 10
6874.7340089221
 20
5061.3221562317
 10
6874.762461796
 20
5061.2945062056
 10
6874.8086667562
 20
5061.2690237956
 10
6874.8708481717
 20
5061.2466882764
 10
6874.9466164458
 20
5061.2283579895
 10
6875.0330598461
 20
5061.2147373576
 10
6875.1268564013
 20
5061.2063498139
 10
6875.2244015623
 20
5061.203517687
  0
LINE
  5
221
330
1F
100
AcDbEntity
  8
0
  6
Continuous
 62
     7
370
    25
100
AcDbLine
 10
6879.9244015623
 20
5061.793092135
 30
0.0
 11
6879.9244015623
 21
5052.6253260472
 31
0.0
  0
LINE
  5
222
330
1F
100
AcDbEntity
  8
0
  6
Continuous
 62
     7
370
    25
100
AcDbLine
 10
6874.7244015623
 20
5051.1253260472
 30
0.0
 11
6874.7244015623
 21
5061.350911299
 31
0.0
  0
LWPOLYLINE
  5
223
330
1F
100
AcDbEntity
  8
0
  6
Continuous
 62
     7
370
    25
100
AcDbPolyline
 90
       15
 70
   128
 43
0.0
 10
6862.3110011051
 20
5106.8854397076
 10
6862.3090169469
 20
5106.8844987638
 10
6862.4431316357
 20
5106.8768183909
 10
6862.8376814439
 20
5106.8695843733
 10
6863.4697365707
 20
5106.8632171259
 10
6864.3025642697
 20
5106.85808669
 10
6865.2877636221
 20
5106.8544912277
 10
6866.3680784227
 20
5106.8526396944
 10
6867.4807247019
 20
5106.8526396944
 10
6868.5610395025
 20
5106.8544912277
 10
6869.5462388549
 20
5106.85808669
 10
6870.3790665539
 20
5106.8632171259
 10
6871.0111216807
 20
5106.8695843733
 10
6871.4056714889
 20
5106.8768183909
 10
6871.5381677109
 20
5106.883648926
  0
LINE
  5
224
330
1F
100
AcDbEntity
  8
0
  6
Continuous
 62
     7
370
    25
100
AcDbLine
 10
6829.9244015653
 20
5111.6748981346
 30
0.0
 11
6829.9244015653
 21
5054.9748981346
 31
0.0
  0
LINE
  5
225
330
1F
100
AcDbEntity
  8
0
  6
Continuous
 62
     7
370
    25
100
AcDbLine
 10
6824.9244015623
 20
4974.8248981346
 30
0.0
 11
6824.9244015623
 21
4975.3905835595
 31
0.0
  0
LINE
  5
226
330
1F
100
AcDbEntity
  8
0
  6
Continuous
 62
     7
370
    25
100
AcDbLine
 10
6824.9244015623
 20
5145.2592127096
 30
0.0
 11
6824.9244015623
 21
5145.8248981346
 31
0.0
  0
LINE
  5
227
330
1F
100
AcDbEntity
  8
0
  6
Continuous
 62
     7
370
    25
100
AcDbLine
 10
6825.4244015623
 20
5145.3248981346
 30
0.0
 11
6825.4244015623
 21
5145.2592127096
 31
0.0
  0
LINE
  5
228
330
1F
100
AcDbEntity
  8
0
  6
Continuous
 62
     7
370
    25
100
AcDbLine
 10
6825.4244015623
 20
4975.3905835595
 30
0.0
 11
6825.4244015623
 21
4975.3248981346
 31
0.0
  0
LINE
  5
229
330
1F
100
AcDbEntity
  8
0
  6
Continuous
 62
     7
370
    25
100
AcDbLine
 10
6825.4244015623
 20
4975.3248981346
 30
0.0
 11
6825.3587161374
 21
4975.3905835595
 31
0.0
  0
LINE
  5
22A
330
1F
100
AcDbEntity
  8
0
  6
Continuous
 62
     7
370
    25
100
AcDbLine
 10
6825.4244015623
 20
5145.3248981346
 30
0.0
 11
6825.3587161374
 21
5145.2592127096
 31
0.0
  0
LINE
  5
22B
330
1F
100
AcDbEntity
  8
0
  6
Continuous
 62
     7
370
    25
100
AcDbLine
 10
6828.4244015623
 20
4975.3248981346
 30
0.0
 11
6828.4244015623
 21
4975.3905835595
 31
0.0
  0
LINE
  5
22C
330
1F
100
AcDbEntity
  8
0
  6
Continuous
 62
     7
370
    25
100
AcDbLine
 10
6828.4244015623
 20
5145.2592127096
 30
0.0
 11
6828.4244015623
 21
5145.3248981346
 31
0.0
  0
LINE
  5
22D
330
1F
100
AcDbEntity
  8
0
  6
Continuous
 62
     7
370
    25
100
AcDbLine
 10
6828.4244015623
 20
4975.3248981346
 30
0.0
 11
6825.4244015623
 21
4975.3248981346
 31
0.0
  0
LINE
  5
22E
330
1F
100
AcDbEntity
  8
0
  6
Continuous
 62
     7
370
    25
100
AcDbLine
 10
6828.4244015623
 20
5145.3248981346
 30
0.0
 11
6825.4244015623
 21
5145.3248981346
 31
0.0
  0
LINE
  5
22F
330
1F
100
AcDbEntity
  8
0
  6
Continuous
 62
     7
370
    25
100
AcDbLine
 10
6828.4244015623
 20
5145.3248981346
 30
0.0
 11
6828.4900869873
 21
5145.2592127096
 31
0.0
  0
LINE
  5
230
330
1F
100
AcDbEntity
  8
0
  6
Continuous
 62
     7
370
    25
100
AcDbLine
 10
6828.5235007577
 20
5145.2257989392
 30
0.0
 11
6828.9244015623
 21
5144.8248981346
 31
0.0
  0
LINE
  5
231
330
1F
100
AcDbEntity
  8
0
  6
Continuous
 62
     7
370
    25
100
AcDbLine
 10
6828.9244015623
 20
5144.8248981346
 30
0.0
 11
6828.9244015623
 21
4975.8248981346
 31
0.0
  0
LINE
  5
232
330
1F
100
AcDbEntity
  8
0
  6
Continuous
 62
     7
370
    25
100
AcDbLine
 10
6828.4244015623
 20
4975.3248981346
 30
0.0
 11
6828.4900869873
 21
4975.3905835595
 31
0.0
  0
LINE
  5
233
330
1F
100
AcDbEntity
  8
0
  6
Continuous
 62
     7
370
    25
100
AcDbLine
 10
6828.5235007577
 20
4975.4239973299
 30
0.0
 11
6828.9244015623
 21
4975.8248981346
 31
0.0
  0
LWPOLYLINE
  5
234
330
1F
100
AcDbEntity
  8
0
  6
Continuous
 62
     7
370
    25
100
AcDbPolyline
 90
        5
 70
   128
 43
0.0
 10
6762.2987222224
 20
5132.6465577693
 10
6762.3209321626
 20
5132.6683380843
 10
6762.8184547871
 20
5133.007061025
 10
6764.2998402852
 20
5133.4321646952
 10
6766.2582748465
 20
5133.5428828001
  0
LWPOLYLINE
  5
235
330
1F
100
AcDbEntity
  8
0
  6
Continuous
 62
     7
370
    25
100
AcDbPolyline
 90
        9
 70
   128
 43
0.0
 10
6760.4093839724
 20
5132.6295828155
 10
6760.630080892
 20
5132.6319392809
 10
6760.8554671733
 20
5132.6342312936
 10
6761.0854114297
 20
5132.6364575176
 10
6761.3197796171
 20
5132.6386166552
 10
6761.5584351129
 20
5132.6407074475
 10
6761.8012387951
 20
5132.642728676
 10
6762.0480491235
 20
5132.6446791623
 10
6762.2987222224
 20
5132.6465577693
  0
ARC
  5
236
330
1F
100
AcDbEntity
  8
0
  6
Continuous
 62
     7
370
    25
100
AcDbCircle
 10
6758.9945501249
 20
5131.9945398378
 30
0.0
 40
1.55081733275444
100
AcDbArc
 50
24.1727523481
 51
100.0374239805
  0
ARC
  5
237
330
1F
100
AcDbEntity
  8
0
  6
Continuous
 62
     7
370
    25
100
AcDbCircle
 10
6766.4538426831
 20
4744.4470884055
 30
0.0
 40
389.1996302515637
100
AcDbArc
 50
90.0284497477
 51
91.1386773157
  0
LINE
  5
238
330
1F
100
AcDbEntity
  8
0
  6
Continuous
 62
     7
370
    25
100
AcDbLine
 10
6762.2987222224
 20
5125.329953229
 30
0.0
 11
6762.2987222224
 21
5132.6465577693
 31
0.0
  0
LINE
  5
239
330
1F
100
AcDbEntity
  8
0
  6
Continuous
 62
     7
370
    25
100
AcDbLine
 10
6760.4093839724
 20
5132.6295828155
 30
0.0
 11
6760.4093839724
 21
5125.7938375282
 31
0.0
  0
LINE
  5
23A
330
1F
100
AcDbEntity
  8
0
  6
Continuous
 62
     7
370
    25
100
AcDbLine
 10
6759.6478564107
 20
5157.4864205035
 30
0.0
 11
6759.6478564107
 21
5159.3248981346
 31
0.0
  0
LINE
  5
23B
330
1F
100
AcDbEntity
  8
0
  6
Continuous
 62
     7
370
    25
100
AcDbLine
 10
6753.5856785842
 20
5157.4864205035
 30
0.0
 11
6753.5856785842
 21
5159.3248981346
 31
0.0
  0
LINE
  5
23C
330
1F
100
AcDbEntity
  8
0
  6
Continuous
 62
     7
370
    25
100
AcDbLine
 10
6741.4613229312
 20
5157.4864205035
 30
0.0
 11
6741.4613229312
 21
5159.3248981346
 31
0.0
  0
LINE
  5
23D
330
1F
100
AcDbEntity
  8
0
  6
Continuous
 62
     7
370
    25
100
AcDbLine
 10
6735.3991451047
 20
5157.4864205035
 30
0.0
 11
6735.3991451047
 21
5159.3248981346
 31
0.0
  0
LINE
  5
23E
330
1F
100
AcDbEntity
  8
0
  6
Continuous
 62
     7
370
    25
100
AcDbLine
 10
6760.173500758
 20
4991.7748981345
 30
0.0
 11
6760.673500758
 21
4991.7748981345
 31
0.0
  0
LINE
  5
23F
330
1F
100
AcDbEntity
  8
0
  6
Continuous
 62
     7
370
    25
100
AcDbLine
 10
6760.173500758
 20
4991.7748981345
 30
0.0
 11
6760.173500758
 21
4994.7382302092
 31
0.0
  0
LINE
  5
240
330
1F
100
AcDbEntity
  8
0
  6
Continuous
 62
     7
370
    25
100
AcDbLine
 10
6767.4324212093
 20
4991.2748981345
 30
0.0
 11
6760.673500758
 21
4991.2748981345
 31
0.0
  0
LINE
  5
241
330
1F
100
AcDbEntity
  8
0
  6
Continuous
 62
     7
370
    25
100
AcDbLine
 10
6760.673500758
 20
4991.2748981345
 30
0.0
 11
6760.673500758
 21
4991.7748981345
 31
0.0
  0
ARC
  5
242
330
1F
100
AcDbEntity
  8
0
  6
Continuous
 62
     7
370
    25
100
AcDbCircle
 10
6760.673500758
 20
4991.7748981345
 30
0.0
 40
0.5
100
AcDbArc
 50
180.0
 51
270.0000000001
  0
LINE
  5
243
330
1F
100
AcDbEntity
  8
0
  6
Continuous
 62
     7
370
    25
100
AcDbLine
 10
6738.2679189378
 20
4963.1633757657
 30
0.0
 11
6738.2679189378
 21
4961.3248981345
 31
0.0
  0
LINE
  5
244
330
1F
100
AcDbEntity
  8
0
  6
Continuous
 62
     7
370
    25
100
AcDbLine
 10
6745.4078113342
 20
4963.1633757657
 30
0.0
 11
6745.4078113342
 21
4961.3248981345
 31
0.0
  0
LINE
  5
245
330
1F
100
AcDbEntity
  8
0
  6
Continuous
 62
     7
370
    25
100
AcDbLine
 10
6754.6633931544
 20
4963.1633757657
 30
0.0
 11
6754.6633931544
 21
4961.3248981345
 31
0.0
  0
LINE
  5
246
330
1F
100
AcDbEntity
  8
0
  6
Continuous
 62
     7
370
    25
100
AcDbLine
 10
6756.7790825782
 20
4963.1633757657
 30
0.0
 11
6756.7790825782
 21
4961.3248981345
 31
0.0
  0
LINE
  5
247
330
1F
100
AcDbEntity
  8
0
  6
Continuous
 62
     7
370
    25
100
AcDbLine
 10
6838.9244015623
 20
5060.4426789349
 30
0.0
 11
6838.9244015623
 21
5106.5748981346
 31
0.0
  0
LINE
  5
248
330
1F
100
AcDbEntity
  8
0
  6
Continuous
 62
     7
370
    25
100
AcDbLine
 10
6838.9244015623
 20
5060.0748981346
 30
0.0
 11
6838.9244015623
 21
5060.4426789349
 31
0.0
  0
LINE
  5
249
330
1F
100
AcDbEntity
  8
0
  6
Continuous
 62
     7
370
    25
100
AcDbLine
 10
6819.5235007577
 20
5145.2592127096
 30
0.0
 11
6828.5235007577
 21
5145.2592127096
 31
0.0
  0
LINE
  5
24A
330
1F
100
AcDbEntity
  8
0
  6
Continuous
 62
     7
370
    25
100
AcDbLine
 10
6828.5235007577
 20
4975.3905835595
 30
0.0
 11
6828.5235007577
 21
5145.2592127096
 31
0.0
  0
LINE
  5
24B
330
1F
100
AcDbEntity
  8
0
  6
Continuous
 62
     7
370
    25
100
AcDbLine
 10
6819.5235007577
 20
4975.3905835595
 30
0.0
 11
6828.5235007577
 21
4975.3905835595
 31
0.0
  0
LINE
  5
24C
330
1F
100
AcDbEntity
  8
0
  6
Continuous
 62
     7
370
    25
100
AcDbLine
 10
6828.5235007577
 20
4973.3248981346
 30
0.0
 11
6828.5235007577
 21
4974.8248981346
 31
0.0
  0
LINE
  5
24D
330
1F
100
AcDbEntity
  8
0
  6
Continuous
 62
     7
370
    25
100
AcDbLine
 10
6819.5235007577
 20
4973.3248981346
 30
0.0
 11
6828.5235007577
 21
4973.3248981346
 31
0.0
  0
LINE
  5
24E
330
1F
100
AcDbEntity
  8
0
  6
Continuous
 62
     7
370
    25
100
AcDbLine
 10
6819.5235007577
 20
4974.8248981346
 30
0.0
 11
6828.5235007577
 21
4974.8248981346
 31
0.0
  0
LINE
  5
24F
330
1F
100
AcDbEntity
  8
0
  6
Continuous
 62
     7
370
    25
100
AcDbLine
 10
6828.5235007577
 20
5147.3248981346
 30
0.0
 11
6828.5235007577
 21
5145.8248981346
 31
0.0
  0
LINE
  5
250
330
1F
100
AcDbEntity
  8
0
  6
Continuous
 62
     7
370
    25
100
AcDbLine
 10
6819.5235007577
 20
5147.3248981346
 30
0.0
 11
6828.5235007577
 21
5147.3248981346
 31
0.0
  0
LINE
  5
251
330
1F
100
AcDbEntity
  8
0
  6
Continuous
 62
     7
370
    25
100
AcDbLine
 10
6819.5235007577
 20
5145.8248981346
 30
0.0
 11
6828.5235007577
 21
5145.8248981346
 31
0.0
  0
LWPOLYLINE
  5
252
330
1F
100
AcDbEntity
  8
0
  6
Continuous
 62
     7
370
    25
100
AcDbPolyline
 90
        3
 70
   128
 43
0.0
 10
6746.2253498977
 20
4960.3248981345
 10
6745.0604096614
 20
4960.0555602597
 10
6742.9084759933
 20
4959.3248981345
  0
LINE
  5
253
330
1F
100
AcDbEntity
  8
0
  6
Continuous
 62
     7
370
    25
100
AcDbLine
 10
6739.9892791945
 20
4959.3248981345
 30
0.0
 11
6742.9084759933
 21
4959.3248981345
 31
0.0
  0
LWPOLYLINE
  5
254
330
1F
100
AcDbEntity
  8
0
  6
Continuous
 62
     7
370
    25
100
AcDbPolyline
 90
        3
 70
   128
 43
0.0
 10
6739.9892791945
 20
4959.3248981345
 10
6738.478219998
 20
4960.1674058041
 10
6738.0529831332
 20
4960.3248981345
  0
LWPOLYLINE
  5
255
330
1F
100
AcDbEntity
  8
0
  6
Continuous
 62
     7
370
    25
100
AcDbPolyline
 90
        3
 70
   128
 43
0.0
 10
6742.9084759933
 20
4950.9022484037
 10
6743.7920343961
 20
4950.7090016713
 10
6746.2253498977
 20
4950.3248981345
  0
LWPOLYLINE
  5
256
330
1F
100
AcDbEntity
  8
0
  6
Continuous
 62
     7
370
    25
100
AcDbPolyline
 90
        3
 70
   128
 43
0.0
 10
6738.0529831332
 20
4950.3248981345
 10
6738.2694889459
 20
4950.3685286232
 10
6739.9892791945
 20
4950.9022484037
  0
LINE
  5
257
330
1F
100
AcDbEntity
  8
0
  6
Continuous
 62
     7
370
    25
100
AcDbLine
 10
6739.9892791945
 20
4950.9022484037
 30
0.0
 11
6742.9084759933
 21
4950.9022484037
 31
0.0
  0
LINE
  5
258
330
1F
100
AcDbEntity
  8
0
  6
Continuous
 62
     7
370
    25
100
AcDbLine
 10
6738.0529831332
 20
4950.3248981345
 30
0.0
 11
6746.2253498977
 21
4950.3248981345
 31
0.0
  0
LINE
  5
259
330
1F
100
AcDbEntity
  8
0
  6
Continuous
 62
     7
370
    25
100
AcDbLine
 10
6748.7963898267
 20
4950.3246080231
 30
0.0
 11
6760.744000758
 21
4950.3246080231
 31
0.0
  0
LINE
  5
25A
330
1F
100
AcDbEntity
  8
0
  6
Continuous
 62
     7
370
    25
100
AcDbLine
 10
6734.303000758
 20
4950.3246080231
 30
0.0
 11
6748.7963898267
 21
4950.3246080231
 31
0.0
  0
LINE
  5
25B
330
1F
100
AcDbEntity
  8
0
  6
Continuous
 62
     7
370
    25
100
AcDbLine
 10
6760.744000758
 20
4947.3251882459
 30
0.0
 11
6734.303000758
 21
4947.3251882459
 31
0.0
  0
LINE
  5
25C
330
1F
100
AcDbEntity
  8
0
  6
Continuous
 62
     7
370
    25
100
AcDbLine
 10
6748.7963898267
 20
4942.3248981345
 30
0.0
 11
6760.744000758
 21
4942.3248981345
 31
0.0
  0
LINE
  5
25D
330
1F
100
AcDbEntity
  8
0
  6
Continuous
 62
     7
370
    25
100
AcDbLine
 10
6734.303000758
 20
4942.3248981345
 30
0.0
 11
6748.7963898267
 21
4942.3248981345
 31
0.0
  0
LINE
  5
25E
330
1F
100
AcDbEntity
  8
0
  6
Continuous
 62
     7
370
    25
100
AcDbLine
 10
6748.7001083647
 20
4941.3248981345
 30
0.0
 11
6735.303000758
 21
4941.3248981345
 31
0.0
  0
LINE
  5
25F
330
1F
100
AcDbEntity
  8
0
  6
Continuous
 62
     7
370
    25
100
AcDbLine
 10
6759.744000758
 20
4941.3248981345
 30
0.0
 11
6748.7001083647
 21
4941.3248981345
 31
0.0
  0
LINE
  5
260
330
1F
100
AcDbEntity
  8
0
  6
Continuous
 62
     7
370
    25
100
AcDbLine
 10
6742.9084759933
 20
4959.3248981345
 30
0.0
 11
6742.9084759933
 21
4950.9022484037
 31
0.0
  0
LINE
  5
261
330
1F
100
AcDbEntity
  8
0
  6
Continuous
 62
     7
370
    25
100
AcDbLine
 10
6739.9892791945
 20
4950.9022484037
 30
0.0
 11
6739.9892791945
 21
4959.3248981345
 31
0.0
  0
LINE
  5
262
330
1F
100
AcDbEntity
  8
0
  6
Continuous
 62
     7
370
    25
100
AcDbLine
 10
6754.7381249974
 20
4959.3248981345
 30
0.0
 11
6751.421251093
 21
4960.3248981345
 31
0.0
  0
LINE
  5
263
330
1F
100
AcDbEntity
  8
0
  6
Continuous
 62
     7
370
    25
100
AcDbLine
 10
6754.7381249974
 20
4950.9022484037
 30
0.0
 11
6754.7381249974
 21
4959.3248981345
 31
0.0
  0
LWPOLYLINE
  5
264
330
1F
100
AcDbEntity
  8
0
  6
Continuous
 62
     7
370
    25
100
AcDbPolyline
 90
        3
 70
   128
 43
0.0
 10
6751.421251093
 20
4950.3248981345
 10
6752.8939570795
 20
4950.5303540859
 10
6754.7381249974
 20
4950.9022484037
  0
LINE
  5
265
330
1F
100
AcDbEntity
  8
0
  6
Continuous
 62
     7
370
    25
100
AcDbLine
 10
6751.421251093
 20
4950.3248981345
 30
0.0
 11
6746.2253498977
 21
4950.3248981345
 31
0.0
  0
LINE
  5
266
330
1F
100
AcDbEntity
  8
0
  6
Continuous
 62
     7
370
    25
100
AcDbLine
 10
6733.0834686532
 20
4950.9022484037
 30
0.0
 11
6735.0197647145
 21
4950.3248981345
 31
0.0
  0
LINE
  5
267
330
1F
100
AcDbEntity
  8
0
  6
Continuous
 62
     7
370
    25
100
AcDbLine
 10
6733.0834686532
 20
4959.3248981345
 30
0.0
 11
6733.0834686532
 21
4950.9022484037
 31
0.0
  0
LINE
  5
268
330
1F
100
AcDbEntity
  8
0
  6
Continuous
 62
     7
370
    25
100
AcDbLine
 10
6735.0197647145
 20
4960.3248981345
 30
0.0
 11
6733.0834686532
 21
4959.3248981345
 31
0.0
  0
LINE
  5
269
330
1F
100
AcDbEntity
  8
0
  6
Continuous
 62
     7
370
    25
100
AcDbLine
 10
6738.0529831332
 20
4950.3248981345
 30
0.0
 11
6735.0197647145
 21
4950.3248981345
 31
0.0
  0
LINE
  5
26A
330
1F
100
AcDbEntity
  8
0
  6
Continuous
 62
     7
370
    25
100
AcDbLine
 10
6758.7290859412
 20
4960.3248981345
 30
0.0
 11
6757.3485080981
 21
4959.3248981345
 31
0.0
  0
LINE
  5
26B
330
1F
100
AcDbEntity
  8
0
  6
Continuous
 62
     7
370
    25
100
AcDbLine
 10
6754.7381249974
 20
4959.3248981345
 30
0.0
 11
6757.3485080981
 21
4959.3248981345
 31
0.0
  0
LINE
  5
26C
330
1F
100
AcDbEntity
  8
0
  6
Continuous
 62
     7
370
    25
100
AcDbLine
 10
6757.3485080981
 20
4950.9022484037
 30
0.0
 11
6758.7290859412
 21
4950.3248981345
 31
0.0
  0
LINE
  5
26D
330
1F
100
AcDbEntity
  8
0
  6
Continuous
 62
     7
370
    25
100
AcDbLine
 10
6754.7381249974
 20
4950.9022484037
 30
0.0
 11
6757.3485080981
 21
4950.9022484037
 31
0.0
  0
LINE
  5
26E
330
1F
100
AcDbEntity
  8
0
  6
Continuous
 62
     7
370
    25
100
AcDbLine
 10
6751.421251093
 20
4950.3248981345
 30
0.0
 11
6758.7290859412
 21
4950.3248981345
 31
0.0
  0
LINE
  5
26F
330
1F
100
AcDbEntity
  8
0
  6
Continuous
 62
     7
370
    25
100
AcDbLine
 10
6757.3485080981
 20
4959.3248981345
 30
0.0
 11
6757.3485080981
 21
4950.9022484037
 31
0.0
  0
LWPOLYLINE
  5
270
330
1F
100
AcDbEntity
  8
0
  6
Continuous
 62
     7
370
    25
100
AcDbPolyline
 90
        3
 70
   128
 43
0.0
 10
6762.2723465609
 20
4959.3248981345
 10
6761.1949623282
 20
4960.1674058041
 10
6760.8917687178
 20
4960.3248981345
  0
LINE
  5
271
330
1F
100
AcDbEntity
  8
0
  6
Continuous
 62
     7
370
    25
100
AcDbLine
 10
6762.2723465609
 20
4950.9022484037
 30
0.0
 11
6762.2723465609
 21
4959.3248981345
 31
0.0
  0
LWPOLYLINE
  5
272
330
1F
100
AcDbEntity
  8
0
  6
Continuous
 62
     7
370
    25
100
AcDbPolyline
 90
        3
 70
   128
 43
0.0
 10
6760.8917687178
 20
4950.3248981345
 10
6761.0461372226
 20
4950.3685286232
 10
6762.2723465609
 20
4950.9022484037
  0
LINE
  5
273
330
1F
100
AcDbEntity
  8
0
  6
Continuous
 62
     7
370
    25
100
AcDbLine
 10
6760.8917687178
 20
4950.3248981345
 30
0.0
 11
6758.7290859412
 21
4950.3248981345
 31
0.0
  0
LINE
  5
274
330
1F
100
AcDbEntity
  8
0
  6
Continuous
 62
     7
370
    25
100
AcDbLine
 10
6732.773500758
 20
4959.3248981345
 30
0.0
 11
6733.0834686532
 21
4959.3248981345
 31
0.0
  0
LINE
  5
275
330
1F
100
AcDbEntity
  8
0
  6
Continuous
 62
     7
370
    25
100
AcDbLine
 10
6733.773500758
 20
4960.3248981345
 30
0.0
 11
6734.3235007577
 21
4960.3248981345
 31
0.0
  0
LINE
  5
276
330
1F
100
AcDbEntity
  8
0
  6
Continuous
 62
     7
370
    25
100
AcDbLine
 10
6732.773500758
 20
4950.9022484037
 30
0.0
 11
6733.0834686532
 21
4950.9022484037
 31
0.0
  0
LINE
  5
277
330
1F
100
AcDbEntity
  8
0
  6
Continuous
 62
     7
370
    25
100
AcDbLine
 10
6733.773500758
 20
4950.3248981345
 30
0.0
 11
6735.0197647145
 21
4950.3248981345
 31
0.0
  0
LINE
  5
278
330
1F
100
AcDbEntity
  8
0
  6
Continuous
 62
     7
370
    25
100
AcDbLine
 10
6762.2723465609
 20
4959.3248981345
 30
0.0
 11
6762.273500758
 21
4959.3248981345
 31
0.0
  0
LINE
  5
279
330
1F
100
AcDbEntity
  8
0
  6
Continuous
 62
     7
370
    25
100
AcDbLine
 10
6762.2723465609
 20
4950.9022484037
 30
0.0
 11
6762.273500758
 21
4950.9022484037
 31
0.0
  0
LINE
  5
27A
330
1F
100
AcDbEntity
  8
0
  6
Continuous
 62
     7
370
    25
100
AcDbLine
 10
6760.8917687178
 20
4950.3248981345
 30
0.0
 11
6761.273500758
 21
4950.3248981345
 31
0.0
  0
LINE
  5
27B
330
1F
100
AcDbEntity
  8
0
  6
Continuous
 62
     7
370
    25
100
AcDbLine
 10
6755.3177293918
 20
5170.8248981346
 30
0.0
 11
6755.3177293918
 21
5160.3248981346
 31
0.0
  0
LINE
  5
27C
330
1F
100
AcDbEntity
  8
0
  6
Continuous
 62
     7
370
    25
100
AcDbLine
 10
6739.7292721237
 20
5170.8248981346
 30
0.0
 11
6739.7292721237
 21
5160.3248981346
 31
0.0
  0
LINE
  5
27D
330
1F
100
AcDbEntity
  8
0
  6
Continuous
 62
     7
370
    25
100
AcDbLine
 10
6739.7292721237
 20
5170.8248981346
 30
0.0
 11
6755.3177293918
 21
5170.8248981346
 31
0.0
  0
LINE
  5
27E
330
1F
100
AcDbEntity
  8
0
  6
Continuous
 62
     7
370
    25
100
AcDbLine
 10
6763.1119580258
 20
5170.8248981346
 30
0.0
 11
6763.1119580258
 21
5160.3248981346
 31
0.0
  0
LINE
  5
27F
330
1F
100
AcDbEntity
  8
0
  6
Continuous
 62
     7
370
    25
100
AcDbLine
 10
6755.3177293918
 20
5170.8248981346
 30
0.0
 11
6763.1119580258
 21
5170.8248981346
 31
0.0
  0
LINE
  5
280
330
1F
100
AcDbEntity
  8
0
  6
Continuous
 62
     7
370
    25
100
AcDbLine
 10
6731.9350434896
 20
5170.8248981346
 30
0.0
 11
6731.9350434896
 21
5160.3248981346
 31
0.0
  0
LINE
  5
281
330
1F
100
AcDbEntity
  8
0
  6
Continuous
 62
     7
370
    25
100
AcDbLine
 10
6731.9350434896
 20
5160.3248981346
 30
0.0
 11
6734.3235007577
 21
5160.3248981346
 31
0.0
  0
LINE
  5
282
330
1F
100
AcDbEntity
  8
0
  6
Continuous
 62
     7
370
    25
100
AcDbLine
 10
6731.9350434896
 20
5170.8248981346
 30
0.0
 11
6739.7292721237
 21
5170.8248981346
 31
0.0
  0
LWPOLYLINE
  5
283
330
1F
100
AcDbEntity
  8
0
  6
Continuous
 62
     7
370
    25
100
AcDbPolyline
 90
       20
 70
   128
 43
0.0
 10
6734.6578551698
 20
5178.6518778941
 10
6734.7805452934
 20
5178.6738333664
 10
6735.2847469798
 20
5178.7008450647
 10
6736.1584548395
 20
5178.7291062948
 10
6737.3198261538
 20
5178.7560623569
 10
6738.8066495593
 20
5178.7827237223
 10
6740.4938794908
 20
5178.809134174
 10
6742.4323604765
 20
5178.8372934066
 10
6744.4377902828
 20
5178.8645563496
 10
6746.585420556
 20
5178.8919685486
 10
6748.6949796257
 20
5178.9177593592
 10
6750.8273519595
 20
5178.9454200122
 10
6752.7857291071
 20
5178.9727345979
 10
6754.6441509848
 20
5179.0007142812
 10
6756.2425677603
 20
5179.0269355031
 10
6757.63064656
 20
5179.0537608426
 10
6758.6851181479
 20
5179.0808368905
 10
6759.4434089064
 20
5179.109090755
 10
6759.8398935837
 20
5179.1359773327
 10
6759.8765106843
 20
5179.1549478461
  0
LINE
  5
284
330
1F
100
AcDbEntity
  8
0
  6
Continuous
 62
     7
370
    25
100
AcDbLine
 10
6760.7440007577
 20
5178.3248981346
 30
0.0
 11
6759.3218228519
 21
5178.3248981346
 31
0.0
  0
LWPOLYLINE
  5
285
330
1F
100
AcDbEntity
  8
0
  6
Continuous
 62
     7
370
    25
100
AcDbPolyline
 90
        4
 70
   128
 43
0.0
 10
6760.4324171455
 20
5178.6062554918
 10
6760.4752873041
 20
5178.5847555839
 10
6760.3125248262
 20
5178.4863560362
 10
6759.3218228519
 20
5178.3248981346
  0
LINE
  5
286
330
1F
100
AcDbEntity
  8
0
  6
Continuous
 62
     7
370
    25
100
AcDbLine
 10
6735.8030007577
 20
5179.8248981346
 30
0.0
 11
6759.2440007577
 21
5179.8248981346
 31
0.0
  0
LWPOLYLINE
  5
287
330
1F
100
AcDbEntity
  8
0
  6
Continuous
 62
     7
370
    25
100
AcDbPolyline
 90
       17
 70
   128
 43
0.0
 10
6760.6902171797
 20
5178.0469387127
 10
6760.728738855
 20
5178.0351521955
 10
6760.2701736489
 20
5177.9796629621
 10
6759.1754567081
 20
5177.9218318803
 10
6757.5221362093
 20
5177.865882766
 10
6755.4194689024
 20
5177.8126009873
 10
6752.8848496857
 20
5177.7555624166
 10
6750.0779107839
 20
5177.6980497904
 10
6747.2065881835
 20
5177.6441276524
 10
6744.3322989611
 20
5177.5891445345
 10
6741.5684757718
 20
5177.5313666638
 10
6739.1195529867
 20
5177.4750052453
 10
6737.1161325683
 20
5177.4218519059
 10
6735.5758763689
 20
5177.3651269752
 10
6734.6190230883
 20
5177.3074553643
 10
6734.3030007577
 20
5177.2530231346
 10
6734.3483500519
 20
5177.2452120941
  0
LWPOLYLINE
  5
288
330
1F
100
AcDbEntity
  8
0
  6
Continuous
 62
     7
370
    25
100
AcDbPolyline
 90
       17
 70
   128
 43
0.0
 10
6760.6902171797
 20
5176.4594387127
 10
6760.728738855
 20
5176.4476521955
 10
6760.2701736489
 20
5176.3921629621
 10
6759.1754567081
 20
5176.3343318803
 10
6757.5221362093
 20
5176.278382766
 10
6755.4194689024
 20
5176.2251009873
 10
6752.8848496857
 20
5176.1680624166
 10
6750.0779107839
 20
5176.1105497904
 10
6747.2065881835
 20
5176.0566276524
 10
6744.3322989611
 20
5176.0016445345
 10
6741.5684757718
 20
5175.9438666638
 10
6739.1195529867
 20
5175.8875052453
 10
6737.1161325683
 20
5175.8343519059
 10
6735.5758763689
 20
5175.7776269752
 10
6734.6190230883
 20
5175.7199553643
 10
6734.3030007577
 20
5175.6655231346
 10
6734.3483500519
 20
5175.6577120941
  0
LWPOLYLINE
  5
289
330
1F
100
AcDbEntity
  8
0
  6
Continuous
 62
     7
370
    25
100
AcDbPolyline
 90
       17
 70
   128
 43
0.0
 10
6760.6902171797
 20
5174.8719387127
 10
6760.728738855
 20
5174.8601521955
 10
6760.2701736489
 20
5174.8046629621
 10
6759.1754567081
 20
5174.7468318803
 10
6757.5221362093
 20
5174.690882766
 10
6755.4194689024
 20
5174.6376009873
 10
6752.8848496857
 20
5174.5805624166
 10
6750.0779107839
 20
5174.5230497904
 10
6747.2065881835
 20
5174.4691276524
 10
6744.3322989611
 20
5174.4141445345
 10
6741.5684757718
 20
5174.3563666638
 10
6739.1195529867
 20
5174.3000052453
 10
6737.1161325683
 20
5174.2468519059
 10
6735.5758763689
 20
5174.1901269752
 10
6734.6190230883
 20
5174.1324553643
 10
6734.3030007577
 20
5174.0780231346
 10
6734.3483500519
 20
5174.0702120941
  0
LWPOLYLINE
  5
28A
330
1F
100
AcDbEntity
  8
0
  6
Continuous
 62
     7
370
    25
100
AcDbPolyline
 90
       17
 70
   128
 43
0.0
 10
6760.6902171797
 20
5173.2844387127
 10
6760.728738855
 20
5173.2726521955
 10
6760.2701736489
 20
5173.2171629621
 10
6759.1754567081
 20
5173.1593318803
 10
6757.5221362093
 20
5173.103382766
 10
6755.4194689024
 20
5173.0501009873
 10
6752.8848496857
 20
5172.9930624166
 10
6750.0779107839
 20
5172.9355497904
 10
6747.2065881835
 20
5172.8816276524
 10
6744.3322989611
 20
5172.8266445345
 10
6741.5684757718
 20
5172.7688666638
 10
6739.1195529867
 20
5172.7125052453
 10
6737.1161325683
 20
5172.6593519059
 10
6735.5758763689
 20
5172.6026269752
 10
6734.6190230883
 20
5172.5449553643
 10
6734.3030007577
 20
5172.4905231346
 10
6734.3483500519
 20
5172.4827120941
  0
LWPOLYLINE
  5
28B
330
1F
100
AcDbEntity
  8
0
  6
Continuous
 62
     7
370
    25
100
AcDbPolyline
 90
       17
 70
   128
 43
0.0
 10
6760.6902171797
 20
5171.6969387127
 10
6760.728738855
 20
5171.6851521955
 10
6760.2701736489
 20
5171.6296629621
 10
6759.1754567081
 20
5171.5718318803
 10
6757.5221362093
 20
5171.515882766
 10
6755.4194689024
 20
5171.4626009873
 10
6752.8848496857
 20
5171.4055624166
 10
6750.0779107839
 20
5171.3480497904
 10
6747.2065881835
 20
5171.2941276524
 10
6744.3322989611
 20
5171.2391445345
 10
6741.5684757718
 20
5171.1813666638
 10
6739.1195529867
 20
5171.1250052453
 10
6737.1161325683
 20
5171.0718519059
 10
6735.5758763689
 20
5171.0151269752
 10
6734.6190230883
 20
5170.9574553643
 10
6734.3030007577
 20
5170.9030231346
 10
6734.3483500519
 20
5170.8952120941
  0
LWPOLYLINE
  5
28C
330
1F
100
AcDbEntity
  8
0
  6
Continuous
 62
     7
370
    25
100
AcDbPolyline
 90
       16
 70
   128
 43
0.0
 10
6759.8199569312
 20
5179.1380436997
 10
6759.754434958
 20
5179.1024447348
 10
6759.0578679363
 20
5179.0454061642
 10
6757.788354997
 20
5178.987893538
 10
6756.0521796598
 20
5178.9339713999
 10
6753.8958953667
 20
5178.878988282
 10
6751.3901198159
 20
5178.8212104114
 10
6748.7146935992
 20
5178.7648489929
 10
6746.0329023179
 20
5178.7116956534
 10
6743.3664628509
 20
5178.6549707228
 10
6740.891425984
 20
5178.5972991119
 10
6738.782783836
 20
5178.5428668822
 10
6737.0920172196
 20
5178.4884346524
 10
6735.8822250351
 20
5178.4307630415
 10
6735.2524624601
 20
5178.3740381109
 10
6735.2342745068
 20
5178.3444499069
  0
LWPOLYLINE
  5
28D
330
1F
100
AcDbEntity
  8
0
  6
Continuous
 62
     7
370
    25
100
AcDbPolyline
 90
       16
 70
   128
 43
0.0
 10
6759.8049198038
 20
5177.5423738271
 10
6759.754434958
 20
5177.5149447348
 10
6759.0578679363
 20
5177.4579061642
 10
6757.788354997
 20
5177.400393538
 10
6756.0521796598
 20
5177.3464713999
 10
6753.8958953667
 20
5177.291488282
 10
6751.3901198159
 20
5177.2337104114
 10
6748.7146935992
 20
5177.1773489929
 10
6746.0329023179
 20
5177.1241956534
 10
6743.3664628508
 20
5177.0674707228
 10
6740.891425984
 20
5177.0097991119
 10
6738.782783836
 20
5176.9553668822
 10
6737.0920172196
 20
5176.9009346524
 10
6735.8822250351
 20
5176.8432630415
 10
6735.2524624601
 20
5176.7865381109
 10
6735.2342745068
 20
5176.7569499069
  0
LWPOLYLINE
  5
28E
330
1F
100
AcDbEntity
  8
0
  6
Continuous
 62
     7
370
    25
100
AcDbPolyline
 90
       16
 70
   128
 43
0.0
 10
6759.8049198038
 20
5175.9548738271
 10
6759.754434958
 20
5175.9274447348
 10
6759.0578679363
 20
5175.8704061642
 10
6757.788354997
 20
5175.812893538
 10
6756.0521796598
 20
5175.7589713999
 10
6753.8958953667
 20
5175.703988282
 10
6751.3901198159
 20
5175.6462104114
 10
6748.7146935992
 20
5175.5898489929
 10
6746.0329023179
 20
5175.5366956534
 10
6743.3664628508
 20
5175.4799707228
 10
6740.891425984
 20
5175.4222991119
 10
6738.782783836
 20
5175.3678668822
 10
6737.0920172196
 20
5175.3134346524
 10
6735.8822250351
 20
5175.2557630415
 10
6735.2524624601
 20
5175.1990381109
 10
6735.2342745068
 20
5175.1694499069
  0
LWPOLYLINE
  5
28F
330
1F
100
AcDbEntity
  8
0
  6
Continuous
 62
     7
370
    25
100
AcDbPolyline
 90
       16
 70
   128
 43
0.0
 10
6759.8049198038
 20
5174.3673738271
 10
6759.754434958
 20
5174.3399447348
 10
6759.0578679363
 20
5174.2829061642
 10
6757.788354997
 20
5174.225393538
 10
6756.0521796598
 20
5174.1714713999
 10
6753.8958953667
 20
5174.116488282
 10
6751.3901198159
 20
5174.0587104114
 10
6748.7146935992
 20
5174.0023489929
 10
6746.0329023179
 20
5173.9491956534
 10
6743.3664628508
 20
5173.8924707228
 10
6740.891425984
 20
5173.8347991119
 10
6738.782783836
 20
5173.7803668822
 10
6737.0920172196
 20
5173.7259346524
 10
6735.8822250351
 20
5173.6682630415
 10
6735.2524624601
 20
5173.6115381109
 10
6735.2342745068
 20
5173.5819499069
  0
LWPOLYLINE
  5
290
330
1F
100
AcDbEntity
  8
0
  6
Continuous
 62
     7
370
    25
100
AcDbPolyline
 90
       16
 70
   128
 43
0.0
 10
6759.8049198038
 20
5172.7798738271
 10
6759.754434958
 20
5172.7524447348
 10
6759.0578679363
 20
5172.6954061642
 10
6757.788354997
 20
5172.637893538
 10
6756.0521796598
 20
5172.5839713999
 10
6753.8958953667
 20
5172.528988282
 10
6751.3901198159
 20
5172.4712104114
 10
6748.7146935992
 20
5172.4148489929
 10
6746.0329023179
 20
5172.3616956534
 10
6743.3664628508
 20
5172.3049707228
 10
6740.891425984
 20
5172.2472991119
 10
6738.782783836
 20
5172.1928668822
 10
6737.0920172196
 20
5172.1384346524
 10
6735.8822250351
 20
5172.0807630415
 10
6735.2524624601
 20
5172.0240381109
 10
6735.2342745068
 20
5171.9944499069
  0
ARC
  5
291
330
1F
100
AcDbEntity
  8
0
  6
Continuous
 62
     7
370
    25
100
AcDbCircle
 10
6747.4698993628
 20
5376.317057701
 30
0.0
 40
205.4952278366597
100
AcDbArc
 50
270.3131007457
 51
273.4412950627
  0
LWPOLYLINE
  5
292
330
1F
100
AcDbEntity
  8
0
  6
Continuous
 62
     7
370
    25
100
AcDbPolyline
 90
       14
 70
   128
 43
0.0
 10
6759.3218228519
 20
5178.3248981346
 10
6758.5018897308
 20
5178.2933622856
 10
6756.6450286655
 20
5178.2394401475
 10
6754.3388558594
 20
5178.1844570296
 10
6751.6588978166
 20
5178.1266791589
 10
6748.7974962817
 20
5178.0703177405
 10
6745.9292872313
 20
5178.017164401
 10
6743.0774971367
 20
5177.9604394704
 10
6740.4304144979
 20
5177.9027678595
 10
6738.175195557
 20
5177.8483356298
 10
6736.3668996821
 20
5177.7939034
 10
6735.0730119299
 20
5177.7362317891
 10
6734.399473042
 20
5177.6795068585
 10
6734.3800385627
 20
5177.6499456723
  0
LWPOLYLINE
  5
293
330
1F
100
AcDbEntity
  8
0
  6
Continuous
 62
     7
370
    25
100
AcDbPolyline
 90
       17
 70
   128
 43
0.0
 10
6760.6902171797
 20
5176.8563137078
 10
6760.728738855
 20
5176.8445271906
 10
6760.2701736489
 20
5176.7890379573
 10
6759.3218228519
 20
5176.7373981346
 10
6758.5018897308
 20
5176.7058622856
 10
6756.6450286655
 20
5176.6519401475
 10
6754.3388558594
 20
5176.5969570296
 10
6751.6588978166
 20
5176.5391791589
 10
6748.7974962817
 20
5176.4828177405
 10
6745.9292872313
 20
5176.429664401
 10
6743.0774971367
 20
5176.3729394704
 10
6740.4304144979
 20
5176.3152678595
 10
6738.175195557
 20
5176.2608356298
 10
6736.3668996821
 20
5176.2064034
 10
6735.0730119299
 20
5176.1487317891
 10
6734.399473042
 20
5176.0920068585
 10
6734.3800385627
 20
5176.0624456723
  0
LWPOLYLINE
  5
294
330
1F
100
AcDbEntity
  8
0
  6
Continuous
 62
     7
370
    25
100
AcDbPolyline
 90
       17
 70
   128
 43
0.0
 10
6760.6902171797
 20
5175.2688137078
 10
6760.728738855
 20
5175.2570271906
 10
6760.2701736489
 20
5175.2015379573
 10
6759.3218228519
 20
5175.1498981346
 10
6758.5018897308
 20
5175.1183622856
 10
6756.6450286655
 20
5175.0644401475
 10
6754.3388558594
 20
5175.0094570296
 10
6751.6588978166
 20
5174.9516791589
 10
6748.7974962817
 20
5174.8953177405
 10
6745.9292872313
 20
5174.842164401
 10
6743.0774971367
 20
5174.7854394704
 10
6740.4304144979
 20
5174.7277678595
 10
6738.175195557
 20
5174.6733356297
 10
6736.3668996821
 20
5174.6189034
 10
6735.0730119299
 20
5174.5612317891
 10
6734.399473042
 20
5174.5045068585
 10
6734.3800385627
 20
5174.4749456723
  0
LWPOLYLINE
  5
295
330
1F
100
AcDbEntity
  8
0
  6
Continuous
 62
     7
370
    25
100
AcDbPolyline
 90
       17
 70
   128
 43
0.0
 10
6760.6902171797
 20
5173.6813137078
 10
6760.728738855
 20
5173.6695271906
 10
6760.2701736489
 20
5173.6140379573
 10
6759.3218228519
 20
5173.5623981346
 10
6758.5018897308
 20
5173.5308622856
 10
6756.6450286655
 20
5173.4769401475
 10
6754.3388558594
 20
5173.4219570296
 10
6751.6588978166
 20
5173.3641791589
 10
6748.7974962817
 20
5173.3078177405
 10
6745.9292872313
 20
5173.254664401
 10
6743.0774971367
 20
5173.1979394704
 10
6740.4304144979
 20
5173.1402678595
 10
6738.175195557
 20
5173.0858356297
 10
6736.3668996821
 20
5173.0314034
 10
6735.0730119299
 20
5172.9737317891
 10
6734.399473042
 20
5172.9170068585
 10
6734.3800385627
 20
5172.8874456723
  0
LWPOLYLINE
  5
296
330
1F
100
AcDbEntity
  8
0
  6
Continuous
 62
     7
370
    25
100
AcDbPolyline
 90
       17
 70
   128
 43
0.0
 10
6760.6902171797
 20
5172.0938137078
 10
6760.728738855
 20
5172.0820271906
 10
6760.2701736489
 20
5172.0265379573
 10
6759.3218228519
 20
5171.9748981346
 10
6758.5018897308
 20
5171.9433622856
 10
6756.6450286655
 20
5171.8894401475
 10
6754.3388558594
 20
5171.8344570296
 10
6751.6588978166
 20
5171.7766791589
 10
6748.7974962817
 20
5171.7203177405
 10
6745.9292872313
 20
5171.667164401
 10
6743.0774971367
 20
5171.6104394704
 10
6740.4304144979
 20
5171.5527678595
 10
6738.175195557
 20
5171.4983356298
 10
6736.3668996821
 20
5171.4439034
 10
6735.0730119299
 20
5171.3862317891
 10
6734.399473042
 20
5171.3295068585
 10
6734.3800385627
 20
5171.2999456723
  0
LWPOLYLINE
  5
297
330
1F
100
AcDbEntity
  8
0
  6
Continuous
 62
     7
370
    25
100
AcDbPolyline
 90
       16
 70
   128
 43
0.0
 10
6759.8199929917
 20
5178.9396257918
 10
6759.754434958
 20
5178.9040072348
 10
6759.0578679363
 20
5178.8469686642
 10
6757.788354997
 20
5178.789456038
 10
6756.0521796598
 20
5178.7355338999
 10
6753.8958953667
 20
5178.680550782
 10
6751.3901198159
 20
5178.6227729114
 10
6748.7146935992
 20
5178.5664114929
 10
6746.0329023179
 20
5178.5132581534
 10
6743.3664628509
 20
5178.4565332228
 10
6740.891425984
 20
5178.3988616119
 10
6738.782783836
 20
5178.3444293822
 10
6737.0920172196
 20
5178.2899971524
 10
6735.8822250351
 20
5178.2323255415
 10
6735.2524624601
 20
5178.1756006109
 10
6735.2393198859
 20
5178.1542202411
  0
LWPOLYLINE
  5
298
330
1F
100
AcDbEntity
  8
0
  6
Continuous
 62
     7
370
    25
100
AcDbPolyline
 90
       16
 70
   128
 43
0.0
 10
6759.8199929917
 20
5177.3521257918
 10
6759.754434958
 20
5177.3165072348
 10
6759.0578679363
 20
5177.2594686642
 10
6757.788354997
 20
5177.201956038
 10
6756.0521796598
 20
5177.1480338999
 10
6753.8958953667
 20
5177.093050782
 10
6751.3901198159
 20
5177.0352729114
 10
6748.7146935992
 20
5176.9789114929
 10
6746.0329023179
 20
5176.9257581534
 10
6743.3664628508
 20
5176.8690332228
 10
6740.891425984
 20
5176.8113616119
 10
6738.782783836
 20
5176.7569293822
 10
6737.0920172196
 20
5176.7024971524
 10
6735.8822250351
 20
5176.6448255415
 10
6735.2524624601
 20
5176.5881006109
 10
6735.2393198859
 20
5176.5667202411
  0
LWPOLYLINE
  5
299
330
1F
100
AcDbEntity
  8
0
  6
Continuous
 62
     7
370
    25
100
AcDbPolyline
 90
       16
 70
   128
 43
0.0
 10
6759.8199929917
 20
5175.7646257918
 10
6759.754434958
 20
5175.7290072348
 10
6759.0578679363
 20
5175.6719686642
 10
6757.788354997
 20
5175.614456038
 10
6756.0521796598
 20
5175.5605338999
 10
6753.8958953667
 20
5175.505550782
 10
6751.3901198159
 20
5175.4477729114
 10
6748.7146935992
 20
5175.3914114929
 10
6746.0329023179
 20
5175.3382581534
 10
6743.3664628508
 20
5175.2815332228
 10
6740.891425984
 20
5175.2238616119
 10
6738.782783836
 20
5175.1694293822
 10
6737.0920172196
 20
5175.1149971524
 10
6735.8822250351
 20
5175.0573255415
 10
6735.2524624601
 20
5175.0006006109
 10
6735.2393198859
 20
5174.9792202411
  0
LWPOLYLINE
  5
29A
330
1F
100
AcDbEntity
  8
0
  6
Continuous
 62
     7
370
    25
100
AcDbPolyline
 90
       16
 70
   128
 43
0.0
 10
6759.8199929917
 20
5174.1771257918
 10
6759.754434958
 20
5174.1415072348
 10
6759.0578679363
 20
5174.0844686642
 10
6757.788354997
 20
5174.026956038
 10
6756.0521796598
 20
5173.9730338999
 10
6753.8958953667
 20
5173.918050782
 10
6751.3901198159
 20
5173.8602729114
 10
6748.7146935992
 20
5173.8039114929
 10
6746.0329023179
 20
5173.7507581534
 10
6743.3664628508
 20
5173.6940332228
 10
6740.891425984
 20
5173.6363616119
 10
6738.782783836
 20
5173.5819293822
 10
6737.0920172196
 20
5173.5274971524
 10
6735.8822250351
 20
5173.4698255415
 10
6735.2524624601
 20
5173.4131006109
 10
6735.2393198859
 20
5173.3917202411
  0
LWPOLYLINE
  5
29B
330
1F
100
AcDbEntity
  8
0
  6
Continuous
 62
     7
370
    25
100
AcDbPolyline
 90
       16
 70
   128
 43
0.0
 10
6759.8199929917
 20
5172.5896257918
 10
6759.754434958
 20
5172.5540072348
 10
6759.0578679363
 20
5172.4969686642
 10
6757.788354997
 20
5172.439456038
 10
6756.0521796598
 20
5172.3855338999
 10
6753.8958953667
 20
5172.330550782
 10
6751.3901198159
 20
5172.2727729114
 10
6748.7146935992
 20
5172.2164114929
 10
6746.0329023179
 20
5172.1632581534
 10
6743.3664628508
 20
5172.1065332228
 10
6740.891425984
 20
5172.0488616119
 10
6738.782783836
 20
5171.9944293822
 10
6737.0920172196
 20
5171.9399971524
 10
6735.8822250351
 20
5171.8823255415
 10
6735.2524624601
 20
5171.8256006109
 10
6735.2393198859
 20
5171.8042202411
  0
ARC
  5
29C
330
1F
100
AcDbEntity
  8
0
  6
Continuous
 62
     7
370
    25
100
AcDbCircle
 10
6757.2364094903
 20
5189.5702921342
 30
0.0
 40
18.74704523460526
100
AcDbArc
 50
269.239535685
 51
277.9213042894
  0
LINE
  5
29D
330
1F
100
AcDbEntity
  8
0
  6
Continuous
 62
     7
370
    25
100
AcDbLine
 10
6734.3235007577
 20
5157.4864205035
 30
0.0
 11
6818.5235007577
 21
5157.4864205035
 31
0.0
  0
LINE
  5
29E
330
1F
100
AcDbEntity
  8
0
  6
Continuous
 62
     7
370
    25
100
AcDbLine
 10
6818.5235007577
 20
4963.1633757657
 30
0.0
 11
6734.3235007577
 21
4963.1633757657
 31
0.0
  0
LINE
  5
29F
330
1F
100
AcDbEntity
  8
0
  6
Continuous
 62
     7
370
    25
100
AcDbLine
 10
6734.3235007577
 20
4963.1633757657
 30
0.0
 11
6734.3235007577
 21
5157.4864205035
 31
0.0
  0
CIRCLE
  5
2A0
330
1F
100
AcDbEntity
  8
0
  6
Continuous
 62
     7
370
    25
100
AcDbCircle
 10
6762.5235007577
 20
5130.3248981346
 30
0.0
 40
5.0
  0
CIRCLE
  5
2A1
330
1F
100
AcDbEntity
  8
0
  6
Continuous
 62
     7
370
    25
100
AcDbCircle
 10
6762.5235007577
 20
4990.3248981345
 30
0.0
 40
5.0
  0
CIRCLE
  5
2A2
330
1F
100
AcDbEntity
  8
0
  6
Continuous
 62
     7
370
    25
100
AcDbCircle
 10
6811.0235007577
 20
4970.3248981345
 30
0.0
 40
1.600000000000364
  0
CIRCLE
  5
2A3
330
1F
100
AcDbEntity
  8
0
  6
Continuous
 62
     7
370
    25
100
AcDbCircle
 10
6811.0235007577
 20
5150.3248981346
 30
0.0
 40
1.600000000000364
  0
LINE
  5
2A4
330
1F
100
AcDbEntity
  8
0
  6
Continuous
 62
     7
370
    25
100
AcDbLine
 10
6732.5235007577
 20
5158.5248981346
 30
0.0
 11
6733.5235007577
 21
5158.5248981346
 31
0.0
  0
ELLIPSE
  5
2A5
330
1F
100
AcDbEntity
  8
0
  6
Continuous
 62
     7
370
    25
100
AcDbEllipse
 10
6734.3235007577
 20
5158.5248981345
 30
0.0
 11
0.0
 21
1.038477631066598
 31
0.0
210
0.0
220
0.0
230
1.0
 40
0.7703584324
 41
1.570796326763368
 42
3.141592653590948
  0
ELLIPSE
  5
2A6
330
1F
100
AcDbEntity
  8
0
  6
Continuous
 62
     7
370
    25
100
AcDbEllipse
 10
6734.3235007577
 20
5158.5248981345
 30
0.0
 11
1.800000000000182
 21
0.0
 31
0.0
210
0.0
220
0.0
230
1.0
 40
0.5769320173
 41
3.141592653571402
 42
4.712388980385203
  0
ELLIPSE
  5
2A7
330
1F
100
AcDbEntity
  8
0
  6
Continuous
 62
     7
370
    25
100
AcDbEllipse
 10
6734.3235007577
 20
4962.1248981345
 30
0.0
 11
1.800000000000182
 21
0.0
 31
0.0
210
0.0
220
0.0
230
1.0
 40
0.5769320173
 41
1.570796326794391
 42
3.141592653589793
  0
LINE
  5
2A8
330
1F
100
AcDbEntity
  8
0
  6
Continuous
 62
     7
370
    25
100
AcDbLine
 10
6732.5235007577
 20
4962.1248981345
 30
0.0
 11
6732.5235007577
 21
5158.5248981346
 31
0.0
  0
ELLIPSE
  5
2A9
330
1F
100
AcDbEntity
  8
0
  6
Continuous
 62
     7
370
    25
100
AcDbEllipse
 10
6734.3235007577
 20
4962.1248981345
 30
0.0
 11
0.0
 21
1.038477631132992
 31
0.0
210
0.0
220
0.0
230
1.0
 40
0.7703584324
 41
0.0
 42
1.570796326780008
  0
LINE
  5
2AA
330
1F
100
AcDbEntity
  8
0
  6
Continuous
 62
     7
370
    25
100
AcDbLine
 10
6732.5235007577
 20
4962.1248981345
 30
0.0
 11
6733.5235007577
 21
4962.1248981345
 31
0.0
  0
LINE
  5
2AB
330
1F
100
AcDbEntity
  8
0
  6
Continuous
 62
     7
370
    25
100
AcDbLine
 10
6803.5235007577
 20
5158.5248981346
 30
0.0
 11
6803.5235007577
 21
5157.4864205035
 31
0.0
  0
LINE
  5
2AC
330
1F
100
AcDbEntity
  8
0
  6
Continuous
 62
     7
370
    25
100
AcDbLine
 10
6818.5235007577
 20
5158.5248981346
 30
0.0
 11
6803.5235007577
 21
5158.5248981346
 31
0.0
  0
LINE
  5
2AD
330
1F
100
AcDbEntity
  8
0
  6
Continuous
 62
     7
370
    25
100
AcDbLine
 10
6803.5235007577
 20
4962.1248981345
 30
0.0
 11
6818.5235007577
 21
4962.1248981345
 31
0.0
  0
LINE
  5
2AE
330
1F
100
AcDbEntity
  8
0
  6
Continuous
 62
     7
370
    25
100
AcDbLine
 10
6803.5235007577
 20
4962.1248981345
 30
0.0
 11
6803.5235007577
 21
4963.1633757657
 31
0.0
  0
LINE
  5
2AF
330
1F
100
AcDbEntity
  8
0
  6
Continuous
 62
     7
370
    25
100
AcDbLine
 10
6803.5235007577
 20
5158.5248981346
 30
0.0
 11
6803.5235007577
 21
5160.3248981346
 31
0.0
  0
LINE
  5
2B0
330
1F
100
AcDbEntity
  8
0
  6
Continuous
 62
     7
370
    25
100
AcDbLine
 10
6818.5235007577
 20
5160.3248981346
 30
0.0
 11
6803.5235007577
 21
5160.3248981346
 31
0.0
  0
LINE
  5
2B1
330
1F
100
AcDbEntity
  8
0
  6
Continuous
 62
     7
370
    25
100
AcDbLine
 10
6803.5235007577
 20
4960.3248981345
 30
0.0
 11
6803.5235007577
 21
4962.1248981345
 31
0.0
  0
LINE
  5
2B2
330
1F
100
AcDbEntity
  8
0
  6
Continuous
 62
     7
370
    25
100
AcDbLine
 10
6818.5235007577
 20
4960.3248981345
 30
0.0
 11
6803.5235007577
 21
4960.3248981345
 31
0.0
  0
ARC
  5
2B3
330
1F
100
AcDbEntity
  8
0
  6
Continuous
 62
     7
370
    25
100
AcDbCircle
 10
6734.3235007577
 20
5158.5248981346
 30
0.0
 40
0.8000000000001819
100
AcDbArc
 50
89.9999999999
 51
180.0
  0
ARC
  5
2B4
330
1F
100
AcDbEntity
  8
0
  6
Continuous
 62
     7
370
    25
100
AcDbCircle
 10
6734.3235007577
 20
5158.5248981346
 30
0.0
 40
1.799999999999272
100
AcDbArc
 50
90.0
 51
180.0000000004
  0
LINE
  5
2B5
330
1F
100
AcDbEntity
  8
0
  6
Continuous
 62
     7
370
    25
100
AcDbLine
 10
6734.3235007577
 20
5160.3248981346
 30
0.0
 11
6734.3235007577
 21
5159.3248981346
 31
0.0
  0
LINE
  5
2B6
330
1F
100
AcDbEntity
  8
0
  6
Continuous
 62
     7
370
    25
100
AcDbLine
 10
6734.3235007577
 20
4960.3248981345
 30
0.0
 11
6734.3235007577
 21
4961.3248981345
 31
0.0
  0
ARC
  5
2B7
330
1F
100
AcDbEntity
  8
0
  6
Continuous
 62
     7
370
    25
100
AcDbCircle
 10
6734.3235007577
 20
4962.1248981345
 30
0.0
 40
0.8000000000001819
100
AcDbArc
 50
179.9999999967
 51
270.0000000001
  0
ARC
  5
2B8
330
1F
100
AcDbEntity
  8
0
  6
Continuous
 62
     7
370
    25
100
AcDbCircle
 10
6734.3235007577
 20
4962.1248981345
 30
0.0
 40
1.800000000000182
100
AcDbArc
 50
179.999999999
 51
270.0
  0
LINE
  5
2B9
330
1F
100
AcDbEntity
  8
0
  6
Continuous
 62
     7
370
    25
100
AcDbLine
 10
6803.5235007577
 20
5159.3248981346
 30
0.0
 11
6734.3235007577
 21
5159.3248981346
 31
0.0
  0
LINE
  5
2BA
330
1F
100
AcDbEntity
  8
0
  6
Continuous
 62
     7
370
    25
100
AcDbLine
 10
6803.5235007577
 20
5160.3248981346
 30
0.0
 11
6734.3235007577
 21
5160.3248981346
 31
0.0
  0
LINE
  5
2BB
330
1F
100
AcDbEntity
  8
0
  6
Continuous
 62
     7
370
    25
100
AcDbLine
 10
6734.3235007577
 20
4960.3248981345
 30
0.0
 11
6803.5235007577
 21
4960.3248981345
 31
0.0
  0
LINE
  5
2BC
330
1F
100
AcDbEntity
  8
0
  6
Continuous
 62
     7
370
    25
100
AcDbLine
 10
6734.3235007577
 20
4961.3248981345
 30
0.0
 11
6803.5235007577
 21
4961.3248981345
 31
0.0
  0
LINE
  5
2BD
330
1F
100
AcDbEntity
  8
0
  6
Continuous
 62
     7
370
    25
100
AcDbLine
 10
6818.5235007577
 20
4940.8101795088
 30
0.0
 11
6818.5235007577
 21
4945.8101795088
 31
0.0
  0
LINE
  5
2BE
330
1F
100
AcDbEntity
  8
0
  6
Continuous
 62
     7
370
    25
100
AcDbLine
 10
6818.5235007577
 20
4945.8101795088
 30
0.0
 11
6819.5235007577
 21
4945.8101795088
 31
0.0
  0
LINE
  5
2BF
330
1F
100
AcDbEntity
  8
0
  6
Continuous
 62
     7
370
    25
100
AcDbLine
 10
6819.5235007577
 20
4945.8101795088
 30
0.0
 11
6819.5235007577
 21
4940.8101795088
 31
0.0
  0
LINE
  5
2C0
330
1F
100
AcDbEntity
  8
0
  6
Continuous
 62
     7
370
    25
100
AcDbLine
 10
6819.5235007577
 20
5174.8396167603
 30
0.0
 11
6818.5235007577
 21
5174.8396167603
 31
0.0
  0
LINE
  5
2C1
330
1F
100
AcDbEntity
  8
0
  6
Continuous
 62
     7
370
    25
100
AcDbLine
 10
6818.5235007577
 20
5174.8396167603
 30
0.0
 11
6818.5235007577
 21
5179.8396167603
 31
0.0
  0
LINE
  5
2C2
330
1F
100
AcDbEntity
  8
0
  6
Continuous
 62
     7
370
    25
100
AcDbLine
 10
6819.5235007577
 20
5179.8396167603
 30
0.0
 11
6819.5235007577
 21
5174.8396167603
 31
0.0
  0
LINE
  5
2C3
330
1F
100
AcDbEntity
  8
0
  6
Continuous
 62
     7
370
    25
100
AcDbLine
 10
6818.5235007577
 20
5174.8396167603
 30
0.0
 11
6818.5235007577
 21
4945.8101795088
 31
0.0
  0
LINE
  5
2C4
330
1F
100
AcDbEntity
  8
0
  6
Continuous
 62
     7
370
    25
100
AcDbLine
 10
6819.5235007577
 20
5174.8396167603
 30
0.0
 11
6819.5235007577
 21
4945.8101795088
 31
0.0
  0
LINE
  5
2C5
330
1F
100
AcDbEntity
  8
0
  6
Continuous
 62
     7
370
    25
100
AcDbLine
 10
6819.5235007577
 20
4932.3248981346
 30
0.0
 11
6818.5235007577
 21
4932.3248981346
 31
0.0
  0
LINE
  5
2C6
330
1F
100
AcDbEntity
  8
0
  6
Continuous
 62
     7
370
    25
100
AcDbLine
 10
6818.5235007577
 20
4932.3248981346
 30
0.0
 11
6818.5235007577
 21
4940.8604320405
 31
0.0
  0
LINE
  5
2C7
330
1F
100
AcDbEntity
  8
0
  6
Continuous
 62
     7
370
    25
100
AcDbLine
 10
6819.5235007577
 20
4940.8604320405
 30
0.0
 11
6819.5235007577
 21
4932.3248981346
 31
0.0
  0
LINE
  5
2C8
330
1F
100
AcDbEntity
  8
0
  6
Continuous
 62
     7
370
    25
100
AcDbLine
 10
6818.5235007577
 20
5179.7893642286
 30
0.0
 11
6818.5235007577
 21
5188.3248981346
 31
0.0
  0
LINE
  5
2C9
330
1F
100
AcDbEntity
  8
0
  6
Continuous
 62
     7
370
    25
100
AcDbLine
 10
6818.5235007577
 20
5188.3248981346
 30
0.0
 11
6819.5235007577
 21
5188.3248981346
 31
0.0
  0
LINE
  5
2CA
330
1F
100
AcDbEntity
  8
0
  6
Continuous
 62
     7
370
    25
100
AcDbLine
 10
6819.5235007577
 20
5188.3248981346
 30
0.0
 11
6819.5235007577
 21
5179.7893642286
 31
0.0
  0
LINE
  5
2CB
330
1F
100
AcDbEntity
  8
0
  6
Continuous
 62
     7
370
    25
100
AcDbLine
 10
6812.2725003574
 20
4971.3248981346
 30
0.0
 11
6809.7745011581
 21
4971.3248981346
 31
0.0
  0
LINE
  5
2CC
330
1F
100
AcDbEntity
  8
0
  6
Continuous
 62
     7
370
    25
100
AcDbLine
 10
6809.774501158
 20
5149.3248981346
 30
0.0
 11
6812.2725003574
 21
5149.3248981346
 31
0.0
  0
LINE
  5
2CD
330
1F
100
AcDbEntity
  8
0
  6
Continuous
 62
     8
370
    25
100
AcDbLine
 10
6829.1244015653
 20
5091.7178058594
 30
0.0
 11
6829.1244015653
 21
5111.8248981346
 31
0.0
  0
LINE
  5
2CE
330
1F
100
AcDbEntity
  8
0
  6
Continuous
 62
     8
370
    25
100
AcDbLine
 10
6829.1244015653
 20
5054.8248981346
 30
0.0
 11
6829.1244015653
 21
5091.7178058594
 31
0.0
  0
LINE
  5
2CF
330
1F
100
AcDbEntity
  8
0
  6
Continuous
 62
     8
370
    25
100
AcDbLine
 10
6831.7244015653
 20
5091.7178058594
 30
0.0
 11
6831.7244015653
 21
5111.8248981346
 31
0.0
  0
LINE
  5
2D0
330
1F
100
AcDbEntity
  8
0
  6
Continuous
 62
     8
370
    25
100
AcDbLine
 10
6831.7244015653
 20
5054.8248981346
 30
0.0
 11
6831.7244015653
 21
5091.7178058594
 31
0.0
  0
LINE
  5
2D1
330
1F
100
AcDbEntity
  8
0
  6
Continuous
 62
     8
370
    25
100
AcDbLine
 10
6871.7244015623
 20
5063.2248981346
 30
0.0
 11
6871.7244015623
 21
5077.3996749319
 31
0.0
  0
LINE
  5
2D2
330
1F
100
AcDbEntity
  8
0
  6
Continuous
 62
     8
370
    25
100
AcDbLine
 10
6877.9244015623
 20
5077.3996749319
 30
0.0
 11
6877.9244015623
 21
5103.4248981346
 31
0.0
  0
LINE
  5
2D3
330
1F
100
AcDbEntity
  8
0
  6
Continuous
 62
     8
370
    25
100
AcDbLine
 10
6877.9244015623
 20
5050.6253260472
 30
0.0
 11
6877.9244015623
 21
5061.203517687
 31
0.0
  0
LINE
  5
2D4
330
1F
100
AcDbEntity
  8
0
  6
Continuous
 62
     8
370
    25
100
AcDbLine
 10
6875.2244015623
 20
5061.203517687
 30
0.0
 11
6875.2244015623
 21
5050.6253260472
 31
0.0
  0
ARC
  5
2D5
330
1F
100
AcDbEntity
  8
0
  6
Continuous
 62
     8
370
    25
100
AcDbCircle
 10
6866.9246212582
 20
5368.9607617405
 30
0.0
 40
262.6103630043715
100
AcDbArc
 50
268.9089966006
 51
271.0909074848
  0
LWPOLYLINE
  5
2D6
330
1F
100
AcDbEntity
  8
0
  6
Continuous
 62
     8
370
    25
100
AcDbPolyline
 90
        3
 70
   128
 43
0.0
 10
6871.5381677109
 20
5106.883648926
 10
6871.5397861777
 20
5106.8844987638
 10
6871.5391876303
 20
5106.8850156053
  0
LINE
  5
2D7
330
1F
100
AcDbEntity
  8
0
  6
Continuous
 62
     8
370
    25
100
AcDbLine
 10
6760.673500758
 20
4991.7748981345
 30
0.0
 11
6767.3086339847
 21
4991.7748981345
 31
0.0
  0
LINE
  5
2D8
330
1F
100
AcDbEntity
  8
0
  6
Continuous
 62
     8
370
    25
100
AcDbLine
 10
6760.673500758
 20
4994.9700569048
 30
0.0
 11
6760.673500758
 21
4991.7748981345
 31
0.0
  0
ARC
  5
2D9
330
1F
100
AcDbEntity
  8
0
  6
Continuous
 62
     7
370
    25
100
AcDbCircle
 10
6430.4094938118
 20
4702.8281083206
 30
0.0
 40
0.1999999999999414
100
AcDbArc
 50
104.4775121868
 51
180.0
  0
ARC
  5
2DA
330
1F
100
AcDbEntity
  8
0
  6
Continuous
 62
     7
370
    25
100
AcDbCircle
 10
6487.0094938118
 20
4702.8281083206
 30
0.0
 40
0.2000000000007276
100
AcDbArc
 50
0.0
 51
75.5224878151
  0
LINE
  5
2DB
330
1F
100
AcDbEntity
  8
0
  6
Continuous
 62
     7
370
    25
100
AcDbLine
 10
6430.2094938118
 20
4702.8281083206
 30
0.0
 11
6430.2094938118
 21
4700.2281083206
 31
0.0
  0
LINE
  5
2DC
330
1F
100
AcDbEntity
  8
0
  6
Continuous
 62
     7
370
    25
100
AcDbLine
 10
6487.2094938118
 20
4700.2281083206
 30
0.0
 11
6487.2094938118
 21
4702.8281083206
 31
0.0
  0
ARC
  5
2DD
330
1F
100
AcDbEntity
  8
0
  6
Continuous
 62
     7
370
    25
100
AcDbCircle
 10
6430.4094938118
 20
4700.2281083206
 30
0.0
 40
0.2000000000007276
100
AcDbArc
 50
180.0
 51
270.0
  0
ARC
  5
2DE
330
1F
100
AcDbEntity
  8
0
  6
Continuous
 62
     7
370
    25
100
AcDbCircle
 10
6487.0094938118
 20
4700.2281083206
 30
0.0
 40
0.2000000000007276
100
AcDbArc
 50
270.0
 51
0.0
  0
LINE
  5
2DF
330
1F
100
AcDbEntity
  8
0
  6
Continuous
 62
     7
370
    25
100
AcDbLine
 10
6458.5697285187
 20
4670.0281083236
 30
0.0
 11
6458.5490511409
 21
4670.0281083236
 31
0.0
  0
LINE
  5
2E0
330
1F
100
AcDbEntity
  8
0
  6
Continuous
 62
     7
370
    25
100
AcDbLine
 10
6458.5490511405
 20
4660.0281083236
 30
0.0
 11
6458.5698428021
 21
4660.0281083236
 31
0.0
  0
ARC
  5
2E1
330
1F
100
AcDbEntity
  8
0
  6
Continuous
 62
     7
370
    25
100
AcDbCircle
 10
6476.8094938118
 20
4654.0281083236
 30
0.0
 40
2.000000000000909
100
AcDbArc
 50
270.0
 51
0.0
  0
ARC
  5
2E2
330
1F
100
AcDbEntity
  8
0
  6
Continuous
 62
     7
370
    25
100
AcDbCircle
 10
6440.6094938118
 20
4654.0281083236
 30
0.0
 40
2.000000000000909
100
AcDbArc
 50
180.0
 51
270.0
  0
LINE
  5
2E3
330
1F
100
AcDbEntity
  8
0
  6
Continuous
 62
     7
370
    25
100
AcDbLine
 10
6438.6094938118
 20
4693.0281083236
 30
0.0
 11
6438.6094938118
 21
4654.0281083236
 31
0.0
  0
LINE
  5
2E4
330
1F
100
AcDbEntity
  8
0
  6
Continuous
 62
     7
370
    25
100
AcDbLine
 10
6478.8094938118
 20
4654.0281083236
 30
0.0
 11
6478.8094938118
 21
4693.0281083236
 31
0.0
  0
LINE
  5
2E5
330
1F
100
AcDbEntity
  8
0
  6
Continuous
 62
     7
370
    25
100
AcDbLine
 10
6430.3594938118
 20
4703.0281083206
 30
0.0
 11
6430.3594938118
 21
4703.0217574879
 31
0.0
  0
LINE
  5
2E6
330
1F
100
AcDbEntity
  8
0
  6
Continuous
 62
     7
370
    25
100
AcDbLine
 10
6487.0594938118
 20
4703.0217574879
 30
0.0
 11
6487.0594938118
 21
4703.0281083206
 31
0.0
  0
LINE
  5
2E7
330
1F
100
AcDbEntity
  8
0
  6
Continuous
 62
     7
370
    25
100
AcDbLine
 10
6435.4594938118
 20
4700.0281083206
 30
0.0
 11
6435.4594938118
 21
4693.0281083236
 31
0.0
  0
LINE
  5
2E8
330
1F
100
AcDbEntity
  8
0
  6
Continuous
 62
     7
370
    25
100
AcDbLine
 10
6481.9594938118
 20
4693.0281083236
 30
0.0
 11
6481.9594938118
 21
4700.0281083206
 31
0.0
  0
LINE
  5
2E9
330
1F
100
AcDbEntity
  8
0
  6
Continuous
 62
     7
370
    25
100
AcDbLine
 10
6339.1947751861
 20
4713.4290091282
 30
0.0
 11
6339.1947751861
 21
4712.4290091282
 31
0.0
  0
LINE
  5
2EA
330
1F
100
AcDbEntity
  8
0
  6
Continuous
 62
     7
370
    25
100
AcDbLine
 10
6578.2242124376
 20
4712.4290091282
 30
0.0
 11
6578.2242124376
 21
4713.4290091282
 31
0.0
  0
LINE
  5
2EB
330
1F
100
AcDbEntity
  8
0
  6
Continuous
 62
     7
370
    25
100
AcDbLine
 10
6431.6644522107
 20
4700.0281083206
 30
0.0
 11
6487.0094938118
 21
4700.0281083206
 31
0.0
  0
LINE
  5
2EC
330
1F
100
AcDbEntity
  8
0
  6
Continuous
 62
     7
370
    25
100
AcDbLine
 10
6430.4094938118
 20
4700.0281083206
 30
0.0
 11
6431.6644522107
 21
4700.0281083206
 31
0.0
  0
CIRCLE
  5
2ED
330
1F
100
AcDbEntity
  8
0
  6
Continuous
 62
     7
370
    25
100
AcDbCircle
 10
6458.5456515054
 20
4665.0281904652
 30
0.0
 40
4.615302473826284
  0
CIRCLE
  5
2EE
330
1F
100
AcDbEntity
  8
0
  6
Continuous
 62
     7
370
    25
100
AcDbCircle
 10
6458.549069213
 20
4665.0281922061
 30
0.0
 40
4.999916117590975
  0
ARC
  5
2EF
330
1F
100
AcDbEntity
  8
0
  6
Continuous
 62
     7
370
    25
100
AcDbCircle
 10
6458.606021528
 20
4665.0613738207
 30
0.0
 40
4.966867101620377
100
AcDbArc
 50
269.558920105
 51
90.4186652731
  0
LINE
  5
2F0
330
1F
100
AcDbEntity
  8
0
  6
Continuous
 62
     7
370
    25
100
AcDbLine
 10
6476.8094938118
 20
4652.0281083236
 30
0.0
 11
6440.6094938118
 21
4652.0281083236
 31
0.0
  0
LINE
  5
2F1
330
1F
100
AcDbEntity
  8
0
  6
Continuous
 62
     7
370
    25
100
AcDbLine
 10
6487.0594938118
 20
4702.0281083206
 30
0.0
 11
6430.3594938118
 21
4702.0281083206
 31
0.0
  0
LINE
  5
2F2
330
1F
100
AcDbEntity
  8
0
  6
Continuous
 62
     7
370
    25
100
AcDbLine
 10
6543.6438083869
 20
4707.0281083236
 30
0.0
 11
6544.2094938118
 21
4707.0281083236
 31
0.0
  0
LINE
  5
2F3
330
1F
100
AcDbEntity
  8
0
  6
Continuous
 62
     7
370
    25
100
AcDbLine
 10
6373.2094938118
 20
4707.0281083236
 30
0.0
 11
6373.7751792368
 21
4707.0281083236
 31
0.0
  0
LINE
  5
2F4
330
1F
100
AcDbEntity
  8
0
  6
Continuous
 62
     7
370
    25
100
AcDbLine
 10
6373.7094938118
 20
4703.5281083236
 30
0.0
 11
6373.7751792368
 21
4703.5281083236
 31
0.0
  0
LINE
  5
2F5
330
1F
100
AcDbEntity
  8
0
  6
Continuous
 62
     7
370
    25
100
AcDbLine
 10
6543.6438083869
 20
4703.5281083236
 30
0.0
 11
6543.7094938118
 21
4703.5281083236
 31
0.0
  0
LINE
  5
2F6
330
1F
100
AcDbEntity
  8
0
  6
Continuous
 62
     7
370
    25
100
AcDbLine
 10
6373.7094938118
 20
4703.5281083236
 30
0.0
 11
6373.7094938118
 21
4706.5281083236
 31
0.0
  0
LINE
  5
2F7
330
1F
100
AcDbEntity
  8
0
  6
Continuous
 62
     7
370
    25
100
AcDbLine
 10
6543.7094938118
 20
4706.5281083236
 30
0.0
 11
6543.6438083869
 21
4706.5281083236
 31
0.0
  0
LINE
  5
2F8
330
1F
100
AcDbEntity
  8
0
  6
Continuous
 62
     7
370
    25
100
AcDbLine
 10
6373.7751792368
 20
4706.5281083236
 30
0.0
 11
6373.7094938118
 21
4706.5281083236
 31
0.0
  0
LINE
  5
2F9
330
1F
100
AcDbEntity
  8
0
  6
Continuous
 62
     7
370
    25
100
AcDbLine
 10
6543.7094938118
 20
4703.5281083236
 30
0.0
 11
6543.7094938118
 21
4706.5281083236
 31
0.0
  0
LINE
  5
2FA
330
1F
100
AcDbEntity
  8
0
  6
Continuous
 62
     7
370
    25
100
AcDbLine
 10
6373.7094938118
 20
4706.5281083236
 30
0.0
 11
6373.7751792368
 21
4706.5937937485
 31
0.0
  0
LINE
  5
2FB
330
1F
100
AcDbEntity
  8
0
  6
Continuous
 62
     7
370
    25
100
AcDbLine
 10
6543.6438083869
 20
4706.5937937485
 30
0.0
 11
6543.7094938118
 21
4706.5281083236
 31
0.0
  0
LINE
  5
2FC
330
1F
100
AcDbEntity
  8
0
  6
Continuous
 62
     7
370
    25
100
AcDbLine
 10
6543.2094938118
 20
4703.0281083236
 30
0.0
 11
6374.2094938118
 21
4703.0281083236
 31
0.0
  0
LINE
  5
2FD
330
1F
100
AcDbEntity
  8
0
  6
Continuous
 62
     7
370
    25
100
AcDbLine
 10
6373.7094938118
 20
4703.5281083236
 30
0.0
 11
6373.7751792368
 21
4703.4624228986
 31
0.0
  0
LINE
  5
2FE
330
1F
100
AcDbEntity
  8
0
  6
Continuous
 62
     7
370
    25
100
AcDbLine
 10
6373.8085930072
 20
4703.4290091282
 30
0.0
 11
6374.2094938118
 21
4703.0281083236
 31
0.0
  0
LINE
  5
2FF
330
1F
100
AcDbEntity
  8
0
  6
Continuous
 62
     7
370
    25
100
AcDbLine
 10
6543.2094938118
 20
4703.0281083236
 30
0.0
 11
6543.6103946164
 21
4703.4290091282
 31
0.0
  0
LINE
  5
300
330
1F
100
AcDbEntity
  8
0
  6
Continuous
 62
     7
370
    25
100
AcDbLine
 10
6543.6438083869
 20
4703.4624228986
 30
0.0
 11
6543.7094938118
 21
4703.5281083236
 31
0.0
  0
CIRCLE
  5
301
330
1F
100
AcDbEntity
  8
0
  6
Continuous
 62
     7
370
    25
100
AcDbCircle
 10
6480.2094938118
 20
4784.4290091282
 30
0.0
 40
9.5
  0
CIRCLE
  5
302
330
1F
100
AcDbEntity
  8
0
  6
Continuous
 62
     7
370
    25
100
AcDbCircle
 10
6480.2094938118
 20
4784.4290091282
 30
0.0
 40
7.5
  0
CIRCLE
  5
303
330
1F
100
AcDbEntity
  8
0
  6
Continuous
 62
     7
370
    25
100
AcDbCircle
 10
6480.2094938118
 20
4784.4290091282
 30
0.0
 40
4.500000000000909
  0
ARC
  5
304
330
1F
100
AcDbEntity
  8
0
  6
Continuous
 62
     7
370
    25
100
AcDbCircle
 10
6523.2094938118
 20
4784.4290091279
 30
0.0
 40
3.650000000000338
100
AcDbArc
 50
276.4896833875
 51
180.0
  0
ARC
  5
305
330
1F
100
AcDbEntity
  8
0
  6
Continuous
 62
     7
370
    25
100
AcDbCircle
 10
6523.2094938118
 20
4784.4290091279
 30
0.0
 40
3.649999999999928
100
AcDbArc
 50
180.0
 51
215.950841641
  0
ARC
  5
306
330
1F
100
AcDbEntity
  8
0
  6
Continuous
 62
     7
370
    25
100
AcDbCircle
 10
6393.7072925279
 20
4784.2849896167
 30
0.0
 40
7.896208411130234
100
AcDbArc
 50
244.7570855658
 51
327.1613587673
  0
ARC
  5
307
330
1F
100
AcDbEntity
  8
0
  6
Continuous
 62
     7
370
    25
100
AcDbCircle
 10
6394.2094938118
 20
4784.4290091279
 30
0.0
 40
7.562592332406173
100
AcDbArc
 50
279.1800137878
 51
324.1800137877
  0
LWPOLYLINE
  5
308
330
1F
100
AcDbEntity
  8
0
  6
Continuous
 62
     7
370
    25
100
AcDbPolyline
 90
       18
 70
   128
 43
0.0
 10
6401.4956960603
 20
4780.5594152482
 10
6402.1086806114
 20
4782.1401484987
 10
6402.3770485095
 20
4784.8799881481
 10
6401.7228364932
 20
4787.5541759305
 10
6400.2187586139
 20
4789.8502852385
 10
6398.0571223853
 20
4791.4998968896
 10
6395.4687160106
 20
4792.3360255012
 10
6392.7826191362
 20
4792.2627513389
 10
6390.2744157231
 20
4791.3023008196
 10
6388.2466340414
 20
4789.5739748734
 10
6386.9141633456
 20
4787.2813670159
 10
6386.4247731639
 20
4784.6854795667
 10
6386.8227742033
 20
4782.0981175247
 10
6388.060581783
 20
4779.7905143095
 10
6389.970949322
 20
4778.0505444697
 10
6392.3512058433
 20
4777.0435568027
 10
6394.9076661006
 20
4776.8899577767
 10
6395.4160058944
 20
4776.9632786626
  0
ARC
  5
309
330
1F
100
AcDbEntity
  8
0
  6
Continuous
 62
     7
370
    25
100
AcDbCircle
 10
6394.2094938118
 20
4784.4290091279
 30
0.0
 40
8.250000000000274
100
AcDbArc
 50
242.0278931201
 51
332.027891968
  0
CIRCLE
  5
30A
330
1F
100
AcDbEntity
  8
0
  6
Continuous
 62
     7
370
    25
100
AcDbCircle
 10
6394.2094938118
 20
4784.4290091279
 30
0.0
 40
7.250000000000041
  0
CIRCLE
  5
30B
330
1F
100
AcDbEntity
  8
0
  6
Continuous
 62
     7
370
    25
100
AcDbCircle
 10
6394.2094938118
 20
4784.4290091279
 30
0.0
 40
5.500000000000298
  0
ARC
  5
30C
330
1F
100
AcDbEntity
  8
0
  6
Continuous
 62
     7
370
    25
100
AcDbCircle
 10
6394.1779439604
 20
4784.4326921984
 30
0.0
 40
8.238507749413007
100
AcDbArc
 50
344.5307545705
 51
242.2336921195
  0
LINE
  5
30D
330
1F
100
AcDbEntity
  8
0
  6
Continuous
 62
     7
370
    25
100
AcDbLine
 10
6397.1102187505
 20
4775.1734273077
 30
0.0
 11
6403.6754252642
 21
4782.3133197041
 31
0.0
  0
LINE
  5
30E
330
1F
100
AcDbEntity
  8
0
  6
Continuous
 62
     7
370
    25
100
AcDbLine
 10
6387.644287298
 20
4777.2891167315
 30
0.0
 11
6397.1102187505
 21
4775.1734273077
 31
0.0
  0
LINE
  5
30F
330
1F
100
AcDbEntity
  8
0
  6
Continuous
 62
     7
370
    25
100
AcDbLine
 10
6384.7435623594
 20
4786.5446985517
 30
0.0
 11
6387.644287298
 21
4777.2891167315
 31
0.0
  0
LINE
  5
310
330
1F
100
AcDbEntity
  8
0
  6
Continuous
 62
     7
370
    25
100
AcDbLine
 10
6391.3087688732
 20
4793.6845909481
 30
0.0
 11
6384.7435623594
 21
4786.5446985517
 31
0.0
  0
LINE
  5
311
330
1F
100
AcDbEntity
  8
0
  6
Continuous
 62
     7
370
    25
100
AcDbLine
 10
6400.7747003256
 20
4791.5689015242
 30
0.0
 11
6391.3087688732
 21
4793.6845909481
 31
0.0
  0
LINE
  5
312
330
1F
100
AcDbEntity
  8
0
  6
Continuous
 62
     7
370
    25
100
AcDbLine
 10
6403.6754252642
 20
4782.3133197041
 30
0.0
 11
6400.7747003256
 21
4791.5689015242
 31
0.0
  0
LINE
  5
313
330
1F
100
AcDbEntity
  8
0
  6
Continuous
 62
     7
370
    25
100
AcDbLine
 10
6435.4594938118
 20
4693.0281083236
 30
0.0
 11
6481.9594938118
 21
4693.0281083236
 31
0.0
  0
LINE
  5
314
330
1F
100
AcDbEntity
  8
0
  6
Continuous
 62
     7
370
    25
100
AcDbLine
 10
6373.7751792368
 20
4703.4290091282
 30
0.0
 11
6543.6438083869
 21
4703.4290091282
 31
0.0
  0
LINE
  5
315
330
1F
100
AcDbEntity
  8
0
  6
Continuous
 62
     7
370
    25
100
AcDbLine
 10
6373.7751792368
 20
4712.4290091282
 30
0.0
 11
6373.7751792368
 21
4703.4290091282
 31
0.0
  0
LINE
  5
316
330
1F
100
AcDbEntity
  8
0
  6
Continuous
 62
     7
370
    25
100
AcDbLine
 10
6543.6438083869
 20
4712.4290091282
 30
0.0
 11
6543.6438083869
 21
4703.4290091282
 31
0.0
  0
LINE
  5
317
330
1F
100
AcDbEntity
  8
0
  6
Continuous
 62
     7
370
    25
100
AcDbLine
 10
6371.7094938118
 20
4703.4290091282
 30
0.0
 11
6373.2094938118
 21
4703.4290091282
 31
0.0
  0
LINE
  5
318
330
1F
100
AcDbEntity
  8
0
  6
Continuous
 62
     7
370
    25
100
AcDbLine
 10
6371.7094938118
 20
4712.4290091282
 30
0.0
 11
6371.7094938118
 21
4703.4290091282
 31
0.0
  0
LINE
  5
319
330
1F
100
AcDbEntity
  8
0
  6
Continuous
 62
     7
370
    25
100
AcDbLine
 10
6373.2094938118
 20
4712.4290091282
 30
0.0
 11
6373.2094938118
 21
4703.4290091282
 31
0.0
  0
LINE
  5
31A
330
1F
100
AcDbEntity
  8
0
  6
Continuous
 62
     7
370
    25
100
AcDbLine
 10
6545.7094938118
 20
4703.4290091282
 30
0.0
 11
6544.2094938118
 21
4703.4290091282
 31
0.0
  0
LINE
  5
31B
330
1F
100
AcDbEntity
  8
0
  6
Continuous
 62
     7
370
    25
100
AcDbLine
 10
6544.2094938118
 20
4712.4290091282
 30
0.0
 11
6544.2094938118
 21
4703.4290091282
 31
0.0
  0
LINE
  5
31C
330
1F
100
AcDbEntity
  8
0
  6
Continuous
 62
     7
370
    25
100
AcDbLine
 10
6545.7094938118
 20
4712.4290091282
 30
0.0
 11
6545.7094938118
 21
4703.4290091282
 31
0.0
  0
LWPOLYLINE
  5
31D
330
1F
100
AcDbEntity
  8
0
  6
Continuous
 62
     7
370
    25
100
AcDbPolyline
 90
       33
 70
   128
 43
0.0
 10
6492.0078157946
 20
4778.4640096612
 10
6492.783506399
 20
4780.4314273083
 10
6493.237983487
 20
4782.525831333
 10
6493.3498225872
 20
4784.6660398335
 10
6493.0935660642
 20
4786.8761141839
 10
6492.469091911
 20
4789.0115469505
 10
6491.5000831441
 20
4790.9911664288
 10
6490.2145836319
 20
4792.7815276127
 10
6488.6440240189
 20
4794.3286453347
 10
6486.8360737075
 20
4795.5899916312
 10
6484.8539990141
 20
4796.5184757941
 10
6482.744602988
 20
4797.1025604097
 10
6480.5723949014
 20
4797.3206108926
 10
6478.394482623
 20
4797.1719645925
 10
6476.281833925
 20
4796.6565063291
 10
6474.285553586
 20
4795.7940550464
 10
6472.4751696457
 20
4794.6127208127
 10
6470.8873501025
 20
4793.1458603266
 10
6469.5729676326
 20
4791.4313456439
 10
6468.5657737699
 20
4789.5201494094
 10
6467.9040064859
 20
4787.4845440864
 10
6467.5908851
 20
4785.3670893299
 10
6467.6411620449
 20
4783.2266262038
 10
6468.0503813475
 20
4781.1251579264
 10
6468.8054128565
 20
4779.1397181645
 10
6469.881597931
 20
4777.3083589011
 10
6471.2492741235
 20
4775.6890799662
 10
6472.8687441248
 20
4774.3218633259
 10
6474.6893601141
 20
4773.2553175138
 10
6476.6630123209
 20
4772.5091009795
 10
6478.7229490921
 20
4772.1104165273
 10
6480.8204704358
 20
4772.0612712498
 10
6482.4940087177
 20
4772.2807065202
  0
ARC
  5
31E
330
1F
100
AcDbEntity
  8
0
  6
Continuous
 62
     7
370
    25
100
AcDbCircle
 10
6480.2094938118
 20
4784.4290091282
 30
0.0
 40
13.22049999999987
100
AcDbArc
 50
243.1797379771
 51
333.1797369068
  0
ARC
  5
31F
330
1F
100
AcDbEntity
  8
0
  6
Continuous
 62
     7
370
    25
100
AcDbCircle
 10
6479.584299657
 20
4784.2463748814
 30
0.0
 40
12.78427638103125
100
AcDbArc
 50
245.3114593509
 51
327.907561907
  0
ARC
  5
320
330
1F
100
AcDbEntity
  8
0
  6
Continuous
 62
     7
370
    25
100
AcDbCircle
 10
6480.2064281222
 20
4784.4337028891
 30
0.0
 40
12.36642008518162
100
AcDbArc
 50
280.6601559191
 51
325.6402757804
  0
CIRCLE
  5
321
330
1F
100
AcDbEntity
  8
0
  6
Continuous
 62
     7
370
    25
100
AcDbCircle
 10
6480.2094938118
 20
4784.4290091282
 30
0.0
 40
11.72050000000036
  0
CIRCLE
  5
322
330
1F
100
AcDbEntity
  8
0
  6
Continuous
 62
     7
370
    25
100
AcDbCircle
 10
6480.2094938118
 20
4784.4290091282
 30
0.0
 40
9.75
  0
ARC
  5
323
330
1F
100
AcDbEntity
  8
0
  6
Continuous
 62
     7
370
    25
100
AcDbCircle
 10
6480.1584720576
 20
4784.4394464356
 30
0.0
 40
13.20688942881278
100
AcDbArc
 50
352.2597790911
 51
243.3977063571
  0
LINE
  5
324
330
1F
100
AcDbEntity
  8
0
  6
Continuous
 62
     7
370
    25
100
AcDbLine
 10
6466.7094938118
 20
4776.6347804941
 30
0.0
 11
6480.2094938118
 21
4768.8405518601
 31
0.0
  0
LINE
  5
325
330
1F
100
AcDbEntity
  8
0
  6
Continuous
 62
     7
370
    25
100
AcDbLine
 10
6466.7094938118
 20
4792.2232377622
 30
0.0
 11
6466.7094938118
 21
4776.6347804941
 31
0.0
  0
LINE
  5
326
330
1F
100
AcDbEntity
  8
0
  6
Continuous
 62
     7
370
    25
100
AcDbLine
 10
6480.2094938118
 20
4800.0174663963
 30
0.0
 11
6466.7094938118
 21
4792.2232377622
 31
0.0
  0
LINE
  5
327
330
1F
100
AcDbEntity
  8
0
  6
Continuous
 62
     7
370
    25
100
AcDbLine
 10
6493.7094938118
 20
4792.2232377622
 30
0.0
 11
6480.2094938118
 21
4800.0174663963
 31
0.0
  0
LINE
  5
328
330
1F
100
AcDbEntity
  8
0
  6
Continuous
 62
     7
370
    25
100
AcDbLine
 10
6493.7094938118
 20
4776.6347804941
 30
0.0
 11
6493.7094938118
 21
4792.2232377622
 31
0.0
  0
LINE
  5
329
330
1F
100
AcDbEntity
  8
0
  6
Continuous
 62
     7
370
    25
100
AcDbLine
 10
6480.2094938118
 20
4768.8405518601
 30
0.0
 11
6493.7094938118
 21
4776.6347804941
 31
0.0
  0
CIRCLE
  5
32A
330
1F
100
AcDbEntity
  8
0
  6
Continuous
 62
     7
370
    25
100
AcDbCircle
 10
6480.2094938118
 20
4784.4290091282
 30
0.0
 40
9.000000000000039
  0
CIRCLE
  5
32B
330
1F
100
AcDbEntity
  8
0
  6
Continuous
 62
     7
370
    25
100
AcDbCircle
 10
6480.2094938118
 20
4784.5972477857
 30
0.0
 40
4.000000000000377
  0
CIRCLE
  5
32C
330
1F
100
AcDbEntity
  8
0
  6
Continuous
 62
     7
370
    25
100
AcDbCircle
 10
6523.3705327008
 20
4784.7944831645
 30
0.0
 40
3.999999999998828
  0
CIRCLE
  5
32D
330
1F
100
AcDbEntity
  8
0
  6
Continuous
 62
     7
370
    25
100
AcDbCircle
 10
6523.2094938118
 20
4784.4290091279
 30
0.0
 40
7.049999999999925
  0
CIRCLE
  5
32E
330
1F
100
AcDbEntity
  8
0
  6
Continuous
 62
     7
370
    25
100
AcDbCircle
 10
6523.2094938118
 20
4784.4290091279
 30
0.0
 40
8.249999999999929
  0
CIRCLE
  5
32F
330
1F
100
AcDbEntity
  8
0
  6
Continuous
 62
     7
370
    25
100
AcDbCircle
 10
6523.2094938118
 20
4784.4290091279
 30
0.0
 40
5.99999999999912
  0
CIRCLE
  5
330
330
1F
100
AcDbEntity
  8
0
  6
Continuous
 62
     7
370
    25
100
AcDbCircle
 10
6523.2094938118
 20
4784.4290091279
 30
0.0
 40
10.00000000000046
  0
ARC
  5
331
330
1F
100
AcDbEntity
  8
0
  6
Continuous
 62
     7
370
    25
100
AcDbCircle
 10
6521.1096063082
 20
4779.4594455676
 30
0.0
 40
5.116096175225148
100
AcDbArc
 50
222.9813042807
 51
241.8244030081
  0
ARC
  5
332
330
1F
100
AcDbEntity
  8
0
  6
Continuous
 62
     7
370
    25
100
AcDbCircle
 10
6516.380690719
 20
4775.8053528083
 30
0.0
 40
1.000000000000951
100
AcDbArc
 50
9.5637365099
 51
51.6254011763
  0
LINE
  5
333
330
1F
100
AcDbEntity
  8
0
  6
Continuous
 62
     7
370
    25
100
AcDbLine
 10
6518.6939117366
 20
4774.9495830629
 30
0.0
 11
6518.9089394545
 21
4775.4009843041
 31
0.0
  0
LINE
  5
334
330
1F
100
AcDbEntity
  8
0
  6
Continuous
 62
     7
370
    25
100
AcDbLine
 10
6527.5100481692
 20
4793.4570339517
 30
0.0
 11
6527.7250758871
 21
4793.9084351929
 31
0.0
  0
ARC
  5
335
330
1F
100
AcDbEntity
  8
0
  6
Continuous
 62
     7
370
    25
100
AcDbCircle
 10
6525.3093813159
 20
4789.3985726887
 30
0.0
 40
5.116096174631012
100
AcDbArc
 50
42.9813042796
 51
61.8244030091
  0
ARC
  5
336
330
1F
100
AcDbEntity
  8
0
  6
Continuous
 62
     7
370
    25
100
AcDbCircle
 10
6530.0382969047
 20
4793.0526654475
 30
0.0
 40
1.000000000000606
100
AcDbArc
 50
189.5637365098
 51
231.6254011763
  0
ARC
  5
337
330
1F
100
AcDbEntity
  8
0
  6
Continuous
 62
     7
370
    25
100
AcDbCircle
 10
6520.6711353516
 20
4779.6561601382
 30
0.0
 40
5.105025072404152
100
AcDbArc
 50
247.2128214244
 51
266.0971581491
  0
ARC
  5
338
330
1F
100
AcDbEntity
  8
0
  6
Continuous
 62
     7
370
    25
100
AcDbCircle
 10
6520.815997005
 20
4773.6925677698
 30
0.0
 40
0.9999999999999472
100
AcDbArc
 50
77.4324422548
 51
119.4941069213
  0
ARC
  5
339
330
1F
100
AcDbEntity
  8
0
  6
Continuous
 62
     7
370
    25
100
AcDbCircle
 10
6525.6029906187
 20
4795.165450486
 30
0.0
 40
0.9999999999994674
100
AcDbArc
 50
257.4324422548
 51
299.4941069213
  0
ARC
  5
33A
330
1F
100
AcDbEntity
  8
0
  6
Continuous
 62
     7
370
    25
100
AcDbCircle
 10
6525.747852272
 20
4789.2018581173
 30
0.0
 40
5.105025072693935
100
AcDbArc
 50
67.212821425
 51
86.0971581486
  0
LWPOLYLINE
  5
33B
330
1F
100
AcDbEntity
  8
0
  6
Continuous
 62
     7
370
    25
100
AcDbPolyline
 90
        3
 70
   128
 43
0.0
 10
6520.3236629667
 20
4774.5629741087
 10
6519.8819702149
 20
4774.3789029467
 10
6519.562986217
 20
4774.3163693956
  0
LWPOLYLINE
  5
33C
330
1F
100
AcDbEntity
  8
0
  6
Continuous
 62
     7
370
    25
100
AcDbPolyline
 90
        3
 70
   128
 43
0.0
 10
6517.6546069798
 20
4775.2254374148
 10
6517.5021716234
 20
4775.5125344333
 10
6517.3667921094
 20
4775.9714974677
  0
LWPOLYLINE
  5
33D
330
1F
100
AcDbEntity
  8
0
  6
Continuous
 62
     7
370
    25
100
AcDbPolyline
 90
        3
 70
   128
 43
0.0
 10
6526.0953246569
 20
4794.2950441471
 10
6526.5370174087
 20
4794.4791153091
 10
6526.8560014079
 20
4794.5416488603
  0
LWPOLYLINE
  5
33E
330
1F
100
AcDbEntity
  8
0
  6
Continuous
 62
     7
370
    25
100
AcDbPolyline
 90
        3
 70
   128
 43
0.0
 10
6528.7643806432
 20
4793.6325808419
 10
6528.9168160003
 20
4793.3454838225
 10
6529.0521955143
 20
4792.8865207881
  0
LINE
  5
33F
330
1F
100
AcDbEntity
  8
0
  6
Continuous
 62
     7
370
    25
100
AcDbLine
 10
6556.9094938118
 20
4799.4290091282
 30
0.0
 11
6556.9094938119
 21
4798.4290091282
 31
0.0
  0
ELLIPSE
  5
340
330
1F
100
AcDbEntity
  8
0
  6
Continuous
 62
     7
370
    25
100
AcDbEllipse
 10
6556.9094938118
 20
4797.6290091282
 30
0.0
 11
1.038477631083879
 21
0.0
 31
0.0
210
0.0
220
0.0
230
1.0
 40
0.7703584324
 41
1.570796326751983
 42
3.141592653590948
  0
LWPOLYLINE
  5
341
330
1F
100
AcDbEntity
  8
0
  6
Continuous
 62
     7
370
    25
100
AcDbPolyline
 90
       10
 70
   128
 43
0.0
 10
6556.9094938118
 20
4799.4290091282
 10
6556.7291640636
 20
4799.4016630836
 10
6556.5543135436
 20
4799.3204558456
 10
6556.3902549963
 20
4799.187854855
 10
6556.2419732576
 20
4799.0078891258
 10
6556.1139737932
 20
4798.7860268256
 10
6556.010145802
 20
4798.5290091282
 10
6555.933644045
 20
4798.2446453862
 10
6555.8867929894
 20
4797.941575848
 10
6555.8710161807
 20
4797.6290091282
  0
LINE
  5
342
330
1F
100
AcDbEntity
  8
0
  6
Continuous
 62
     7
370
    25
100
AcDbLine
 10
6555.8710161808
 20
4713.4290091282
 30
0.0
 11
6555.8710161808
 21
4728.4290091282
 31
0.0
  0
LINE
  5
343
330
1F
100
AcDbEntity
  8
0
  6
Continuous
 62
     7
370
    25
100
AcDbLine
 10
6361.5479714429
 20
4713.4290091282
 30
0.0
 11
6361.5479714429
 21
4728.4290091282
 31
0.0
  0
LINE
  5
344
330
1F
100
AcDbEntity
  8
0
  6
Continuous
 62
     7
370
    25
100
AcDbLine
 10
6361.5479714429
 20
4728.4290091282
 30
0.0
 11
6361.5479714429
 21
4797.6290091282
 31
0.0
  0
CIRCLE
  5
345
330
1F
100
AcDbEntity
  8
0
  6
Continuous
 62
     7
370
    25
100
AcDbCircle
 10
6523.2094938118
 20
4784.4290091282
 30
0.0
 40
10.75
  0
CIRCLE
  5
346
330
1F
100
AcDbEntity
  8
0
  6
Continuous
 62
     7
370
    25
100
AcDbCircle
 10
6437.2094938118
 20
4784.4290091282
 30
0.0
 40
10.75
  0
CIRCLE
  5
347
330
1F
100
AcDbEntity
  8
0
  6
Continuous
 62
     7
370
    25
100
AcDbCircle
 10
6394.2094938118
 20
4784.4290091282
 30
0.0
 40
10.75
  0
LINE
  5
348
330
1F
100
AcDbEntity
  8
0
  6
Continuous
 62
     7
370
    25
100
AcDbLine
 10
6555.8710161807
 20
4797.6290091282
 30
0.0
 11
6555.8710161808
 21
4728.4290091282
 31
0.0
  0
ELLIPSE
  5
349
330
1F
100
AcDbEntity
  8
0
  6
Continuous
 62
     7
370
    25
100
AcDbEllipse
 10
6360.5094938118
 20
4797.6290091282
 30
0.0
 11
0.0
 21
1.799999999999272
 31
0.0
210
0.0
220
0.0
230
1.0
 40
0.5769320173
 41
4.712388980384192
 42
6.283185307179586
  0
LINE
  5
34A
330
1F
100
AcDbEntity
  8
0
  6
Continuous
 62
     7
370
    25
100
AcDbLine
 10
6360.5094938118
 20
4799.4290091282
 30
0.0
 11
6479.1902559254
 21
4799.4290091282
 31
0.0
  0
LINE
  5
34B
330
1F
100
AcDbEntity
  8
0
  6
Continuous
 62
     7
370
    25
100
AcDbLine
 10
6481.2287316983
 20
4799.4290091282
 30
0.0
 11
6556.9094938118
 21
4799.4290091282
 31
0.0
  0
ELLIPSE
  5
34C
330
1F
100
AcDbEntity
  8
0
  6
Continuous
 62
     7
370
    25
100
AcDbEllipse
 10
6360.5094938118
 20
4797.6290091282
 30
0.0
 11
1.038477631070236
 21
0.0
 31
0.0
210
0.0
220
0.0
230
1.0
 40
0.7703584324
 41
0.0
 42
1.570796326794897
  0
LINE
  5
34D
330
1F
100
AcDbEntity
  8
0
  6
Continuous
 62
     7
370
    25
100
AcDbLine
 10
6360.5094938118
 20
4799.4290091282
 30
0.0
 11
6360.5094938118
 21
4798.4290091282
 31
0.0
  0
LINE
  5
34E
330
1F
100
AcDbEntity
  8
0
  6
Continuous
 62
     7
370
    25
100
AcDbLine
 10
6359.7479714429
 20
4713.4290091282
 30
0.0
 11
6359.7479714429
 21
4728.4290091282
 31
0.0
  0
LINE
  5
34F
330
1F
100
AcDbEntity
  8
0
  6
Continuous
 62
     7
370
    25
100
AcDbLine
 10
6359.7479714429
 20
4728.4290091282
 30
0.0
 11
6361.5479714429
 21
4728.4290091282
 31
0.0
  0
LINE
  5
350
330
1F
100
AcDbEntity
  8
0
  6
Continuous
 62
     7
370
    25
100
AcDbLine
 10
6557.6710161808
 20
4728.4290091282
 30
0.0
 11
6557.6710161808
 21
4713.4290091282
 31
0.0
  0
LINE
  5
351
330
1F
100
AcDbEntity
  8
0
  6
Continuous
 62
     7
370
    25
100
AcDbLine
 10
6555.8710161808
 20
4728.4290091282
 30
0.0
 11
6557.6710161808
 21
4728.4290091282
 31
0.0
  0
LINE
  5
352
330
1F
100
AcDbEntity
  8
0
  6
Continuous
 62
     7
370
    25
100
AcDbLine
 10
6358.7094938118
 20
4797.6290091282
 30
0.0
 11
6359.7094938118
 21
4797.6290091282
 31
0.0
  0
ARC
  5
353
330
1F
100
AcDbEntity
  8
0
  6
Continuous
 62
     7
370
    25
100
AcDbCircle
 10
6360.5094938118
 20
4797.6290091282
 30
0.0
 40
1.799999999999272
100
AcDbArc
 50
90.0
 51
180.0
  0
ARC
  5
354
330
1F
100
AcDbEntity
  8
0
  6
Continuous
 62
     7
370
    25
100
AcDbCircle
 10
6360.5094938118
 20
4797.6290091282
 30
0.0
 40
0.8000000000001819
100
AcDbArc
 50
90.0000000008
 51
180.0000000001
  0
ARC
  5
355
330
1F
100
AcDbEntity
  8
0
  6
Continuous
 62
     7
370
    25
100
AcDbCircle
 10
6556.9094938119
 20
4797.6290091282
 30
0.0
 40
0.8000000000001819
100
AcDbArc
 50
359.9999999999
 51
90.0
  0
LINE
  5
356
330
1F
100
AcDbEntity
  8
0
  6
Continuous
 62
     7
370
    25
100
AcDbLine
 10
6558.7094938119
 20
4797.6290091282
 30
0.0
 11
6557.7094938119
 21
4797.6290091282
 31
0.0
  0
ARC
  5
357
330
1F
100
AcDbEntity
  8
0
  6
Continuous
 62
     7
370
    25
100
AcDbCircle
 10
6556.9094938119
 20
4797.6290091282
 30
0.0
 40
1.800000000000182
100
AcDbArc
 50
360.0
 51
90.0000000008
  0
LINE
  5
358
330
1F
100
AcDbEntity
  8
0
  6
Continuous
 62
     7
370
    25
100
AcDbLine
 10
6359.7094938118
 20
4797.6290091282
 30
0.0
 11
6359.7094938118
 21
4713.4290091282
 31
0.0
  0
LINE
  5
359
330
1F
100
AcDbEntity
  8
0
  6
Continuous
 62
     7
370
    25
100
AcDbLine
 10
6358.7094938118
 20
4797.6290091282
 30
0.0
 11
6358.7094938118
 21
4713.4290091282
 31
0.0
  0
LINE
  5
35A
330
1F
100
AcDbEntity
  8
0
  6
Continuous
 62
     7
370
    25
100
AcDbLine
 10
6557.7094938118
 20
4713.4290091282
 30
0.0
 11
6557.7094938119
 21
4797.6290091282
 31
0.0
  0
LINE
  5
35B
330
1F
100
AcDbEntity
  8
0
  6
Continuous
 62
     7
370
    25
100
AcDbLine
 10
6558.7094938118
 20
4713.4290091282
 30
0.0
 11
6558.7094938119
 21
4797.6290091282
 31
0.0
  0
CIRCLE
  5
35C
330
1F
100
AcDbEntity
  8
0
  6
Continuous
 62
     7
370
    25
100
AcDbCircle
 10
6437.2094938118
 20
4784.4290091281
 30
0.0
 40
8.5
  0
ARC
  5
35D
330
1F
100
AcDbEntity
  8
0
  6
Continuous
 62
     7
370
    25
100
AcDbCircle
 10
6394.2094938118
 20
4784.4290091281
 30
0.0
 40
8.500000000000933
100
AcDbArc
 50
249.3405774849
 51
266.1985460321
  0
LWPOLYLINE
  5
35E
330
1F
100
AcDbEntity
  8
0
  6
Continuous
 62
     7
370
    25
100
AcDbPolyline
 90
        3
 70
   128
 43
0.0
 10
6386.5827024395
 20
4780.6764029188
 10
6386.1255134233
 20
4781.8023646759
 10
6385.7885383176
 20
4783.2725020745
  0
LWPOLYLINE
  5
35F
330
1F
100
AcDbEntity
  8
0
  6
Continuous
 62
     7
370
    25
100
AcDbPolyline
 90
        3
 70
   128
 43
0.0
 10
6387.1462458171
 20
4789.1577011
 10
6388.0657374693
 20
4790.3030416445
 10
6388.9060854157
 20
4791.0715884001
  0
ARC
  5
360
330
1F
100
AcDbEntity
  8
0
  6
Continuous
 62
     7
370
    25
100
AcDbCircle
 10
6394.2094938118
 20
4784.4290091281
 30
0.0
 40
8.499999999999545
100
AcDbArc
 50
68.6037246122
 51
86.1985460526
  0
ARC
  5
361
330
1F
100
AcDbEntity
  8
0
  6
Continuous
 62
     7
370
    25
100
AcDbCircle
 10
6394.2094938118
 20
4784.4290091281
 30
0.0
 40
8.5000000000001
100
AcDbArc
 50
8.6037246188
 51
26.198546046
  0
ARC
  5
362
330
1F
100
AcDbEntity
  8
0
  6
Continuous
 62
     7
370
    25
100
AcDbCircle
 10
6394.2094938118
 20
4784.4290091281
 30
0.0
 40
8.500000000000112
100
AcDbArc
 50
308.603724629
 51
326.1985460358
  0
LINE
  5
363
330
1F
100
AcDbEntity
  8
0
  6
Continuous
 62
     7
370
    25
100
AcDbLine
 10
6339.1947751861
 20
4713.4290091282
 30
0.0
 11
6344.1947751861
 21
4713.4290091282
 31
0.0
  0
LINE
  5
364
330
1F
100
AcDbEntity
  8
0
  6
Continuous
 62
     7
370
    25
100
AcDbLine
 10
6344.1947751861
 20
4713.4290091282
 30
0.0
 11
6344.1947751861
 21
4712.4290091282
 31
0.0
  0
LINE
  5
365
330
1F
100
AcDbEntity
  8
0
  6
Continuous
 62
     7
370
    25
100
AcDbLine
 10
6344.1947751861
 20
4712.4290091282
 30
0.0
 11
6339.1947751861
 21
4712.4290091282
 31
0.0
  0
LINE
  5
366
330
1F
100
AcDbEntity
  8
0
  6
Continuous
 62
     7
370
    25
100
AcDbLine
 10
6573.2242124376
 20
4712.4290091282
 30
0.0
 11
6573.2242124376
 21
4713.4290091282
 31
0.0
  0
LINE
  5
367
330
1F
100
AcDbEntity
  8
0
  6
Continuous
 62
     7
370
    25
100
AcDbLine
 10
6573.2242124376
 20
4712.4290091282
 30
0.0
 11
6344.1947751861
 21
4712.4290091282
 31
0.0
  0
LINE
  5
368
330
1F
100
AcDbEntity
  8
0
  6
Continuous
 62
     7
370
    25
100
AcDbLine
 10
6573.2242124376
 20
4713.4290091282
 30
0.0
 11
6344.1947751861
 21
4713.4290091282
 31
0.0
  0
LINE
  5
369
330
1F
100
AcDbEntity
  8
0
  6
Continuous
 62
     7
370
    25
100
AcDbLine
 10
6578.2242124376
 20
4712.4290091282
 30
0.0
 11
6573.2242124376
 21
4712.4290091282
 31
0.0
  0
LINE
  5
36A
330
1F
100
AcDbEntity
  8
0
  6
Continuous
 62
     7
370
    25
100
AcDbLine
 10
6573.2242124376
 20
4713.4290091282
 30
0.0
 11
6578.2242124376
 21
4713.4290091282
 31
0.0
  0
LINE
  5
36B
330
1F
100
AcDbEntity
  8
0
  6
Continuous
 62
     7
370
    25
100
AcDbLine
 10
6330.7094938118
 20
4712.4290091282
 30
0.0
 11
6330.7094938118
 21
4713.4290091282
 31
0.0
  0
LINE
  5
36C
330
1F
100
AcDbEntity
  8
0
  6
Continuous
 62
     7
370
    25
100
AcDbLine
 10
6330.7094938118
 20
4713.4290091282
 30
0.0
 11
6339.2450277177
 21
4713.4290091282
 31
0.0
  0
LINE
  5
36D
330
1F
100
AcDbEntity
  8
0
  6
Continuous
 62
     7
370
    25
100
AcDbLine
 10
6339.2450277177
 20
4712.4290091282
 30
0.0
 11
6330.7094938118
 21
4712.4290091282
 31
0.0
  0
LINE
  5
36E
330
1F
100
AcDbEntity
  8
0
  6
Continuous
 62
     7
370
    25
100
AcDbLine
 10
6586.7094938118
 20
4713.4290091282
 30
0.0
 11
6586.7094938118
 21
4712.4290091282
 31
0.0
  0
LINE
  5
36F
330
1F
100
AcDbEntity
  8
0
  6
Continuous
 62
     7
370
    25
100
AcDbLine
 10
6578.1739599059
 20
4713.4290091282
 30
0.0
 11
6586.7094938118
 21
4713.4290091282
 31
0.0
  0
LINE
  5
370
330
1F
100
AcDbEntity
  8
0
  6
Continuous
 62
     7
370
    25
100
AcDbLine
 10
6586.7094938118
 20
4712.4290091282
 30
0.0
 11
6578.1739599059
 21
4712.4290091282
 31
0.0
  0
LINE
  5
371
330
1F
100
AcDbEntity
  8
0
  6
Continuous
 62
     8
370
    25
100
AcDbLine
 10
6431.4733211746
 20
4702.8281083206
 30
0.0
 11
6487.2094938118
 21
4702.8281083206
 31
0.0
  0
LINE
  5
372
330
1F
100
AcDbEntity
  8
0
  6
Continuous
 62
     8
370
    25
100
AcDbLine
 10
6430.2094938118
 20
4702.8281083206
 30
0.0
 11
6431.4733211746
 21
4702.8281083206
 31
0.0
  0
LINE
  5
373
330
1F
100
AcDbEntity
  8
0
  6
Continuous
 62
     8
370
    25
100
AcDbLine
 10
6431.4733211746
 20
4700.2281083206
 30
0.0
 11
6487.2094938118
 21
4700.2281083206
 31
0.0
  0
LINE
  5
374
330
1F
100
AcDbEntity
  8
0
  6
Continuous
 62
     8
370
    25
100
AcDbLine
 10
6430.2094938118
 20
4700.2281083206
 30
0.0
 11
6431.4733211746
 21
4700.2281083206
 31
0.0
  0
LINE
  5
375
330
1F
100
AcDbEntity
  8
0
  6
Continuous
 62
     8
370
    25
100
AcDbLine
 10
6438.6094938118
 20
4654.0281083236
 30
0.0
 11
6478.8094938118
 21
4654.0281083236
 31
0.0
  0
LINE
  5
376
330
1F
100
AcDbEntity
  8
0
  6
Continuous
 62
     8
370
    25
100
AcDbLine
 10
6361.5479714429
 20
4797.6290091282
 30
0.0
 11
6476.0725644717
 21
4797.6290091282
 31
0.0
  0
LINE
  5
377
330
1F
100
AcDbEntity
  8
0
  6
Continuous
 62
     8
370
    25
100
AcDbLine
 10
6484.3464231519
 20
4797.6290091282
 30
0.0
 11
6555.8710161807
 21
4797.6290091282
 31
0.0
  0
ENDSEC
  0
SECTION
  2
OBJECTS
  0
DICTIONARY
  5
C
330
0
100
AcDbDictionary
281
     1
  3
ACAD_GROUP
350
D
  3
ACAD_LAYOUT
350
1A
  3
ACAD_MLINESTYLE
350
17
  3
ACAD_PLOTSETTINGS
350
19
  3
ACAD_PLOTSTYLENAME
350
E
  3
ACAD_SCALELIST
350
47
  3
DWGPROPS
350
378
  0
DICTIONARY
  5
D
102
{ACAD_REACTORS
330
C
102
}
330
C
100
AcDbDictionary
281
     1
  0
DICTIONARY
  5
1A
102
{ACAD_REACTORS
330
C
102
}
330
C
100
AcDbDictionary
281
     1
  3
Layout1
350
1E
  3
Layout2
350
26
  3
Model
350
22
  0
DICTIONARY
  5
17
102
{ACAD_REACTORS
330
C
102
}
330
C
100
AcDbDictionary
281
     1
  3
Standard
350
18
  0
DICTIONARY
  5
19
102
{ACAD_REACTORS
330
C
102
}
330
C
100
AcDbDictionary
281
     1
  0
ACDBDICTIONARYWDFLT
  5
E
102
{ACAD_REACTORS
330
C
102
}
330
C
100
AcDbDictionary
281
     1
  3
Normal
350
F
100
AcDbDictionaryWithDefault
340
F
  0
DICTIONARY
  5
47
102
{ACAD_REACTORS
330
C
102
}
330
C
100
AcDbDictionary
281
     1
  3
A0
350
48
  3
A1
350
49
  3
A2
350
4A
  3
A3
350
4B
  3
A4
350
4C
  3
A5
350
4D
  3
A6
350
4E
  3
A7
350
4F
  3
A8
350
50
  3
A9
350
51
  3
B0
350
52
  3
B1
350
53
  3
B2
350
54
  3
B3
350
55
  3
B4
350
56
  3
B5
350
57
  3
B6
350
58
  3
B7
350
59
  3
B8
350
5A
  3
B9
350
5B
  3
C0
350
5C
  3
C1
350
5D
  3
C2
350
5E
  3
C3
350
5F
  3
C4
350
60
  3
C5
350
61
  3
C6
350
62
  3
C7
350
63
  3
C8
350
64
  3
C9
350
65
  3
D0
350
66
  3
D1
350
67
  3
D2
350
68
  0
XRECORD
  5
378
102
{ACAD_REACTORS
330
C
102
}
330
C
100
AcDbXrecord
280
     1
  1
DWGPROPS COOKIE
  2

  3

  4

  6

  7

  8
radek.stransky
  9

300
=
301
=
302
=
303
=
304
=
305
=
306
=
307
=
308
=
309
=
 40
0.0
 41
2459136.486662593
 42
2459136.486663021
  1

 90
        0
  0
LAYOUT
  5
1E
102
{ACAD_REACTORS
330
1A
102
}
330
1A
100
AcDbPlotSettings
  1

  2
none_device
  4

  6

 40
0.0
 41
0.0
 42
0.0
 43
0.0
 44
0.0
 45
0.0
 46
0.0
 47
0.0
 48
0.0
 49
0.0
140
0.0
141
0.0
142
1.0
143
1.0
 70
   688
 72
     1
 73
     0
 74
     5
  7

 75
    16
147
1.0
148
0.0
149
0.0
100
AcDbLayout
  1
Layout1
 70
     1
 71
     1
 10
0.0
 20
0.0
 11
420.0
 21
297.0
 12
0.0
 22
0.0
 32
0.0
 14
1.0000000000E+20
 24
1.0000000000E+20
 34
1.0000000000E+20
 15
-1.0000000000E+20
 25
-1.0000000000E+20
 35
-1.0000000000E+20
146
0.0
 13
0.0
 23
0.0
 33
0.0
 16
1.0
 26
0.0
 36
0.0
 17
0.0
 27
1.0
 37
0.0
 76
     0
330
1B
  0
LAYOUT
  5
26
102
{ACAD_REACTORS
330
1A
102
}
330
1A
100
AcDbPlotSettings
  1

  2
none_device
  4

  6

 40
0.0
 41
0.0
 42
0.0
 43
0.0
 44
0.0
 45
0.0
 46
0.0
 47
0.0
 48
0.0
 49
0.0
140
0.0
141
0.0
142
1.0
143
1.0
 70
   688
 72
     1
 73
     0
 74
     5
  7

 75
    16
147
1.0
148
0.0
149
0.0
100
AcDbLayout
  1
Layout2
 70
     1
 71
     2
 10
0.0
 20
0.0
 11
0.0
 21
0.0
 12
0.0
 22
0.0
 32
0.0
 14
0.0
 24
0.0
 34
0.0
 15
0.0
 25
0.0
 35
0.0
146
0.0
 13
0.0
 23
0.0
 33
0.0
 16
1.0
 26
0.0
 36
0.0
 17
0.0
 27
1.0
 37
0.0
 76
     0
330
23
  0
LAYOUT
  5
22
102
{ACAD_REACTORS
330
1A
102
}
330
1A
100
AcDbPlotSettings
  1

  2
none_device
  4
Letter_(8.50_x_11.00_Inches)
  6

 40
6.35
 41
6.35
 42
6.35000508
 43
6.35000508
 44
215.9
 45
279.4
 46
0.0
 47
0.0
 48
0.0
 49
0.0
140
0.0
141
0.0
142
1.0
143
1.0
 70
  1712
 72
     1
 73
     0
 74
     0
  7

 75
     0
147
1.0
148
0.0
149
0.0
100
AcDbLayout
  1
Model
 70
     1
 71
     0
 10
0.0
 20
0.0
 11
20000.0
 21
10000.0
 12
0.0
 22
0.0
 32
0.0
 14
0.0
 24
0.0
 34
0.0
 15
20000.0
 25
10000.0
 35
0.0
146
0.0
 13
0.0
 23
0.0
 33
0.0
 16
1.0
 26
0.0
 36
0.0
 17
0.0
 27
1.0
 37
0.0
 76
     0
330
1F
331
29
  0
MLINESTYLE
  5
18
102
{ACAD_REACTORS
330
17
102
}
330
17
100
AcDbMlineStyle
  2
Standard
 70
     0
  3

 62
   256
 51
90.0
 52
90.0
 71
     2
 49
0.5
 62
   256
  6
BYLAYER
 49
-0.5
 62
   256
  6
BYLAYER
  0
ACDBPLACEHOLDER
  5
F
102
{ACAD_REACTORS
330
E
102
}
330
E
  0
SCALE
  5
48
102
{ACAD_REACTORS
330
47
102
}
330
47
100
AcDbScale
 70
     0
300
1:1
140
1.0
141
1.0
290
     1
  0
SCALE
  5
49
102
{ACAD_REACTORS
330
47
102
}
330
47
100
AcDbScale
 70
     0
300
1:2
140
1.0
141
2.0
290
     0
  0
SCALE
  5
4A
102
{ACAD_REACTORS
330
47
102
}
330
47
100
AcDbScale
 70
     0
300
1:4
140
1.0
141
4.0
290
     0
  0
SCALE
  5
4B
102
{ACAD_REACTORS
330
47
102
}
330
47
100
AcDbScale
 70
     0
300
1:5
140
1.0
141
5.0
290
     0
  0
SCALE
  5
4C
102
{ACAD_REACTORS
330
47
102
}
330
47
100
AcDbScale
 70
     0
300
1:8
140
1.0
141
8.0
290
     0
  0
SCALE
  5
4D
102
{ACAD_REACTORS
330
47
102
}
330
47
100
AcDbScale
 70
     0
300
1:10
140
1.0
141
10.0
290
     0
  0
SCALE
  5
4E
102
{ACAD_REACTORS
330
47
102
}
330
47
100
AcDbScale
 70
     0
300
1:16
140
1.0
141
16.0
290
     0
  0
SCALE
  5
4F
102
{ACAD_REACTORS
330
47
102
}
330
47
100
AcDbScale
 70
     0
300
1:20
140
1.0
141
20.0
290
     0
  0
SCALE
  5
50
102
{ACAD_REACTORS
330
47
102
}
330
47
100
AcDbScale
 70
     0
300
1:30
140
1.0
141
30.0
290
     0
  0
SCALE
  5
51
102
{ACAD_REACTORS
330
47
102
}
330
47
100
AcDbScale
 70
     0
300
1:40
140
1.0
141
40.0
290
     0
  0
SCALE
  5
52
102
{ACAD_REACTORS
330
47
102
}
330
47
100
AcDbScale
 70
     0
300
1:50
140
1.0
141
50.0
290
     0
  0
SCALE
  5
53
102
{ACAD_REACTORS
330
47
102
}
330
47
100
AcDbScale
 70
     0
300
1:100
140
1.0
141
100.0
290
     0
  0
SCALE
  5
54
102
{ACAD_REACTORS
330
47
102
}
330
47
100
AcDbScale
 70
     0
300
2:1
140
2.0
141
1.0
290
     0
  0
SCALE
  5
55
102
{ACAD_REACTORS
330
47
102
}
330
47
100
AcDbScale
 70
     0
300
4:1
140
4.0
141
1.0
290
     0
  0
SCALE
  5
56
102
{ACAD_REACTORS
330
47
102
}
330
47
100
AcDbScale
 70
     0
300
8:1
140
8.0
141
1.0
290
     0
  0
SCALE
  5
57
102
{ACAD_REACTORS
330
47
102
}
330
47
100
AcDbScale
 70
     0
300
10:1
140
10.0
141
1.0
290
     0
  0
SCALE
  5
58
102
{ACAD_REACTORS
330
47
102
}
330
47
100
AcDbScale
 70
     0
300
100:1
140
100.0
141
1.0
290
     0
  0
SCALE
  5
59
102
{ACAD_REACTORS
330
47
102
}
330
47
100
AcDbScale
 70
     0
300
1/128" = 1'-0"
140
0.0078125
141
12.0
290
     0
  0
SCALE
  5
5A
102
{ACAD_REACTORS
330
47
102
}
330
47
100
AcDbScale
 70
     0
300
1/64" = 1'-0"
140
0.015625
141
12.0
290
     0
  0
SCALE
  5
5B
102
{ACAD_REACTORS
330
47
102
}
330
47
100
AcDbScale
 70
     0
300
1/32" = 1'-0"
140
0.03125
141
12.0
290
     0
  0
SCALE
  5
5C
102
{ACAD_REACTORS
330
47
102
}
330
47
100
AcDbScale
 70
     0
300
1/16" = 1'-0"
140
0.0625
141
12.0
290
     0
  0
SCALE
  5
5D
102
{ACAD_REACTORS
330
47
102
}
330
47
100
AcDbScale
 70
     0
300
3/32" = 1'-0"
140
0.09375
141
12.0
290
     0
  0
SCALE
  5
5E
102
{ACAD_REACTORS
330
47
102
}
330
47
100
AcDbScale
 70
     0
300
1/8" = 1'-0"
140
0.125
141
12.0
290
     0
  0
SCALE
  5
5F
102
{ACAD_REACTORS
330
47
102
}
330
47
100
AcDbScale
 70
     0
300
3/16" = 1'-0"
140
0.1875
141
12.0
290
     0
  0
SCALE
  5
60
102
{ACAD_REACTORS
330
47
102
}
330
47
100
AcDbScale
 70
     0
300
1/4" = 1'-0"
140
0.25
141
12.0
290
     0
  0
SCALE
  5
61
102
{ACAD_REACTORS
330
47
102
}
330
47
100
AcDbScale
 70
     0
300
3/8" = 1'-0"
140
0.375
141
12.0
290
     0
  0
SCALE
  5
62
102
{ACAD_REACTORS
330
47
102
}
330
47
100
AcDbScale
 70
     0
300
1/2" = 1'-0"
140
0.5
141
12.0
290
     0
  0
SCALE
  5
63
102
{ACAD_REACTORS
330
47
102
}
330
47
100
AcDbScale
 70
     0
300
3/4" = 1'-0"
140
0.75
141
12.0
290
     0
  0
SCALE
  5
64
102
{ACAD_REACTORS
330
47
102
}
330
47
100
AcDbScale
 70
     0
300
1" = 1'-0"
140
1.0
141
12.0
290
     0
  0
SCALE
  5
65
102
{ACAD_REACTORS
330
47
102
}
330
47
100
AcDbScale
 70
     0
300
1-1/2" = 1'-0"
140
1.5
141
12.0
290
     0
  0
SCALE
  5
66
102
{ACAD_REACTORS
330
47
102
}
330
47
100
AcDbScale
 70
     0
300
3" = 1'-0"
140
3.0
141
12.0
290
     0
  0
SCALE
  5
67
102
{ACAD_REACTORS
330
47
102
}
330
47
100
AcDbScale
 70
     0
300
6" = 1'-0"
140
6.0
141
12.0
290
     0
  0
SCALE
  5
68
102
{ACAD_REACTORS
330
47
102
}
330
47
100
AcDbScale
 70
     0
300
1'-0" = 1'-0"
140
12.0
141
12.0
290
     0
  0
ENDSEC
  0
EOF
