  0
SECTION
  2
HEADER
  9
$ACADVER
  1
AC1015
  9
$ACADMAINTVER
 70
     6
  9
$DWGCODEPAGE
  3
ANSI_1250
  9
$INSBASE
 10
0.0
 20
0.0
 30
0.0
  9
$EXTMIN
 10
0.0
 20
0.0
 30
0.0
  9
$EXTMAX
 10
20000.0
 20
10000.0
 30
0.0
  9
$LIMMIN
 10
0.0
 20
0.0
  9
$LIMMAX
 10
20000.0
 20
10000.0
  9
$ORTHOMODE
 70
     0
  9
$REGENMODE
 70
     1
  9
$FILLMODE
 70
     1
  9
$QTEXTMODE
 70
     0
  9
$MIRRTEXT
 70
     1
  9
$LTSCALE
 40
1.0
  9
$ATTMODE
 70
     1
  9
$TEXTSIZE
 40
2.0
  9
$TRACEWID
 40
1.0
  9
$TEXTSTYLE
  7
Standard
  9
$CLAYER
  8
0
  9
$CELTYPE
  6
ByLayer
  9
$CECOLOR
 62
   256
  9
$CELTSCALE
 40
1.0
  9
$DISPSILH
 70
     0
  9
$DIMSCALE
 40
1.0
  9
$DIMASZ
 40
2.0
  9
$DIMEXO
 40
1.0
  9
$DIMDLI
 40
3.75
  9
$DIMRND
 40
0.0
  9
$DIMDLE
 40
0.0
  9
$DIMEXE
 40
1.0
  9
$DIMTP
 40
0.0
  9
$DIMTM
 40
0.0
  9
$DIMTXT
 40
2.0
  9
$DIMCEN
 40
2.5
  9
$DIMTSZ
 40
0.0
  9
$DIMTOL
 70
     0
  9
$DIMLIM
 70
     0
  9
$DIMTIH
 70
     1
  9
$DIMTOH
 70
     1
  9
$DIMSE1
 70
     0
  9
$DIMSE2
 70
     0
  9
$DIMTAD
 70
     1
  9
$DIMZIN
 70
     0
  9
$DIMBLK
  1

  9
$DIMASO
 70
     1
  9
$DIMSHO
 70
     1
  9
$DIMPOST
  1

  9
$DIMAPOST
  1

  9
$DIMALT
 70
     0
  9
$DIMALTD
 70
     3
  9
$DIMALTF
 40
0.0393700787
  9
$DIMLFAC
 40
1.0
  9
$DIMTOFL
 70
     1
  9
$DIMTVP
 40
0.0
  9
$DIMTIX
 70
     0
  9
$DIMSOXD
 70
     0
  9
$DIMSAH
 70
     0
  9
$DIMBLK1
  1

  9
$DIMBLK2
  1

  9
$DIMSTYLE
  2
ISO-25
  9
$DIMCLRD
 70
     0
  9
$DIMCLRE
 70
     0
  9
$DIMCLRT
 70
     0
  9
$DIMTFAC
 40
1.0
  9
$DIMGAP
 40
1.524
  9
$DIMJUST
 70
     0
  9
$DIMSD1
 70
     0
  9
$DIMSD2
 70
     0
  9
$DIMTOLJ
 70
     0
  9
$DIMTZIN
 70
     0
  9
$DIMALTZ
 70
     0
  9
$DIMALTTZ
 70
     0
  9
$DIMUPT
 70
     0
  9
$DIMDEC
 70
     2
  9
$DIMTDEC
 70
     0
  9
$DIMALTU
 70
     2
  9
$DIMALTTD
 70
     3
  9
$DIMTXSTY
  7
Standard
  9
$DIMAUNIT
 70
     0
  9
$DIMADEC
 70
     2
  9
$DIMALTRND
 40
0.0
  9
$DIMAZIN
 70
     0
  9
$DIMDSEP
 70
    44
  9
$DIMATFIT
 70
     3
  9
$DIMFRAC
 70
     0
  9
$DIMLDRBLK
  1

  9
$DIMLUNIT
 70
     2
  9
$DIMLWD
 70
    -2
  9
$DIMLWE
 70
    -2
  9
$DIMTMOVE
 70
     0
  9
$LUNITS
 70
     2
  9
$LUPREC
 70
     3
  9
$SKETCHINC
 40
1.0
  9
$FILLETRAD
 40
10.0
  9
$AUNITS
 70
     0
  9
$AUPREC
 70
     2
  9
$MENU
  1
.
  9
$ELEVATION
 40
0.0
  9
$PELEVATION
 40
0.0
  9
$THICKNESS
 40
0.0
  9
$LIMCHECK
 70
     0
  9
$CHAMFERA
 40
0.0
  9
$CHAMFERB
 40
0.0
  9
$CHAMFERC
 40
0.0
  9
$CHAMFERD
 40
0.0
  9
$SKPOLY
 70
     0
  9
$TDCREATE
 40
2460362.585997662
  9
$TDUCREATE
 40
2460362.544330996
  9
$TDUPDATE
 40
2460362.58599831
  9
$TDUUPDATE
 40
2460362.544331644
  9
$TDINDWG
 40
0.0000000116
  9
$TDUSRTIMER
 40
0.0000000116
  9
$USRTIMER
 70
     1
  9
$ANGBASE
 50
0.0
  9
$ANGDIR
 70
     0
  9
$PDMODE
 70
     0
  9
$PDSIZE
 40
-1.0
  9
$PLINEWID
 40
0.0
  9
$SPLFRAME
 70
     0
  9
$SPLINETYPE
 70
     6
  9
$SPLINESEGS
 70
     8
  9
$HANDSEED
  5
246
  9
$SURFTAB1
 70
     6
  9
$SURFTAB2
 70
     6
  9
$SURFTYPE
 70
     6
  9
$SURFU
 70
     6
  9
$SURFV
 70
     6
  9
$UCSBASE
  2

  9
$UCSNAME
  2

  9
$UCSORG
 10
0.0
 20
0.0
 30
0.0
  9
$UCSXDIR
 10
1.0
 20
0.0
 30
0.0
  9
$UCSYDIR
 10
0.0
 20
1.0
 30
0.0
  9
$UCSORTHOREF
  2

  9
$UCSORTHOVIEW
 70
     0
  9
$UCSORGTOP
 10
0.0
 20
0.0
 30
0.0
  9
$UCSORGBOTTOM
 10
0.0
 20
0.0
 30
0.0
  9
$UCSORGLEFT
 10
0.0
 20
0.0
 30
0.0
  9
$UCSORGRIGHT
 10
0.0
 20
0.0
 30
0.0
  9
$UCSORGFRONT
 10
0.0
 20
0.0
 30
0.0
  9
$UCSORGBACK
 10
0.0
 20
0.0
 30
0.0
  9
$PUCSBASE
  2

  9
$PUCSNAME
  2

  9
$PUCSORG
 10
0.0
 20
0.0
 30
0.0
  9
$PUCSXDIR
 10
1.0
 20
0.0
 30
0.0
  9
$PUCSYDIR
 10
0.0
 20
1.0
 30
0.0
  9
$PUCSORTHOREF
  2

  9
$PUCSORTHOVIEW
 70
     0
  9
$PUCSORGTOP
 10
0.0
 20
0.0
 30
0.0
  9
$PUCSORGBOTTOM
 10
0.0
 20
0.0
 30
0.0
  9
$PUCSORGLEFT
 10
0.0
 20
0.0
 30
0.0
  9
$PUCSORGRIGHT
 10
0.0
 20
0.0
 30
0.0
  9
$PUCSORGFRONT
 10
0.0
 20
0.0
 30
0.0
  9
$PUCSORGBACK
 10
0.0
 20
0.0
 30
0.0
  9
$USERI1
 70
     0
  9
$USERI2
 70
     0
  9
$USERI3
 70
     0
  9
$USERI4
 70
     0
  9
$USERI5
 70
     0
  9
$USERR1
 40
0.0
  9
$USERR2
 40
0.0
  9
$USERR3
 40
0.0
  9
$USERR4
 40
0.0
  9
$USERR5
 40
0.0
  9
$WORLDVIEW
 70
     1
  9
$SHADEDGE
 70
     3
  9
$SHADEDIF
 70
    70
  9
$TILEMODE
 70
     1
  9
$MAXACTVP
 70
    64
  9
$PINSBASE
 10
0.0
 20
0.0
 30
0.0
  9
$PLIMCHECK
 70
     0
  9
$PEXTMIN
 10
1.0000000000E+20
 20
1.0000000000E+20
 30
1.0000000000E+20
  9
$PEXTMAX
 10
-1.0000000000E+20
 20
-1.0000000000E+20
 30
-1.0000000000E+20
  9
$PLIMMIN
 10
0.0
 20
0.0
  9
$PLIMMAX
 10
420.0
 20
297.0
  9
$UNITMODE
 70
     0
  9
$VISRETAIN
 70
     1
  9
$PLINEGEN
 70
     0
  9
$PSLTSCALE
 70
     1
  9
$TREEDEPTH
 70
  3020
  9
$CMLSTYLE
  2
Standard
  9
$CMLJUST
 70
     0
  9
$CMLSCALE
 40
20.0
  9
$PROXYGRAPHICS
 70
     1
  9
$MEASUREMENT
 70
     1
  9
$CELWEIGHT
370
    -1
  9
$ENDCAPS
280
     0
  9
$JOINSTYLE
280
     0
  9
$LWDISPLAY
290
     1
  9
$INSUNITS
 70
     4
  9
$HYPERLINKBASE
  1

  9
$STYLESHEET
  1

  9
$XEDIT
290
     1
  9
$CEPSNTYPE
380
     0
  9
$PSTYLEMODE
290
     1
  9
$FINGERPRINTGUID
  2
{cb92ced6-bfcf-4e2c-821a-a5f25649648d}
  9
$VERSIONGUID
  2
{FAEB1C32-E019-11D5-929B-00C0DF256EC4}
  9
$EXTNAMES
290
     1
  9
$PSVPSCALE
 40
0.0
  9
$OLESTARTUP
290
     0
  0
ENDSEC
  0
SECTION
  2
CLASSES
  0
CLASS
  1
ACDBDICTIONARYWDFLT
  2
AcDbDictionaryWithDefault
  3
ObjectDBX Classes
 90
        0
280
     0
281
     0
  0
CLASS
  1
VISUALSTYLE
  2
AcDbVisualStyle
  3
ObjectDBX Classes
 90
     4095
280
     0
281
     0
  0
CLASS
  1
MATERIAL
  2
AcDbMaterial
  3
ObjectDBX Classes
 90
     1153
280
     0
281
     0
  0
CLASS
  1
SCALE
  2
AcDbScale
  3
ObjectDBX Classes
 90
     1153
280
     0
281
     0
  0
CLASS
  1
TABLESTYLE
  2
AcDbTableStyle
  3
ObjectDBX Classes
 90
     4095
280
     0
281
     0
  0
CLASS
  1
MLEADERSTYLE
  2
AcDbMLeaderStyle
  3
ACDB_MLEADERSTYLE_CLASS
 90
     4095
280
     0
281
     0
  0
CLASS
  1
SUN
  2
AcDbSun
  3
SCENEOE
 90
     1153
280
     0
281
     0
  0
CLASS
  1
ACDBPLACEHOLDER
  2
AcDbPlaceHolder
  3
ObjectDBX Classes
 90
        0
280
     0
281
     0
  0
CLASS
  1
LAYOUT
  2
AcDbLayout
  3
ObjectDBX Classes
 90
        0
280
     0
281
     0
  0
ENDSEC
  0
SECTION
  2
TABLES
  0
TABLE
  2
VPORT
  5
8
330
0
100
AcDbSymbolTable
 70
     1
  0
VPORT
  5
29
330
8
100
AcDbSymbolTableRecord
100
AcDbViewportTableRecord
  2
*Active
 70
     0
 10
0.0
 20
0.0
 11
1.0
 21
1.0
 12
10000.0
 22
5000.0
 13
0.0
 23
0.0
 14
10.0
 24
10.0
 15
10.0
 25
10.0
 16
0.0
 26
0.0
 36
1.0
 17
0.0
 27
0.0
 37
0.0
 40
10000.0
 41
2.0
 42
50.0
 43
0.0
 44
0.0
 50
0.0
 51
0.0
 71
     0
 72
  2000
 73
     1
 74
     3
 75
     0
 76
     0
 77
     0
 78
     0
281
     0
 65
     1
110
0.0
120
0.0
130
0.0
111
1.0
121
0.0
131
0.0
112
0.0
122
1.0
132
0.0
 79
     0
146
0.0
  0
ENDTAB
  0
TABLE
  2
LTYPE
  5
5
330
0
100
AcDbSymbolTable
 70
     6
  0
LTYPE
  5
14
330
5
100
AcDbSymbolTableRecord
100
AcDbLinetypeTableRecord
  2
ByBlock
 70
     0
  3

 72
    65
 73
     0
 40
0.0
  0
LTYPE
  5
15
330
5
100
AcDbSymbolTableRecord
100
AcDbLinetypeTableRecord
  2
ByLayer
 70
     0
  3

 72
    65
 73
     0
 40
0.0
  0
LTYPE
  5
16
330
5
100
AcDbSymbolTableRecord
100
AcDbLinetypeTableRecord
  2
Continuous
 70
     0
  3
Solid line
 72
    65
 73
     0
 40
0.0
  0
LTYPE
  5
6E
330
5
100
AcDbSymbolTableRecord
100
AcDbLinetypeTableRecord
  2
HIDDEN
 70
     0
  3
Hidden __ __ __ __ __ __ __ __ __ __ __ __ __ __
 72
    65
 73
     2
 40
1.905
 49
1.27
 74
     0
 49
-0.635
 74
     0
  0
LTYPE
  5
6F
330
5
100
AcDbSymbolTableRecord
100
AcDbLinetypeTableRecord
  2
PHANTOM
 70
     0
  3
Phantom ______  __  __  ______  __  __  ______
 72
    65
 73
     6
 40
12.7
 49
6.35
 74
     0
 49
-1.27
 74
     0
 49
1.27
 74
     0
 49
-1.27
 74
     0
 49
1.27
 74
     0
 49
-1.27
 74
     0
  0
LTYPE
  5
70
330
5
100
AcDbSymbolTableRecord
100
AcDbLinetypeTableRecord
  2
CENTER
 70
     0
  3
Center ____ _ ____ _ ____ _ ____ _ ____ _ ____
 72
    65
 73
     4
 40
10.16
 49
6.35
 74
     0
 49
-1.27
 74
     0
 49
1.27
 74
     0
 49
-1.27
 74
     0
  0
LTYPE
  5
71
330
5
100
AcDbSymbolTableRecord
100
AcDbLinetypeTableRecord
  2
CENTERX2
 70
     0
  3
Center (2x) ________  __  ________  __  _____
 72
    65
 73
     4
 40
20.32
 49
12.7
 74
     0
 49
-2.54
 74
     0
 49
2.54
 74
     0
 49
-2.54
 74
     0
  0
LTYPE
  5
72
330
5
100
AcDbSymbolTableRecord
100
AcDbLinetypeTableRecord
  2
DOT2
 70
     0
  3
Dot (.5x) ........................................
 72
    65
 73
     2
 40
0.635
 49
0.0
 74
     0
 49
-0.635
 74
     0
  0
ENDTAB
  0
TABLE
  2
LAYER
  5
2
330
0
100
AcDbSymbolTable
 70
    13
  0
LAYER
  5
10
330
2
100
AcDbSymbolTableRecord
100
AcDbLayerTableRecord
  2
0
 70
     0
 62
     7
  6
Continuous
370
    -3
390
F
  0
LAYER
  5
73
330
2
100
AcDbSymbolTableRecord
100
AcDbLayerTableRecord
  2
FORMAT
 70
     0
 62
     7
  6
Continuous
370
    -3
390
F
  0
LAYER
  5
74
330
2
100
AcDbSymbolTableRecord
100
AcDbLayerTableRecord
  2
OSA
 70
     0
 62
     7
  6
CENTER
370
    -3
390
F
  0
LAYER
  5
75
330
2
100
AcDbSymbolTableRecord
100
AcDbLayerTableRecord
  2
0_35
 70
     0
 62
     7
  6
Continuous
370
    35
390
F
  0
LAYER
  5
76
330
2
100
AcDbSymbolTableRecord
100
AcDbLayerTableRecord
  2
0_5
 70
     0
 62
     7
  6
Continuous
370
    50
390
F
  0
LAYER
  5
77
330
2
100
AcDbSymbolTableRecord
100
AcDbLayerTableRecord
  2
0_25
 70
     0
 62
     7
  6
Continuous
370
    25
390
F
  0
LAYER
  5
78
330
2
100
AcDbSymbolTableRecord
100
AcDbLayerTableRecord
  2
0_18
 70
     0
 62
     7
  6
Continuous
370
    -3
390
F
  0
LAYER
  5
79
330
2
100
AcDbSymbolTableRecord
100
AcDbLayerTableRecord
  2
SLD-0
 70
     0
 62
   179
  6
Continuous
370
    -3
390
F
  0
LAYER
  5
7A
330
2
100
AcDbSymbolTableRecord
100
AcDbLayerTableRecord
  2
KOTY
 70
     0
 62
     7
  6
Continuous
370
    -3
390
F
  0
LAYER
  5
7B
330
2
100
AcDbSymbolTableRecord
100
AcDbLayerTableRecord
  2
SILNA
 70
     0
 62
   179
  6
Continuous
370
    -3
390
F
  0
LAYER
  5
7C
330
2
100
AcDbSymbolTableRecord
100
AcDbLayerTableRecord
  2
0_18_1
 70
     0
 62
   179
  6
Continuous
370
    -3
390
F
  0
LAYER
  5
7D
330
2
100
AcDbSymbolTableRecord
100
AcDbLayerTableRecord
  2
0_35_1
 70
     0
 62
   179
  6
Continuous
370
    35
390
F
  0
LAYER
  5
7E
330
2
100
AcDbSymbolTableRecord
100
AcDbLayerTableRecord
  2
0_5_1
 70
     0
 62
   179
  6
Continuous
370
    50
390
F
  0
ENDTAB
  0
TABLE
  2
STYLE
  5
3
330
0
100
AcDbSymbolTable
 70
     1
  0
STYLE
  5
11
330
3
100
AcDbSymbolTableRecord
100
AcDbTextStyleTableRecord
  2
Standard
 70
     0
 40
0.0
 41
1.0
 50
0.0
 71
     0
 42
2.0
  3
txt
  4

  0
ENDTAB
  0
TABLE
  2
VIEW
  5
6
330
0
100
AcDbSymbolTable
 70
     0
  0
ENDTAB
  0
TABLE
  2
UCS
  5
7
330
0
100
AcDbSymbolTable
 70
     0
  0
ENDTAB
  0
TABLE
  2
APPID
  5
9
330
0
100
AcDbSymbolTable
 70
     1
  0
APPID
  5
12
330
9
100
AcDbSymbolTableRecord
100
AcDbRegAppTableRecord
  2
ACAD
 70
     0
  0
ENDTAB
  0
TABLE
  2
DIMSTYLE
  5
A
330
0
100
AcDbSymbolTable
 70
     1
100
AcDbDimStyleTable
  0
DIMSTYLE
105
27
330
A
100
AcDbSymbolTableRecord
100
AcDbDimStyleTableRecord
  2
ISO-25
 70
     0
 41
2.5
 42
0.625
 43
3.75
 44
1.25
 73
     0
 74
     0
 77
     1
 78
     8
140
2.5
141
2.5
143
0.0393700787
147
0.625
171
     3
172
     1
178
     0
271
     2
272
     2
274
     3
278
    44
283
     0
284
     8
340
11
  0
ENDTAB
  0
TABLE
  2
BLOCK_RECORD
  5
1
330
0
100
AcDbSymbolTable
 70
     1
  0
BLOCK_RECORD
  5
1F
330
1
100
AcDbSymbolTableRecord
100
AcDbBlockTableRecord
  2
*Model_Space
340
22
  0
BLOCK_RECORD
  5
1B
330
1
100
AcDbSymbolTableRecord
100
AcDbBlockTableRecord
  2
*Paper_Space
340
1E
  0
BLOCK_RECORD
  5
23
330
1
100
AcDbSymbolTableRecord
100
AcDbBlockTableRecord
  2
*Paper_Space0
340
26
  0
ENDTAB
  0
ENDSEC
  0
SECTION
  2
BLOCKS
  0
BLOCK
  5
20
330
1F
100
AcDbEntity
  8
0
100
AcDbBlockBegin
  2
*Model_Space
 70
     0
 10
0.0
 20
0.0
 30
0.0
  3
*Model_Space
  1

  0
ENDBLK
  5
21
330
1F
100
AcDbEntity
  8
0
100
AcDbBlockEnd
  0
BLOCK
  5
1C
330
1B
100
AcDbEntity
 67
     1
  8
0
100
AcDbBlockBegin
  2
*Paper_Space
 70
     0
 10
0.0
 20
0.0
 30
0.0
  3
*Paper_Space
  1

  0
ENDBLK
  5
1D
330
1B
100
AcDbEntity
 67
     1
  8
0
100
AcDbBlockEnd
  0
BLOCK
  5
24
330
23
100
AcDbEntity
  8
0
100
AcDbBlockBegin
  2
*Paper_Space0
 70
     0
 10
0.0
 20
0.0
 30
0.0
  3
*Paper_Space0
  1

  0
ENDBLK
  5
25
330
23
100
AcDbEntity
  8
0
100
AcDbBlockEnd
  0
ENDSEC
  0
SECTION
  2
ENTITIES
  0
LINE
  5
7F
330
1F
100
AcDbEntity
  8
0
  6
Continuous
 62
     7
370
    25
100
AcDbLine
 10
7840.1265452858
 20
5051.1694545927
 30
0.0
 11
7840.1265452858
 21
5051.5494545927
 31
0.0
  0
LINE
  5
80
330
1F
100
AcDbEntity
  8
0
  6
Continuous
 62
     7
370
    25
100
AcDbLine
 10
7832.5265452858
 20
5051.5494545927
 30
0.0
 11
7832.5265452858
 21
5051.1694545927
 31
0.0
  0
ARC
  5
81
330
1F
100
AcDbEntity
  8
0
  6
Continuous
 62
     7
370
    25
100
AcDbCircle
 10
7836.3265452858
 20
5053.234729318
 30
0.0
 40
4.324969328314234
100
AcDbArc
 50
296.059831153
 51
331.4762140417
  0
ARC
  5
82
330
1F
100
AcDbEntity
  8
0
  6
Continuous
 62
     7
370
    25
100
AcDbCircle
 10
7836.3265452858
 20
5053.234729318
 30
0.0
 40
4.324969328314634
100
AcDbArc
 50
208.5237859583
 51
243.940168847
  0
ARC
  5
83
330
1F
100
AcDbEntity
  8
0
  6
Continuous
 62
     7
370
    25
100
AcDbCircle
 10
7977.8265452858
 20
5053.234729318
 30
0.0
 40
4.324969328314634
100
AcDbArc
 50
296.059831153
 51
331.4762140417
  0
ARC
  5
84
330
1F
100
AcDbEntity
  8
0
  6
Continuous
 62
     7
370
    25
100
AcDbCircle
 10
7977.8265452858
 20
5053.234729318
 30
0.0
 40
4.324969328314602
100
AcDbArc
 50
208.5237859583
 51
243.940168847
  0
LINE
  5
85
330
1F
100
AcDbEntity
  8
0
  6
Continuous
 62
     7
370
    25
100
AcDbLine
 10
7981.6265452858
 20
5051.1694545927
 30
0.0
 11
7981.6265452858
 21
5051.5494545927
 31
0.0
  0
LINE
  5
86
330
1F
100
AcDbEntity
  8
0
  6
Continuous
 62
     7
370
    25
100
AcDbLine
 10
7974.0265452858
 20
5051.5494545927
 30
0.0
 11
7974.0265452858
 21
5051.1694545927
 31
0.0
  0
LINE
  5
87
330
1F
100
AcDbEntity
  8
0
  6
Continuous
 62
     7
370
    25
100
AcDbLine
 10
8123.1265452858
 20
5051.354782053
 30
0.0
 11
8123.1265452858
 21
5051.5494545927
 31
0.0
  0
LINE
  5
88
330
1F
100
AcDbEntity
  8
0
  6
Continuous
 62
     7
370
    25
100
AcDbLine
 10
8115.5265452858
 20
5051.5494545927
 30
0.0
 11
8115.5265452858
 21
5051.354782053
 31
0.0
  0
ARC
  5
89
330
1F
100
AcDbEntity
  8
0
  6
Continuous
 62
     7
370
    25
100
AcDbCircle
 10
8119.3265452858
 20
5053.4200567783
 30
0.0
 40
4.324969328313834
100
AcDbArc
 50
296.059831153
 51
331.4762140417
  0
ARC
  5
8A
330
1F
100
AcDbEntity
  8
0
  6
Continuous
 62
     7
370
    25
100
AcDbCircle
 10
8119.3265452858
 20
5053.4200567783
 30
0.0
 40
4.324969328316635
100
AcDbArc
 50
208.5237859583
 51
243.940168847
  0
LINE
  5
8B
330
1F
100
AcDbEntity
  8
0
  6
Continuous
 62
     7
370
    25
100
AcDbLine
 10
7848.3265452858
 20
5051.5494545927
 30
0.0
 11
7848.3265452858
 21
5052.5494545927
 31
0.0
  0
LINE
  5
8C
330
1F
100
AcDbEntity
  8
0
  6
Continuous
 62
     7
370
    25
100
AcDbLine
 10
7831.3265452858
 20
5051.5494545927
 30
0.0
 11
7831.3265452858
 21
5052.5494545927
 31
0.0
  0
LINE
  5
8D
330
1F
100
AcDbEntity
  8
0
  6
Continuous
 62
     7
370
    25
100
AcDbLine
 10
7831.3265452858
 20
5051.5494545927
 30
0.0
 11
7848.3265452858
 21
5051.5494545927
 31
0.0
  0
LINE
  5
8E
330
1F
100
AcDbEntity
  8
0
  6
Continuous
 62
     7
370
    25
100
AcDbLine
 10
8107.3265452858
 20
5051.5494545927
 30
0.0
 11
8107.3265452858
 21
5052.5494545927
 31
0.0
  0
LINE
  5
8F
330
1F
100
AcDbEntity
  8
0
  6
Continuous
 62
     7
370
    25
100
AcDbLine
 10
7848.3265452858
 20
5051.5494545927
 30
0.0
 11
8107.3265452858
 21
5051.5494545927
 31
0.0
  0
LINE
  5
90
330
1F
100
AcDbEntity
  8
0
  6
Continuous
 62
     7
370
    25
100
AcDbLine
 10
8124.3265452858
 20
5051.5494545927
 30
0.0
 11
8124.3265452858
 21
5052.5494545927
 31
0.0
  0
LINE
  5
91
330
1F
100
AcDbEntity
  8
0
  6
Continuous
 62
     7
370
    25
100
AcDbLine
 10
8107.3265452858
 20
5051.5494545927
 30
0.0
 11
8124.3265452858
 21
5051.5494545927
 31
0.0
  0
LINE
  5
92
330
1F
100
AcDbEntity
  8
0
  6
Continuous
 62
     7
370
    25
100
AcDbLine
 10
7866.7716144909
 20
5062.5494545927
 30
0.0
 11
7877.4941490935
 21
5067.5494545927
 31
0.0
  0
LINE
  5
93
330
1F
100
AcDbEntity
  8
0
  6
Continuous
 62
     7
370
    25
100
AcDbLine
 10
7877.4941490935
 20
5067.5494545927
 30
0.0
 11
8078.1589414782
 21
5067.5494545927
 31
0.0
  0
LINE
  5
94
330
1F
100
AcDbEntity
  8
0
  6
Continuous
 62
     7
370
    25
100
AcDbLine
 10
8078.1589414782
 20
5067.5494545927
 30
0.0
 11
8088.8814760807
 21
5062.5494545927
 31
0.0
  0
LINE
  5
95
330
1F
100
AcDbEntity
  8
0
  6
Continuous
 62
     7
370
    25
100
AcDbLine
 10
7845.3265452858
 20
5067.5494545927
 30
0.0
 11
7844.3265452858
 21
5067.5494545927
 31
0.0
  0
LINE
  5
96
330
1F
100
AcDbEntity
  8
0
  6
Continuous
 62
     7
370
    25
100
AcDbLine
 10
7844.3265452858
 20
5067.5494545927
 30
0.0
 11
7844.3265452858
 21
5062.5494545927
 31
0.0
  0
LINE
  5
97
330
1F
100
AcDbEntity
  8
0
  6
Continuous
 62
     7
370
    25
100
AcDbLine
 10
8110.3265452858
 20
5067.5494545927
 30
0.0
 11
8111.3265452858
 21
5067.5494545927
 31
0.0
  0
LINE
  5
98
330
1F
100
AcDbEntity
  8
0
  6
Continuous
 62
     7
370
    25
100
AcDbLine
 10
8111.3265452858
 20
5062.5494545927
 30
0.0
 11
8111.3265452858
 21
5067.5494545927
 31
0.0
  0
LINE
  5
99
330
1F
100
AcDbEntity
  8
0
  6
Continuous
 62
     7
370
    25
100
AcDbLine
 10
7847.3265452858
 20
5051.5494545927
 30
0.0
 11
7847.3265452858
 21
5050.2265789372
 31
0.0
  0
LINE
  5
9A
330
1F
100
AcDbEntity
  8
0
  6
Continuous
 62
     7
370
    25
100
AcDbLine
 10
8108.3265452858
 20
5051.5494545927
 30
0.0
 11
8108.3265452858
 21
5050.2265789372
 31
0.0
  0
LINE
  5
9B
330
1F
100
AcDbEntity
  8
0
  6
Continuous
 62
     7
370
    25
100
AcDbLine
 10
8108.3265452858
 20
5070.796501791
 30
0.0
 11
8108.3265452858
 21
5062.5494545927
 31
0.0
  0
LINE
  5
9C
330
1F
100
AcDbEntity
  8
0
  6
Continuous
 62
     7
370
    25
100
AcDbLine
 10
7847.3265452858
 20
5070.796501791
 30
0.0
 11
7847.3265452858
 21
5062.5494545927
 31
0.0
  0
LINE
  5
9D
330
1F
100
AcDbEntity
  8
0
  6
Continuous
 62
     7
370
    25
100
AcDbLine
 10
7847.3265452858
 20
5070.796501791
 30
0.0
 11
8108.3265452858
 21
5070.796501791
 31
0.0
  0
LINE
  5
9E
330
1F
100
AcDbEntity
  8
0
  6
Continuous
 62
     7
370
    25
100
AcDbLine
 10
7950.3265452858
 20
5002.9528366542
 30
0.0
 11
8005.3265452858
 21
5002.9528366542
 31
0.0
  0
SPLINE
  5
9F
330
1F
100
AcDbEntity
  8
0
  6
Continuous
 62
     7
370
    25
100
AcDbSpline
210
0.0
220
0.0
230
1.0
 70
     8
 71
     3
 72
    10
 73
     6
 74
     0
 42
0.00000001
 43
0.00000001
 40
0.0
 40
0.0
 40
0.0
 40
0.0
 40
0.4972358169033637
 40
0.7482778879054575
 40
1.0
 40
1.0
 40
1.0
 40
1.0
 10
8005.326545285808
 20
5002.952836654203
 30
0.0
 10
8005.664106668915
 20
5002.95450592889
 30
0.0
 10
8006.172094448965
 20
5002.9570179791
 30
0.0
 10
8006.845687465318
 20
5002.972127272051
 30
0.0
 10
8007.180693124107
 20
5002.9832938482
 30
0.0
 10
8007.348422518582
 20
5002.988884688256
 30
0.0
  0
ELLIPSE
  5
A0
330
1F
100
AcDbEntity
  8
0
  6
Continuous
 62
     7
370
    25
100
AcDbEllipse
 10
7885.2542823989
 20
5146.796501791
 30
0.0
 11
707.1874999999991
 21
0.0
 31
0.0
210
0.0
220
0.0
230
1.0
 40
0.2064516129
 41
4.885905861895877
 42
4.998513593760553
  0
SPLINE
  5
A1
330
1F
100
AcDbEntity
  8
0
  6
Continuous
 62
     7
370
    25
100
AcDbSpline
210
0.0
220
0.0
230
1.0
 70
     8
 71
     3
 72
    12
 73
     8
 74
     0
 42
0.00000001
 43
0.00000001
 40
0.0
 40
0.0
 40
0.0
 40
0.0
 40
0.1425725930093861
 40
0.3746007475531298
 40
0.6078488320926129
 40
0.8510515117926057
 40
1.0
 40
1.0
 40
1.0
 40
1.0
 10
8084.848422518581
 20
5006.732153336979
 30
0.0
 10
8085.502133345281
 20
5006.784300225107
 30
0.0
 10
8087.219718465932
 20
5006.921312976739
 30
0.0
 10
8089.657101171857
 20
5007.40906681264
 30
0.0
 10
8091.714003317666
 20
5008.237755492645
 30
0.0
 10
8092.724473407838
 20
5009.167498455982
 30
0.0
 10
8092.797336743518
 20
5009.813716887564
 30
0.0
 10
8092.825011998835
 20
5010.059166260949
 30
0.0
  0
SPLINE
  5
A2
330
1F
100
AcDbEntity
  8
0
  6
Continuous
 62
     7
370
    25
100
AcDbSpline
210
0.0
220
0.0
230
1.0
 70
     8
 71
     3
 72
    15
 73
    11
 74
     0
 42
0.00000001
 43
0.00000001
 40
0.0
 40
0.0
 40
0.0
 40
0.0
 40
0.1379871802453477
 40
0.272531732258444
 40
0.4070574948360993
 40
0.5408737677250854
 40
0.6746256144862385
 40
0.8007033452948968
 40
0.9267097786777587
 40
1.0
 40
1.0
 40
1.0
 40
1.0
 10
8092.824995178034
 20
5010.059166353893
 30
0.0
 10
8092.802440719087
 20
5010.296692834973
 30
0.0
 10
8092.757894510113
 20
5010.765819772934
 30
0.0
 10
8092.263951745835
 20
5011.479460752617
 30
0.0
 10
8091.490145020657
 20
5012.166416183608
 30
0.0
 10
8090.408781366431
 20
5012.808647566489
 30
0.0
 10
8089.088176679875
 20
5013.369282584767
 30
0.0
 10
8087.560858435692
 20
5013.818685961757
 30
0.0
 10
8086.127409700035
 20
5014.106076557798
 30
0.0
 10
8085.192302807183
 20
5014.210128055236
 30
0.0
 10
8084.848422518581
 20
5014.248392406876
 30
0.0
  0
ELLIPSE
  5
A3
330
1F
100
AcDbEntity
  8
0
  6
Continuous
 62
     7
370
    25
100
AcDbEllipse
 10
8379.3167823989
 20
5146.796501791
 30
0.0
 11
702.3437500000018
 21
0.0
 31
0.0
210
0.0
220
0.0
230
1.0
 40
0.2078754171
 41
4.154248110820757
 42
4.279753079042063
  0
SPLINE
  5
A4
330
1F
100
AcDbEntity
  8
0
  6
Continuous
 62
     7
370
    25
100
AcDbSpline
210
0.0
220
0.0
230
1.0
 70
     8
 71
     3
 72
    10
 73
     6
 74
     0
 42
0.00000001
 43
0.00000001
 40
0.0
 40
0.0
 40
0.0
 40
0.0
 40
0.4962702341678212
 40
0.7476661589265233
 40
0.9999999999999999
 40
0.9999999999999999
 40
0.9999999999999999
 40
0.9999999999999999
 10
8007.348422518582
 20
5022.953287954561
 30
0.0
 10
8007.017677725086
 20
5022.990163613493
 30
0.0
 10
8006.519387333458
 20
5023.045719398169
 30
0.0
 10
8005.840876500835
 20
5023.078337287934
 30
0.0
 10
8005.498201704509
 20
5023.081691117058
 30
0.0
 10
8005.326545285808
 20
5023.08337115394
 30
0.0
  0
LINE
  5
A5
330
1F
100
AcDbEntity
  8
0
  6
Continuous
 62
     7
370
    25
100
AcDbLine
 10
8005.3265452858
 20
5023.0833711539
 30
0.0
 11
7950.3265452858
 21
5023.0833711539
 31
0.0
  0
SPLINE
  5
A6
330
1F
100
AcDbEntity
  8
0
  6
Continuous
 62
     7
370
    25
100
AcDbSpline
210
0.0
220
0.0
230
1.0
 70
     8
 71
     3
 72
    10
 73
     6
 74
     0
 42
0.00000001
 43
0.00000001
 40
0.0
 40
0.0
 40
0.0
 40
0.0
 40
0.4962388313352369
 40
0.7476612256770175
 40
1.0
 40
1.0
 40
1.0
 40
1.0
 10
7950.326545285807
 20
5023.08337115394
 30
0.0
 10
7949.988770314852
 20
5023.077287800598
 30
0.0
 10
7949.479859619355
 20
5023.068122279627
 30
0.0
 10
7948.806434603245
 20
5023.013395581719
 30
0.0
 10
7948.472126280548
 20
5022.973348113414
 30
0.0
 10
7948.304668053032
 20
5022.953287954561
 30
0.0
  0
ELLIPSE
  5
A7
330
1F
100
AcDbEntity
  8
0
  6
Continuous
 62
     7
370
    25
100
AcDbEllipse
 10
7576.3363081727
 20
5146.796501791
 30
0.0
 11
702.34375
 21
0.0
 31
0.0
210
0.0
220
0.0
230
1.0
 40
0.2078754171
 41
5.145024881727345
 42
5.270529849948666
  0
SPLINE
  5
A8
330
1F
100
AcDbEntity
  8
0
  6
Continuous
 62
     7
370
    25
100
AcDbSpline
210
0.0
220
0.0
230
1.0
 70
     8
 71
     3
 72
    12
 73
     8
 74
     0
 42
0.00000001
 43
0.00000001
 40
0.0
 40
0.0
 40
0.0
 40
0.0
 40
0.1385833944832544
 40
0.3658055305768881
 40
0.5965317616853341
 40
0.8486791563166549
 40
1.0
 40
1.0
 40
1.0
 40
1.0
 10
7870.804668053032
 20
5014.248392406876
 30
0.0
 10
7870.160012301763
 20
5014.167575340061
 30
0.0
 10
7868.458375247686
 20
5013.954250142508
 30
0.0
 10
7866.059846947905
 20
5013.23629160099
 30
0.0
 10
7863.98975603787
 20
5012.13163916009
 30
0.0
 10
7862.936894758332
 20
5011.012800725547
 30
0.0
 10
7862.857754578922
 20
5010.319159451468
 30
0.0
 10
7862.828073038766
 20
5010.059009152536
 30
0.0
  0
SPLINE
  5
A9
330
1F
100
AcDbEntity
  8
0
  6
Continuous
 62
     7
370
    25
100
AcDbSpline
210
0.0
220
0.0
230
1.0
 70
     8
 71
     3
 72
    13
 73
     9
 74
     0
 42
0.00000001
 43
0.00000001
 40
0.0
 40
0.0
 40
0.0
 40
0.0
 40
0.1422972964771249
 40
0.4016237985274693
 40
0.5304109259420776
 40
0.6591653500567854
 40
0.9019874955279048
 40
1.0
 40
1.0
 40
1.0
 40
1.0
 10
7862.828076638464
 20
5010.059009131873
 30
0.0
 10
7862.852910437774
 20
5009.824384056889
 30
0.0
 10
7862.923002035142
 20
5009.162171800031
 30
0.0
 10
7863.791870519099
 20
5008.37185903005
 30
0.0
 10
7865.164908981958
 20
5007.738867275956
 30
0.0
 10
7866.824884263207
 20
5007.22480774707
 30
0.0
 10
7868.785454709142
 20
5006.881553606741
 30
0.0
 10
7870.353695191737
 20
5006.765520522936
 30
0.0
 10
7870.804668053032
 20
5006.732153336979
 30
0.0
  0
ELLIPSE
  5
AA
330
1F
100
AcDbEntity
  8
0
  6
Continuous
 62
     7
370
    25
100
AcDbEllipse
 10
8070.3988081727
 20
5146.796501791
 30
0.0
 11
707.1875
 21
0.0
 31
0.0
210
0.0
220
0.0
230
1.0
 40
0.2064516129
 41
4.426264367008841
 42
4.538872098873511
  0
SPLINE
  5
AB
330
1F
100
AcDbEntity
  8
0
  6
Continuous
 62
     7
370
    25
100
AcDbSpline
210
0.0
220
0.0
230
1.0
 70
     8
 71
     3
 72
    10
 73
     6
 74
     0
 42
0.00000001
 43
0.00000001
 40
0.0
 40
0.0
 40
0.0
 40
0.0
 40
0.4972367521446286
 40
0.7482780346259484
 40
1.0
 40
1.0
 40
1.0
 40
1.0
 10
7948.304668053031
 20
5002.988884688256
 30
0.0
 10
7948.637049703149
 20
5002.978600195454
 30
0.0
 10
7949.137241788355
 20
5002.96312334257
 30
0.0
 10
7949.814566965722
 20
5002.954212096464
 30
0.0
 10
7950.155731879923
 20
5002.953295548589
 30
0.0
 10
7950.326545285807
 20
5002.952836654203
 30
0.0
  0
LINE
  5
AC
330
1F
100
AcDbEntity
  8
0
  6
Continuous
 62
     7
370
    25
100
AcDbLine
 10
7847.3265452858
 20
5000.8105842603
 30
0.0
 11
8108.3265452858
 21
5000.8105842603
 31
0.0
  0
LINE
  5
AD
330
1F
100
AcDbEntity
  8
0
  6
Continuous
 62
     7
370
    25
100
AcDbLine
 10
8108.3265452858
 20
5050.2265789372
 30
0.0
 11
8108.3265452858
 21
5000.8105842603
 31
0.0
  0
LINE
  5
AE
330
1F
100
AcDbEntity
  8
0
  6
Continuous
 62
     7
370
    25
100
AcDbLine
 10
7847.3265452858
 20
5050.2265789372
 30
0.0
 11
7847.3265452858
 21
5000.8105842603
 31
0.0
  0
LINE
  5
AF
330
1F
100
AcDbEntity
  8
0
  6
Continuous
 62
     7
370
    25
100
AcDbLine
 10
7870.804668053
 20
5006.732153337
 30
0.0
 11
7870.804668053
 21
5007.6914981894
 31
0.0
  0
SPLINE
  5
B0
330
1F
100
AcDbEntity
  8
0
  6
Continuous
 62
     7
370
    25
100
AcDbSpline
210
0.0
220
0.0
230
1.0
 70
     8
 71
     3
 72
    11
 73
     7
 74
     0
 42
0.00000001
 43
0.00000001
 40
0.0
 40
0.0
 40
0.0
 40
0.0
 40
0.2829651434953114
 40
0.5871659954656315
 40
0.8768807797305592
 40
1.0
 40
1.0
 40
1.0
 40
1.0
 10
7863.069571717261
 20
5010.217580606853
 30
0.0
 10
7863.363579034792
 20
5009.856546974217
 30
0.0
 10
7863.973658061271
 20
5009.107385188126
 30
0.0
 10
7866.277620951279
 20
5008.283872698998
 30
0.0
 10
7868.746520470441
 20
5007.843781854461
 30
0.0
 10
7870.331870215757
 20
5007.726480805859
 30
0.0
 10
7870.804668053032
 20
5007.691498189403
 30
0.0
  0
LINE
  5
B1
330
1F
100
AcDbEntity
  8
0
  6
Continuous
 62
     7
370
    25
100
AcDbLine
 10
8084.8484225186
 20
5006.732153337
 30
0.0
 11
8084.8484225186
 21
5007.6914981894
 31
0.0
  0
SPLINE
  5
B2
330
1F
100
AcDbEntity
  8
0
  6
Continuous
 62
     7
370
    25
100
AcDbSpline
210
0.0
220
0.0
230
1.0
 70
     8
 71
     3
 72
    11
 73
     7
 74
     0
 42
0.00000001
 43
0.00000001
 40
0.0
 40
0.0
 40
0.0
 40
0.0
 40
0.1691037962326211
 40
0.4475255810102864
 40
0.7271361869777956
 40
1.0
 40
1.0
 40
1.0
 40
1.0
 10
8084.848422518581
 20
5007.691498189403
 30
0.0
 10
8085.496540883983
 20
5007.742598799441
 30
0.0
 10
8087.211756949511
 20
5007.877834262552
 30
0.0
 10
8089.634652161408
 20
5008.363450784721
 30
0.0
 10
8091.735281327335
 20
5009.163035754358
 30
0.0
 10
8092.312630039498
 20
5009.867291179159
 30
0.0
 10
8092.597779117227
 20
5010.215118723652
 30
0.0
  0
LINE
  5
B3
330
1F
100
AcDbEntity
  8
0
  6
Continuous
 62
     7
370
    25
100
AcDbLine
 10
7948.304668053
 20
5002.9888846883
 30
0.0
 11
7948.304668053
 21
5003.973868367
 31
0.0
  0
ELLIPSE
  5
B4
330
1F
100
AcDbEntity
  8
0
  6
Continuous
 62
     7
370
    25
100
AcDbEllipse
 10
8070.3988081727
 20
5146.796501791
 30
0.0
 11
707.1875
 21
0.0
 31
0.0
210
0.0
220
0.0
230
1.0
 40
0.2050375608
 41
4.426264367008842
 42
4.538872098873511
  0
LINE
  5
B5
330
1F
100
AcDbEntity
  8
0
  6
Continuous
 62
     7
370
    25
100
AcDbLine
 10
8007.3484225186
 20
5002.9888846883
 30
0.0
 11
8007.3484225186
 21
5003.973868367
 31
0.0
  0
ELLIPSE
  5
B6
330
1F
100
AcDbEntity
  8
0
  6
Continuous
 62
     7
370
    25
100
AcDbEllipse
 10
7885.2542823989
 20
5146.796501791
 30
0.0
 11
707.1874999999991
 21
0.0
 31
0.0
210
0.0
220
0.0
230
1.0
 40
0.2050375608
 41
4.885905861895877
 42
4.998513593760553
  0
LINE
  5
B7
330
1F
100
AcDbEntity
  8
0
  6
Continuous
 62
     7
370
    25
100
AcDbLine
 10
8005.3265452858
 20
5002.9528366542
 30
0.0
 11
8005.3265452858
 21
5003.9380672373
 31
0.0
  0
SPLINE
  5
B8
330
1F
100
AcDbEntity
  8
0
  6
Continuous
 62
     7
370
    25
100
AcDbSpline
210
0.0
220
0.0
230
1.0
 70
     8
 71
     3
 72
    10
 73
     6
 74
     0
 42
0.00000001
 43
0.00000001
 40
0.0
 40
0.0
 40
0.0
 40
0.0
 40
0.4972730144326166
 40
0.7483009680818835
 40
1.0
 40
1.0
 40
1.0
 40
1.0
 10
8005.326545285808
 20
5003.938067237331
 30
0.0
 10
8005.664098766136
 20
5003.93972491857
 30
0.0
 10
8006.172052322391
 20
5003.942219412419
 30
0.0
 10
8006.845651036259
 20
5003.957224658964
 30
0.0
 10
8007.180682949103
 20
5003.968315529371
 30
0.0
 10
8007.348422518582
 20
5003.973868367042
 30
0.0
  0
LINE
  5
B9
330
1F
100
AcDbEntity
  8
0
  6
Continuous
 62
     7
370
    25
100
AcDbLine
 10
7950.3265452858
 20
5002.9528366542
 30
0.0
 11
7950.3265452858
 21
5003.9380672373
 31
0.0
  0
SPLINE
  5
BA
330
1F
100
AcDbEntity
  8
0
  6
Continuous
 62
     7
370
    25
100
AcDbSpline
210
0.0
220
0.0
230
1.0
 70
     8
 71
     3
 72
    10
 73
     6
 74
     0
 42
0.00000001
 43
0.00000001
 40
0.0
 40
0.0
 40
0.0
 40
0.0
 40
0.4972732371839771
 40
0.7483010031775775
 40
1.0
 40
1.0
 40
1.0
 40
1.0
 10
7948.304668053031
 20
5003.973868367042
 30
0.0
 10
7948.637111086643
 20
5003.963652867673
 30
0.0
 10
7949.13737419543
 20
5003.948280497203
 30
0.0
 10
7949.814654740127
 20
5003.939432814905
 30
0.0
 10
7950.155763290118
 20
5003.938522834852
 30
0.0
 10
7950.326545285807
 20
5003.938067237331
 30
0.0
  0
LINE
  5
BB
330
1F
100
AcDbEntity
  8
0
  6
Continuous
 62
     7
370
    25
100
AcDbLine
 10
7950.3265452858
 20
5003.9380672373
 30
0.0
 11
8005.3265452858
 21
5003.9380672373
 31
0.0
  0
LINE
  5
BC
330
1F
100
AcDbEntity
  8
0
  6
Continuous
 62
     7
370
    25
100
AcDbLine
 10
7931.1466877578
 20
5020.796501791
 30
0.0
 11
8024.5064028138
 21
5020.796501791
 31
0.0
  0
SPLINE
  5
BD
330
1F
100
AcDbEntity
  8
0
  6
Continuous
 62
     7
370
    25
100
AcDbSpline
210
0.0
220
0.0
230
1.0
 70
     8
 71
     3
 72
    13
 73
     9
 74
     0
 42
0.00000001
 43
0.00000001
 40
0.0
 40
0.0
 40
0.0
 40
0.0
 40
0.547150070697688
 40
0.7467121832896574
 40
0.8458409489840236
 40
0.9232216076703639
 40
0.9776291002480373
 40
1.0
 40
1.0
 40
1.0
 40
1.0
 10
7846.326545285807
 20
5047.463727743402
 30
0.0
 10
7846.359141007589
 20
5047.929194045938
 30
0.0
 10
7846.403625370985
 20
5048.564429930258
 30
0.0
 10
7846.716489447251
 20
5049.23139470819
 30
0.0
 10
7846.926016183432
 20
5049.48949480592
 30
0.0
 10
7847.096440733677
 20
5049.6130236755
 30
0.0
 10
7847.234378176871
 20
5049.658469118254
 30
0.0
 10
7847.305749765122
 20
5049.661647535412
 30
0.0
 10
7847.326545285808
 20
5049.662573629974
 30
0.0
  0
LINE
  5
BE
330
1F
100
AcDbEntity
  8
0
  6
Continuous
 62
     7
370
    25
100
AcDbLine
 10
7846.3265452858
 20
5047.4637277434
 30
0.0
 11
7845.3265452858
 21
5047.4637277434
 31
0.0
  0
SPLINE
  5
BF
330
1F
100
AcDbEntity
  8
0
  6
Continuous
 62
     7
370
    25
100
AcDbSpline
210
0.0
220
0.0
230
1.0
 70
     8
 71
     3
 72
    12
 73
     8
 74
     0
 42
0.00000001
 43
0.00000001
 40
0.0
 40
0.0
 40
0.0
 40
0.0
 40
0.3616160425571519
 40
0.5990010933661584
 40
0.769776213587156
 40
0.9014037397727872
 40
1.0
 40
1.0
 40
1.0
 40
1.0
 10
7845.326545285807
 20
5047.463727743402
 30
0.0
 10
7845.369325151039
 20
5047.813278713064
 30
0.0
 10
7845.440188119027
 20
5048.392294543044
 30
0.0
 10
7845.918477181879
 20
5049.068589230373
 30
0.0
 10
7846.418146353125
 20
5049.447120896365
 30
0.0
 10
7846.895345619487
 20
5049.634256756682
 30
0.0
 10
7847.197250630737
 20
5049.654082852613
 30
0.0
 10
7847.326545285808
 20
5049.662573629974
 30
0.0
  0
SPLINE
  5
C0
330
1F
100
AcDbEntity
  8
0
  6
Continuous
 62
     7
370
    25
100
AcDbSpline
210
0.0
220
0.0
230
1.0
 70
     8
 71
     3
 72
    12
 73
     8
 74
     0
 42
0.00000001
 43
0.00000001
 40
0.0
 40
0.0
 40
0.0
 40
0.0
 40
0.0551719279070602
 40
0.1234708404682049
 40
0.2363494701951293
 40
0.4713948389565745
 40
1.0
 40
1.0
 40
1.0
 40
1.0
 10
8108.326545285808
 20
5049.662573629974
 30
0.0
 10
8108.37799732602
 20
5049.657123945647
 30
0.0
 10
8108.493143323084
 20
5049.644927940729
 30
0.0
 10
8108.682575873273
 20
5049.531814464583
 30
0.0
 10
8108.930244477228
 20
5049.257161769852
 30
0.0
 10
8109.249689730274
 20
5048.559579831957
 30
0.0
 10
8109.295107046767
 20
5047.9119927995
 30
0.0
 10
8109.326545285807
 20
5047.463727743402
 30
0.0
  0
SPLINE
  5
C1
330
1F
100
AcDbEntity
  8
0
  6
Continuous
 62
     7
370
    25
100
AcDbSpline
210
0.0
220
0.0
230
1.0
 70
     8
 71
     3
 72
    12
 73
     8
 74
     0
 42
0.00000001
 43
0.00000001
 40
0.0
 40
0.0
 40
0.0
 40
0.0
 40
0.1319596580930415
 40
0.2500134172046688
 40
0.4372174565223288
 40
0.7099607592727517
 40
1.0
 40
1.0
 40
1.0
 40
1.0
 10
8108.326545285808
 20
5049.662573629974
 30
0.0
 10
8108.499994890428
 20
5049.647470328347
 30
0.0
 10
8108.828615993204
 20
5049.6188553099
 30
0.0
 10
8109.327719431753
 20
5049.390954769618
 30
0.0
 10
8109.835644256702
 20
5048.9658774637
 30
0.0
 10
8110.243043837142
 20
5048.284849468019
 30
0.0
 10
8110.298146976548
 20
5047.742985996373
 30
0.0
 10
8110.326545285807
 20
5047.463727743402
 30
0.0
  0
LINE
  5
C2
330
1F
100
AcDbEntity
  8
0
  6
Continuous
 62
     7
370
    25
100
AcDbLine
 10
8109.3265452858
 20
5047.4637277434
 30
0.0
 11
8110.3265452858
 21
5047.4637277434
 31
0.0
  0
LINE
  5
C3
330
1F
100
AcDbEntity
  8
0
  6
Continuous
 62
     7
370
    25
100
AcDbLine
 10
7885.3265452858
 20
5350.5743233723
 30
0.0
 11
7885.3265452858
 21
5070.796501791
 31
0.0
  0
LINE
  5
C4
330
1F
100
AcDbEntity
  8
0
  6
Continuous
 62
     7
370
    25
100
AcDbLine
 10
7847.3265452858
 20
5350.5743233723
 30
0.0
 11
7885.3265452858
 21
5350.5743233723
 31
0.0
  0
LINE
  5
C5
330
1F
100
AcDbEntity
  8
0
  6
Continuous
 62
     7
370
    25
100
AcDbLine
 10
7845.3265452858
 20
5350.5743233723
 30
0.0
 11
7845.3265452858
 21
5062.5494545927
 31
0.0
  0
LINE
  5
C6
330
1F
100
AcDbEntity
  8
0
  6
Continuous
 62
     7
370
    25
100
AcDbLine
 10
7845.3265452858
 20
5051.5494545927
 30
0.0
 11
7845.3265452858
 21
5047.4637277434
 31
0.0
  0
LINE
  5
C7
330
1F
100
AcDbEntity
  8
0
  6
Continuous
 62
     7
370
    25
100
AcDbLine
 10
7845.3265452858
 20
5350.5743233723
 30
0.0
 11
7847.3265452858
 21
5350.5743233723
 31
0.0
  0
LINE
  5
C8
330
1F
100
AcDbEntity
  8
0
  6
Continuous
 62
     7
370
    25
100
AcDbLine
 10
8070.3265452858
 20
5350.5743233723
 30
0.0
 11
8108.3265452858
 21
5350.5743233723
 31
0.0
  0
LINE
  5
C9
330
1F
100
AcDbEntity
  8
0
  6
Continuous
 62
     7
370
    25
100
AcDbLine
 10
8070.3265452858
 20
5350.5743233723
 30
0.0
 11
8070.3265452858
 21
5070.796501791
 31
0.0
  0
LINE
  5
CA
330
1F
100
AcDbEntity
  8
0
  6
Continuous
 62
     7
370
    25
100
AcDbLine
 10
8108.3265452858
 20
5350.5743233723
 30
0.0
 11
8110.3265452858
 21
5350.5743233723
 31
0.0
  0
LINE
  5
CB
330
1F
100
AcDbEntity
  8
0
  6
Continuous
 62
     7
370
    25
100
AcDbLine
 10
8110.3265452858
 20
5350.5743233723
 30
0.0
 11
8110.3265452858
 21
5062.5494545927
 31
0.0
  0
LINE
  5
CC
330
1F
100
AcDbEntity
  8
0
  6
Continuous
 62
     7
370
    25
100
AcDbLine
 10
8110.3265452858
 20
5051.5494545927
 30
0.0
 11
8110.3265452858
 21
5047.4637277434
 31
0.0
  0
LINE
  5
CD
330
1F
100
AcDbEntity
  8
0
  6
Continuous
 62
     7
370
    25
100
AcDbLine
 10
7845.3265452858
 20
5000.8105842603
 30
0.0
 11
7845.3265452858
 21
5047.4637277434
 31
0.0
  0
LINE
  5
CE
330
1F
100
AcDbEntity
  8
0
  6
Continuous
 62
     7
370
    25
100
AcDbLine
 10
7846.3265452858
 20
5000.8105842603
 30
0.0
 11
7845.3265452858
 21
5000.8105842603
 31
0.0
  0
LINE
  5
CF
330
1F
100
AcDbEntity
  8
0
  6
Continuous
 62
     7
370
    25
100
AcDbLine
 10
7846.3265452858
 20
5000.8105842603
 30
0.0
 11
7846.3265452858
 21
5047.4637277434
 31
0.0
  0
LINE
  5
D0
330
1F
100
AcDbEntity
  8
0
  6
Continuous
 62
     7
370
    25
100
AcDbLine
 10
8110.3265452858
 20
5047.4637277434
 30
0.0
 11
8110.3265452858
 21
5000.8105842603
 31
0.0
  0
LINE
  5
D1
330
1F
100
AcDbEntity
  8
0
  6
Continuous
 62
     7
370
    25
100
AcDbLine
 10
8109.3265452858
 20
5000.8105842603
 30
0.0
 11
8110.3265452858
 21
5000.8105842603
 31
0.0
  0
LINE
  5
D2
330
1F
100
AcDbEntity
  8
0
  6
Continuous
 62
     7
370
    25
100
AcDbLine
 10
8109.3265452858
 20
5047.4637277434
 30
0.0
 11
8109.3265452858
 21
5000.8105842603
 31
0.0
  0
LINE
  5
D3
330
1F
100
AcDbEntity
  8
0
  6
Continuous
 62
     7
370
    25
100
AcDbLine
 10
8109.1925706896
 20
5002.8103913498
 30
0.0
 11
8108.3265452858
 21
5002.8103913498
 31
0.0
  0
LINE
  5
D4
330
1F
100
AcDbEntity
  8
0
  6
Continuous
 62
     7
370
    25
100
AcDbLine
 10
7847.3265452858
 20
5002.8103913498
 30
0.0
 11
7846.460519882
 21
5002.8103913498
 31
0.0
  0
LINE
  5
D5
330
1F
100
AcDbEntity
  8
0
  6
Continuous
 62
     7
370
    25
100
AcDbLine
 10
8070.3265452858
 20
5350.5743233723
 30
0.0
 11
7885.3265452858
 21
5350.5743233723
 31
0.0
  0
LINE
  5
D6
330
1F
100
AcDbEntity
  8
0
  6
Continuous
 62
     7
370
    25
100
AcDbLine
 10
7840.1265452858
 20
5051.1694545927
 30
0.0
 11
7832.5265452858
 21
5051.1694545927
 31
0.0
  0
LINE
  5
D7
330
1F
100
AcDbEntity
  8
0
  6
Continuous
 62
     7
370
    25
100
AcDbLine
 10
7838.2265452858
 20
5049.3494545927
 30
0.0
 11
7834.4265452858
 21
5049.3494545927
 31
0.0
  0
LINE
  5
D8
330
1F
100
AcDbEntity
  8
0
  6
Continuous
 62
     7
370
    25
100
AcDbLine
 10
7979.7265452858
 20
5049.3494545927
 30
0.0
 11
7975.9265452858
 21
5049.3494545927
 31
0.0
  0
LINE
  5
D9
330
1F
100
AcDbEntity
  8
0
  6
Continuous
 62
     7
370
    25
100
AcDbLine
 10
7981.6265452858
 20
5051.1694545927
 30
0.0
 11
7974.0265452858
 21
5051.1694545927
 31
0.0
  0
LINE
  5
DA
330
1F
100
AcDbEntity
  8
0
  6
Continuous
 62
     7
370
    25
100
AcDbLine
 10
8123.1265452858
 20
5051.354782053
 30
0.0
 11
8115.5265452858
 21
5051.354782053
 31
0.0
  0
LINE
  5
DB
330
1F
100
AcDbEntity
  8
0
  6
Continuous
 62
     7
370
    25
100
AcDbLine
 10
8121.2265452858
 20
5049.534782053
 30
0.0
 11
8117.4265452858
 21
5049.534782053
 31
0.0
  0
LINE
  5
DC
330
1F
100
AcDbEntity
  8
0
  6
Continuous
 62
     7
370
    25
100
AcDbLine
 10
8125.8265452858
 20
5054.5494545927
 30
0.0
 11
8125.8265452858
 21
5052.5494545927
 31
0.0
  0
LINE
  5
DD
330
1F
100
AcDbEntity
  8
0
  6
Continuous
 62
     7
370
    25
100
AcDbLine
 10
8125.8265452858
 20
5052.5494545927
 30
0.0
 11
7829.8265452858
 21
5052.5494545927
 31
0.0
  0
LINE
  5
DE
330
1F
100
AcDbEntity
  8
0
  6
Continuous
 62
     7
370
    25
100
AcDbLine
 10
7829.8265452858
 20
5054.5494545927
 30
0.0
 11
7829.8265452858
 21
5052.5494545927
 31
0.0
  0
LINE
  5
DF
330
1F
100
AcDbEntity
  8
0
  6
Continuous
 62
     7
370
    25
100
AcDbLine
 10
8125.8265452858
 20
5054.5494545927
 30
0.0
 11
7829.8265452858
 21
5054.5494545927
 31
0.0
  0
LINE
  5
E0
330
1F
100
AcDbEntity
  8
0
  6
Continuous
 62
     7
370
    25
100
AcDbLine
 10
8125.8265452858
 20
5062.5494545927
 30
0.0
 11
8125.8265452858
 21
5054.5494545927
 31
0.0
  0
LINE
  5
E1
330
1F
100
AcDbEntity
  8
0
  6
Continuous
 62
     7
370
    25
100
AcDbLine
 10
7829.8265452858
 20
5062.5494545927
 30
0.0
 11
7829.8265452858
 21
5054.5494545927
 31
0.0
  0
LINE
  5
E2
330
1F
100
AcDbEntity
  8
0
  6
Continuous
 62
     7
370
    25
100
AcDbLine
 10
8125.8265452858
 20
5062.5494545927
 30
0.0
 11
7829.8265452858
 21
5062.5494545927
 31
0.0
  0
ARC
  5
E3
330
1F
100
AcDbEntity
  8
0
  6
Continuous
 62
     7
370
    25
100
AcDbCircle
 10
7829.8265452858
 20
5054.5494545927
 30
0.0
 40
2.000000000000909
100
AcDbArc
 50
180.0
 51
270.0
  0
LINE
  5
E4
330
1F
100
AcDbEntity
  8
0
  6
Continuous
 62
     7
370
    25
100
AcDbLine
 10
7828.8265452858
 20
5054.5494545927
 30
0.0
 11
7827.8265452858
 21
5054.5494545927
 31
0.0
  0
ARC
  5
E5
330
1F
100
AcDbEntity
  8
0
  6
Continuous
 62
     7
370
    25
100
AcDbCircle
 10
7829.8265452858
 20
5054.5494545927
 30
0.0
 40
1.000000000000909
100
AcDbArc
 50
180.0
 51
270.0
  0
LINE
  5
E6
330
1F
100
AcDbEntity
  8
0
  6
Continuous
 62
     7
370
    25
100
AcDbLine
 10
7827.8265452858
 20
5102.5494545927
 30
0.0
 11
7828.8265452858
 21
5102.5494545927
 31
0.0
  0
LINE
  5
E7
330
1F
100
AcDbEntity
  8
0
  6
Continuous
 62
     7
370
    25
100
AcDbLine
 10
7828.8265452858
 20
5102.5494545927
 30
0.0
 11
7828.8265452858
 21
5092.5494545927
 31
0.0
  0
LINE
  5
E8
330
1F
100
AcDbEntity
  8
0
  6
Continuous
 62
     7
370
    25
100
AcDbLine
 10
7828.8265452858
 20
5092.5494545927
 30
0.0
 11
7827.8265452858
 21
5092.5494545927
 31
0.0
  0
LINE
  5
E9
330
1F
100
AcDbEntity
  8
0
  6
Continuous
 62
     7
370
    25
100
AcDbLine
 10
7827.8265452858
 20
5092.5494545927
 30
0.0
 11
7827.8265452858
 21
5102.5494545927
 31
0.0
  0
LINE
  5
EA
330
1F
100
AcDbEntity
  8
0
  6
Continuous
 62
     7
370
    25
100
AcDbLine
 10
7828.8265452858
 20
5092.5494545927
 30
0.0
 11
7828.8265452858
 21
5054.5494545927
 31
0.0
  0
LINE
  5
EB
330
1F
100
AcDbEntity
  8
0
  6
Continuous
 62
     7
370
    25
100
AcDbLine
 10
7827.8265452858
 20
5092.5494545927
 30
0.0
 11
7827.8265452858
 21
5054.5494545927
 31
0.0
  0
ARC
  5
EC
330
1F
100
AcDbEntity
  8
0
  6
Continuous
 62
     7
370
    25
100
AcDbCircle
 10
8125.8265452858
 20
5054.5494545927
 30
0.0
 40
2.0
100
AcDbArc
 50
270.0
 51
0.0
  0
ARC
  5
ED
330
1F
100
AcDbEntity
  8
0
  6
Continuous
 62
     7
370
    25
100
AcDbCircle
 10
8125.8265452858
 20
5054.5494545927
 30
0.0
 40
0.9999999999990905
100
AcDbArc
 50
270.0
 51
0.0
  0
LINE
  5
EE
330
1F
100
AcDbEntity
  8
0
  6
Continuous
 62
     7
370
    25
100
AcDbLine
 10
8126.8265452858
 20
5054.5494545927
 30
0.0
 11
8127.8265452858
 21
5054.5494545927
 31
0.0
  0
LINE
  5
EF
330
1F
100
AcDbEntity
  8
0
  6
Continuous
 62
     7
370
    25
100
AcDbLine
 10
8127.8265452858
 20
5092.5494545927
 30
0.0
 11
8126.8265452858
 21
5092.5494545927
 31
0.0
  0
LINE
  5
F0
330
1F
100
AcDbEntity
  8
0
  6
Continuous
 62
     7
370
    25
100
AcDbLine
 10
8127.8265452858
 20
5054.5494545927
 30
0.0
 11
8127.8265452858
 21
5092.5494545927
 31
0.0
  0
LINE
  5
F1
330
1F
100
AcDbEntity
  8
0
  6
Continuous
 62
     7
370
    25
100
AcDbLine
 10
8126.8265452858
 20
5054.5494545927
 30
0.0
 11
8126.8265452858
 21
5092.5494545927
 31
0.0
  0
LINE
  5
F2
330
1F
100
AcDbEntity
  8
0
  6
Continuous
 62
     7
370
    25
100
AcDbLine
 10
8126.8265452858
 20
5102.5494545927
 30
0.0
 11
8127.8265452858
 21
5102.5494545927
 31
0.0
  0
LINE
  5
F3
330
1F
100
AcDbEntity
  8
0
  6
Continuous
 62
     7
370
    25
100
AcDbLine
 10
8127.8265452858
 20
5102.5494545927
 30
0.0
 11
8127.8265452858
 21
5092.5494545927
 31
0.0
  0
LINE
  5
F4
330
1F
100
AcDbEntity
  8
0
  6
Continuous
 62
     7
370
    25
100
AcDbLine
 10
8126.8265452858
 20
5092.5494545927
 30
0.0
 11
8126.8265452858
 21
5102.5494545927
 31
0.0
  0
LINE
  5
F5
330
1F
100
AcDbEntity
  8
0
  6
Continuous
 62
     7
370
    25
100
AcDbLine
 10
7827.8265452858
 20
5112.5494545927
 30
0.0
 11
7828.8265452858
 21
5112.5494545927
 31
0.0
  0
LINE
  5
F6
330
1F
100
AcDbEntity
  8
0
  6
Continuous
 62
     7
370
    25
100
AcDbLine
 10
7828.8265452858
 20
5112.5494545927
 30
0.0
 11
7828.8265452858
 21
5102.5494545927
 31
0.0
  0
LINE
  5
F7
330
1F
100
AcDbEntity
  8
0
  6
Continuous
 62
     7
370
    25
100
AcDbLine
 10
7827.8265452858
 20
5102.5494545927
 30
0.0
 11
7827.8265452858
 21
5112.5494545927
 31
0.0
  0
LINE
  5
F8
330
1F
100
AcDbEntity
  8
0
  6
Continuous
 62
     7
370
    25
100
AcDbLine
 10
8126.8265452858
 20
5112.5494545927
 30
0.0
 11
8127.8265452858
 21
5112.5494545927
 31
0.0
  0
LINE
  5
F9
330
1F
100
AcDbEntity
  8
0
  6
Continuous
 62
     7
370
    25
100
AcDbLine
 10
8127.8265452858
 20
5112.5494545927
 30
0.0
 11
8127.8265452858
 21
5102.5494545927
 31
0.0
  0
LINE
  5
FA
330
1F
100
AcDbEntity
  8
0
  6
Continuous
 62
     7
370
    25
100
AcDbLine
 10
8126.8265452858
 20
5102.5494545927
 30
0.0
 11
8126.8265452858
 21
5112.5494545927
 31
0.0
  0
LINE
  5
FB
330
1F
100
AcDbEntity
  8
0
  6
Continuous
 62
     7
370
    25
100
AcDbLine
 10
7827.8265452858
 20
5219.0494545927
 30
0.0
 11
7828.8265452858
 21
5219.0494545927
 31
0.0
  0
LINE
  5
FC
330
1F
100
AcDbEntity
  8
0
  6
Continuous
 62
     7
370
    25
100
AcDbLine
 10
7828.8265452858
 20
5209.0494545927
 30
0.0
 11
7827.8265452858
 21
5209.0494545927
 31
0.0
  0
LINE
  5
FD
330
1F
100
AcDbEntity
  8
0
  6
Continuous
 62
     7
370
    25
100
AcDbLine
 10
7828.8265452858
 20
5219.0494545927
 30
0.0
 11
7828.8265452858
 21
5209.0494545927
 31
0.0
  0
LINE
  5
FE
330
1F
100
AcDbEntity
  8
0
  6
Continuous
 62
     7
370
    25
100
AcDbLine
 10
7827.8265452858
 20
5209.0494545927
 30
0.0
 11
7827.8265452858
 21
5219.0494545927
 31
0.0
  0
LINE
  5
FF
330
1F
100
AcDbEntity
  8
0
  6
Continuous
 62
     7
370
    25
100
AcDbLine
 10
7828.8265452858
 20
5209.0494545927
 30
0.0
 11
7828.8265452858
 21
5112.5494545927
 31
0.0
  0
LINE
  5
100
330
1F
100
AcDbEntity
  8
0
  6
Continuous
 62
     7
370
    25
100
AcDbLine
 10
7827.8265452858
 20
5209.0494545927
 30
0.0
 11
7827.8265452858
 21
5112.5494545927
 31
0.0
  0
LINE
  5
101
330
1F
100
AcDbEntity
  8
0
  6
Continuous
 62
     7
370
    25
100
AcDbLine
 10
8127.8265452858
 20
5209.0494545927
 30
0.0
 11
8126.8265452858
 21
5209.0494545927
 31
0.0
  0
LINE
  5
102
330
1F
100
AcDbEntity
  8
0
  6
Continuous
 62
     7
370
    25
100
AcDbLine
 10
8127.8265452858
 20
5209.0494545927
 30
0.0
 11
8127.8265452858
 21
5112.5494545927
 31
0.0
  0
LINE
  5
103
330
1F
100
AcDbEntity
  8
0
  6
Continuous
 62
     7
370
    25
100
AcDbLine
 10
8126.8265452858
 20
5209.0494545927
 30
0.0
 11
8126.8265452858
 21
5112.5494545927
 31
0.0
  0
LINE
  5
104
330
1F
100
AcDbEntity
  8
0
  6
Continuous
 62
     7
370
    25
100
AcDbLine
 10
8126.8265452858
 20
5219.0494545927
 30
0.0
 11
8127.8265452858
 21
5219.0494545927
 31
0.0
  0
LINE
  5
105
330
1F
100
AcDbEntity
  8
0
  6
Continuous
 62
     7
370
    25
100
AcDbLine
 10
8127.8265452858
 20
5219.0494545927
 30
0.0
 11
8127.8265452858
 21
5209.0494545927
 31
0.0
  0
LINE
  5
106
330
1F
100
AcDbEntity
  8
0
  6
Continuous
 62
     7
370
    25
100
AcDbLine
 10
8126.8265452858
 20
5209.0494545927
 30
0.0
 11
8126.8265452858
 21
5219.0494545927
 31
0.0
  0
LINE
  5
107
330
1F
100
AcDbEntity
  8
0
  6
Continuous
 62
     7
370
    25
100
AcDbLine
 10
7829.8265452858
 20
5219.0494545927
 30
0.0
 11
7828.8265452858
 21
5219.0494545927
 31
0.0
  0
SPLINE
  5
108
330
1F
100
AcDbEntity
  8
0
  6
Continuous
 62
     7
370
    25
100
AcDbSpline
210
0.0
220
0.0
230
1.0
 70
     8
 71
     3
 72
    12
 73
     8
 74
     0
 42
0.00000001
 43
0.00000001
 40
0.0
 40
0.0
 40
0.0
 40
0.0
 40
0.2499999999999999
 40
0.2499999999999999
 40
0.4999999999999998
 40
0.4999999999999998
 40
1.0
 40
1.0
 40
1.0
 40
1.0
 10
7828.826545285807
 20
5054.549454592719
 30
0.0
 10
7828.826545285807
 20
5054.608915193965
 30
0.0
 10
7828.852274750445
 20
5054.666951510578
 30
0.0
 10
7828.953036260864
 20
5054.785486955649
 30
0.0
 10
7829.026528496324
 20
5054.843852462025
 30
0.0
 10
7829.305001724774
 20
5055.02115553428
 30
0.0
 10
7829.562368809171
 20
5055.137640177776
 30
0.0
 10
7829.826545285808
 20
5055.256561373905
 30
0.0
  0
LINE
  5
109
330
1F
100
AcDbEntity
  8
0
  6
Continuous
 62
     7
370
    25
100
AcDbLine
 10
8126.8265452858
 20
5219.0494545927
 30
0.0
 11
8125.8265452858
 21
5219.0494545927
 31
0.0
  0
SPLINE
  5
10A
330
1F
100
AcDbEntity
  8
0
  6
Continuous
 62
     7
370
    25
100
AcDbSpline
210
0.0
220
0.0
230
1.0
 70
     8
 71
     3
 72
    12
 73
     8
 74
     0
 42
0.00000001
 43
0.00000001
 40
0.0
 40
0.0
 40
0.0
 40
0.0
 40
0.2500000000000078
 40
0.2500000000000078
 40
0.5000000000000155
 40
0.5000000000000155
 40
1.0
 40
1.0
 40
1.0
 40
1.0
 10
8125.826545285808
 20
5055.256561373905
 30
0.0
 10
8125.958633531191
 20
5055.19710077266
 30
0.0
 10
8126.087564861484
 20
5055.139064456047
 30
0.0
 10
8126.330843092964
 20
5055.020529010975
 30
0.0
 10
8126.440719570535
 20
5054.9621635046
 30
0.0
 10
8126.719260232383
 20
5054.784860432344
 30
0.0
 10
8126.826545285807
 20
5054.66837578885
 30
0.0
 10
8126.826545285807
 20
5054.549454592719
 30
0.0
  0
LINE
  5
10B
330
1F
100
AcDbEntity
  8
0
  6
Continuous
 62
     7
370
    25
100
AcDbLine
 10
7845.3265452858
 20
5219.0494545927
 30
0.0
 11
7829.8265452858
 21
5219.0494545927
 31
0.0
  0
CIRCLE
  5
10C
330
1F
100
AcDbEntity
  8
0
  6
Continuous
 62
     7
370
    25
100
AcDbCircle
 10
7835.8265452858
 20
5207.5494545927
 30
0.0
 40
3.0
  0
CIRCLE
  5
10D
330
1F
100
AcDbEntity
  8
0
  6
Continuous
 62
     7
370
    25
100
AcDbCircle
 10
7835.8265452858
 20
5092.5494545927
 30
0.0
 40
3.0
  0
LINE
  5
10E
330
1F
100
AcDbEntity
  8
0
  6
Continuous
 62
     7
370
    25
100
AcDbLine
 10
7837.1194385046
 20
5062.5494545927
 30
0.0
 11
7845.3265452858
 21
5070.7565613739
 31
0.0
  0
LINE
  5
10F
330
1F
100
AcDbEntity
  8
0
  6
Continuous
 62
     7
370
    25
100
AcDbLine
 10
8117.1194385046
 20
5062.5494545927
 30
0.0
 11
8110.3265452858
 21
5069.3423478115
 31
0.0
  0
LINE
  5
110
330
1F
100
AcDbEntity
  8
0
  6
Continuous
 62
     7
370
    25
100
AcDbLine
 10
7845.3265452858
 20
5069.3423478115
 30
0.0
 11
7838.533652067
 21
5062.5494545927
 31
0.0
  0
LINE
  5
111
330
1F
100
AcDbEntity
  8
0
  6
Continuous
 62
     7
370
    25
100
AcDbLine
 10
8125.8265452858
 20
5219.0494545927
 30
0.0
 11
8110.3265452858
 21
5219.0494545927
 31
0.0
  0
CIRCLE
  5
112
330
1F
100
AcDbEntity
  8
0
  6
Continuous
 62
     7
370
    25
100
AcDbCircle
 10
8119.8265452858
 20
5092.5494545927
 30
0.0
 40
3.0
  0
CIRCLE
  5
113
330
1F
100
AcDbEntity
  8
0
  6
Continuous
 62
     7
370
    25
100
AcDbCircle
 10
8119.8265452858
 20
5207.5494545927
 30
0.0
 40
3.0
  0
LINE
  5
114
330
1F
100
AcDbEntity
  8
0
  6
Continuous
 62
     7
370
    25
100
AcDbLine
 10
8118.533652067
 20
5062.5494545927
 30
0.0
 11
8110.3265452858
 21
5070.7565613739
 31
0.0
  0
LINE
  5
115
330
1F
100
AcDbEntity
  8
0
  6
Continuous
 62
     8
370
    25
100
AcDbLine
 10
7847.3265452858
 20
5050.2265789372
 30
0.0
 11
7974.7190718785
 21
5050.2265789372
 31
0.0
  0
LINE
  5
116
330
1F
100
AcDbEntity
  8
0
  6
Continuous
 62
     8
370
    25
100
AcDbLine
 10
7980.9340186931
 20
5050.2265789372
 30
0.0
 11
8108.3265452858
 21
5050.2265789372
 31
0.0
  0
LINE
  5
117
330
1F
100
AcDbEntity
  8
0
  6
Continuous
 62
     8
370
    25
100
AcDbLine
 10
7847.3265452858
 20
5350.5743233723
 30
0.0
 11
7847.3265452858
 21
5070.796501791
 31
0.0
  0
LINE
  5
118
330
1F
100
AcDbEntity
  8
0
  6
Continuous
 62
     8
370
    25
100
AcDbLine
 10
8108.3265452858
 20
5350.5743233723
 30
0.0
 11
8108.3265452858
 21
5070.796501791
 31
0.0
  0
LINE
  5
119
330
1F
100
AcDbEntity
  8
0
  6
Continuous
 62
     8
370
    25
100
AcDbLine
 10
7829.8265452858
 20
5062.5494545927
 30
0.0
 11
7829.8265452858
 21
5219.0494545927
 31
0.0
  0
LINE
  5
11A
330
1F
100
AcDbEntity
  8
0
  6
Continuous
 62
     8
370
    25
100
AcDbLine
 10
8125.8265452858
 20
5219.0494545927
 30
0.0
 11
8125.8265452858
 21
5062.5494545927
 31
0.0
  0
LINE
  5
11B
330
1F
100
AcDbEntity
  8
0
  6
Continuous
 62
     7
370
    25
100
AcDbLine
 10
8386.0584769813
 20
5051.1694545927
 30
0.0
 11
8386.0584769813
 21
5051.5494545927
 31
0.0
  0
LINE
  5
11C
330
1F
100
AcDbEntity
  8
0
  6
Continuous
 62
     7
370
    25
100
AcDbLine
 10
8378.4584769813
 20
5051.5494545927
 30
0.0
 11
8378.4584769813
 21
5051.1694545927
 31
0.0
  0
ARC
  5
11D
330
1F
100
AcDbEntity
  8
0
  6
Continuous
 62
     7
370
    25
100
AcDbCircle
 10
8382.2584769813
 20
5053.234729318
 30
0.0
 40
4.324969328314234
100
AcDbArc
 50
296.059831153
 51
331.4762140417
  0
ARC
  5
11E
330
1F
100
AcDbEntity
  8
0
  6
Continuous
 62
     7
370
    25
100
AcDbCircle
 10
8382.2584769813
 20
5053.234729318
 30
0.0
 40
4.324969328315401
100
AcDbArc
 50
208.5237859583
 51
243.940168847
  0
ARC
  5
11F
330
1F
100
AcDbEntity
  8
0
  6
Continuous
 62
     7
370
    25
100
AcDbCircle
 10
8446.7584769813
 20
5053.234729318
 30
0.0
 40
4.324969328313803
100
AcDbArc
 50
296.059831153
 51
331.4762140417
  0
ARC
  5
120
330
1F
100
AcDbEntity
  8
0
  6
Continuous
 62
     7
370
    25
100
AcDbCircle
 10
8446.7584769813
 20
5053.234729318
 30
0.0
 40
4.324969328315401
100
AcDbArc
 50
208.5237859583
 51
243.940168847
  0
LINE
  5
121
330
1F
100
AcDbEntity
  8
0
  6
Continuous
 62
     7
370
    25
100
AcDbLine
 10
8450.5584769813
 20
5051.1694545927
 30
0.0
 11
8450.5584769813
 21
5051.5494545927
 31
0.0
  0
LINE
  5
122
330
1F
100
AcDbEntity
  8
0
  6
Continuous
 62
     7
370
    25
100
AcDbLine
 10
8442.9584769813
 20
5051.5494545927
 30
0.0
 11
8442.9584769813
 21
5051.1694545927
 31
0.0
  0
LINE
  5
123
330
1F
100
AcDbEntity
  8
0
  6
Continuous
 62
     7
370
    25
100
AcDbLine
 10
8515.0584769813
 20
5051.1694545927
 30
0.0
 11
8515.0584769813
 21
5051.5494545927
 31
0.0
  0
LINE
  5
124
330
1F
100
AcDbEntity
  8
0
  6
Continuous
 62
     7
370
    25
100
AcDbLine
 10
8507.4584769813
 20
5051.5494545927
 30
0.0
 11
8507.4584769813
 21
5051.1694545927
 31
0.0
  0
ARC
  5
125
330
1F
100
AcDbEntity
  8
0
  6
Continuous
 62
     7
370
    25
100
AcDbCircle
 10
8511.2584769813
 20
5053.234729318
 30
0.0
 40
4.324969328315033
100
AcDbArc
 50
296.059831153
 51
331.4762140417
  0
ARC
  5
126
330
1F
100
AcDbEntity
  8
0
  6
Continuous
 62
     7
370
    25
100
AcDbCircle
 10
8511.2584769813
 20
5053.234729318
 30
0.0
 40
4.324969328314234
100
AcDbArc
 50
208.5237859583
 51
243.940168847
  0
LINE
  5
127
330
1F
100
AcDbEntity
  8
0
  6
Continuous
 62
     7
370
    25
100
AcDbLine
 10
8394.2584769813
 20
5051.5494545927
 30
0.0
 11
8394.2584769813
 21
5052.5494545927
 31
0.0
  0
LINE
  5
128
330
1F
100
AcDbEntity
  8
0
  6
Continuous
 62
     7
370
    25
100
AcDbLine
 10
8377.2584769813
 20
5051.5494545927
 30
0.0
 11
8394.2584769813
 21
5051.5494545927
 31
0.0
  0
LINE
  5
129
330
1F
100
AcDbEntity
  8
0
  6
Continuous
 62
     7
370
    25
100
AcDbLine
 10
8377.2584769813
 20
5051.5494545927
 30
0.0
 11
8377.2584769813
 21
5052.5494545927
 31
0.0
  0
LINE
  5
12A
330
1F
100
AcDbEntity
  8
0
  6
Continuous
 62
     7
370
    25
100
AcDbLine
 10
8499.2584769813
 20
5051.5494545927
 30
0.0
 11
8499.2584769813
 21
5052.5494545927
 31
0.0
  0
LINE
  5
12B
330
1F
100
AcDbEntity
  8
0
  6
Continuous
 62
     7
370
    25
100
AcDbLine
 10
8394.2584769813
 20
5051.5494545927
 30
0.0
 11
8499.2584769813
 21
5051.5494545927
 31
0.0
  0
LINE
  5
12C
330
1F
100
AcDbEntity
  8
0
  6
Continuous
 62
     7
370
    25
100
AcDbLine
 10
8516.2584769813
 20
5051.5494545927
 30
0.0
 11
8516.2584769813
 21
5052.5494545927
 31
0.0
  0
LINE
  5
12D
330
1F
100
AcDbEntity
  8
0
  6
Continuous
 62
     7
370
    25
100
AcDbLine
 10
8499.2584769813
 20
5051.5494545927
 30
0.0
 11
8516.2584769813
 21
5051.5494545927
 31
0.0
  0
LINE
  5
12E
330
1F
100
AcDbEntity
  8
0
  6
Continuous
 62
     7
370
    25
100
AcDbLine
 10
8495.306856017
 20
5067.4572538595
 30
0.0
 11
8498.0528964815
 21
5061.5683510793
 31
0.0
  0
LINE
  5
12F
330
1F
100
AcDbEntity
  8
0
  6
Continuous
 62
     7
370
    25
100
AcDbLine
 10
8501.7584769813
 20
5050.2265789372
 30
0.0
 11
8501.2584769813
 21
5049.66257363
 31
0.0
  0
ARC
  5
130
330
1F
100
AcDbEntity
  8
0
  6
Continuous
 62
     7
370
    25
100
AcDbCircle
 10
8500.2584769813
 20
5051.5494545927
 30
0.0
 40
2.000000000001819
100
AcDbArc
 50
318.5903778907
 51
0.0
  0
LINE
  5
131
330
1F
100
AcDbEntity
  8
0
  6
Continuous
 62
     7
370
    25
100
AcDbLine
 10
8391.2584769813
 20
5002.8103913498
 30
0.0
 11
8392.2584769813
 21
5002.8103913498
 31
0.0
  0
LINE
  5
132
330
1F
100
AcDbEntity
  8
0
  6
Continuous
 62
     7
370
    25
100
AcDbLine
 10
8391.2584769813
 20
5350.5743233723
 30
0.0
 11
8391.2584769813
 21
5219.0494545927
 31
0.0
  0
LINE
  5
133
330
1F
100
AcDbEntity
  8
0
  6
Continuous
 62
     7
370
    25
100
AcDbLine
 10
8391.2584769813
 20
5051.5494545927
 30
0.0
 11
8391.2584769813
 21
5002.8103913498
 31
0.0
  0
LINE
  5
134
330
1F
100
AcDbEntity
  8
0
  6
Continuous
 62
     7
370
    25
100
AcDbLine
 10
8391.2584769813
 20
5350.5743233723
 30
0.0
 11
8393.2584769813
 21
5350.5743233723
 31
0.0
  0
SPLINE
  5
135
330
1F
100
AcDbEntity
  8
0
  6
Continuous
 62
     7
370
    25
100
AcDbSpline
210
0.0
220
0.0
230
1.0
 70
     8
 71
     3
 72
    11
 73
     7
 74
     0
 42
0.00000001
 43
0.00000001
 40
0.0
 40
0.0
 40
0.0
 40
0.0
 40
0.2429460290506867
 40
0.5262790579387514
 40
0.8462442613035406
 40
1.0
 40
1.0
 40
1.0
 40
1.0
 10
8392.258476981315
 20
5002.810391349793
 30
0.0
 10
8392.271461679815
 20
5002.639135944968
 30
0.0
 10
8392.299589634495
 20
5002.268155882152
 30
0.0
 10
8392.542882379066
 20
5001.72630410008
 30
0.0
 10
8392.887041671269
 20
5001.317737390267
 30
0.0
 10
8393.167461152001
 20
5001.137001908202
 30
0.0
 10
8393.258476981317
 20
5001.078340542225
 30
0.0
  0
ARC
  5
136
330
1F
100
AcDbEntity
  8
0
  6
Continuous
 62
     7
370
    25
100
AcDbCircle
 10
8392.2584769813
 20
5146.796501791
 30
0.0
 40
146.0000000000013
100
AcDbArc
 50
270.795800302
 51
317.1281042611
  0
ARC
  5
137
330
1F
100
AcDbEntity
  8
0
  6
Continuous
 62
     7
370
    25
100
AcDbCircle
 10
8394.2584769813
 20
5002.8103913498
 30
0.0
 40
1.99999999999989
100
AcDbArc
 50
240.0
 51
270.795800302
  0
LINE
  5
138
330
1F
100
AcDbEntity
  8
0
  6
Continuous
 62
     7
370
    25
100
AcDbLine
 10
8393.2584769813
 20
5350.5743233723
 30
0.0
 11
8499.2584769813
 21
5350.5743233723
 31
0.0
  0
SPLINE
  5
139
330
1F
100
AcDbEntity
  8
0
  6
Continuous
 62
     7
370
    25
100
AcDbSpline
210
0.0
220
0.0
230
1.0
 70
     8
 71
     3
 72
    12
 73
     8
 74
     0
 42
0.00000001
 43
0.00000001
 40
0.0
 40
0.0
 40
0.0
 40
0.0
 40
0.3616160425571519
 40
0.5990010933661584
 40
0.769776213587156
 40
0.9014037397727872
 40
1.0
 40
1.0
 40
1.0
 40
1.0
 10
8499.258476981317
 20
5047.463727743402
 30
0.0
 10
8499.581135002843
 20
5047.813278713064
 30
0.0
 10
8500.1156038453
 20
5048.392294543044
 30
0.0
 10
8500.726806071063
 20
5049.068589230373
 30
0.0
 10
8501.066273815653
 20
5049.447120896365
 30
0.0
 10
8501.233351766876
 20
5049.634256756682
 30
0.0
 10
8501.25094321868
 20
5049.654082852613
 30
0.0
 10
8501.258476981315
 20
5049.662573629974
 30
0.0
  0
LINE
  5
13A
330
1F
100
AcDbEntity
  8
0
  6
Continuous
 62
     7
370
    25
100
AcDbLine
 10
8501.2584769813
 20
5350.5743233723
 30
0.0
 11
8501.2584769813
 21
5102.5494545927
 31
0.0
  0
LINE
  5
13B
330
1F
100
AcDbEntity
  8
0
  6
Continuous
 62
     7
370
    25
100
AcDbLine
 10
8501.2584769813
 20
5049.66257363
 30
0.0
 11
8501.2584769813
 21
5051.5494545927
 31
0.0
  0
LINE
  5
13C
330
1F
100
AcDbEntity
  8
0
  6
Continuous
 62
     7
370
    25
100
AcDbLine
 10
8499.2584769813
 20
5350.5743233723
 30
0.0
 11
8501.2584769813
 21
5350.5743233723
 31
0.0
  0
LINE
  5
13D
330
1F
100
AcDbEntity
  8
0
  6
Continuous
 62
     7
370
    25
100
AcDbLine
 10
8386.0584769813
 20
5051.1694545927
 30
0.0
 11
8378.4584769813
 21
5051.1694545927
 31
0.0
  0
LINE
  5
13E
330
1F
100
AcDbEntity
  8
0
  6
Continuous
 62
     7
370
    25
100
AcDbLine
 10
8384.1584769813
 20
5049.3494545927
 30
0.0
 11
8380.3584769813
 21
5049.3494545927
 31
0.0
  0
LINE
  5
13F
330
1F
100
AcDbEntity
  8
0
  6
Continuous
 62
     7
370
    25
100
AcDbLine
 10
8448.6584769813
 20
5049.3494545927
 30
0.0
 11
8444.8584769813
 21
5049.3494545927
 31
0.0
  0
LINE
  5
140
330
1F
100
AcDbEntity
  8
0
  6
Continuous
 62
     7
370
    25
100
AcDbLine
 10
8450.5584769813
 20
5051.1694545927
 30
0.0
 11
8442.9584769813
 21
5051.1694545927
 31
0.0
  0
LINE
  5
141
330
1F
100
AcDbEntity
  8
0
  6
Continuous
 62
     7
370
    25
100
AcDbLine
 10
8507.5520019632
 20
5051.1694545927
 30
0.0
 11
8507.4584769813
 21
5051.1694545927
 31
0.0
  0
LINE
  5
142
330
1F
100
AcDbEntity
  8
0
  6
Continuous
 62
     7
370
    25
100
AcDbLine
 10
8515.0584769813
 20
5051.1694545927
 30
0.0
 11
8507.5520019632
 21
5051.1694545927
 31
0.0
  0
LINE
  5
143
330
1F
100
AcDbEntity
  8
0
  6
Continuous
 62
     7
370
    25
100
AcDbLine
 10
8509.4052394723
 20
5049.3494545927
 30
0.0
 11
8509.3584769813
 21
5049.3494545927
 31
0.0
  0
LINE
  5
144
330
1F
100
AcDbEntity
  8
0
  6
Continuous
 62
     7
370
    25
100
AcDbLine
 10
8513.1584769813
 20
5049.3494545927
 30
0.0
 11
8509.4052394723
 21
5049.3494545927
 31
0.0
  0
LINE
  5
145
330
1F
100
AcDbEntity
  8
0
  6
Continuous
 62
     7
370
    25
100
AcDbLine
 10
8519.7584769813
 20
5054.5494545927
 30
0.0
 11
8323.7584769813
 21
5054.5494545927
 31
0.0
  0
LINE
  5
146
330
1F
100
AcDbEntity
  8
0
  6
Continuous
 62
     7
370
    25
100
AcDbLine
 10
8323.7584769813
 20
5054.5494545927
 30
0.0
 11
8323.7584769813
 21
5219.0494545927
 31
0.0
  0
LINE
  5
147
330
1F
100
AcDbEntity
  8
0
  6
Continuous
 62
     7
370
    25
100
AcDbLine
 10
8323.7584769813
 20
5219.0494545927
 30
0.0
 11
8398.7584769813
 21
5219.0494545927
 31
0.0
  0
ARC
  5
148
330
1F
100
AcDbEntity
  8
0
  6
Continuous
 62
     7
370
    25
100
AcDbCircle
 10
8398.7584769813
 20
5209.0494545927
 30
0.0
 40
10.0
100
AcDbArc
 50
0.0
 51
90.0
  0
LINE
  5
149
330
1F
100
AcDbEntity
  8
0
  6
Continuous
 62
     7
370
    25
100
AcDbLine
 10
8408.7584769813
 20
5209.0494545927
 30
0.0
 11
8408.7584769813
 21
5112.5494545927
 31
0.0
  0
ARC
  5
14A
330
1F
100
AcDbEntity
  8
0
  6
Continuous
 62
     7
370
    25
100
AcDbCircle
 10
8418.7584769813
 20
5112.5494545927
 30
0.0
 40
10.00000000000091
100
AcDbArc
 50
180.0
 51
270.0
  0
LINE
  5
14B
330
1F
100
AcDbEntity
  8
0
  6
Continuous
 62
     7
370
    25
100
AcDbLine
 10
8418.7584769813
 20
5102.5494545927
 30
0.0
 11
8509.7584769813
 21
5102.5494545927
 31
0.0
  0
ARC
  5
14C
330
1F
100
AcDbEntity
  8
0
  6
Continuous
 62
     7
370
    25
100
AcDbCircle
 10
8509.7584769813
 20
5092.5494545927
 30
0.0
 40
10.00000000000182
100
AcDbArc
 50
0.0
 51
90.0
  0
LINE
  5
14D
330
1F
100
AcDbEntity
  8
0
  6
Continuous
 62
     7
370
    25
100
AcDbLine
 10
8519.7584769813
 20
5092.5494545927
 30
0.0
 11
8519.7584769813
 21
5054.5494545927
 31
0.0
  0
CIRCLE
  5
14E
330
1F
100
AcDbEntity
  8
0
  6
Continuous
 62
     7
370
    25
100
AcDbCircle
 10
8496.7584769813
 20
5064.5494545927
 30
0.0
 40
3.249999999999091
  0
CIRCLE
  5
14F
330
1F
100
AcDbEntity
  8
0
  6
Continuous
 62
     7
370
    25
100
AcDbCircle
 10
8346.7584769813
 20
5064.5494545927
 30
0.0
 40
3.249999999999091
  0
SPLINE
  5
150
330
1F
100
AcDbEntity
  8
0
  6
Continuous
 62
     7
370
    25
100
AcDbSpline
210
0.0
220
0.0
230
1.0
 70
     8
 71
     3
 72
    20
 73
    16
 74
     0
 42
0.00000001
 43
0.00000001
 40
0.0
 40
0.0
 40
0.0
 40
0.0
 40
0.125000000000003
 40
0.125000000000003
 40
0.250000000000006
 40
0.250000000000006
 40
0.3750000000000089
 40
0.3750000000000089
 40
0.5000000000000118
 40
0.5000000000000118
 40
0.6250000000000147
 40
0.6250000000000147
 40
0.7500000000000175
 40
0.7500000000000175
 40
1.0
 40
1.0
 40
1.0
 40
1.0
 10
8323.758476981315
 20
5054.549454592719
 30
0.0
 10
8323.62642773157
 20
5054.579176116239
 30
0.0
 10
8323.496531378403
 20
5054.60841750917
 30
0.0
 10
8323.24110387311
 20
5054.66702927564
 30
0.0
 10
8323.114357028113
 20
5054.696693067996
 30
0.0
 10
8322.871990122952
 20
5054.75573858803
 30
0.0
 10
8322.757125013157
 20
5054.784916120318
 30
0.0
 10
8322.540043703319
 20
5054.843647770653
 30
0.0
 10
8322.437089841354
 20
5054.873470186576
 30
0.0
 10
8322.252377213848
 20
5054.932246549203
 30
0.0
 10
8322.169658119774
 20
5054.961417880219
 30
0.0
 10
8322.023845894106
 20
5055.020391770938
 30
0.0
 10
8321.961263898445
 20
5055.050112051561
 30
0.0
 10
8321.811451322543
 20
5055.13805735014
 30
0.0
 10
8321.758476981317
 20
5055.197118324996
 30
0.0
 10
8321.758476981317
 20
5055.256561373905
 30
0.0
  0
LINE
  5
151
330
1F
100
AcDbEntity
  8
0
  6
Continuous
 62
     7
370
    25
100
AcDbLine
 10
8321.7584769813
 20
5219.0494545927
 30
0.0
 11
8321.7584769813
 21
5055.2565613739
 31
0.0
  0
LINE
  5
152
330
1F
100
AcDbEntity
  8
0
  6
Continuous
 62
     7
370
    25
100
AcDbLine
 10
8321.7584769813
 20
5219.0494545927
 30
0.0
 11
8323.7584769813
 21
5219.0494545927
 31
0.0
  0
LINE
  5
153
330
1F
100
AcDbEntity
  8
0
  6
Continuous
 62
     7
370
    25
100
AcDbLine
 10
8323.7584769813
 20
5052.5494545927
 30
0.0
 11
8323.7584769813
 21
5054.5494545927
 31
0.0
  0
LINE
  5
154
330
1F
100
AcDbEntity
  8
0
  6
Continuous
 62
     7
370
    25
100
AcDbLine
 10
8519.7584769813
 20
5054.5494545927
 30
0.0
 11
8519.7584769813
 21
5052.5494545927
 31
0.0
  0
LINE
  5
155
330
1F
100
AcDbEntity
  8
0
  6
Continuous
 62
     7
370
    25
100
AcDbLine
 10
8519.7584769813
 20
5052.5494545927
 30
0.0
 11
8323.7584769813
 21
5052.5494545927
 31
0.0
  0
LINE
  5
156
330
1F
100
AcDbEntity
  8
0
  6
Continuous
 62
     7
370
    25
100
AcDbLine
 10
8321.7584769813
 20
5054.5494545927
 30
0.0
 11
8322.7584769813
 21
5054.5494545927
 31
0.0
  0
SPLINE
  5
157
330
1F
100
AcDbEntity
  8
0
  6
Continuous
 62
     7
370
    25
100
AcDbSpline
210
0.0
220
0.0
230
1.0
 70
     8
 71
     3
 72
    12
 73
     8
 74
     0
 42
0.00000001
 43
0.00000001
 40
0.0
 40
0.0
 40
0.0
 40
0.0
 40
0.2499999999999951
 40
0.2499999999999951
 40
0.4999999999999902
 40
0.4999999999999902
 40
1.0
 40
1.0
 40
1.0
 40
1.0
 10
8322.758476981315
 20
5054.549454592719
 30
0.0
 10
8322.758476981315
 20
5054.417366347336
 30
0.0
 10
8322.784206445955
 20
5054.288435017043
 30
0.0
 10
8322.884967956372
 20
5054.045156785563
 30
0.0
 10
8322.958460191832
 20
5053.935280307991
 30
0.0
 10
8323.236933420283
 20
5053.656739646142
 30
0.0
 10
8323.494300504679
 20
5053.549454592719
 30
0.0
 10
8323.758476981315
 20
5053.549454592719
 30
0.0
  0
SPLINE
  5
158
330
1F
100
AcDbEntity
  8
0
  6
Continuous
 62
     7
370
    25
100
AcDbSpline
210
0.0
220
0.0
230
1.0
 70
     8
 71
     3
 72
    20
 73
    16
 74
     0
 42
0.00000001
 43
0.00000001
 40
0.0
 40
0.0
 40
0.0
 40
0.0
 40
0.1250000000000007
 40
0.1250000000000007
 40
0.2500000000000014
 40
0.2500000000000014
 40
0.3750000000000021
 40
0.3750000000000021
 40
0.5000000000000028
 40
0.5000000000000028
 40
0.6250000000000034
 40
0.6250000000000034
 40
0.7500000000000042
 40
0.7500000000000042
 40
1.0
 40
1.0
 40
1.0
 40
1.0
 10
8321.758476981317
 20
5054.549454592719
 30
0.0
 10
8321.758476981317
 20
5054.417405342974
 30
0.0
 10
8321.77143423698
 20
5054.287508989807
 30
0.0
 10
8321.822171366595
 20
5054.032081484514
 30
0.0
 10
8321.860500678275
 20
5053.905334639517
 30
0.0
 10
8321.96088258575
 20
5053.662967734355
 30
0.0
 10
8322.0222978264
 20
5053.54810262456
 30
0.0
 10
8322.167111476734
 20
5053.331021314722
 30
0.0
 10
8322.251498523776
 20
5053.228067452758
 30
0.0
 10
8322.436088409231
 20
5053.043354825252
 30
0.0
 10
8322.536667189555
 20
5052.960635731179
 30
0.0
 10
8322.754375625218
 20
5052.81482350551
 30
0.0
 10
8322.871353277895
 20
5052.752241509849
 30
0.0
 10
8323.232221904653
 20
5052.602428933947
 30
0.0
 10
8323.494378473519
 20
5052.549454592719
 30
0.0
 10
8323.758476981315
 20
5052.549454592719
 30
0.0
  0
ARC
  5
159
330
1F
100
AcDbEntity
  8
0
  6
Continuous
 62
     7
370
    25
100
AcDbCircle
 10
8519.7584769813
 20
5054.5494545927
 30
0.0
 40
0.9999999999990905
100
AcDbArc
 50
270.0
 51
0.0
  0
LINE
  5
15A
330
1F
100
AcDbEntity
  8
0
  6
Continuous
 62
     7
370
    25
100
AcDbLine
 10
8520.7584769813
 20
5054.5494545927
 30
0.0
 11
8521.7584769813
 21
5054.5494545927
 31
0.0
  0
ARC
  5
15B
330
1F
100
AcDbEntity
  8
0
  6
Continuous
 62
     7
370
    25
100
AcDbCircle
 10
8519.7584769813
 20
5054.5494545927
 30
0.0
 40
2.0
100
AcDbArc
 50
270.0
 51
0.0
  0
LINE
  5
15C
330
1F
100
AcDbEntity
  8
0
  6
Continuous
 62
     7
370
    25
100
AcDbLine
 10
8520.7584769813
 20
5062.5494545927
 30
0.0
 11
8521.7584769813
 21
5062.5494545927
 31
0.0
  0
LINE
  5
15D
330
1F
100
AcDbEntity
  8
0
  6
Continuous
 62
     7
370
    25
100
AcDbLine
 10
8521.7584769813
 20
5062.5494545927
 30
0.0
 11
8521.7584769813
 21
5054.5494545927
 31
0.0
  0
LINE
  5
15E
330
1F
100
AcDbEntity
  8
0
  6
Continuous
 62
     7
370
    25
100
AcDbLine
 10
8520.7584769813
 20
5062.5494545927
 30
0.0
 11
8520.7584769813
 21
5054.5494545927
 31
0.0
  0
LINE
  5
15F
330
1F
100
AcDbEntity
  8
0
  6
Continuous
 62
     7
370
    25
100
AcDbLine
 10
8322.7584769813
 20
5054.7890164022
 30
0.0
 11
8322.7584769813
 21
5054.5494545927
 31
0.0
  0
LINE
  5
160
330
1F
100
AcDbEntity
  8
0
  6
Continuous
 62
     7
370
    25
100
AcDbLine
 10
8321.7584769813
 20
5055.2565613739
 30
0.0
 11
8321.7584769813
 21
5054.5494545927
 31
0.0
  0
LINE
  5
161
330
1F
100
AcDbEntity
  8
0
  6
Continuous
 62
     8
370
    25
100
AcDbLine
 10
8501.7584769813
 20
5050.2265789372
 30
0.0
 11
8501.2584769813
 21
5050.667537489
 31
0.0
  0
LINE
  5
162
330
1F
100
AcDbEntity
  8
0
  6
Continuous
 62
     8
370
    25
100
AcDbLine
 10
8393.2584769813
 20
5350.5743233723
 30
0.0
 11
8393.2584769813
 21
5219.0494545927
 31
0.0
  0
LINE
  5
163
330
1F
100
AcDbEntity
  8
0
  6
Continuous
 62
     8
370
    25
100
AcDbLine
 10
8393.2584769813
 20
5051.5494545927
 30
0.0
 11
8393.2584769813
 21
5001.0783405422
 31
0.0
  0
LINE
  5
164
330
1F
100
AcDbEntity
  8
0
  6
Continuous
 62
     8
370
    25
100
AcDbLine
 10
8499.2584769813
 20
5350.5743233723
 30
0.0
 11
8499.2584769813
 21
5102.5494545927
 31
0.0
  0
LINE
  5
165
330
1F
100
AcDbEntity
  8
0
  6
Continuous
 62
     8
370
    25
100
AcDbLine
 10
8499.2584769813
 20
5066.6261105584
 30
0.0
 11
8499.2584769813
 21
5062.472798627
 31
0.0
  0
LINE
  5
166
330
1F
100
AcDbEntity
  8
0
  6
Continuous
 62
     8
370
    25
100
AcDbLine
 10
8499.2584769813
 20
5051.5494545927
 30
0.0
 11
8499.2584769813
 21
5047.4637277434
 31
0.0
  0
CIRCLE
  5
167
330
1F
100
AcDbEntity
  8
0
  6
Continuous
 62
     7
370
    25
100
AcDbCircle
 10
8119.3265452858
 20
4727.9517836761
 30
0.0
 40
3.999999999999722
  0
CIRCLE
  5
168
330
1F
100
AcDbEntity
  8
0
  6
Continuous
 62
     7
370
    25
100
AcDbCircle
 10
7977.8265452858
 20
4663.4517836761
 30
0.0
 40
3.999999999999881
  0
CIRCLE
  5
169
330
1F
100
AcDbEntity
  8
0
  6
Continuous
 62
     7
370
    25
100
AcDbCircle
 10
7977.8265452858
 20
4792.4517836761
 30
0.0
 40
3.999999999999722
  0
CIRCLE
  5
16A
330
1F
100
AcDbEntity
  8
0
  6
Continuous
 62
     7
370
    25
100
AcDbCircle
 10
7836.3265452858
 20
4727.9517836761
 30
0.0
 40
3.999999999999881
  0
LINE
  5
16B
330
1F
100
AcDbEntity
  8
0
  6
Continuous
 62
     7
370
    25
100
AcDbLine
 10
8110.3265452858
 20
4768.4517836761
 30
0.0
 11
8111.3265452858
 21
4768.4517836761
 31
0.0
  0
LINE
  5
16C
330
1F
100
AcDbEntity
  8
0
  6
Continuous
 62
     7
370
    25
100
AcDbLine
 10
8110.3265452858
 20
4781.4517836761
 30
0.0
 11
8110.3265452858
 21
4782.4517836761
 31
0.0
  0
LINE
  5
16D
330
1F
100
AcDbEntity
  8
0
  6
Continuous
 62
     7
370
    25
100
AcDbLine
 10
8111.3265452858
 20
4782.4517836761
 30
0.0
 11
8110.3265452858
 21
4782.4517836761
 31
0.0
  0
LINE
  5
16E
330
1F
100
AcDbEntity
  8
0
  6
Continuous
 62
     7
370
    25
100
AcDbLine
 10
8111.3265452858
 20
4768.4517836761
 30
0.0
 11
8111.3265452858
 21
4782.4517836761
 31
0.0
  0
LINE
  5
16F
330
1F
100
AcDbEntity
  8
0
  6
Continuous
 62
     7
370
    25
100
AcDbLine
 10
8110.3265452858
 20
4679.4463985484
 30
0.0
 11
8111.3265452858
 21
4679.4463985484
 31
0.0
  0
LINE
  5
170
330
1F
100
AcDbEntity
  8
0
  6
Continuous
 62
     7
370
    25
100
AcDbLine
 10
8111.3265452858
 20
4679.4463985484
 30
0.0
 11
8111.3265452858
 21
4768.4517836761
 31
0.0
  0
LINE
  5
171
330
1F
100
AcDbEntity
  8
0
  6
Continuous
 62
     7
370
    25
100
AcDbLine
 10
8095.3265452858
 20
4783.4517836761
 30
0.0
 11
8095.3265452858
 21
4784.4517836761
 31
0.0
  0
LINE
  5
172
330
1F
100
AcDbEntity
  8
0
  6
Continuous
 62
     7
370
    25
100
AcDbLine
 10
7860.3265452858
 20
4783.4517836761
 30
0.0
 11
7860.3265452858
 21
4784.4517836761
 31
0.0
  0
LINE
  5
173
330
1F
100
AcDbEntity
  8
0
  6
Continuous
 62
     7
370
    25
100
AcDbLine
 10
8095.3265452858
 20
4784.4517836761
 30
0.0
 11
7860.3265452858
 21
4784.4517836761
 31
0.0
  0
LINE
  5
174
330
1F
100
AcDbEntity
  8
0
  6
Continuous
 62
     7
370
    25
100
AcDbLine
 10
7847.3265452858
 20
4783.4517836761
 30
0.0
 11
7846.3265452858
 21
4783.4517836761
 31
0.0
  0
LINE
  5
175
330
1F
100
AcDbEntity
  8
0
  6
Continuous
 62
     7
370
    25
100
AcDbLine
 10
7846.3265452858
 20
4784.4517836761
 30
0.0
 11
7846.3265452858
 21
4783.4517836761
 31
0.0
  0
LINE
  5
176
330
1F
100
AcDbEntity
  8
0
  6
Continuous
 62
     7
370
    25
100
AcDbLine
 10
7860.3265452858
 20
4784.4517836761
 30
0.0
 11
7846.3265452858
 21
4784.4517836761
 31
0.0
  0
LINE
  5
177
330
1F
100
AcDbEntity
  8
0
  6
Continuous
 62
     7
370
    25
100
AcDbLine
 10
8109.3265452858
 20
4783.4517836761
 30
0.0
 11
8108.3265452858
 21
4783.4517836761
 31
0.0
  0
LINE
  5
178
330
1F
100
AcDbEntity
  8
0
  6
Continuous
 62
     7
370
    25
100
AcDbLine
 10
8109.3265452858
 20
4784.4517836761
 30
0.0
 11
8109.3265452858
 21
4783.4517836761
 31
0.0
  0
LINE
  5
179
330
1F
100
AcDbEntity
  8
0
  6
Continuous
 62
     7
370
    25
100
AcDbLine
 10
8109.3265452858
 20
4784.4517836761
 30
0.0
 11
8095.3265452858
 21
4784.4517836761
 31
0.0
  0
LINE
  5
17A
330
1F
100
AcDbEntity
  8
0
  6
Continuous
 62
     7
370
    25
100
AcDbLine
 10
7845.3265452858
 20
4782.4517836761
 30
0.0
 11
7845.3265452858
 21
4781.4517836761
 31
0.0
  0
LINE
  5
17B
330
1F
100
AcDbEntity
  8
0
  6
Continuous
 62
     7
370
    25
100
AcDbLine
 10
7845.3265452858
 20
4768.4517836761
 30
0.0
 11
7844.3265452858
 21
4768.4517836761
 31
0.0
  0
LINE
  5
17C
330
1F
100
AcDbEntity
  8
0
  6
Continuous
 62
     7
370
    25
100
AcDbLine
 10
7844.3265452858
 20
4782.4517836761
 30
0.0
 11
7845.3265452858
 21
4782.4517836761
 31
0.0
  0
LINE
  5
17D
330
1F
100
AcDbEntity
  8
0
  6
Continuous
 62
     7
370
    25
100
AcDbLine
 10
7844.3265452858
 20
4782.4517836761
 30
0.0
 11
7844.3265452858
 21
4768.4517836761
 31
0.0
  0
LINE
  5
17E
330
1F
100
AcDbEntity
  8
0
  6
Continuous
 62
     7
370
    25
100
AcDbLine
 10
7845.3265452858
 20
4679.4463985484
 30
0.0
 11
7844.3265452858
 21
4679.4463985484
 31
0.0
  0
LINE
  5
17F
330
1F
100
AcDbEntity
  8
0
  6
Continuous
 62
     7
370
    25
100
AcDbLine
 10
7844.3265452858
 20
4768.4517836761
 30
0.0
 11
7844.3265452858
 21
4679.4463985484
 31
0.0
  0
LINE
  5
180
330
1F
100
AcDbEntity
  8
0
  6
Continuous
 62
     7
370
    25
100
AcDbLine
 10
8111.3265452858
 20
4672.9180913342
 30
0.0
 11
8110.3265452858
 21
4672.9180913342
 31
0.0
  0
LINE
  5
181
330
1F
100
AcDbEntity
  8
0
  6
Continuous
 62
     7
370
    25
100
AcDbLine
 10
8110.3265452858
 20
4672.9180913342
 30
0.0
 11
8110.3265452858
 21
4675.4517836761
 31
0.0
  0
LINE
  5
182
330
1F
100
AcDbEntity
  8
0
  6
Continuous
 62
     7
370
    25
100
AcDbLine
 10
8111.3265452858
 20
4672.9180913342
 30
0.0
 11
8111.3265452858
 21
4679.4463985484
 31
0.0
  0
LINE
  5
183
330
1F
100
AcDbEntity
  8
0
  6
Continuous
 62
     7
370
    25
100
AcDbLine
 10
7844.3265452858
 20
4672.9180913342
 30
0.0
 11
7845.3265452858
 21
4672.9180913342
 31
0.0
  0
LINE
  5
184
330
1F
100
AcDbEntity
  8
0
  6
Continuous
 62
     7
370
    25
100
AcDbLine
 10
7845.3265452858
 20
4675.4517836761
 30
0.0
 11
7845.3265452858
 21
4672.9180913342
 31
0.0
  0
LINE
  5
185
330
1F
100
AcDbEntity
  8
0
  6
Continuous
 62
     7
370
    25
100
AcDbLine
 10
7844.3265452858
 20
4679.4463985484
 30
0.0
 11
7844.3265452858
 21
4672.9180913342
 31
0.0
  0
LINE
  5
186
330
1F
100
AcDbEntity
  8
0
  6
Continuous
 62
     7
370
    25
100
AcDbLine
 10
7877.4941490935
 20
4672.4517836761
 30
0.0
 11
7877.4941490935
 21
4671.4517836761
 31
0.0
  0
LINE
  5
187
330
1F
100
AcDbEntity
  8
0
  6
Continuous
 62
     7
370
    25
100
AcDbLine
 10
8078.1589414782
 20
4672.4517836761
 30
0.0
 11
8078.1589414782
 21
4671.4517836761
 31
0.0
  0
LINE
  5
188
330
1F
100
AcDbEntity
  8
0
  6
Continuous
 62
     7
370
    25
100
AcDbLine
 10
7877.4941490935
 20
4671.4517836761
 30
0.0
 11
8078.1589414782
 21
4671.4517836761
 31
0.0
  0
LINE
  5
189
330
1F
100
AcDbEntity
  8
0
  6
Continuous
 62
     7
370
    25
100
AcDbLine
 10
8078.1589414782
 20
4671.4517836761
 30
0.0
 11
8108.1820383653
 21
4671.4517836761
 31
0.0
  0
LINE
  5
18A
330
1F
100
AcDbEntity
  8
0
  6
Continuous
 62
     7
370
    25
100
AcDbLine
 10
8108.1820383653
 20
4671.4517836761
 30
0.0
 11
8108.1820383653
 21
4672.4517836761
 31
0.0
  0
LINE
  5
18B
330
1F
100
AcDbEntity
  8
0
  6
Continuous
 62
     7
370
    25
100
AcDbLine
 10
7847.4710522063
 20
4671.4517836761
 30
0.0
 11
7847.4710522063
 21
4672.4517836761
 31
0.0
  0
LINE
  5
18C
330
1F
100
AcDbEntity
  8
0
  6
Continuous
 62
     7
370
    25
100
AcDbLine
 10
7847.4710522063
 20
4671.4517836761
 30
0.0
 11
7877.4941490935
 21
4671.4517836761
 31
0.0
  0
SPLINE
  5
18D
330
1F
100
AcDbEntity
  8
0
  6
Continuous
 62
     7
370
    25
100
AcDbSpline
210
0.0
220
0.0
230
1.0
 70
     8
 71
     3
 72
    11
 73
     7
 74
     0
 42
0.00000001
 43
0.00000001
 40
0.0
 40
0.0
 40
0.0
 40
0.0
 40
0.2600563838107647
 40
0.5204072202993609
 40
0.7807600858607093
 40
1.0
 40
1.0
 40
1.0
 40
1.0
 10
8110.326545285807
 20
4670.45178367607
 30
0.0
 10
8110.140587983762
 20
4670.724456826998
 30
0.0
 10
8109.768462826773
 20
4671.270111867054
 30
0.0
 10
8109.210249301918
 20
4671.948533240981
 30
0.0
 10
8108.68087514508
 20
4672.377775757614
 30
0.0
 10
8108.338534954157
 20
4672.428565687228
 30
0.0
 10
8108.182038365298
 20
4672.45178367607
 30
0.0
  0
SPLINE
  5
18E
330
1F
100
AcDbEntity
  8
0
  6
Continuous
 62
     7
370
    25
100
AcDbSpline
210
0.0
220
0.0
230
1.0
 70
     8
 71
     3
 72
    11
 73
     7
 74
     0
 42
0.00000001
 43
0.00000001
 40
0.0
 40
0.0
 40
0.0
 40
0.0
 40
0.2600563838107647
 40
0.5204072202993626
 40
0.7807600858607111
 40
1.0
 40
1.0
 40
1.0
 40
1.0
 10
7847.471052206316
 20
4672.45178367607
 30
0.0
 10
7847.285094904271
 20
4672.41919162253
 30
0.0
 10
7846.912969747282
 20
4672.353970612618
 30
0.0
 10
7846.354756222429
 20
4671.854301751865
 30
0.0
 10
7845.825382065589
 20
4671.183408863593
 30
0.0
 10
7845.483041874666
 20
4670.681311350875
 30
0.0
 10
7845.326545285807
 20
4670.45178367607
 30
0.0
  0
SPLINE
  5
18F
330
1F
100
AcDbEntity
  8
0
  6
Continuous
 62
     7
370
    25
100
AcDbSpline
210
0.0
220
0.0
230
1.0
 70
     8
 71
     3
 72
    10
 73
     6
 74
     0
 42
0.00000001
 43
0.00000001
 40
0.0
 40
0.0
 40
0.0
 40
0.0
 40
0.3637862926571964
 40
0.7291963376951752
 40
1.0
 40
1.0
 40
1.0
 40
1.0
 10
7847.471052206316
 20
4671.451783676069
 30
0.0
 10
7847.210906144338
 20
4671.419518331173
 30
0.0
 10
7846.689452863965
 20
4671.354843625698
 30
0.0
 10
7845.973584847644
 20
4670.923156452969
 30
0.0
 10
7845.519728667808
 20
4670.592519100293
 30
0.0
 10
7845.326545285807
 20
4670.45178367607
 30
0.0
  0
SPLINE
  5
190
330
1F
100
AcDbEntity
  8
0
  6
Continuous
 62
     7
370
    25
100
AcDbSpline
210
0.0
220
0.0
230
1.0
 70
     8
 71
     3
 72
    10
 73
     6
 74
     0
 42
0.00000001
 43
0.00000001
 40
0.0
 40
0.0
 40
0.0
 40
0.0
 40
0.3637862926571925
 40
0.7291963376951788
 40
1.0
 40
1.0
 40
1.0
 40
1.0
 10
8110.326545285807
 20
4670.45178367607
 30
0.0
 10
8110.066399223829
 20
4670.641217106042
 30
0.0
 10
8109.544945943455
 20
4671.020929498074
 30
0.0
 10
8108.829077927135
 20
4671.391814170292
 30
0.0
 10
8108.375221747298
 20
4671.433878879167
 30
0.0
 10
8108.182038365298
 20
4671.451783676069
 30
0.0
  0
LINE
  5
191
330
1F
100
AcDbEntity
  8
0
  6
Continuous
 62
     7
370
    25
100
AcDbLine
 10
7845.3265452858
 20
4670.4517836761
 30
0.0
 11
8110.3265452858
 21
4670.4517836761
 31
0.0
  0
SPLINE
  5
192
330
1F
100
AcDbEntity
  8
0
  6
Continuous
 62
     7
370
    25
100
AcDbSpline
210
0.0
220
0.0
230
1.0
 70
     8
 71
     3
 72
    12
 73
     8
 74
     0
 42
0.00000001
 43
0.00000001
 40
0.0
 40
0.0
 40
0.0
 40
0.0
 40
0.2253411641963098
 40
0.4507225798030771
 40
0.6761041834235455
 40
0.9014855732653488
 40
0.9999999999999999
 40
0.9999999999999999
 40
0.9999999999999999
 40
0.9999999999999999
 10
7845.326545285807
 20
4785.45178367607
 30
0.0
 10
7845.401685185503
 20
4785.215779995956
 30
0.0
 10
7845.551978406708
 20
4784.743730479733
 30
0.0
 10
7845.777460543888
 20
4784.122778124862
 30
0.0
 10
7846.002814686579
 20
4783.669650938818
 30
0.0
 10
7846.186318402995
 20
4783.472419854284
 30
0.0
 10
7846.293841602144
 20
4783.456596441146
 30
0.0
 10
7846.326545285807
 20
4783.45178367607
 30
0.0
  0
SPLINE
  5
193
330
1F
100
AcDbEntity
  8
0
  6
Continuous
 62
     7
370
    25
100
AcDbSpline
210
0.0
220
0.0
230
1.0
 70
     8
 71
     3
 72
    12
 73
     8
 74
     0
 42
0.00000001
 43
0.00000001
 40
0.0
 40
0.0
 40
0.0
 40
0.0
 40
0.2253411641963043
 40
0.450722579803084
 40
0.6761041834235413
 40
0.9014855732653442
 40
1.0
 40
1.0
 40
1.0
 40
1.0
 10
8109.326545285807
 20
4783.45178367607
 30
0.0
 10
8109.401685185503
 20
4783.476160963643
 30
0.0
 10
8109.551978406708
 20
4783.524919893167
 30
0.0
 10
8109.777460543889
 20
4783.903820315982
 30
0.0
 10
8110.002814686579
 20
4784.456594973579
 30
0.0
 10
8110.186318402995
 20
4785.011306306891
 30
0.0
 10
8110.293841602145
 20
4785.349055638098
 30
0.0
 10
8110.326545285807
 20
4785.45178367607
 30
0.0
  0
SPLINE
  5
194
330
1F
100
AcDbEntity
  8
0
  6
Continuous
 62
     7
370
    25
100
AcDbSpline
210
0.0
220
0.0
230
1.0
 70
     8
 71
     3
 72
    11
 73
     7
 74
     0
 42
0.00000001
 43
0.00000001
 40
0.0
 40
0.0
 40
0.0
 40
0.0
 40
0.2742813620559718
 40
0.5292497226653939
 40
0.7841650771915267
 40
1.0
 40
1.0
 40
1.0
 40
1.0
 10
8109.326545285807
 20
4784.45178367607
 30
0.0
 10
8109.418071119203
 20
4784.469890383805
 30
0.0
 10
8109.594678168179
 20
4784.504828849823
 30
0.0
 10
8109.855990527857
 20
4784.761903339136
 30
0.0
 10
8110.098054222771
 20
4785.092439004148
 30
0.0
 10
8110.254716835467
 20
4785.338820085375
 30
0.0
 10
8110.326545285807
 20
4785.45178367607
 30
0.0
  0
SPLINE
  5
195
330
1F
100
AcDbEntity
  8
0
  6
Continuous
 62
     7
370
    25
100
AcDbSpline
210
0.0
220
0.0
230
1.0
 70
     8
 71
     3
 72
    12
 73
     8
 74
     0
 42
0.00000001
 43
0.00000001
 40
0.0
 40
0.0
 40
0.0
 40
0.0
 40
0.2253411641963013
 40
0.4507225798030755
 40
0.6761041834235453
 40
0.9014855732653443
 40
1.0
 40
1.0
 40
1.0
 40
1.0
 10
8112.326545285807
 20
4783.45178367607
 30
0.0
 10
8112.090541605694
 20
4783.376643776374
 30
0.0
 10
8111.618492089471
 20
4783.226350555169
 30
0.0
 10
8110.9975397346
 20
4783.000868417987
 30
0.0
 10
8110.544412548556
 20
4782.775514275298
 30
0.0
 10
8110.347181464022
 20
4782.592010558882
 30
0.0
 10
8110.331358050884
 20
4782.484487359732
 30
0.0
 10
8110.326545285807
 20
4782.45178367607
 30
0.0
  0
SPLINE
  5
196
330
1F
100
AcDbEntity
  8
0
  6
Continuous
 62
     7
370
    25
100
AcDbSpline
210
0.0
220
0.0
230
1.0
 70
     8
 71
     3
 72
    11
 73
     7
 74
     0
 42
0.00000001
 43
0.00000001
 40
0.0
 40
0.0
 40
0.0
 40
0.0
 40
0.2742813620559703
 40
0.5292497226653985
 40
0.7841650771915278
 40
1.0
 40
1.0
 40
1.0
 40
1.0
 10
8112.326545285807
 20
4783.45178367607
 30
0.0
 10
8112.182657440904
 20
4783.360257842673
 30
0.0
 10
8111.905013340555
 20
4783.183650793698
 30
0.0
 10
8111.569219642467
 20
4782.92233843402
 30
0.0
 10
8111.362298061684
 20
4782.680274739107
 30
0.0
 10
8111.337784528395
 20
4782.523612126411
 30
0.0
 10
8111.326545285808
 20
4782.45178367607
 30
0.0
  0
SPLINE
  5
197
330
1F
100
AcDbEntity
  8
0
  6
Continuous
 62
     7
370
    25
100
AcDbSpline
210
0.0
220
0.0
230
1.0
 70
     8
 71
     3
 72
    11
 73
     7
 74
     0
 42
0.00000001
 43
0.00000001
 40
0.0
 40
0.0
 40
0.0
 40
0.0
 40
0.2500000000000015
 40
0.5000000000000026
 40
0.7500000000000036
 40
1.0
 40
1.0
 40
1.0
 40
1.0
 10
8110.326545285807
 20
4672.918091334224
 30
0.0
 10
8110.356608431382
 20
4672.879232362711
 30
0.0
 10
8110.41673472253
 20
4672.801514419686
 30
0.0
 10
8110.879233148776
 20
4672.684937505147
 30
0.0
 10
8111.540323022969
 20
4672.568360590608
 30
0.0
 10
8112.064471198195
 20
4672.490642647582
 30
0.0
 10
8112.326545285807
 20
4672.45178367607
 30
0.0
  0
SPLINE
  5
198
330
1F
100
AcDbEntity
  8
0
  6
Continuous
 62
     7
370
    25
100
AcDbSpline
210
0.0
220
0.0
230
1.0
 70
     8
 71
     3
 72
    12
 73
     8
 74
     0
 42
0.00000001
 43
0.00000001
 40
0.0
 40
0.0
 40
0.0
 40
0.0
 40
0.225341164196303
 40
0.4507225798030766
 40
0.6761041834235499
 40
0.9014855732653395
 40
1.0
 40
1.0
 40
1.0
 40
1.0
 10
7845.326545285807
 20
4782.45178367607
 30
0.0
 10
7845.302167998233
 20
4782.526923575765
 30
0.0
 10
7845.25340906871
 20
4782.67721679697
 30
0.0
 10
7844.874508645894
 20
4782.902698934151
 30
0.0
 10
7844.321733988299
 20
4783.128053076841
 30
0.0
 10
7843.767022654985
 20
4783.311556793257
 30
0.0
 10
7843.429273323778
 20
4783.419079992407
 30
0.0
 10
7843.326545285807
 20
4783.45178367607
 30
0.0
  0
SPLINE
  5
199
330
1F
100
AcDbEntity
  8
0
  6
Continuous
 62
     7
370
    25
100
AcDbSpline
210
0.0
220
0.0
230
1.0
 70
     8
 71
     3
 72
    11
 73
     7
 74
     0
 42
0.00000001
 43
0.00000001
 40
0.0
 40
0.0
 40
0.0
 40
0.0
 40
0.2742813620559725
 40
0.5292497226653954
 40
0.7841650771915089
 40
0.9999999999999999
 40
0.9999999999999999
 40
0.9999999999999999
 40
0.9999999999999999
 10
7844.326545285808
 20
4782.45178367607
 30
0.0
 10
7844.308438578071
 20
4782.543309509466
 30
0.0
 10
7844.273500112055
 20
4782.719916558441
 30
0.0
 10
7844.016425622742
 20
4782.981228918118
 30
0.0
 10
7843.685889957727
 20
4783.223292613033
 30
0.0
 10
7843.439508876501
 20
4783.379955225729
 30
0.0
 10
7843.326545285807
 20
4783.45178367607
 30
0.0
  0
SPLINE
  5
19A
330
1F
100
AcDbEntity
  8
0
  6
Continuous
 62
     7
370
    25
100
AcDbSpline
210
0.0
220
0.0
230
1.0
 70
     8
 71
     3
 72
    11
 73
     7
 74
     0
 42
0.00000001
 43
0.00000001
 40
0.0
 40
0.0
 40
0.0
 40
0.0
 40
0.2499999999999963
 40
0.4999999999999988
 40
0.7499999999999999
 40
1.0
 40
1.0
 40
1.0
 40
1.0
 10
7843.326545285807
 20
4672.45178367607
 30
0.0
 10
7843.58861937342
 20
4672.490642647582
 30
0.0
 10
7844.112767548644
 20
4672.568360590608
 30
0.0
 10
7844.773857422839
 20
4672.684937505147
 30
0.0
 10
7845.236355849083
 20
4672.801514419686
 30
0.0
 10
7845.296482140232
 20
4672.879232362711
 30
0.0
 10
7845.326545285807
 20
4672.918091334224
 30
0.0
  0
SPLINE
  5
19B
330
1F
100
AcDbEntity
  8
0
  6
Continuous
 62
     7
370
    25
100
AcDbSpline
210
0.0
220
0.0
230
1.0
 70
     8
 71
     3
 72
    11
 73
     7
 74
     0
 42
0.00000001
 43
0.00000001
 40
0.0
 40
0.0
 40
0.0
 40
0.0
 40
0.2742813620559743
 40
0.5292497226653925
 40
0.7841650771915397
 40
1.0
 40
1.0
 40
1.0
 40
1.0
 10
7845.326545285807
 20
4785.45178367607
 30
0.0
 10
7845.418071119203
 20
4785.307895831166
 30
0.0
 10
7845.594678168179
 20
4785.030251730818
 30
0.0
 10
7845.855990527856
 20
4784.69445803273
 30
0.0
 10
7846.098054222771
 20
4784.487536451946
 30
0.0
 10
7846.254716835467
 20
4784.463022918657
 30
0.0
 10
7846.326545285807
 20
4784.45178367607
 30
0.0
  0
SPLINE
  5
19C
330
1F
100
AcDbEntity
  8
0
  6
Continuous
 62
     7
370
    25
100
AcDbSpline
210
0.0
220
0.0
230
1.0
 70
     8
 71
     3
 72
    11
 73
     7
 74
     0
 42
0.00000001
 43
0.00000001
 40
0.0
 40
0.0
 40
0.0
 40
0.0
 40
0.2499999999999972
 40
0.5000000000000002
 40
0.7499999999999974
 40
0.9999999999999999
 40
0.9999999999999999
 40
0.9999999999999999
 40
0.9999999999999999
 10
7843.326545285807
 20
4672.45178367607
 30
0.0
 10
7843.457582329613
 20
4672.490642647582
 30
0.0
 10
7843.719656417225
 20
4672.568360590608
 30
0.0
 10
7844.050201354323
 20
4672.684937505147
 30
0.0
 10
7844.281450567445
 20
4672.801514419686
 30
0.0
 10
7844.31151371302
 20
4672.879232362711
 30
0.0
 10
7844.326545285808
 20
4672.918091334224
 30
0.0
  0
LINE
  5
19D
330
1F
100
AcDbEntity
  8
0
  6
Continuous
 62
     7
370
    25
100
AcDbLine
 10
7843.3265452858
 20
4783.4517836761
 30
0.0
 11
7843.3265452858
 21
4672.4517836761
 31
0.0
  0
SPLINE
  5
19E
330
1F
100
AcDbEntity
  8
0
  6
Continuous
 62
     7
370
    25
100
AcDbSpline
210
0.0
220
0.0
230
1.0
 70
     8
 71
     3
 72
    11
 73
     7
 74
     0
 42
0.00000001
 43
0.00000001
 40
0.0
 40
0.0
 40
0.0
 40
0.0
 40
0.2500000000000075
 40
0.5000000000000048
 40
0.7500000000000028
 40
1.0
 40
1.0
 40
1.0
 40
1.0
 10
8111.326545285808
 20
4672.918091334224
 30
0.0
 10
8111.341576858594
 20
4672.879232362711
 30
0.0
 10
8111.371640004169
 20
4672.801514419686
 30
0.0
 10
8111.602889217292
 20
4672.684937505147
 30
0.0
 10
8111.933434154387
 20
4672.568360590608
 30
0.0
 10
8112.195508242001
 20
4672.490642647582
 30
0.0
 10
8112.326545285807
 20
4672.45178367607
 30
0.0
  0
LINE
  5
19F
330
1F
100
AcDbEntity
  8
0
  6
Continuous
 62
     7
370
    25
100
AcDbLine
 10
8112.3265452858
 20
4672.4517836761
 30
0.0
 11
8112.3265452858
 21
4783.4517836761
 31
0.0
  0
LINE
  5
1A0
330
1F
100
AcDbEntity
  8
0
  6
Continuous
 62
     7
370
    25
100
AcDbLine
 10
8110.3265452858
 20
4785.4517836761
 30
0.0
 11
7845.3265452858
 21
4785.4517836761
 31
0.0
  0
ARC
  5
1A1
330
1F
100
AcDbEntity
  8
0
  6
Continuous
 62
     7
370
    25
100
AcDbCircle
 10
7845.3265452858
 20
4783.4517836761
 30
0.0
 40
2.0
100
AcDbArc
 50
90.0
 51
180.0
  0
ARC
  5
1A2
330
1F
100
AcDbEntity
  8
0
  6
Continuous
 62
     7
370
    25
100
AcDbCircle
 10
7845.3265452858
 20
4672.4517836761
 30
0.0
 40
2.0
100
AcDbArc
 50
180.0
 51
270.0
  0
ARC
  5
1A3
330
1F
100
AcDbEntity
  8
0
  6
Continuous
 62
     7
370
    25
100
AcDbCircle
 10
8110.3265452858
 20
4672.4517836761
 30
0.0
 40
2.0
100
AcDbArc
 50
270.0
 51
0.0
  0
ARC
  5
1A4
330
1F
100
AcDbEntity
  8
0
  6
Continuous
 62
     7
370
    25
100
AcDbCircle
 10
8110.3265452858
 20
4783.4517836761
 30
0.0
 40
2.0
100
AcDbArc
 50
0.0
 51
90.0
  0
LINE
  5
1A5
330
1F
100
AcDbEntity
  8
0
  6
Continuous
 62
     7
370
    25
100
AcDbLine
 10
7847.3265452858
 20
4672.4517836761
 30
0.0
 11
8108.3265452858
 21
4672.4517836761
 31
0.0
  0
LINE
  5
1A6
330
1F
100
AcDbEntity
  8
0
  6
Continuous
 62
     7
370
    25
100
AcDbLine
 10
8108.3265452858
 20
4673.4517836761
 30
0.0
 11
8108.3265452858
 21
4672.4517836761
 31
0.0
  0
LINE
  5
1A7
330
1F
100
AcDbEntity
  8
0
  6
Continuous
 62
     7
370
    25
100
AcDbLine
 10
7847.3265452858
 20
4673.4517836761
 30
0.0
 11
7847.3265452858
 21
4672.4517836761
 31
0.0
  0
LINE
  5
1A8
330
1F
100
AcDbEntity
  8
0
  6
Continuous
 62
     7
370
    25
100
AcDbLine
 10
7885.3265452858
 20
4673.4517836761
 30
0.0
 11
8070.3265452858
 21
4673.4517836761
 31
0.0
  0
SPLINE
  5
1A9
330
1F
100
AcDbEntity
  8
0
  6
Continuous
 62
     7
370
    25
100
AcDbSpline
210
0.0
220
0.0
230
1.0
 70
     8
 71
     3
 72
    12
 73
     8
 74
     0
 42
0.00000001
 43
0.00000001
 40
0.0
 40
0.0
 40
0.0
 40
0.0
 40
0.1416081684218305
 40
0.3990851793996082
 40
0.6540222981881088
 40
0.8968192919918568
 40
1.0
 40
1.0
 40
1.0
 40
1.0
 10
7862.828075945466
 20
4731.627555146432
 30
0.0
 10
7862.852920200007
 20
4732.256312021382
 30
0.0
 10
7862.92293716224
 20
4734.028297020793
 30
0.0
 10
7863.984567831216
 20
4736.857374128858
 30
0.0
 10
7866.258308081286
 20
4739.551043635781
 30
0.0
 10
7868.748257200778
 20
4741.010183496028
 30
0.0
 10
7870.332269177597
 20
4741.408652799295
 30
0.0
 10
7870.804668053032
 20
4741.527488043923
 30
0.0
  0
SPLINE
  5
1AA
330
1F
100
AcDbEntity
  8
0
  6
Continuous
 62
     7
370
    25
100
AcDbSpline
210
0.0
220
0.0
230
1.0
 70
     8
 71
     3
 72
    12
 73
     8
 74
     0
 42
0.00000001
 43
0.00000001
 40
0.0
 40
0.0
 40
0.0
 40
0.0
 40
0.1405692543772458
 40
0.3692577468239289
 40
0.6012141439230556
 40
0.853131110769803
 40
1.0
 40
1.0
 40
1.0
 40
1.0
 10
7870.804668053032
 20
4721.658315829817
 30
0.0
 10
7870.153260900412
 20
4721.834625023843
 30
0.0
 10
7868.442096261264
 20
4722.297767095832
 30
0.0
 10
7866.033754528461
 20
4723.888807592112
 30
0.0
 10
7863.966408662001
 20
4726.446220013619
 30
0.0
 10
7862.931594071447
 20
4729.165453251046
 30
0.0
 10
7862.855937347612
 20
4730.964853694232
 30
0.0
 10
7862.828073724007
 20
4731.627555092347
 30
0.0
  0
LINE
  5
1AB
330
1F
100
AcDbEntity
  8
0
  6
Continuous
 62
     7
370
    25
100
AcDbLine
 10
7948.304668053
 20
4705.6583158298
 30
0.0
 11
7870.804668053
 21
4721.6583158298
 31
0.0
  0
SPLINE
  5
1AC
330
1F
100
AcDbEntity
  8
0
  6
Continuous
 62
     7
370
    25
100
AcDbSpline
210
0.0
220
0.0
230
1.0
 70
     8
 71
     3
 72
    10
 73
     6
 74
     0
 42
0.00000001
 43
0.00000001
 40
0.0
 40
0.0
 40
0.0
 40
0.0
 40
0.4962891839928453
 40
0.7476923634019709
 40
1.0
 40
1.0
 40
1.0
 40
1.0
 10
7950.326545285807
 20
4705.45178367607
 30
0.0
 10
7949.988781095396
 20
4705.46142062026
 30
0.0
 10
7949.479917082343
 20
4705.475939311801
 30
0.0
 10
7948.806483501525
 20
4705.5627499031
 30
0.0
 10
7948.472139983619
 20
4705.626422411044
 30
0.0
 10
7948.304668053032
 20
4705.658315829817
 30
0.0
  0
LINE
  5
1AD
330
1F
100
AcDbEntity
  8
0
  6
Continuous
 62
     7
370
    25
100
AcDbLine
 10
8005.3265452858
 20
4705.4517836761
 30
0.0
 11
7950.3265452858
 21
4705.4517836761
 31
0.0
  0
SPLINE
  5
1AE
330
1F
100
AcDbEntity
  8
0
  6
Continuous
 62
     7
370
    25
100
AcDbSpline
210
0.0
220
0.0
230
1.0
 70
     8
 71
     3
 72
    10
 73
     6
 74
     0
 42
0.00000001
 43
0.00000001
 40
0.0
 40
0.0
 40
0.0
 40
0.0
 40
0.4963188784477129
 40
0.7476970274327626
 40
1.0
 40
1.0
 40
1.0
 40
1.0
 10
8007.348422518582
 20
4705.658315829817
 30
0.0
 10
8007.017595169785
 20
4705.599711455765
 30
0.0
 10
8006.519208676682
 20
4705.511424835658
 30
0.0
 10
8005.840757522831
 20
4705.459760326032
 30
0.0
 10
8005.498159049826
 20
4705.454445812102
 30
0.0
 10
8005.326545285808
 20
4705.45178367607
 30
0.0
  0
LINE
  5
1AF
330
1F
100
AcDbEntity
  8
0
  6
Continuous
 62
     7
370
    25
100
AcDbLine
 10
8084.8484225186
 20
4721.6583158298
 30
0.0
 11
8007.3484225186
 21
4705.6583158298
 31
0.0
  0
SPLINE
  5
1B0
330
1F
100
AcDbEntity
  8
0
  6
Continuous
 62
     7
370
    25
100
AcDbSpline
210
0.0
220
0.0
230
1.0
 70
     8
 71
     3
 72
    14
 73
    10
 74
     0
 42
0.00000001
 43
0.00000001
 40
0.0
 40
0.0
 40
0.0
 40
0.0
 40
0.1401113351223374
 40
0.4062289920868091
 40
0.5391518711963212
 40
0.6720171124458637
 40
0.7980101247776463
 40
0.9239381375431541
 40
1.0
 40
1.0
 40
1.0
 40
1.0
 10
8092.824996054674
 20
4731.627048848138
 30
0.0
 10
8092.80002414142
 20
4730.994214322627
 30
0.0
 10
8092.727622325089
 20
4729.159418221143
 30
0.0
 10
8091.833291629247
 20
4726.82548959031
 30
0.0
 10
8090.412273896726
 20
4724.853116679007
 30
0.0
 10
8089.099609181833
 20
4723.591503108743
 30
0.0
 10
8087.583753295185
 20
4722.60138487623
 30
0.0
 10
8086.146653003188
 20
4721.970638496159
 30
0.0
 10
8085.203557247757
 20
4721.743752604597
 30
0.0
 10
8084.848422518581
 20
4721.658315829817
 30
0.0
  0
SPLINE
  5
1B1
330
1F
100
AcDbEntity
  8
0
  6
Continuous
 62
     7
370
    25
100
AcDbSpline
210
0.0
220
0.0
230
1.0
 70
     8
 71
     3
 72
    12
 73
     8
 74
     0
 42
0.00000001
 43
0.00000001
 40
0.0
 40
0.0
 40
0.0
 40
0.0
 40
0.1417202132817359
 40
0.3750561619714591
 40
0.6093884217809323
 40
0.8521618214989252
 40
0.9999999999999999
 40
0.9999999999999999
 40
0.9999999999999999
 40
0.9999999999999999
 10
8084.848422518581
 20
4741.527488043923
 30
0.0
 10
8085.495907596131
 20
4741.353905359242
 30
0.0
 10
8087.209447693876
 20
4740.894526601661
 30
0.0
 10
8089.651239488961
 20
4739.294212263779
 30
0.0
 10
8091.715385121194
 20
4736.719310373333
 30
0.0
 10
8092.725311708623
 20
4734.019725684355
 30
0.0
 10
8092.797637388538
 20
4732.283988655199
 30
0.0
 10
8092.825011120844
 20
4731.627049089001
 30
0.0
  0
LINE
  5
1B2
330
1F
100
AcDbEntity
  8
0
  6
Continuous
 62
     7
370
    25
100
AcDbLine
 10
8007.3484225186
 20
4757.4178990028
 30
0.0
 11
8084.8484225186
 21
4741.5274880439
 31
0.0
  0
SPLINE
  5
1B3
330
1F
100
AcDbEntity
  8
0
  6
Continuous
 62
     7
370
    25
100
AcDbSpline
210
0.0
220
0.0
230
1.0
 70
     8
 71
     3
 72
    10
 73
     6
 74
     0
 42
0.00000001
 43
0.00000001
 40
0.0
 40
0.0
 40
0.0
 40
0.0
 40
0.4972730144326166
 40
0.7483009680818835
 40
1.0
 40
1.0
 40
1.0
 40
1.0
 10
8005.326545285808
 20
4757.623016552782
 30
0.0
 10
8005.664098766136
 20
4757.61347359657
 30
0.0
 10
8006.172052322391
 20
4757.599113269013
 30
0.0
 10
8006.845651036259
 20
4757.512974493826
 30
0.0
 10
8007.180682949103
 20
4757.449619023729
 30
0.0
 10
8007.348422518582
 20
4757.417899002827
 30
0.0
  0
LINE
  5
1B4
330
1F
100
AcDbEntity
  8
0
  6
Continuous
 62
     7
370
    25
100
AcDbLine
 10
7950.3265452858
 20
4757.6230165528
 30
0.0
 11
8005.3265452858
 21
4757.6230165528
 31
0.0
  0
SPLINE
  5
1B5
330
1F
100
AcDbEntity
  8
0
  6
Continuous
 62
     7
370
    25
100
AcDbSpline
210
0.0
220
0.0
230
1.0
 70
     8
 71
     3
 72
    10
 73
     6
 74
     0
 42
0.00000001
 43
0.00000001
 40
0.0
 40
0.0
 40
0.0
 40
0.0
 40
0.4972732371839771
 40
0.7483010031775775
 40
1.0
 40
1.0
 40
1.0
 40
1.0
 10
7948.304668053031
 20
4757.417899002827
 30
0.0
 10
7948.637111086643
 20
4757.476324235718
 30
0.0
 10
7949.13737419543
 20
4757.564243023848
 30
0.0
 10
7949.814654740127
 20
4757.615165896805
 30
0.0
 10
7950.155763290118
 20
4757.62039733915
 30
0.0
 10
7950.326545285807
 20
4757.623016552782
 30
0.0
  0
LINE
  5
1B6
330
1F
100
AcDbEntity
  8
0
  6
Continuous
 62
     7
370
    25
100
AcDbLine
 10
7870.804668053
 20
4741.5274880439
 30
0.0
 11
7948.304668053
 21
4757.4178990028
 31
0.0
  0
LINE
  5
1B7
330
1F
100
AcDbEntity
  8
0
  6
Continuous
 62
     7
370
    25
100
AcDbLine
 10
7847.3265452858
 20
4674.4517836761
 30
0.0
 11
7847.3265452858
 21
4780.4378947872
 31
0.0
  0
LINE
  5
1B8
330
1F
100
AcDbEntity
  8
0
  6
Continuous
 62
     7
370
    25
100
AcDbLine
 10
7847.3265452858
 20
4780.4378947872
 30
0.0
 11
8108.3265452858
 21
4780.4378947872
 31
0.0
  0
LINE
  5
1B9
330
1F
100
AcDbEntity
  8
0
  6
Continuous
 62
     7
370
    25
100
AcDbLine
 10
8108.3265452858
 20
4674.4517836761
 30
0.0
 11
8108.3265452858
 21
4780.4378947872
 31
0.0
  0
LINE
  5
1BA
330
1F
100
AcDbEntity
  8
0
  6
Continuous
 62
     7
370
    25
100
AcDbLine
 10
7847.3265452858
 20
4781.4517836761
 30
0.0
 11
8108.3265452858
 21
4781.4517836761
 31
0.0
  0
LINE
  5
1BB
330
1F
100
AcDbEntity
  8
0
  6
Continuous
 62
     7
370
    25
100
AcDbLine
 10
7847.3265452858
 20
4782.4517836761
 30
0.0
 11
7847.3265452858
 21
4781.4517836761
 31
0.0
  0
LINE
  5
1BC
330
1F
100
AcDbEntity
  8
0
  6
Continuous
 62
     7
370
    25
100
AcDbLine
 10
8108.3265452858
 20
4782.4517836761
 30
0.0
 11
8108.3265452858
 21
4781.4517836761
 31
0.0
  0
LINE
  5
1BD
330
1F
100
AcDbEntity
  8
0
  6
Continuous
 62
     7
370
    25
100
AcDbLine
 10
7870.804668053
 20
4741.2452515223
 30
0.0
 11
7870.804668053
 21
4741.5274880439
 31
0.0
  0
SPLINE
  5
1BE
330
1F
100
AcDbEntity
  8
0
  6
Continuous
 62
     7
370
    25
100
AcDbSpline
210
0.0
220
0.0
230
1.0
 70
     8
 71
     3
 72
    13
 73
     9
 74
     0
 42
0.00000001
 43
0.00000001
 40
0.0
 40
0.0
 40
0.0
 40
0.0
 40
0.1077775357094849
 40
0.3775410910356536
 40
0.5115114839454549
 40
0.6454478573532682
 40
0.8980428091083361
 40
1.0
 40
1.0
 40
1.0
 40
1.0
 10
7862.868395748142
 20
4731.793413736821
 30
0.0
 10
7862.889758421094
 20
4732.255470301428
 30
0.0
 10
7862.964591147605
 20
4733.874038942594
 30
0.0
 10
7863.795539657512
 20
4736.012656502714
 30
0.0
 10
7865.164233093265
 20
4737.958827525312
 30
0.0
 10
7866.825255484615
 20
4739.593179982634
 30
0.0
 10
7868.785413884785
 20
4740.738367725457
 30
0.0
 10
7870.35368607399
 20
4741.132043655056
 30
0.0
 10
7870.804668053032
 20
4741.245251522322
 30
0.0
  0
LINE
  5
1BF
330
1F
100
AcDbEntity
  8
0
  6
Continuous
 62
     7
370
    25
100
AcDbLine
 10
8084.8484225186
 20
4741.2452515223
 30
0.0
 11
8084.8484225186
 21
4741.5274880439
 31
0.0
  0
SPLINE
  5
1C0
330
1F
100
AcDbEntity
  8
0
  6
Continuous
 62
     7
370
    25
100
AcDbSpline
210
0.0
220
0.0
230
1.0
 70
     8
 71
     3
 72
    12
 73
     8
 74
     0
 42
0.00000001
 43
0.00000001
 40
0.0
 40
0.0
 40
0.0
 40
0.0
 40
0.1473730021618289
 40
0.3872135283064936
 40
0.6283150594038251
 40
0.8797063561787253
 40
1.0
 40
1.0
 40
1.0
 40
1.0
 10
8084.848422518581
 20
4741.245251522322
 30
0.0
 10
8085.502076625899
 20
4741.068378837108
 30
0.0
 10
8087.219512719847
 20
4740.603656700094
 30
0.0
 10
8089.658559702921
 20
4738.98918808601
 30
0.0
 10
8091.708491675432
 20
4736.403999379329
 30
0.0
 10
8092.688606564183
 20
4733.833724862015
 30
0.0
 10
8092.764576898341
 20
4732.230089346921
 30
0.0
 10
8092.789164249942
 20
4731.711082149152
 30
0.0
  0
LINE
  5
1C1
330
1F
100
AcDbEntity
  8
0
  6
Continuous
 62
     7
370
    25
100
AcDbLine
 10
8007.3484225186
 20
4757.2452515223
 30
0.0
 11
8007.3484225186
 21
4757.4178990028
 31
0.0
  0
LINE
  5
1C2
330
1F
100
AcDbEntity
  8
0
  6
Continuous
 62
     7
370
    25
100
AcDbLine
 10
8007.3484225186
 20
4757.2452515223
 30
0.0
 11
8084.8484225186
 21
4741.2452515223
 31
0.0
  0
LINE
  5
1C3
330
1F
100
AcDbEntity
  8
0
  6
Continuous
 62
     7
370
    25
100
AcDbLine
 10
7948.304668053
 20
4757.2452515223
 30
0.0
 11
7948.304668053
 21
4757.4178990028
 31
0.0
  0
LINE
  5
1C4
330
1F
100
AcDbEntity
  8
0
  6
Continuous
 62
     7
370
    25
100
AcDbLine
 10
7870.804668053
 20
4741.2452515223
 30
0.0
 11
7948.304668053
 21
4757.2452515223
 31
0.0
  0
LINE
  5
1C5
330
1F
100
AcDbEntity
  8
0
  6
Continuous
 62
     7
370
    25
100
AcDbLine
 10
8005.3265452858
 20
4757.4517836761
 30
0.0
 11
8005.3265452858
 21
4757.6230165528
 31
0.0
  0
SPLINE
  5
1C6
330
1F
100
AcDbEntity
  8
0
  6
Continuous
 62
     7
370
    25
100
AcDbSpline
210
0.0
220
0.0
230
1.0
 70
     8
 71
     3
 72
    10
 73
     6
 74
     0
 42
0.00000001
 43
0.00000001
 40
0.0
 40
0.0
 40
0.0
 40
0.0
 40
0.4972358169033637
 40
0.7482778879054575
 40
1.0
 40
1.0
 40
1.0
 40
1.0
 10
8005.326545285808
 20
4757.45178367607
 30
0.0
 10
8005.664106668915
 20
4757.442173977684
 30
0.0
 10
8006.172094448965
 20
4757.427712580158
 30
0.0
 10
8006.845687465318
 20
4757.340976545648
 30
0.0
 10
8007.180693124107
 20
4757.277188623374
 30
0.0
 10
8007.348422518582
 20
4757.245251522322
 30
0.0
  0
LINE
  5
1C7
330
1F
100
AcDbEntity
  8
0
  6
Continuous
 62
     7
370
    25
100
AcDbLine
 10
7950.3265452858
 20
4757.4517836761
 30
0.0
 11
7950.3265452858
 21
4757.6230165528
 31
0.0
  0
SPLINE
  5
1C8
330
1F
100
AcDbEntity
  8
0
  6
Continuous
 62
     7
370
    25
100
AcDbSpline
210
0.0
220
0.0
230
1.0
 70
     8
 71
     3
 72
    10
 73
     6
 74
     0
 42
0.00000001
 43
0.00000001
 40
0.0
 40
0.0
 40
0.0
 40
0.0
 40
0.4972367521446286
 40
0.7482780346259484
 40
1.0
 40
1.0
 40
1.0
 40
1.0
 10
7948.304668053031
 20
4757.245251522322
 30
0.0
 10
7948.637049703149
 20
4757.30407132136
 30
0.0
 10
7949.137241788355
 20
4757.392587633622
 30
0.0
 10
7949.814566965722
 20
4757.44387630337
 30
0.0
 10
7950.155731879923
 20
4757.449145507207
 30
0.0
 10
7950.326545285807
 20
4757.45178367607
 30
0.0
  0
LINE
  5
1C9
330
1F
100
AcDbEntity
  8
0
  6
Continuous
 62
     7
370
    25
100
AcDbLine
 10
7950.3265452858
 20
4757.4517836761
 30
0.0
 11
8005.3265452858
 21
4757.4517836761
 31
0.0
  0
LINE
  5
1CA
330
1F
100
AcDbEntity
  8
0
  6
Continuous
 62
     7
370
    25
100
AcDbLine
 10
7847.3265452858
 20
4780.4378947872
 30
0.0
 11
7847.3265452858
 21
4781.4517836761
 31
0.0
  0
LINE
  5
1CB
330
1F
100
AcDbEntity
  8
0
  6
Continuous
 62
     7
370
    25
100
AcDbLine
 10
8108.3265452858
 20
4780.4378947872
 30
0.0
 11
8108.3265452858
 21
4781.4517836761
 31
0.0
  0
ARC
  5
1CC
330
1F
100
AcDbEntity
  8
0
  6
Continuous
 62
     7
370
    25
100
AcDbCircle
 10
8108.3265452858
 20
4781.4517836761
 30
0.0
 40
1.0
100
AcDbArc
 50
0.0
 51
90.0
  0
LINE
  5
1CD
330
1F
100
AcDbEntity
  8
0
  6
Continuous
 62
     7
370
    25
100
AcDbLine
 10
8108.3265452858
 20
4782.4517836761
 30
0.0
 11
8108.3265452858
 21
4783.4517836761
 31
0.0
  0
ARC
  5
1CE
330
1F
100
AcDbEntity
  8
0
  6
Continuous
 62
     7
370
    25
100
AcDbCircle
 10
8108.3265452858
 20
4781.4517836761
 30
0.0
 40
2.0
100
AcDbArc
 50
0.0
 51
90.0
  0
LINE
  5
1CF
330
1F
100
AcDbEntity
  8
0
  6
Continuous
 62
     7
370
    25
100
AcDbLine
 10
8110.3265452858
 20
4781.4517836761
 30
0.0
 11
8109.3265452858
 21
4781.4517836761
 31
0.0
  0
LINE
  5
1D0
330
1F
100
AcDbEntity
  8
0
  6
Continuous
 62
     7
370
    25
100
AcDbLine
 10
8109.3265452858
 20
4675.4517836761
 30
0.0
 11
8110.3265452858
 21
4675.4517836761
 31
0.0
  0
LINE
  5
1D1
330
1F
100
AcDbEntity
  8
0
  6
Continuous
 62
     7
370
    25
100
AcDbLine
 10
8110.3265452858
 20
4675.4517836761
 30
0.0
 11
8110.3265452858
 21
4781.4517836761
 31
0.0
  0
LINE
  5
1D2
330
1F
100
AcDbEntity
  8
0
  6
Continuous
 62
     7
370
    25
100
AcDbLine
 10
8109.3265452858
 20
4675.4517836761
 30
0.0
 11
8109.3265452858
 21
4781.4517836761
 31
0.0
  0
LINE
  5
1D3
330
1F
100
AcDbEntity
  8
0
  6
Continuous
 62
     7
370
    25
100
AcDbLine
 10
7847.3265452858
 20
4783.4517836761
 30
0.0
 11
7847.3265452858
 21
4782.4517836761
 31
0.0
  0
LINE
  5
1D4
330
1F
100
AcDbEntity
  8
0
  6
Continuous
 62
     7
370
    25
100
AcDbLine
 10
8108.3265452858
 20
4782.4517836761
 30
0.0
 11
7847.3265452858
 21
4782.4517836761
 31
0.0
  0
LINE
  5
1D5
330
1F
100
AcDbEntity
  8
0
  6
Continuous
 62
     7
370
    25
100
AcDbLine
 10
8108.3265452858
 20
4783.4517836761
 30
0.0
 11
7847.3265452858
 21
4783.4517836761
 31
0.0
  0
LINE
  5
1D6
330
1F
100
AcDbEntity
  8
0
  6
Continuous
 62
     7
370
    25
100
AcDbLine
 10
7846.3265452858
 20
4781.4517836761
 30
0.0
 11
7845.3265452858
 21
4781.4517836761
 31
0.0
  0
ARC
  5
1D7
330
1F
100
AcDbEntity
  8
0
  6
Continuous
 62
     7
370
    25
100
AcDbCircle
 10
7847.3265452858
 20
4781.4517836761
 30
0.0
 40
1.000000000000909
100
AcDbArc
 50
90.0
 51
180.0
  0
ARC
  5
1D8
330
1F
100
AcDbEntity
  8
0
  6
Continuous
 62
     7
370
    25
100
AcDbCircle
 10
7847.3265452858
 20
4781.4517836761
 30
0.0
 40
2.000000000000909
100
AcDbArc
 50
90.0
 51
180.0
  0
LINE
  5
1D9
330
1F
100
AcDbEntity
  8
0
  6
Continuous
 62
     7
370
    25
100
AcDbLine
 10
7845.3265452858
 20
4675.4517836761
 30
0.0
 11
7846.3265452858
 21
4675.4517836761
 31
0.0
  0
LINE
  5
1DA
330
1F
100
AcDbEntity
  8
0
  6
Continuous
 62
     7
370
    25
100
AcDbLine
 10
7846.3265452858
 20
4781.4517836761
 30
0.0
 11
7846.3265452858
 21
4675.4517836761
 31
0.0
  0
LINE
  5
1DB
330
1F
100
AcDbEntity
  8
0
  6
Continuous
 62
     7
370
    25
100
AcDbLine
 10
7845.3265452858
 20
4781.4517836761
 30
0.0
 11
7845.3265452858
 21
4675.4517836761
 31
0.0
  0
LINE
  5
1DC
330
1F
100
AcDbEntity
  8
0
  6
Continuous
 62
     7
370
    25
100
AcDbLine
 10
8070.3265452858
 20
4673.4517836761
 30
0.0
 11
8070.3265452858
 21
4674.4517836761
 31
0.0
  0
LINE
  5
1DD
330
1F
100
AcDbEntity
  8
0
  6
Continuous
 62
     7
370
    25
100
AcDbLine
 10
8070.3265452858
 20
4674.4517836761
 30
0.0
 11
8108.3265452858
 21
4674.4517836761
 31
0.0
  0
LINE
  5
1DE
330
1F
100
AcDbEntity
  8
0
  6
Continuous
 62
     7
370
    25
100
AcDbLine
 10
8108.3265452858
 20
4673.4517836761
 30
0.0
 11
8108.3265452858
 21
4674.4517836761
 31
0.0
  0
LINE
  5
1DF
330
1F
100
AcDbEntity
  8
0
  6
Continuous
 62
     7
370
    25
100
AcDbLine
 10
8070.3265452858
 20
4673.4517836761
 30
0.0
 11
8108.3265452858
 21
4673.4517836761
 31
0.0
  0
LINE
  5
1E0
330
1F
100
AcDbEntity
  8
0
  6
Continuous
 62
     7
370
    25
100
AcDbLine
 10
7847.3265452858
 20
4674.4517836761
 30
0.0
 11
7847.3265452858
 21
4673.4517836761
 31
0.0
  0
ARC
  5
1E1
330
1F
100
AcDbEntity
  8
0
  6
Continuous
 62
     7
370
    25
100
AcDbCircle
 10
7847.3265452858
 20
4675.4517836761
 30
0.0
 40
2.000000000000909
100
AcDbArc
 50
180.0
 51
270.0
  0
ARC
  5
1E2
330
1F
100
AcDbEntity
  8
0
  6
Continuous
 62
     7
370
    25
100
AcDbCircle
 10
7847.3265452858
 20
4675.4517836761
 30
0.0
 40
1.000000000000909
100
AcDbArc
 50
180.0
 51
270.0
  0
LINE
  5
1E3
330
1F
100
AcDbEntity
  8
0
  6
Continuous
 62
     7
370
    25
100
AcDbLine
 10
7847.3265452858
 20
4674.4517836761
 30
0.0
 11
7885.3265452858
 21
4674.4517836761
 31
0.0
  0
LINE
  5
1E4
330
1F
100
AcDbEntity
  8
0
  6
Continuous
 62
     7
370
    25
100
AcDbLine
 10
7847.3265452858
 20
4673.4517836761
 30
0.0
 11
7885.3265452858
 21
4673.4517836761
 31
0.0
  0
LINE
  5
1E5
330
1F
100
AcDbEntity
  8
0
  6
Continuous
 62
     7
370
    25
100
AcDbLine
 10
7885.3265452858
 20
4674.4517836761
 30
0.0
 11
7885.3265452858
 21
4673.4517836761
 31
0.0
  0
ARC
  5
1E6
330
1F
100
AcDbEntity
  8
0
  6
Continuous
 62
     7
370
    25
100
AcDbCircle
 10
8108.3265452858
 20
4675.4517836761
 30
0.0
 40
1.0
100
AcDbArc
 50
270.0
 51
0.0
  0
ARC
  5
1E7
330
1F
100
AcDbEntity
  8
0
  6
Continuous
 62
     7
370
    25
100
AcDbCircle
 10
8108.3265452858
 20
4675.4517836761
 30
0.0
 40
2.0
100
AcDbArc
 50
270.0
 51
0.0
  0
CIRCLE
  5
1E8
330
1F
100
AcDbEntity
  8
0
  6
Continuous
 62
     7
370
    25
100
AcDbCircle
 10
7977.8265452858
 20
4792.4517836761
 30
0.0
 40
1.749999999999926
  0
CIRCLE
  5
1E9
330
1F
100
AcDbEntity
  8
0
  6
Continuous
 62
     7
370
    25
100
AcDbCircle
 10
7977.8265452858
 20
4792.4517836761
 30
0.0
 40
2.000000000000218
  0
CIRCLE
  5
1EA
330
1F
100
AcDbEntity
  8
0
  6
Continuous
 62
     7
370
    25
100
AcDbCircle
 10
7836.3265452858
 20
4727.9517836761
 30
0.0
 40
1.749999999999251
  0
CIRCLE
  5
1EB
330
1F
100
AcDbEntity
  8
0
  6
Continuous
 62
     7
370
    25
100
AcDbCircle
 10
7836.3265452858
 20
4727.9517836761
 30
0.0
 40
2.000000000000276
  0
CIRCLE
  5
1EC
330
1F
100
AcDbEntity
  8
0
  6
Continuous
 62
     7
370
    25
100
AcDbCircle
 10
7977.8265452858
 20
4663.4517836761
 30
0.0
 40
1.749999999999943
  0
CIRCLE
  5
1ED
330
1F
100
AcDbEntity
  8
0
  6
Continuous
 62
     7
370
    25
100
AcDbCircle
 10
7977.8265452858
 20
4663.4517836761
 30
0.0
 40
2.000000000000356
  0
CIRCLE
  5
1EE
330
1F
100
AcDbEntity
  8
0
  6
Continuous
 62
     7
370
    25
100
AcDbCircle
 10
8119.3265452858
 20
4727.9517836761
 30
0.0
 40
1.750000000000451
  0
CIRCLE
  5
1EF
330
1F
100
AcDbEntity
  8
0
  6
Continuous
 62
     7
370
    25
100
AcDbCircle
 10
8119.3265452858
 20
4727.9517836761
 30
0.0
 40
1.999999999999756
  0
CIRCLE
  5
1F0
330
1F
100
AcDbEntity
  8
0
  6
Continuous
 62
     7
370
    25
100
AcDbCircle
 10
8119.3265452858
 20
4727.9517836761
 30
0.0
 40
3.00000000000099
  0
CIRCLE
  5
1F1
330
1F
100
AcDbEntity
  8
0
  6
Continuous
 62
     7
370
    25
100
AcDbCircle
 10
7977.8265452858
 20
4663.4517836761
 30
0.0
 40
3.000000000000095
  0
CIRCLE
  5
1F2
330
1F
100
AcDbEntity
  8
0
  6
Continuous
 62
     7
370
    25
100
AcDbCircle
 10
7977.8265452858
 20
4792.4517836761
 30
0.0
 40
2.999999999999935
  0
CIRCLE
  5
1F3
330
1F
100
AcDbEntity
  8
0
  6
Continuous
 62
     7
370
    25
100
AcDbCircle
 10
7836.3265452858
 20
4727.9517836761
 30
0.0
 40
2.999999999999358
  0
LINE
  5
1F4
330
1F
100
AcDbEntity
  8
0
  6
Continuous
 62
     7
370
    25
100
AcDbLine
 10
8125.8265452858
 20
4851.9517836761
 30
0.0
 11
8125.8265452858
 21
4852.9517836761
 31
0.0
  0
LINE
  5
1F5
330
1F
100
AcDbEntity
  8
0
  6
Continuous
 62
     7
370
    25
100
AcDbLine
 10
8107.8265452858
 20
4852.9517836761
 30
0.0
 11
8107.8265452858
 21
4851.9517836761
 31
0.0
  0
LINE
  5
1F6
330
1F
100
AcDbEntity
  8
0
  6
Continuous
 62
     7
370
    25
100
AcDbLine
 10
8125.8265452858
 20
4852.9517836761
 30
0.0
 11
8107.8265452858
 21
4852.9517836761
 31
0.0
  0
LINE
  5
1F7
330
1F
100
AcDbEntity
  8
0
  6
Continuous
 62
     7
370
    25
100
AcDbLine
 10
8125.8265452858
 20
4851.9517836761
 30
0.0
 11
8107.8265452858
 21
4851.9517836761
 31
0.0
  0
LINE
  5
1F8
330
1F
100
AcDbEntity
  8
0
  6
Continuous
 62
     7
370
    25
100
AcDbLine
 10
7857.8265452858
 20
4852.9517836761
 30
0.0
 11
7857.8265452858
 21
4851.9517836761
 31
0.0
  0
LINE
  5
1F9
330
1F
100
AcDbEntity
  8
0
  6
Continuous
 62
     7
370
    25
100
AcDbLine
 10
7847.8265452858
 20
4851.9517836761
 30
0.0
 11
7847.8265452858
 21
4852.9517836761
 31
0.0
  0
LINE
  5
1FA
330
1F
100
AcDbEntity
  8
0
  6
Continuous
 62
     7
370
    25
100
AcDbLine
 10
7847.8265452858
 20
4852.9517836761
 30
0.0
 11
7857.8265452858
 21
4852.9517836761
 31
0.0
  0
LINE
  5
1FB
330
1F
100
AcDbEntity
  8
0
  6
Continuous
 62
     7
370
    25
100
AcDbLine
 10
7857.8265452858
 20
4851.9517836761
 30
0.0
 11
7847.8265452858
 21
4851.9517836761
 31
0.0
  0
LINE
  5
1FC
330
1F
100
AcDbEntity
  8
0
  6
Continuous
 62
     7
370
    25
100
AcDbLine
 10
7829.8265452858
 20
4851.9517836761
 30
0.0
 11
7829.8265452858
 21
4852.9517836761
 31
0.0
  0
LINE
  5
1FD
330
1F
100
AcDbEntity
  8
0
  6
Continuous
 62
     7
370
    25
100
AcDbLine
 10
7847.8265452858
 20
4852.9517836761
 30
0.0
 11
7829.8265452858
 21
4852.9517836761
 31
0.0
  0
LINE
  5
1FE
330
1F
100
AcDbEntity
  8
0
  6
Continuous
 62
     7
370
    25
100
AcDbLine
 10
7847.8265452858
 20
4851.9517836761
 30
0.0
 11
7829.8265452858
 21
4851.9517836761
 31
0.0
  0
LINE
  5
1FF
330
1F
100
AcDbEntity
  8
0
  6
Continuous
 62
     7
370
    25
100
AcDbLine
 10
8097.8265452858
 20
4851.9517836761
 30
0.0
 11
8097.8265452858
 21
4852.9517836761
 31
0.0
  0
LINE
  5
200
330
1F
100
AcDbEntity
  8
0
  6
Continuous
 62
     7
370
    25
100
AcDbLine
 10
8097.8265452858
 20
4852.9517836761
 30
0.0
 11
8107.8265452858
 21
4852.9517836761
 31
0.0
  0
LINE
  5
201
330
1F
100
AcDbEntity
  8
0
  6
Continuous
 62
     7
370
    25
100
AcDbLine
 10
8107.8265452858
 20
4851.9517836761
 30
0.0
 11
8097.8265452858
 21
4851.9517836761
 31
0.0
  0
LINE
  5
202
330
1F
100
AcDbEntity
  8
0
  6
Continuous
 62
     7
370
    25
100
AcDbLine
 10
7827.8265452858
 20
4850.9517836761
 30
0.0
 11
7828.8265452858
 21
4850.9517836761
 31
0.0
  0
ARC
  5
203
330
1F
100
AcDbEntity
  8
0
  6
Continuous
 62
     7
370
    25
100
AcDbCircle
 10
7829.8265452858
 20
4850.9517836761
 30
0.0
 40
1.000000000000909
100
AcDbArc
 50
90.0
 51
180.0
  0
ARC
  5
204
330
1F
100
AcDbEntity
  8
0
  6
Continuous
 62
     7
370
    25
100
AcDbCircle
 10
7829.8265452858
 20
4850.9517836761
 30
0.0
 40
2.0
100
AcDbArc
 50
90.0
 51
180.0
  0
LINE
  5
205
330
1F
100
AcDbEntity
  8
0
  6
Continuous
 62
     7
370
    25
100
AcDbLine
 10
7828.8265452858
 20
4850.9517836761
 30
0.0
 11
7828.8265452858
 21
4775.9517836761
 31
0.0
  0
LINE
  5
206
330
1F
100
AcDbEntity
  8
0
  6
Continuous
 62
     7
370
    25
100
AcDbLine
 10
7827.8265452858
 20
4775.9517836761
 30
0.0
 11
7828.8265452858
 21
4775.9517836761
 31
0.0
  0
LINE
  5
207
330
1F
100
AcDbEntity
  8
0
  6
Continuous
 62
     7
370
    25
100
AcDbLine
 10
7827.8265452858
 20
4850.9517836761
 30
0.0
 11
7827.8265452858
 21
4775.9517836761
 31
0.0
  0
ARC
  5
208
330
1F
100
AcDbEntity
  8
0
  6
Continuous
 62
     7
370
    25
100
AcDbCircle
 10
8125.8265452858
 20
4850.9517836761
 30
0.0
 40
2.000000000000909
100
AcDbArc
 50
0.0
 51
90.0
  0
LINE
  5
209
330
1F
100
AcDbEntity
  8
0
  6
Continuous
 62
     7
370
    25
100
AcDbLine
 10
8127.8265452858
 20
4850.9517836761
 30
0.0
 11
8126.8265452858
 21
4850.9517836761
 31
0.0
  0
ARC
  5
20A
330
1F
100
AcDbEntity
  8
0
  6
Continuous
 62
     7
370
    25
100
AcDbCircle
 10
8125.8265452858
 20
4850.9517836761
 30
0.0
 40
1.0
100
AcDbArc
 50
0.0
 51
90.0
  0
LINE
  5
20B
330
1F
100
AcDbEntity
  8
0
  6
Continuous
 62
     7
370
    25
100
AcDbLine
 10
8126.8265452858
 20
4775.9517836761
 30
0.0
 11
8127.8265452858
 21
4775.9517836761
 31
0.0
  0
LINE
  5
20C
330
1F
100
AcDbEntity
  8
0
  6
Continuous
 62
     7
370
    25
100
AcDbLine
 10
8126.8265452858
 20
4850.9517836761
 30
0.0
 11
8126.8265452858
 21
4775.9517836761
 31
0.0
  0
LINE
  5
20D
330
1F
100
AcDbEntity
  8
0
  6
Continuous
 62
     7
370
    25
100
AcDbLine
 10
8127.8265452858
 20
4850.9517836761
 30
0.0
 11
8127.8265452858
 21
4775.9517836761
 31
0.0
  0
LINE
  5
20E
330
1F
100
AcDbEntity
  8
0
  6
Continuous
 62
     7
370
    25
100
AcDbLine
 10
8127.8265452858
 20
4765.9517836761
 30
0.0
 11
8126.8265452858
 21
4765.9517836761
 31
0.0
  0
LINE
  5
20F
330
1F
100
AcDbEntity
  8
0
  6
Continuous
 62
     7
370
    25
100
AcDbLine
 10
8126.8265452858
 20
4765.9517836761
 30
0.0
 11
8126.8265452858
 21
4775.9517836761
 31
0.0
  0
LINE
  5
210
330
1F
100
AcDbEntity
  8
0
  6
Continuous
 62
     7
370
    25
100
AcDbLine
 10
8127.8265452858
 20
4775.9517836761
 30
0.0
 11
8127.8265452858
 21
4765.9517836761
 31
0.0
  0
LINE
  5
211
330
1F
100
AcDbEntity
  8
0
  6
Continuous
 62
     7
370
    25
100
AcDbLine
 10
7828.8265452858
 20
4765.9517836761
 30
0.0
 11
7827.8265452858
 21
4765.9517836761
 31
0.0
  0
LINE
  5
212
330
1F
100
AcDbEntity
  8
0
  6
Continuous
 62
     7
370
    25
100
AcDbLine
 10
7828.8265452858
 20
4775.9517836761
 30
0.0
 11
7828.8265452858
 21
4765.9517836761
 31
0.0
  0
LINE
  5
213
330
1F
100
AcDbEntity
  8
0
  6
Continuous
 62
     7
370
    25
100
AcDbLine
 10
7827.8265452858
 20
4765.9517836761
 30
0.0
 11
7827.8265452858
 21
4775.9517836761
 31
0.0
  0
LINE
  5
214
330
1F
100
AcDbEntity
  8
0
  6
Continuous
 62
     7
370
    25
100
AcDbLine
 10
8127.8265452858
 20
4755.9517836761
 30
0.0
 11
8126.8265452858
 21
4755.9517836761
 31
0.0
  0
LINE
  5
215
330
1F
100
AcDbEntity
  8
0
  6
Continuous
 62
     7
370
    25
100
AcDbLine
 10
8126.8265452858
 20
4755.9517836761
 30
0.0
 11
8126.8265452858
 21
4765.9517836761
 31
0.0
  0
LINE
  5
216
330
1F
100
AcDbEntity
  8
0
  6
Continuous
 62
     7
370
    25
100
AcDbLine
 10
8127.8265452858
 20
4765.9517836761
 30
0.0
 11
8127.8265452858
 21
4755.9517836761
 31
0.0
  0
LINE
  5
217
330
1F
100
AcDbEntity
  8
0
  6
Continuous
 62
     7
370
    25
100
AcDbLine
 10
7828.8265452858
 20
4755.9517836761
 30
0.0
 11
7827.8265452858
 21
4755.9517836761
 31
0.0
  0
LINE
  5
218
330
1F
100
AcDbEntity
  8
0
  6
Continuous
 62
     7
370
    25
100
AcDbLine
 10
7828.8265452858
 20
4765.9517836761
 30
0.0
 11
7828.8265452858
 21
4755.9517836761
 31
0.0
  0
LINE
  5
219
330
1F
100
AcDbEntity
  8
0
  6
Continuous
 62
     7
370
    25
100
AcDbLine
 10
7827.8265452858
 20
4755.9517836761
 30
0.0
 11
7827.8265452858
 21
4765.9517836761
 31
0.0
  0
LINE
  5
21A
330
1F
100
AcDbEntity
  8
0
  6
Continuous
 62
     7
370
    25
100
AcDbLine
 10
8126.8265452858
 20
4664.9517836761
 30
0.0
 11
8127.8265452858
 21
4664.9517836761
 31
0.0
  0
LINE
  5
21B
330
1F
100
AcDbEntity
  8
0
  6
Continuous
 62
     7
370
    25
100
AcDbLine
 10
8126.8265452858
 20
4664.9517836761
 30
0.0
 11
8126.8265452858
 21
4755.9517836761
 31
0.0
  0
LINE
  5
21C
330
1F
100
AcDbEntity
  8
0
  6
Continuous
 62
     7
370
    25
100
AcDbLine
 10
8127.8265452858
 20
4664.9517836761
 30
0.0
 11
8127.8265452858
 21
4755.9517836761
 31
0.0
  0
LINE
  5
21D
330
1F
100
AcDbEntity
  8
0
  6
Continuous
 62
     7
370
    25
100
AcDbLine
 10
7827.8265452858
 20
4664.9517836761
 30
0.0
 11
7828.8265452858
 21
4664.9517836761
 31
0.0
  0
LINE
  5
21E
330
1F
100
AcDbEntity
  8
0
  6
Continuous
 62
     7
370
    25
100
AcDbLine
 10
7828.8265452858
 20
4755.9517836761
 30
0.0
 11
7828.8265452858
 21
4664.9517836761
 31
0.0
  0
LINE
  5
21F
330
1F
100
AcDbEntity
  8
0
  6
Continuous
 62
     7
370
    25
100
AcDbLine
 10
7827.8265452858
 20
4755.9517836761
 30
0.0
 11
7827.8265452858
 21
4664.9517836761
 31
0.0
  0
LINE
  5
220
330
1F
100
AcDbEntity
  8
0
  6
Continuous
 62
     7
370
    25
100
AcDbLine
 10
8127.8265452858
 20
4654.9517836761
 30
0.0
 11
8126.8265452858
 21
4654.9517836761
 31
0.0
  0
LINE
  5
221
330
1F
100
AcDbEntity
  8
0
  6
Continuous
 62
     7
370
    25
100
AcDbLine
 10
8126.8265452858
 20
4654.9517836761
 30
0.0
 11
8126.8265452858
 21
4664.9517836761
 31
0.0
  0
LINE
  5
222
330
1F
100
AcDbEntity
  8
0
  6
Continuous
 62
     7
370
    25
100
AcDbLine
 10
8127.8265452858
 20
4664.9517836761
 30
0.0
 11
8127.8265452858
 21
4654.9517836761
 31
0.0
  0
LINE
  5
223
330
1F
100
AcDbEntity
  8
0
  6
Continuous
 62
     7
370
    25
100
AcDbLine
 10
7828.8265452858
 20
4654.9517836761
 30
0.0
 11
7827.8265452858
 21
4654.9517836761
 31
0.0
  0
LINE
  5
224
330
1F
100
AcDbEntity
  8
0
  6
Continuous
 62
     7
370
    25
100
AcDbLine
 10
7828.8265452858
 20
4664.9517836761
 30
0.0
 11
7828.8265452858
 21
4654.9517836761
 31
0.0
  0
LINE
  5
225
330
1F
100
AcDbEntity
  8
0
  6
Continuous
 62
     7
370
    25
100
AcDbLine
 10
7827.8265452858
 20
4654.9517836761
 30
0.0
 11
7827.8265452858
 21
4664.9517836761
 31
0.0
  0
LINE
  5
226
330
1F
100
AcDbEntity
  8
0
  6
Continuous
 62
     7
370
    25
100
AcDbLine
 10
8097.1194385046
 20
4851.9517836761
 30
0.0
 11
8097.1194385046
 21
4852.9517836761
 31
0.0
  0
LINE
  5
227
330
1F
100
AcDbEntity
  8
0
  6
Continuous
 62
     7
370
    25
100
AcDbLine
 10
8097.8265452858
 20
4852.9517836761
 30
0.0
 11
8097.1194385046
 21
4852.9517836761
 31
0.0
  0
LINE
  5
228
330
1F
100
AcDbEntity
  8
0
  6
Continuous
 62
     7
370
    25
100
AcDbLine
 10
8097.8265452858
 20
4851.9517836761
 30
0.0
 11
8097.1194385046
 21
4851.9517836761
 31
0.0
  0
LINE
  5
229
330
1F
100
AcDbEntity
  8
0
  6
Continuous
 62
     7
370
    25
100
AcDbLine
 10
8097.1194385046
 20
4851.9517836761
 30
0.0
 11
7858.533652067
 21
4851.9517836761
 31
0.0
  0
LINE
  5
22A
330
1F
100
AcDbEntity
  8
0
  6
Continuous
 62
     7
370
    25
100
AcDbLine
 10
7858.533652067
 20
4852.9517836761
 30
0.0
 11
7858.533652067
 21
4851.9517836761
 31
0.0
  0
LINE
  5
22B
330
1F
100
AcDbEntity
  8
0
  6
Continuous
 62
     7
370
    25
100
AcDbLine
 10
8097.1194385046
 20
4852.9517836761
 30
0.0
 11
7858.533652067
 21
4852.9517836761
 31
0.0
  0
LINE
  5
22C
330
1F
100
AcDbEntity
  8
0
  6
Continuous
 62
     7
370
    25
100
AcDbLine
 10
7858.533652067
 20
4851.9517836761
 30
0.0
 11
7857.8265452858
 21
4851.9517836761
 31
0.0
  0
LINE
  5
22D
330
1F
100
AcDbEntity
  8
0
  6
Continuous
 62
     7
370
    25
100
AcDbLine
 10
7858.533652067
 20
4852.9517836761
 30
0.0
 11
7857.8265452858
 21
4852.9517836761
 31
0.0
  0
LINE
  5
22E
330
1F
100
AcDbEntity
  8
0
  6
Continuous
 62
     7
370
    25
100
AcDbLine
 10
8125.8265452858
 20
4653.9517836761
 30
0.0
 11
8125.8265452858
 21
4652.9517836761
 31
0.0
  0
LINE
  5
22F
330
1F
100
AcDbEntity
  8
0
  6
Continuous
 62
     7
370
    25
100
AcDbLine
 10
8125.8265452858
 20
4652.9517836761
 30
0.0
 11
7829.8265452858
 21
4652.9517836761
 31
0.0
  0
LINE
  5
230
330
1F
100
AcDbEntity
  8
0
  6
Continuous
 62
     7
370
    25
100
AcDbLine
 10
7829.8265452858
 20
4653.9517836761
 30
0.0
 11
7829.8265452858
 21
4652.9517836761
 31
0.0
  0
LINE
  5
231
330
1F
100
AcDbEntity
  8
0
  6
Continuous
 62
     7
370
    25
100
AcDbLine
 10
8125.8265452858
 20
4653.9517836761
 30
0.0
 11
7829.8265452858
 21
4653.9517836761
 31
0.0
  0
SPLINE
  5
232
330
1F
100
AcDbEntity
  8
0
  6
Continuous
 62
     7
370
    25
100
AcDbSpline
210
0.0
220
0.0
230
1.0
 70
     8
 71
     3
 72
     9
 73
     5
 74
     0
 42
0.00000001
 43
0.00000001
 40
0.0
 40
0.0
 40
0.0
 40
0.0
 40
0.6498557117260091
 40
1.0
 40
1.0
 40
1.0
 40
1.0
 10
8125.826545285808
 20
4850.95178367607
 30
0.0
 10
8125.774651759947
 20
4851.186468711767
 30
0.0
 10
8125.694797840188
 20
4851.547602778086
 30
0.0
 10
8125.614943883249
 20
4851.846964040059
 30
0.0
 10
8125.58698347633
 20
4851.951783676069
 30
0.0
  0
SPLINE
  5
233
330
1F
100
AcDbEntity
  8
0
  6
Continuous
 62
     7
370
    25
100
AcDbSpline
210
0.0
220
0.0
230
1.0
 70
     8
 71
     3
 72
     9
 73
     5
 74
     0
 42
0.00000001
 43
0.00000001
 40
0.0
 40
0.0
 40
0.0
 40
0.0
 40
0.6418651477770825
 40
1.0
 40
1.0
 40
1.0
 40
1.0
 10
7830.062563001711
 20
4851.951783676069
 30
0.0
 10
7830.011950768079
 20
4851.746934064819
 30
0.0
 10
7829.933098950362
 20
4851.427786636485
 30
0.0
 10
7829.854643070682
 20
4851.07730379626
 30
0.0
 10
7829.826545285808
 20
4850.95178367607
 30
0.0
  0
SPLINE
  5
234
330
1F
100
AcDbEntity
  8
0
  6
Continuous
 62
     7
370
    25
100
AcDbSpline
210
0.0
220
0.0
230
1.0
 70
     8
 71
     3
 72
    12
 73
     8
 74
     0
 42
0.00000001
 43
0.00000001
 40
0.0
 40
0.0
 40
0.0
 40
0.0
 40
0.2499999999999951
 40
0.2499999999999951
 40
0.4999999999999902
 40
0.4999999999999902
 40
1.0
 40
1.0
 40
1.0
 40
1.0
 10
7830.533652066993
 20
4851.95178367607
 30
0.0
 10
7830.474191465748
 20
4851.95178367607
 30
0.0
 10
7830.416155149135
 20
4851.926054211432
 30
0.0
 10
7830.297619704063
 20
4851.825292701013
 30
0.0
 10
7830.239254197688
 20
4851.751800465552
 30
0.0
 10
7830.061951125432
 20
4851.473327237102
 30
0.0
 10
7829.945466481937
 20
4851.215960152706
 30
0.0
 10
7829.826545285808
 20
4850.95178367607
 30
0.0
  0
SPLINE
  5
235
330
1F
100
AcDbEntity
  8
0
  6
Continuous
 62
     7
370
    25
100
AcDbSpline
210
0.0
220
0.0
230
1.0
 70
     8
 71
     3
 72
    12
 73
     8
 74
     0
 42
0.00000001
 43
0.00000001
 40
0.0
 40
0.0
 40
0.0
 40
0.0
 40
0.2499999999999999
 40
0.2499999999999999
 40
0.4999999999999998
 40
0.4999999999999998
 40
1.0
 40
1.0
 40
1.0
 40
1.0
 10
8125.826545285808
 20
4850.95178367607
 30
0.0
 10
8125.767084684561
 20
4851.083871921453
 30
0.0
 10
8125.709048367949
 20
4851.212803251746
 30
0.0
 10
8125.590512922877
 20
4851.456081483226
 30
0.0
 10
8125.532147416502
 20
4851.565957960797
 30
0.0
 10
8125.354844344246
 20
4851.844498622646
 30
0.0
 10
8125.23835970075
 20
4851.95178367607
 30
0.0
 10
8125.119438504621
 20
4851.95178367607
 30
0.0
  0
LINE
  5
236
330
1F
100
AcDbEntity
  8
0
  6
Continuous
 62
     7
370
    25
100
AcDbLine
 10
8125.8265452858
 20
4850.9517836761
 30
0.0
 11
7829.8265452858
 21
4850.9517836761
 31
0.0
  0
LINE
  5
237
330
1F
100
AcDbEntity
  8
0
  6
Continuous
 62
     7
370
    25
100
AcDbLine
 10
8125.8265452858
 20
4654.9517836761
 30
0.0
 11
8126.8265452858
 21
4654.9517836761
 31
0.0
  0
LINE
  5
238
330
1F
100
AcDbEntity
  8
0
  6
Continuous
 62
     7
370
    25
100
AcDbLine
 10
8125.8265452858
 20
4654.9517836761
 30
0.0
 11
8125.8265452858
 21
4850.9517836761
 31
0.0
  0
LINE
  5
239
330
1F
100
AcDbEntity
  8
0
  6
Continuous
 62
     7
370
    25
100
AcDbLine
 10
8126.8265452858
 20
4850.9517836761
 30
0.0
 11
8125.8265452858
 21
4850.9517836761
 31
0.0
  0
LINE
  5
23A
330
1F
100
AcDbEntity
  8
0
  6
Continuous
 62
     7
370
    25
100
AcDbLine
 10
7828.8265452858
 20
4654.9517836761
 30
0.0
 11
7829.8265452858
 21
4654.9517836761
 31
0.0
  0
LINE
  5
23B
330
1F
100
AcDbEntity
  8
0
  6
Continuous
 62
     7
370
    25
100
AcDbLine
 10
7829.8265452858
 20
4654.9517836761
 30
0.0
 11
7829.8265452858
 21
4850.9517836761
 31
0.0
  0
LINE
  5
23C
330
1F
100
AcDbEntity
  8
0
  6
Continuous
 62
     7
370
    25
100
AcDbLine
 10
7829.8265452858
 20
4850.9517836761
 30
0.0
 11
7828.8265452858
 21
4850.9517836761
 31
0.0
  0
LINE
  5
23D
330
1F
100
AcDbEntity
  8
0
  6
Continuous
 62
     7
370
    25
100
AcDbLine
 10
8125.8265452858
 20
4653.9517836761
 30
0.0
 11
8125.8265452858
 21
4654.9517836761
 31
0.0
  0
LINE
  5
23E
330
1F
100
AcDbEntity
  8
0
  6
Continuous
 62
     7
370
    25
100
AcDbLine
 10
7829.8265452858
 20
4653.9517836761
 30
0.0
 11
7829.8265452858
 21
4654.9517836761
 31
0.0
  0
LINE
  5
23F
330
1F
100
AcDbEntity
  8
0
  6
Continuous
 62
     7
370
    25
100
AcDbLine
 10
8125.8265452858
 20
4654.9517836761
 30
0.0
 11
7829.8265452858
 21
4654.9517836761
 31
0.0
  0
LINE
  5
240
330
1F
100
AcDbEntity
  8
0
  6
Continuous
 62
     7
370
    25
100
AcDbLine
 10
7842.8265452858
 20
4669.9517836761
 30
0.0
 11
8112.8265452858
 21
4669.9517836761
 31
0.0
  0
LINE
  5
241
330
1F
100
AcDbEntity
  8
0
  6
Continuous
 62
     7
370
    25
100
AcDbLine
 10
8112.8265452858
 20
4669.9517836761
 30
0.0
 11
8112.8265452858
 21
4785.9517836761
 31
0.0
  0
LINE
  5
242
330
1F
100
AcDbEntity
  8
0
  6
Continuous
 62
     7
370
    25
100
AcDbLine
 10
8112.8265452858
 20
4785.9517836761
 30
0.0
 11
7842.8265452858
 21
4785.9517836761
 31
0.0
  0
LINE
  5
243
330
1F
100
AcDbEntity
  8
0
  6
Continuous
 62
     7
370
    25
100
AcDbLine
 10
7842.8265452858
 20
4785.9517836761
 30
0.0
 11
7842.8265452858
 21
4669.9517836761
 31
0.0
  0
LINE
  5
244
330
1F
100
AcDbEntity
  8
0
  6
Continuous
 62
     8
370
    25
100
AcDbLine
 10
7885.3265452858
 20
4673.7017836761
 30
0.0
 11
8070.3265452858
 21
4673.7017836761
 31
0.0
  0
ENDSEC
  0
SECTION
  2
OBJECTS
  0
DICTIONARY
  5
C
330
0
100
AcDbDictionary
281
     1
  3
ACAD_GROUP
350
D
  3
ACAD_LAYOUT
350
1A
  3
ACAD_MLINESTYLE
350
17
  3
ACAD_PLOTSETTINGS
350
19
  3
ACAD_PLOTSTYLENAME
350
E
  3
ACAD_SCALELIST
350
47
  3
DWGPROPS
350
245
  0
DICTIONARY
  5
D
102
{ACAD_REACTORS
330
C
102
}
330
C
100
AcDbDictionary
281
     1
  0
DICTIONARY
  5
1A
102
{ACAD_REACTORS
330
C
102
}
330
C
100
AcDbDictionary
281
     1
  3
Layout1
350
1E
  3
Layout2
350
26
  3
Model
350
22
  0
DICTIONARY
  5
17
102
{ACAD_REACTORS
330
C
102
}
330
C
100
AcDbDictionary
281
     1
  3
Standard
350
18
  0
DICTIONARY
  5
19
102
{ACAD_REACTORS
330
C
102
}
330
C
100
AcDbDictionary
281
     1
  0
ACDBDICTIONARYWDFLT
  5
E
102
{ACAD_REACTORS
330
C
102
}
330
C
100
AcDbDictionary
281
     1
  3
Normal
350
F
100
AcDbDictionaryWithDefault
340
F
  0
DICTIONARY
  5
47
102
{ACAD_REACTORS
330
C
102
}
330
C
100
AcDbDictionary
281
     1
  3
A0
350
48
  3
A1
350
49
  3
A2
350
4A
  3
A3
350
4B
  3
A4
350
4C
  3
A5
350
4D
  3
A6
350
4E
  3
A7
350
4F
  3
A8
350
50
  3
A9
350
51
  3
B0
350
52
  3
B1
350
53
  3
B2
350
54
  3
B3
350
55
  3
B4
350
56
  3
B5
350
57
  3
B6
350
58
  3
B7
350
59
  3
B8
350
5A
  3
B9
350
5B
  3
C0
350
5C
  3
C1
350
5D
  3
C2
350
5E
  3
C3
350
5F
  3
C4
350
60
  3
C5
350
61
  3
C6
350
62
  3
C7
350
63
  3
C8
350
64
  3
C9
350
65
  3
D0
350
66
  3
D1
350
67
  3
D2
350
68
  0
XRECORD
  5
245
102
{ACAD_REACTORS
330
C
102
}
330
C
100
AcDbXrecord
280
     1
  1
DWGPROPS COOKIE
  2

  3

  4

  6

  7

  8
radek.stransky
  9

300
=
301
=
302
=
303
=
304
=
305
=
306
=
307
=
308
=
309
=
 40
0.0
 41
2460362.544330996
 42
2460362.544331644
  1

 90
        0
  0
LAYOUT
  5
1E
102
{ACAD_REACTORS
330
1A
102
}
330
1A
100
AcDbPlotSettings
  1

  2
none_device
  4

  6

 40
0.0
 41
0.0
 42
0.0
 43
0.0
 44
0.0
 45
0.0
 46
0.0
 47
0.0
 48
0.0
 49
0.0
140
0.0
141
0.0
142
1.0
143
1.0
 70
   688
 72
     1
 73
     0
 74
     5
  7

 75
    16
147
1.0
148
0.0
149
0.0
100
AcDbLayout
  1
Layout1
 70
     1
 71
     1
 10
0.0
 20
0.0
 11
420.0
 21
297.0
 12
0.0
 22
0.0
 32
0.0
 14
1.0000000000E+20
 24
1.0000000000E+20
 34
1.0000000000E+20
 15
-1.0000000000E+20
 25
-1.0000000000E+20
 35
-1.0000000000E+20
146
0.0
 13
0.0
 23
0.0
 33
0.0
 16
1.0
 26
0.0
 36
0.0
 17
0.0
 27
1.0
 37
0.0
 76
     0
330
1B
  0
LAYOUT
  5
26
102
{ACAD_REACTORS
330
1A
102
}
330
1A
100
AcDbPlotSettings
  1

  2
none_device
  4

  6

 40
0.0
 41
0.0
 42
0.0
 43
0.0
 44
0.0
 45
0.0
 46
0.0
 47
0.0
 48
0.0
 49
0.0
140
0.0
141
0.0
142
1.0
143
1.0
 70
   688
 72
     1
 73
     0
 74
     5
  7

 75
    16
147
1.0
148
0.0
149
0.0
100
AcDbLayout
  1
Layout2
 70
     1
 71
     2
 10
0.0
 20
0.0
 11
0.0
 21
0.0
 12
0.0
 22
0.0
 32
0.0
 14
0.0
 24
0.0
 34
0.0
 15
0.0
 25
0.0
 35
0.0
146
0.0
 13
0.0
 23
0.0
 33
0.0
 16
1.0
 26
0.0
 36
0.0
 17
0.0
 27
1.0
 37
0.0
 76
     0
330
23
  0
LAYOUT
  5
22
102
{ACAD_REACTORS
330
1A
102
}
330
1A
100
AcDbPlotSettings
  1

  2
none_device
  4
Letter_(8.50_x_11.00_Inches)
  6

 40
6.35
 41
6.35
 42
6.35000508
 43
6.35000508
 44
215.9
 45
279.4
 46
0.0
 47
0.0
 48
0.0
 49
0.0
140
0.0
141
0.0
142
1.0
143
1.0
 70
  1712
 72
     1
 73
     0
 74
     0
  7

 75
     0
147
1.0
148
0.0
149
0.0
100
AcDbLayout
  1
Model
 70
     1
 71
     0
 10
0.0
 20
0.0
 11
20000.0
 21
10000.0
 12
0.0
 22
0.0
 32
0.0
 14
0.0
 24
0.0
 34
0.0
 15
20000.0
 25
10000.0
 35
0.0
146
0.0
 13
0.0
 23
0.0
 33
0.0
 16
1.0
 26
0.0
 36
0.0
 17
0.0
 27
1.0
 37
0.0
 76
     0
330
1F
331
29
  0
MLINESTYLE
  5
18
102
{ACAD_REACTORS
330
17
102
}
330
17
100
AcDbMlineStyle
  2
Standard
 70
     0
  3

 62
   256
 51
90.0
 52
90.0
 71
     2
 49
0.5
 62
   256
  6
BYLAYER
 49
-0.5
 62
   256
  6
BYLAYER
  0
ACDBPLACEHOLDER
  5
F
102
{ACAD_REACTORS
330
E
102
}
330
E
  0
SCALE
  5
48
102
{ACAD_REACTORS
330
47
102
}
330
47
100
AcDbScale
 70
     0
300
1:1
140
1.0
141
1.0
290
     1
  0
SCALE
  5
49
102
{ACAD_REACTORS
330
47
102
}
330
47
100
AcDbScale
 70
     0
300
1:2
140
1.0
141
2.0
290
     0
  0
SCALE
  5
4A
102
{ACAD_REACTORS
330
47
102
}
330
47
100
AcDbScale
 70
     0
300
1:4
140
1.0
141
4.0
290
     0
  0
SCALE
  5
4B
102
{ACAD_REACTORS
330
47
102
}
330
47
100
AcDbScale
 70
     0
300
1:5
140
1.0
141
5.0
290
     0
  0
SCALE
  5
4C
102
{ACAD_REACTORS
330
47
102
}
330
47
100
AcDbScale
 70
     0
300
1:8
140
1.0
141
8.0
290
     0
  0
SCALE
  5
4D
102
{ACAD_REACTORS
330
47
102
}
330
47
100
AcDbScale
 70
     0
300
1:10
140
1.0
141
10.0
290
     0
  0
SCALE
  5
4E
102
{ACAD_REACTORS
330
47
102
}
330
47
100
AcDbScale
 70
     0
300
1:16
140
1.0
141
16.0
290
     0
  0
SCALE
  5
4F
102
{ACAD_REACTORS
330
47
102
}
330
47
100
AcDbScale
 70
     0
300
1:20
140
1.0
141
20.0
290
     0
  0
SCALE
  5
50
102
{ACAD_REACTORS
330
47
102
}
330
47
100
AcDbScale
 70
     0
300
1:30
140
1.0
141
30.0
290
     0
  0
SCALE
  5
51
102
{ACAD_REACTORS
330
47
102
}
330
47
100
AcDbScale
 70
     0
300
1:40
140
1.0
141
40.0
290
     0
  0
SCALE
  5
52
102
{ACAD_REACTORS
330
47
102
}
330
47
100
AcDbScale
 70
     0
300
1:50
140
1.0
141
50.0
290
     0
  0
SCALE
  5
53
102
{ACAD_REACTORS
330
47
102
}
330
47
100
AcDbScale
 70
     0
300
1:100
140
1.0
141
100.0
290
     0
  0
SCALE
  5
54
102
{ACAD_REACTORS
330
47
102
}
330
47
100
AcDbScale
 70
     0
300
2:1
140
2.0
141
1.0
290
     0
  0
SCALE
  5
55
102
{ACAD_REACTORS
330
47
102
}
330
47
100
AcDbScale
 70
     0
300
4:1
140
4.0
141
1.0
290
     0
  0
SCALE
  5
56
102
{ACAD_REACTORS
330
47
102
}
330
47
100
AcDbScale
 70
     0
300
8:1
140
8.0
141
1.0
290
     0
  0
SCALE
  5
57
102
{ACAD_REACTORS
330
47
102
}
330
47
100
AcDbScale
 70
     0
300
10:1
140
10.0
141
1.0
290
     0
  0
SCALE
  5
58
102
{ACAD_REACTORS
330
47
102
}
330
47
100
AcDbScale
 70
     0
300
100:1
140
100.0
141
1.0
290
     0
  0
SCALE
  5
59
102
{ACAD_REACTORS
330
47
102
}
330
47
100
AcDbScale
 70
     0
300
1/128" = 1'-0"
140
0.0078125
141
12.0
290
     0
  0
SCALE
  5
5A
102
{ACAD_REACTORS
330
47
102
}
330
47
100
AcDbScale
 70
     0
300
1/64" = 1'-0"
140
0.015625
141
12.0
290
     0
  0
SCALE
  5
5B
102
{ACAD_REACTORS
330
47
102
}
330
47
100
AcDbScale
 70
     0
300
1/32" = 1'-0"
140
0.03125
141
12.0
290
     0
  0
SCALE
  5
5C
102
{ACAD_REACTORS
330
47
102
}
330
47
100
AcDbScale
 70
     0
300
1/16" = 1'-0"
140
0.0625
141
12.0
290
     0
  0
SCALE
  5
5D
102
{ACAD_REACTORS
330
47
102
}
330
47
100
AcDbScale
 70
     0
300
3/32" = 1'-0"
140
0.09375
141
12.0
290
     0
  0
SCALE
  5
5E
102
{ACAD_REACTORS
330
47
102
}
330
47
100
AcDbScale
 70
     0
300
1/8" = 1'-0"
140
0.125
141
12.0
290
     0
  0
SCALE
  5
5F
102
{ACAD_REACTORS
330
47
102
}
330
47
100
AcDbScale
 70
     0
300
3/16" = 1'-0"
140
0.1875
141
12.0
290
     0
  0
SCALE
  5
60
102
{ACAD_REACTORS
330
47
102
}
330
47
100
AcDbScale
 70
     0
300
1/4" = 1'-0"
140
0.25
141
12.0
290
     0
  0
SCALE
  5
61
102
{ACAD_REACTORS
330
47
102
}
330
47
100
AcDbScale
 70
     0
300
3/8" = 1'-0"
140
0.375
141
12.0
290
     0
  0
SCALE
  5
62
102
{ACAD_REACTORS
330
47
102
}
330
47
100
AcDbScale
 70
     0
300
1/2" = 1'-0"
140
0.5
141
12.0
290
     0
  0
SCALE
  5
63
102
{ACAD_REACTORS
330
47
102
}
330
47
100
AcDbScale
 70
     0
300
3/4" = 1'-0"
140
0.75
141
12.0
290
     0
  0
SCALE
  5
64
102
{ACAD_REACTORS
330
47
102
}
330
47
100
AcDbScale
 70
     0
300
1" = 1'-0"
140
1.0
141
12.0
290
     0
  0
SCALE
  5
65
102
{ACAD_REACTORS
330
47
102
}
330
47
100
AcDbScale
 70
     0
300
1-1/2" = 1'-0"
140
1.5
141
12.0
290
     0
  0
SCALE
  5
66
102
{ACAD_REACTORS
330
47
102
}
330
47
100
AcDbScale
 70
     0
300
3" = 1'-0"
140
3.0
141
12.0
290
     0
  0
SCALE
  5
67
102
{ACAD_REACTORS
330
47
102
}
330
47
100
AcDbScale
 70
     0
300
6" = 1'-0"
140
6.0
141
12.0
290
     0
  0
SCALE
  5
68
102
{ACAD_REACTORS
330
47
102
}
330
47
100
AcDbScale
 70
     0
300
1'-0" = 1'-0"
140
12.0
141
12.0
290
     0
  0
ENDSEC
  0
EOF
