  0
SECTION
  2
HEADER
  9
$ACADVER
  1
AC1015
  9
$ACADMAINTVER
 70
     6
  9
$DWGCODEPAGE
  3
ANSI_1250
  9
$INSBASE
 10
0.0
 20
0.0
 30
0.0
  9
$EXTMIN
 10
0.0
 20
0.0
 30
0.0
  9
$EXTMAX
 10
20000.0
 20
10000.0
 30
0.0
  9
$LIMMIN
 10
0.0
 20
0.0
  9
$LIMMAX
 10
20000.0
 20
10000.0
  9
$ORTHOMODE
 70
     0
  9
$REGENMODE
 70
     1
  9
$FILLMODE
 70
     1
  9
$QTEXTMODE
 70
     0
  9
$MIRRTEXT
 70
     1
  9
$LTSCALE
 40
1.0
  9
$ATTMODE
 70
     1
  9
$TEXTSIZE
 40
2.0
  9
$TRACEWID
 40
1.0
  9
$TEXTSTYLE
  7
Standard
  9
$CLAYER
  8
0
  9
$CELTYPE
  6
ByLayer
  9
$CECOLOR
 62
   256
  9
$CELTSCALE
 40
1.0
  9
$DISPSILH
 70
     0
  9
$DIMSCALE
 40
1.0
  9
$DIMASZ
 40
2.0
  9
$DIMEXO
 40
1.0
  9
$DIMDLI
 40
3.75
  9
$DIMRND
 40
0.0
  9
$DIMDLE
 40
0.0
  9
$DIMEXE
 40
1.0
  9
$DIMTP
 40
0.0
  9
$DIMTM
 40
0.0
  9
$DIMTXT
 40
2.0
  9
$DIMCEN
 40
2.5
  9
$DIMTSZ
 40
0.0
  9
$DIMTOL
 70
     0
  9
$DIMLIM
 70
     0
  9
$DIMTIH
 70
     1
  9
$DIMTOH
 70
     1
  9
$DIMSE1
 70
     0
  9
$DIMSE2
 70
     0
  9
$DIMTAD
 70
     1
  9
$DIMZIN
 70
     0
  9
$DIMBLK
  1

  9
$DIMASO
 70
     1
  9
$DIMSHO
 70
     1
  9
$DIMPOST
  1

  9
$DIMAPOST
  1

  9
$DIMALT
 70
     0
  9
$DIMALTD
 70
     3
  9
$DIMALTF
 40
0.0393700787
  9
$DIMLFAC
 40
1.0
  9
$DIMTOFL
 70
     1
  9
$DIMTVP
 40
0.0
  9
$DIMTIX
 70
     0
  9
$DIMSOXD
 70
     0
  9
$DIMSAH
 70
     0
  9
$DIMBLK1
  1

  9
$DIMBLK2
  1

  9
$DIMSTYLE
  2
ISO-25
  9
$DIMCLRD
 70
     0
  9
$DIMCLRE
 70
     0
  9
$DIMCLRT
 70
     0
  9
$DIMTFAC
 40
1.0
  9
$DIMGAP
 40
1.524
  9
$DIMJUST
 70
     0
  9
$DIMSD1
 70
     0
  9
$DIMSD2
 70
     0
  9
$DIMTOLJ
 70
     0
  9
$DIMTZIN
 70
     0
  9
$DIMALTZ
 70
     0
  9
$DIMALTTZ
 70
     0
  9
$DIMUPT
 70
     0
  9
$DIMDEC
 70
     2
  9
$DIMTDEC
 70
     0
  9
$DIMALTU
 70
     2
  9
$DIMALTTD
 70
     3
  9
$DIMTXSTY
  7
Standard
  9
$DIMAUNIT
 70
     0
  9
$DIMADEC
 70
     2
  9
$DIMALTRND
 40
0.0
  9
$DIMAZIN
 70
     0
  9
$DIMDSEP
 70
    44
  9
$DIMATFIT
 70
     3
  9
$DIMFRAC
 70
     0
  9
$DIMLDRBLK
  1

  9
$DIMLUNIT
 70
     2
  9
$DIMLWD
 70
    -2
  9
$DIMLWE
 70
    -2
  9
$DIMTMOVE
 70
     0
  9
$LUNITS
 70
     2
  9
$LUPREC
 70
     3
  9
$SKETCHINC
 40
1.0
  9
$FILLETRAD
 40
10.0
  9
$AUNITS
 70
     0
  9
$AUPREC
 70
     2
  9
$MENU
  1
.
  9
$ELEVATION
 40
0.0
  9
$PELEVATION
 40
0.0
  9
$THICKNESS
 40
0.0
  9
$LIMCHECK
 70
     0
  9
$CHAMFERA
 40
0.0
  9
$CHAMFERB
 40
0.0
  9
$CHAMFERC
 40
0.0
  9
$CHAMFERD
 40
0.0
  9
$SKPOLY
 70
     0
  9
$TDCREATE
 40
2459115.415691759
  9
$TDUCREATE
 40
2459115.332358426
  9
$TDUPDATE
 40
2459115.415692118
  9
$TDUUPDATE
 40
2459115.332358785
  9
$TDINDWG
 40
0.0000000116
  9
$TDUSRTIMER
 40
0.0000000116
  9
$USRTIMER
 70
     1
  9
$ANGBASE
 50
0.0
  9
$ANGDIR
 70
     0
  9
$PDMODE
 70
     0
  9
$PDSIZE
 40
-1.0
  9
$PLINEWID
 40
0.0
  9
$SPLFRAME
 70
     0
  9
$SPLINETYPE
 70
     6
  9
$SPLINESEGS
 70
     8
  9
$HANDSEED
  5
DF
  9
$SURFTAB1
 70
     6
  9
$SURFTAB2
 70
     6
  9
$SURFTYPE
 70
     6
  9
$SURFU
 70
     6
  9
$SURFV
 70
     6
  9
$UCSBASE
  2

  9
$UCSNAME
  2

  9
$UCSORG
 10
0.0
 20
0.0
 30
0.0
  9
$UCSXDIR
 10
1.0
 20
0.0
 30
0.0
  9
$UCSYDIR
 10
0.0
 20
1.0
 30
0.0
  9
$UCSORTHOREF
  2

  9
$UCSORTHOVIEW
 70
     0
  9
$UCSORGTOP
 10
0.0
 20
0.0
 30
0.0
  9
$UCSORGBOTTOM
 10
0.0
 20
0.0
 30
0.0
  9
$UCSORGLEFT
 10
0.0
 20
0.0
 30
0.0
  9
$UCSORGRIGHT
 10
0.0
 20
0.0
 30
0.0
  9
$UCSORGFRONT
 10
0.0
 20
0.0
 30
0.0
  9
$UCSORGBACK
 10
0.0
 20
0.0
 30
0.0
  9
$PUCSBASE
  2

  9
$PUCSNAME
  2

  9
$PUCSORG
 10
0.0
 20
0.0
 30
0.0
  9
$PUCSXDIR
 10
1.0
 20
0.0
 30
0.0
  9
$PUCSYDIR
 10
0.0
 20
1.0
 30
0.0
  9
$PUCSORTHOREF
  2

  9
$PUCSORTHOVIEW
 70
     0
  9
$PUCSORGTOP
 10
0.0
 20
0.0
 30
0.0
  9
$PUCSORGBOTTOM
 10
0.0
 20
0.0
 30
0.0
  9
$PUCSORGLEFT
 10
0.0
 20
0.0
 30
0.0
  9
$PUCSORGRIGHT
 10
0.0
 20
0.0
 30
0.0
  9
$PUCSORGFRONT
 10
0.0
 20
0.0
 30
0.0
  9
$PUCSORGBACK
 10
0.0
 20
0.0
 30
0.0
  9
$USERI1
 70
     0
  9
$USERI2
 70
     0
  9
$USERI3
 70
     0
  9
$USERI4
 70
     0
  9
$USERI5
 70
     0
  9
$USERR1
 40
0.0
  9
$USERR2
 40
0.0
  9
$USERR3
 40
0.0
  9
$USERR4
 40
0.0
  9
$USERR5
 40
0.0
  9
$WORLDVIEW
 70
     1
  9
$SHADEDGE
 70
     3
  9
$SHADEDIF
 70
    70
  9
$TILEMODE
 70
     1
  9
$MAXACTVP
 70
    64
  9
$PINSBASE
 10
0.0
 20
0.0
 30
0.0
  9
$PLIMCHECK
 70
     0
  9
$PEXTMIN
 10
1.0000000000E+20
 20
1.0000000000E+20
 30
1.0000000000E+20
  9
$PEXTMAX
 10
-1.0000000000E+20
 20
-1.0000000000E+20
 30
-1.0000000000E+20
  9
$PLIMMIN
 10
0.0
 20
0.0
  9
$PLIMMAX
 10
420.0
 20
297.0
  9
$UNITMODE
 70
     0
  9
$VISRETAIN
 70
     1
  9
$PLINEGEN
 70
     0
  9
$PSLTSCALE
 70
     1
  9
$TREEDEPTH
 70
  3020
  9
$CMLSTYLE
  2
Standard
  9
$CMLJUST
 70
     0
  9
$CMLSCALE
 40
20.0
  9
$PROXYGRAPHICS
 70
     1
  9
$MEASUREMENT
 70
     1
  9
$CELWEIGHT
370
    -1
  9
$ENDCAPS
280
     0
  9
$JOINSTYLE
280
     0
  9
$LWDISPLAY
290
     1
  9
$INSUNITS
 70
     4
  9
$HYPERLINKBASE
  1

  9
$STYLESHEET
  1

  9
$XEDIT
290
     1
  9
$CEPSNTYPE
380
     0
  9
$PSTYLEMODE
290
     1
  9
$FINGERPRINTGUID
  2
{b438d1a2-bdd3-48eb-88f1-eb3bd0d15557}
  9
$VERSIONGUID
  2
{FAEB1C32-E019-11D5-929B-00C0DF256EC4}
  9
$EXTNAMES
290
     1
  9
$PSVPSCALE
 40
0.0
  9
$OLESTARTUP
290
     0
  0
ENDSEC
  0
SECTION
  2
CLASSES
  0
CLASS
  1
ACDBDICTIONARYWDFLT
  2
AcDbDictionaryWithDefault
  3
ObjectDBX Classes
 90
        0
280
     0
281
     0
  0
CLASS
  1
VISUALSTYLE
  2
AcDbVisualStyle
  3
ObjectDBX Classes
 90
     4095
280
     0
281
     0
  0
CLASS
  1
MATERIAL
  2
AcDbMaterial
  3
ObjectDBX Classes
 90
     1153
280
     0
281
     0
  0
CLASS
  1
SCALE
  2
AcDbScale
  3
ObjectDBX Classes
 90
     1153
280
     0
281
     0
  0
CLASS
  1
TABLESTYLE
  2
AcDbTableStyle
  3
ObjectDBX Classes
 90
     4095
280
     0
281
     0
  0
CLASS
  1
MLEADERSTYLE
  2
AcDbMLeaderStyle
  3
ACDB_MLEADERSTYLE_CLASS
 90
     4095
280
     0
281
     0
  0
CLASS
  1
SUN
  2
AcDbSun
  3
SCENEOE
 90
     1153
280
     0
281
     0
  0
CLASS
  1
ACDBPLACEHOLDER
  2
AcDbPlaceHolder
  3
ObjectDBX Classes
 90
        0
280
     0
281
     0
  0
CLASS
  1
LAYOUT
  2
AcDbLayout
  3
ObjectDBX Classes
 90
        0
280
     0
281
     0
  0
ENDSEC
  0
SECTION
  2
TABLES
  0
TABLE
  2
VPORT
  5
8
330
0
100
AcDbSymbolTable
 70
     1
  0
VPORT
  5
29
330
8
100
AcDbSymbolTableRecord
100
AcDbViewportTableRecord
  2
*Active
 70
     0
 10
0.0
 20
0.0
 11
1.0
 21
1.0
 12
10000.0
 22
5000.0
 13
0.0
 23
0.0
 14
10.0
 24
10.0
 15
10.0
 25
10.0
 16
0.0
 26
0.0
 36
1.0
 17
0.0
 27
0.0
 37
0.0
 40
10000.0
 41
2.0
 42
50.0
 43
0.0
 44
0.0
 50
0.0
 51
0.0
 71
     0
 72
  2000
 73
     1
 74
     3
 75
     0
 76
     0
 77
     0
 78
     0
281
     0
 65
     1
110
0.0
120
0.0
130
0.0
111
1.0
121
0.0
131
0.0
112
0.0
122
1.0
132
0.0
 79
     0
146
0.0
  0
ENDTAB
  0
TABLE
  2
LTYPE
  5
5
330
0
100
AcDbSymbolTable
 70
     6
  0
LTYPE
  5
14
330
5
100
AcDbSymbolTableRecord
100
AcDbLinetypeTableRecord
  2
ByBlock
 70
     0
  3

 72
    65
 73
     0
 40
0.0
  0
LTYPE
  5
15
330
5
100
AcDbSymbolTableRecord
100
AcDbLinetypeTableRecord
  2
ByLayer
 70
     0
  3

 72
    65
 73
     0
 40
0.0
  0
LTYPE
  5
16
330
5
100
AcDbSymbolTableRecord
100
AcDbLinetypeTableRecord
  2
Continuous
 70
     0
  3
Solid line
 72
    65
 73
     0
 40
0.0
  0
LTYPE
  5
6E
330
5
100
AcDbSymbolTableRecord
100
AcDbLinetypeTableRecord
  2
HIDDEN
 70
     0
  3
Hidden __ __ __ __ __ __ __ __ __ __ __ __ __ __
 72
    65
 73
     2
 40
1.905
 49
1.27
 74
     0
 49
-0.635
 74
     0
  0
LTYPE
  5
6F
330
5
100
AcDbSymbolTableRecord
100
AcDbLinetypeTableRecord
  2
PHANTOM
 70
     0
  3
Phantom ______  __  __  ______  __  __  ______
 72
    65
 73
     6
 40
12.7
 49
6.35
 74
     0
 49
-1.27
 74
     0
 49
1.27
 74
     0
 49
-1.27
 74
     0
 49
1.27
 74
     0
 49
-1.27
 74
     0
  0
LTYPE
  5
70
330
5
100
AcDbSymbolTableRecord
100
AcDbLinetypeTableRecord
  2
CENTER
 70
     0
  3
Center ____ _ ____ _ ____ _ ____ _ ____ _ ____
 72
    65
 73
     4
 40
10.16
 49
6.35
 74
     0
 49
-1.27
 74
     0
 49
1.27
 74
     0
 49
-1.27
 74
     0
  0
LTYPE
  5
71
330
5
100
AcDbSymbolTableRecord
100
AcDbLinetypeTableRecord
  2
CENTERX2
 70
     0
  3
Center (2x) ________  __  ________  __  _____
 72
    65
 73
     4
 40
20.32
 49
12.7
 74
     0
 49
-2.54
 74
     0
 49
2.54
 74
     0
 49
-2.54
 74
     0
  0
LTYPE
  5
72
330
5
100
AcDbSymbolTableRecord
100
AcDbLinetypeTableRecord
  2
DOT2
 70
     0
  3
Dot (.5x) ........................................
 72
    65
 73
     2
 40
0.635
 49
0.0
 74
     0
 49
-0.635
 74
     0
  0
ENDTAB
  0
TABLE
  2
LAYER
  5
2
330
0
100
AcDbSymbolTable
 70
    13
  0
LAYER
  5
10
330
2
100
AcDbSymbolTableRecord
100
AcDbLayerTableRecord
  2
0
 70
     0
 62
     7
  6
Continuous
370
    -3
390
F
  0
LAYER
  5
73
330
2
100
AcDbSymbolTableRecord
100
AcDbLayerTableRecord
  2
FORMAT
 70
     0
 62
     7
  6
Continuous
370
    -3
390
F
  0
LAYER
  5
74
330
2
100
AcDbSymbolTableRecord
100
AcDbLayerTableRecord
  2
OSA
 70
     0
 62
     7
  6
CENTER
370
    -3
390
F
  0
LAYER
  5
75
330
2
100
AcDbSymbolTableRecord
100
AcDbLayerTableRecord
  2
0_35
 70
     0
 62
     7
  6
Continuous
370
    35
390
F
  0
LAYER
  5
76
330
2
100
AcDbSymbolTableRecord
100
AcDbLayerTableRecord
  2
0_5
 70
     0
 62
     7
  6
Continuous
370
    50
390
F
  0
LAYER
  5
77
330
2
100
AcDbSymbolTableRecord
100
AcDbLayerTableRecord
  2
0_25
 70
     0
 62
     7
  6
Continuous
370
    25
390
F
  0
LAYER
  5
78
330
2
100
AcDbSymbolTableRecord
100
AcDbLayerTableRecord
  2
0_18
 70
     0
 62
     7
  6
Continuous
370
    -3
390
F
  0
LAYER
  5
79
330
2
100
AcDbSymbolTableRecord
100
AcDbLayerTableRecord
  2
SLD-0
 70
     0
 62
   179
  6
Continuous
370
    -3
390
F
  0
LAYER
  5
7A
330
2
100
AcDbSymbolTableRecord
100
AcDbLayerTableRecord
  2
KOTY
 70
     0
 62
     7
  6
Continuous
370
    -3
390
F
  0
LAYER
  5
7B
330
2
100
AcDbSymbolTableRecord
100
AcDbLayerTableRecord
  2
SILNA
 70
     0
 62
   179
  6
Continuous
370
    -3
390
F
  0
LAYER
  5
7C
330
2
100
AcDbSymbolTableRecord
100
AcDbLayerTableRecord
  2
0_18_1
 70
     0
 62
   179
  6
Continuous
370
    -3
390
F
  0
LAYER
  5
7D
330
2
100
AcDbSymbolTableRecord
100
AcDbLayerTableRecord
  2
0_35_1
 70
     0
 62
   179
  6
Continuous
370
    35
390
F
  0
LAYER
  5
7E
330
2
100
AcDbSymbolTableRecord
100
AcDbLayerTableRecord
  2
0_5_1
 70
     0
 62
   179
  6
Continuous
370
    50
390
F
  0
ENDTAB
  0
TABLE
  2
STYLE
  5
3
330
0
100
AcDbSymbolTable
 70
     1
  0
STYLE
  5
11
330
3
100
AcDbSymbolTableRecord
100
AcDbTextStyleTableRecord
  2
Standard
 70
     0
 40
0.0
 41
1.0
 50
0.0
 71
     0
 42
2.0
  3
txt
  4

  0
ENDTAB
  0
TABLE
  2
VIEW
  5
6
330
0
100
AcDbSymbolTable
 70
     0
  0
ENDTAB
  0
TABLE
  2
UCS
  5
7
330
0
100
AcDbSymbolTable
 70
     0
  0
ENDTAB
  0
TABLE
  2
APPID
  5
9
330
0
100
AcDbSymbolTable
 70
     1
  0
APPID
  5
12
330
9
100
AcDbSymbolTableRecord
100
AcDbRegAppTableRecord
  2
ACAD
 70
     0
  0
ENDTAB
  0
TABLE
  2
DIMSTYLE
  5
A
330
0
100
AcDbSymbolTable
 70
     1
100
AcDbDimStyleTable
  0
DIMSTYLE
105
27
330
A
100
AcDbSymbolTableRecord
100
AcDbDimStyleTableRecord
  2
ISO-25
 70
     0
 41
2.5
 42
0.625
 43
3.75
 44
1.25
 73
     0
 74
     0
 77
     1
 78
     8
140
2.5
141
2.5
143
0.0393700787
147
0.625
171
     3
172
     1
178
     0
271
     2
272
     2
274
     3
278
    44
283
     0
284
     8
340
11
  0
ENDTAB
  0
TABLE
  2
BLOCK_RECORD
  5
1
330
0
100
AcDbSymbolTable
 70
     1
  0
BLOCK_RECORD
  5
1F
330
1
100
AcDbSymbolTableRecord
100
AcDbBlockTableRecord
  2
*Model_Space
340
22
  0
BLOCK_RECORD
  5
1B
330
1
100
AcDbSymbolTableRecord
100
AcDbBlockTableRecord
  2
*Paper_Space
340
1E
  0
BLOCK_RECORD
  5
23
330
1
100
AcDbSymbolTableRecord
100
AcDbBlockTableRecord
  2
*Paper_Space0
340
26
  0
ENDTAB
  0
ENDSEC
  0
SECTION
  2
BLOCKS
  0
BLOCK
  5
20
330
1F
100
AcDbEntity
  8
0
100
AcDbBlockBegin
  2
*Model_Space
 70
     0
 10
0.0
 20
0.0
 30
0.0
  3
*Model_Space
  1

  0
ENDBLK
  5
21
330
1F
100
AcDbEntity
  8
0
100
AcDbBlockEnd
  0
BLOCK
  5
1C
330
1B
100
AcDbEntity
 67
     1
  8
0
100
AcDbBlockBegin
  2
*Paper_Space
 70
     0
 10
0.0
 20
0.0
 30
0.0
  3
*Paper_Space
  1

  0
ENDBLK
  5
1D
330
1B
100
AcDbEntity
 67
     1
  8
0
100
AcDbBlockEnd
  0
BLOCK
  5
24
330
23
100
AcDbEntity
  8
0
100
AcDbBlockBegin
  2
*Paper_Space0
 70
     0
 10
0.0
 20
0.0
 30
0.0
  3
*Paper_Space0
  1

  0
ENDBLK
  5
25
330
23
100
AcDbEntity
  8
0
100
AcDbBlockEnd
  0
ENDSEC
  0
SECTION
  2
ENTITIES
  0
LINE
  5
7F
330
1F
100
AcDbEntity
  8
0
  6
Continuous
 62
     7
370
    25
100
AcDbLine
 10
10796.7471789841
 20
5665.7630764634
 30
0.0
 11
10913.6853381404
 21
5344.756365054
 31
0.0
  0
LINE
  5
80
330
1F
100
AcDbEntity
  8
0
  6
Continuous
 62
     7
370
    25
100
AcDbLine
 10
11047.8531233753
 20
5344.756365054
 30
0.0
 11
11164.7978559153
 21
5665.7811210462
 31
0.0
  0
ARC
  5
81
330
1F
100
AcDbEntity
  8
0
  6
Continuous
 62
     7
370
    25
100
AcDbCircle
 10
10798.626373615
 20
5666.4476402217
 30
0.0
 40
2.000000000000165
100
AcDbArc
 50
90.0
 51
200.0159596029
  0
ARC
  5
82
330
1F
100
AcDbEntity
  8
0
  6
Continuous
 62
     7
370
    25
100
AcDbCircle
 10
10896.8574112102
 20
5390.9509264618
 30
0.0
 40
3.000000000000389
100
AcDbArc
 50
200.0158590067
 51
290.1915668418
  0
ARC
  5
83
330
1F
100
AcDbEntity
  8
0
  6
Continuous
 62
     7
370
    25
100
AcDbCircle
 10
10895.4882902269
 20
5394.7093169828
 30
0.0
 40
2.99999954694453
100
AcDbArc
 50
110.0406168364
 51
200.0158734181
  0
ARC
  5
84
330
1F
100
AcDbEntity
  8
0
  6
Continuous
 62
     7
370
    25
100
AcDbCircle
 10
10814.7101561419
 20
5616.4544263571
 30
0.0
 40
2.999999999999497
100
AcDbArc
 50
200.0158590067
 51
290.1835789662
  0
ARC
  5
85
330
1F
100
AcDbEntity
  8
0
  6
Continuous
 62
     7
370
    25
100
AcDbCircle
 10
10813.3410351295
 20
5620.2128169576
 30
0.0
 40
2.999999546795805
100
AcDbArc
 50
110.0485889622
 51
200.0158734197
  0
ARC
  5
86
330
1F
100
AcDbEntity
  8
0
  6
Continuous
 62
     7
370
    25
100
AcDbCircle
 10
10855.7837836735
 20
5503.7026764164
 30
0.0
 40
3.000000000000569
100
AcDbArc
 50
200.0158590067
 51
290.1875728803
  0
ARC
  5
87
330
1F
100
AcDbEntity
  8
0
  6
Continuous
 62
     7
370
    25
100
AcDbCircle
 10
10854.4146626808
 20
5507.4610669632
 30
0.0
 40
2.999999546871153
100
AcDbArc
 50
110.0446029291
 51
200.0158734189
  0
ARC
  5
88
330
1F
100
AcDbEntity
  8
0
  6
Continuous
 62
     7
370
    25
100
AcDbCircle
 10
11064.6810503054
 20
5390.9509264618
 30
0.0
 40
2.999999999999881
100
AcDbArc
 50
249.9643862707
 51
339.9841409933
  0
ARC
  5
89
330
1F
100
AcDbEntity
  8
0
  6
Continuous
 62
     7
370
    25
100
AcDbCircle
 10
11066.050171292
 20
5394.7093169834
 30
0.0
 40
2.999999544099571
100
AcDbArc
 50
339.9841265508
 51
69.8057590603
  0
ARC
  5
8A
330
1F
100
AcDbEntity
  8
0
  6
Continuous
 62
     7
370
    25
100
AcDbCircle
 10
11105.7546778421
 20
5503.7026764164
 30
0.0
 40
3.000000000000538
100
AcDbArc
 50
249.9683737853
 51
339.9841409933
  0
ARC
  5
8B
330
1F
100
AcDbEntity
  8
0
  6
Continuous
 62
     7
370
    25
100
AcDbCircle
 10
11107.1237988381
 20
5507.4610669638
 30
0.0
 40
2.999999544025964
100
AcDbArc
 50
339.98412655
 51
69.8017650335
  0
ARC
  5
8C
330
1F
100
AcDbEntity
  8
0
  6
Continuous
 62
     7
370
    25
100
AcDbCircle
 10
11146.8283053737
 20
5616.4544263571
 30
0.0
 40
3.000000000001206
100
AcDbArc
 50
249.9723613581
 51
339.9841409933
  0
ARC
  5
8D
330
1F
100
AcDbEntity
  8
0
  6
Continuous
 62
     7
370
    25
100
AcDbCircle
 10
11148.1974263893
 20
5620.2128169581
 30
0.0
 40
2.99999954394762
100
AcDbArc
 50
339.9841265492
 51
69.7977709593
  0
LINE
  5
8E
330
1F
100
AcDbEntity
  8
0
  6
Continuous
 62
     7
370
    25
100
AcDbLine
 10
10798.62700532
 20
5668.4476402217
 30
0.0
 11
11162.911456216
 21
5668.4476402217
 31
0.0
  0
ARC
  5
8F
330
1F
100
AcDbEntity
  8
0
  6
Continuous
 62
     7
370
    25
100
AcDbCircle
 10
11162.9114511506
 20
5666.4476412429
 30
0.0
 40
1.999998978902088
100
AcDbArc
 50
339.9601862823
 51
89.999854885
  0
LWPOLYLINE
  5
90
330
1F
100
AcDbEntity
  8
0
  6
Continuous
 62
     7
370
    25
100
AcDbPolyline
 90
       39
 70
   128
 43
0.0
 10
11164.7903596529
 20
5665.7622955233
 10
11164.44860439
 20
5665.7451121925
 10
11163.4940780171
 20
5665.7279730824
 10
11161.0023340267
 20
5665.7034645174
 10
11157.2208870505
 20
5665.6796746057
 10
11152.1967132029
 20
5665.6568836131
 10
11145.9767885986
 20
5665.6353718054
 10
11138.5679270091
 20
5665.6152094699
 10
11130.0114556253
 20
5665.5963770867
 10
11120.4036151622
 20
5665.579012557
 10
11109.8406463344
 20
5665.5632537822
 10
11098.352956073
 20
5665.5490851095
 10
11085.9903155307
 20
5665.5364333707
 10
11072.8870969683
 20
5665.5253624995
 10
11059.1776726464
 20
5665.5159364295
 10
11044.9057827197
 20
5665.5081660909
 10
11030.1284464821
 20
5665.5020264709
 10
11015.0037386632
 20
5665.4975299141
 10
10999.6897339927
 20
5665.4946887651
 10
10984.2370375995
 20
5665.4935049689
 10
10968.7054292991
 20
5665.4939701012
 10
10953.2587746125
 20
5665.496079909
 10
10938.0609390606
 20
5665.4998301397
 10
10923.1773767091
 20
5665.505240343
 10
10908.650248771
 20
5665.5123109648
 10
10894.6302690398
 20
5665.5210024685
 10
10881.2681513091
 20
5665.5312753173
 10
10868.6116038857
 20
5665.5431877266
 10
10856.7075806922
 20
5665.5567529752
 10
10845.6776995991
 20
5665.5718879233
 10
10835.6435784772
 20
5665.5885094311
 10
10826.658242884
 20
5665.6066291535
 10
10818.7346924043
 20
5665.6262377181
 10
10811.9509721032
 20
5665.6471903803
 10
10806.3851270457
 20
5665.6693423958
 10
10803.0473410382
 20
5665.6865895361
 10
10799.5980433138
 20
5665.7112448367
 10
10797.4901863652
 20
5665.7366626355
 10
10796.7481018879
 20
5665.7622955107
  0
ARC
  5
91
330
1F
100
AcDbEntity
  8
0
  6
Continuous
 62
     7
370
    25
100
AcDbCircle
 10
10798.6270103857
 20
5666.4476412429
 30
0.0
 40
1.999998978866945
100
AcDbArc
 50
90.0001451196
 51
200.039814104
  0
LWPOLYLINE
  5
92
330
1F
100
AcDbEntity
  8
0
  6
Continuous
 62
     7
370
    25
100
AcDbPolyline
 90
       14
 70
   128
 43
0.0
 10
11012.7030182904
 20
5321.1768415822
 10
11016.6448692623
 20
5321.3986181242
 10
11020.4417634757
 20
5321.9803966958
 10
11024.1650890795
 20
5322.9221751621
 10
11027.6722917189
 20
5324.17515873
 10
11031.4182844948
 20
5325.9598603989
 10
11034.8332995321
 20
5328.0627853918
 10
11037.9858038086
 20
5330.5103021066
 10
11040.7710721419
 20
5333.2056081076
 10
11044.4163696288
 20
5337.8793435168
 10
11047.1680930215
 20
5343.0264026094
 10
11047.7548119689
 20
5344.4899977386
 10
11047.8420061529
 20
5344.7258929641
 10
11047.8531233753
 20
5344.756365054
  0
LWPOLYLINE
  5
93
330
1F
100
AcDbEntity
  8
0
  6
Continuous
 62
     7
370
    25
100
AcDbPolyline
 90
       11
 70
   128
 43
0.0
 10
10948.8354432253
 20
5321.1768415822
 10
10954.5339045569
 20
5321.1382367306
 10
10960.576816724
 20
5321.1066798599
 10
10966.8517094123
 20
5321.0831165011
 10
10973.2996341759
 20
5321.0682664993
 10
10979.8604910598
 20
5321.0623534163
 10
10986.4123265306
 20
5321.0656018594
 10
10992.889726807
 20
5321.0781039161
 10
10999.2365610655
 20
5321.0993296619
 10
11005.3349419904
 20
5321.1285587119
 10
11012.7030182904
 20
5321.1768415822
  0
LWPOLYLINE
  5
94
330
1F
100
AcDbEntity
  8
0
  6
Continuous
 62
     7
370
    25
100
AcDbPolyline
 90
       10
 70
   128
 43
0.0
 10
10913.6853381404
 20
5344.756365054
 10
10913.6964553616
 20
5344.7258929672
 10
10916.2027258011
 20
5339.3823271948
 10
10919.7024117017
 20
5334.4136360101
 10
10924.1682930861
 20
5329.9875671182
 10
10928.6851093393
 20
5326.7834770851
 10
10933.8661697967
 20
5324.17515873
 10
10938.5198078057
 20
5322.5950236341
 10
10943.5439508688
 20
5321.566475381
 10
10948.8354432253
 20
5321.1768415822
  0
LINE
  5
95
330
1F
100
AcDbEntity
  8
0
  6
Continuous
 62
     7
370
    25
100
AcDbLine
 10
11164.8152104407
 20
5665.7747974368
 30
0.0
 11
11164.7903596529
 21
5665.7622955233
 31
0.0
  0
ARC
  5
96
330
1F
100
AcDbEntity
  8
0
  6
Continuous
 62
     7
370
    25
100
AcDbCircle
 10
11009.5818751185
 20
5321.5103708126
 30
0.0
 40
3.138913258900503
100
AcDbArc
 50
282.6490634741
 51
353.9004492425
  0
LINE
  5
97
330
1F
100
AcDbEntity
  8
0
  6
Continuous
 62
     7
370
    25
100
AcDbLine
 10
11010.2692307578
 20
5318.4476402217
 30
0.0
 11
10951.2692307578
 21
5318.4476402217
 31
0.0
  0
ARC
  5
98
330
1F
100
AcDbEntity
  8
0
  6
Continuous
 62
     7
370
    25
100
AcDbCircle
 10
10951.9565863972
 20
5321.5103708126
 30
0.0
 40
3.138913258896157
100
AcDbArc
 50
186.0995507574
 51
257.350936526
  0
ARC
  5
99
330
1F
100
AcDbEntity
  8
0
  6
Continuous
 62
     7
370
    25
100
AcDbCircle
 10
10951.2700087782
 20
5358.4487516795
 30
0.0
 40
40.0011114653045
100
AcDbArc
 50
200.0170740041
 51
269.9988855988
  0
ARC
  5
9A
330
1F
100
AcDbEntity
  8
0
  6
Continuous
 62
     7
370
    25
100
AcDbCircle
 10
11010.2692307578
 20
5358.4476402218
 30
0.0
 40
40.00000000000909
100
AcDbArc
 50
270.0
 51
339.9840403971
  0
LINE
  5
9B
330
1F
100
AcDbEntity
  8
0
  6
Continuous
 62
     7
370
    25
100
AcDbLine
 10
10894.038617461
 20
5389.9240857732
 30
0.0
 11
10892.6694965421
 21
5393.6824774414
 31
0.0
  0
LINE
  5
9C
330
1F
100
AcDbEntity
  8
0
  6
Continuous
 62
     7
370
    25
100
AcDbLine
 10
10811.8913623927
 20
5615.4275856686
 30
0.0
 11
10810.5222414449
 21
5619.1859774161
 31
0.0
  0
LINE
  5
9D
330
1F
100
AcDbEntity
  8
0
  6
Continuous
 62
     7
370
    25
100
AcDbLine
 10
10852.9649899244
 20
5502.6758357279
 30
0.0
 11
10851.595868996
 21
5506.4342274218
 31
0.0
  0
LINE
  5
9E
330
1F
100
AcDbEntity
  8
0
  6
Continuous
 62
     7
370
    25
100
AcDbLine
 10
11068.8689649736
 20
5393.6824774414
 30
0.0
 11
11067.4998440546
 21
5389.9240857732
 31
0.0
  0
LINE
  5
9F
330
1F
100
AcDbEntity
  8
0
  6
Continuous
 62
     7
370
    25
100
AcDbLine
 10
11109.9425925197
 20
5506.4342274218
 30
0.0
 11
11108.5734715913
 21
5502.6758357279
 31
0.0
  0
LINE
  5
A0
330
1F
100
AcDbEntity
  8
0
  6
Continuous
 62
     7
370
    25
100
AcDbLine
 10
11151.0162200708
 20
5619.1859774161
 30
0.0
 11
11149.6470991229
 21
5615.4275856686
 31
0.0
  0
LINE
  5
A1
330
1F
100
AcDbEntity
  8
0
  6
Continuous
 62
     8
370
    25
100
AcDbLine
 10
10796.7481018879
 20
5665.7622955107
 30
0.0
 11
10796.7471789841
 21
5665.7630764634
 31
0.0
  0
ARC
  5
A2
330
1F
100
AcDbEntity
  8
0
  6
Continuous
 62
     7
370
    25
100
AcDbCircle
 10
12112.4174668581
 20
5666.4476402217
 30
0.0
 40
2.000000000001403
100
AcDbArc
 50
329.3848630249
 51
90.0000305664
  0
LINE
  5
A3
330
1F
100
AcDbEntity
  8
0
  6
Continuous
 62
     7
370
    25
100
AcDbLine
 10
11927.1926412918
 20
5321.052129039
 30
0.0
 11
12114.1465566377
 21
5665.4407407713
 31
0.0
  0
ARC
  5
A4
330
1F
100
AcDbEntity
  8
0
  6
Continuous
 62
     7
370
    25
100
AcDbCircle
 10
11586.7786957811
 20
5618.3690107759
 30
0.0
 40
4.97023854302082
100
AcDbArc
 50
180.2670299033
 51
0.2618633995
  0
ARC
  5
A5
330
1F
100
AcDbEntity
  8
0
  6
Continuous
 62
     7
370
    25
100
AcDbCircle
 10
11586.7787022769
 20
5505.6171587384
 30
0.0
 40
4.970172777261397
100
AcDbArc
 50
180.2546573024
 51
0.2723585588
  0
ARC
  5
A6
330
1F
100
AcDbEntity
  8
0
  6
Continuous
 62
     7
370
    25
100
AcDbCircle
 10
11586.778708738
 20
5392.8653070205
 30
0.0
 40
4.970107225045704
100
AcDbArc
 50
180.2422879659
 51
0.2828501109
  0
ARC
  5
A7
330
1F
100
AcDbEntity
  8
0
  6
Continuous
 62
     7
370
    25
100
AcDbCircle
 10
11922.8038308071
 20
5323.4476402217
 30
0.0
 40
5.000000000000099
100
AcDbArc
 50
269.9999886029
 51
331.3671664622
  0
ARC
  5
A8
330
1F
100
AcDbEntity
  8
0
  6
Continuous
 62
     7
370
    25
100
AcDbCircle
 10
11654.0404798294
 20
5666.5946600841
 30
0.0
 40
276.7445057630051
100
AcDbArc
 50
359.8276711986
 51
0.3836344805
  0
LINE
  5
A9
330
1F
100
AcDbEntity
  8
0
  6
Continuous
 62
     7
370
    25
100
AcDbLine
 10
11930.7787820838
 20
5668.4476402217
 30
0.0
 11
12112.292488162
 21
5668.4476402217
 31
0.0
  0
LWPOLYLINE
  5
AA
330
1F
100
AcDbEntity
  8
0
  6
Continuous
 62
     7
370
    25
100
AcDbPolyline
 90
       10
 70
   128
 43
0.0
 10
11872.9767686458
 20
5344.756365054
 10
11873.0180867501
 20
5344.7258929672
 10
11880.4305590366
 20
5339.3823271948
 10
11887.7367796944
 20
5334.4136360101
 10
11894.8135053543
 20
5329.9875671182
 10
11900.5441606636
 20
5326.7834770851
 10
11906.0044921436
 20
5324.17515873
 10
11910.1754347961
 20
5322.5950236341
 10
11914.110442574
 20
5321.566475381
 10
11917.7606504529
 20
5321.1768415822
  0
LINE
  5
AB
330
1F
100
AcDbEntity
  8
0
  6
Continuous
 62
     7
370
    25
100
AcDbLine
 10
11872.9767686458
 20
5344.756365054
 30
0.0
 11
11565.7787820877
 21
5344.756365054
 31
0.0
  0
LINE
  5
AC
330
1F
100
AcDbEntity
  8
0
  6
Continuous
 62
     7
370
    25
100
AcDbLine
 10
11565.7787820877
 20
5665.7630764634
 30
0.0
 11
11565.7787820877
 21
5344.756365054
 31
0.0
  0
LWPOLYLINE
  5
AD
330
1F
100
AcDbEntity
  8
0
  6
Continuous
 62
     7
370
    25
100
AcDbPolyline
 90
        3
 70
   128
 43
0.0
 10
11930.783733838
 20
5665.7622955107
 10
11863.4737708298
 20
5665.7630764634
 10
11565.7787820877
 20
5665.7630764634
  0
ARC
  5
AE
330
1F
100
AcDbEntity
  8
0
  6
Continuous
 62
     7
370
    25
100
AcDbCircle
 10
11586.5023879086
 20
5618.380559366
 30
0.0
 40
4.659080062299463
100
AcDbArc
 50
86.5990016843
 51
180.4600306206
  0
ARC
  5
AF
330
1F
100
AcDbEntity
  8
0
  6
Continuous
 62
     7
370
    25
100
AcDbCircle
 10
11586.9010261836
 20
5618.1510867777
 30
0.0
 40
4.881877812329696
100
AcDbArc
 50
2.8291282701
 51
91.4348583047
  0
ARC
  5
B0
330
1F
100
AcDbEntity
  8
0
  6
Continuous
 62
     7
370
    25
100
AcDbCircle
 10
11586.5022471565
 20
5505.6290870062
 30
0.0
 40
4.658883283912098
100
AcDbArc
 50
86.5971238159
 51
180.4515001943
  0
ARC
  5
B1
330
1F
100
AcDbEntity
  8
0
  6
Continuous
 62
     7
370
    25
100
AcDbCircle
 10
11586.9011389259
 20
5505.3996413362
 30
0.0
 40
4.881648298758726
100
AcDbArc
 50
2.8351678296
 51
91.4362494491
  0
ARC
  5
B2
330
1F
100
AcDbEntity
  8
0
  6
Continuous
 62
     7
370
    25
100
AcDbCircle
 10
11586.5021064629
 20
5392.8776144875
 30
0.0
 40
4.658686665726805
100
AcDbArc
 50
86.5952466242
 51
180.4429670044
  0
ARC
  5
B3
330
1F
100
AcDbEntity
  8
0
  6
Continuous
 62
     7
370
    25
100
AcDbCircle
 10
11586.9012516531
 20
5392.6481958215
 30
0.0
 40
4.881418860792539
100
AcDbArc
 50
2.8412085964
 51
91.4376405242
  0
ARC
  5
B4
330
1F
100
AcDbEntity
  8
0
  6
Continuous
 62
     7
370
    25
100
AcDbCircle
 10
11567.7787820877
 20
5666.4476402217
 30
0.0
 40
2.00000000001819
100
AcDbArc
 50
90.0000000006
 51
179.9999999995
  0
LINE
  5
B5
330
1F
100
AcDbEntity
  8
0
  6
Continuous
 62
     7
370
    25
100
AcDbLine
 10
11565.7787820877
 20
5665.7630764634
 30
0.0
 11
11565.7787820877
 21
5666.4476402217
 31
0.0
  0
LINE
  5
B6
330
1F
100
AcDbEntity
  8
0
  6
Continuous
 62
     7
370
    25
100
AcDbLine
 10
11567.7787820877
 20
5668.4476402217
 30
0.0
 11
11930.7787820838
 21
5668.4476402217
 31
0.0
  0
LWPOLYLINE
  5
B7
330
1F
100
AcDbEntity
  8
0
  6
Continuous
 62
     7
370
    25
100
AcDbPolyline
 90
       21
 70
   128
 43
0.0
 10
11586.7787820877
 20
5619.1859774161
 10
11586.3187430272
 20
5619.1355886844
 10
11585.7004159469
 20
5618.8894188746
 10
11585.2036664688
 20
5618.4648187112
 10
11584.8844993282
 20
5617.9096586416
 10
11584.7788981992
 20
5617.2865287523
 10
11584.898768808
 20
5616.6656822114
 10
11585.2305966528
 20
5616.1171147569
 10
11585.7369706612
 20
5615.7026732079
 10
11586.3608010049
 20
5615.4690827053
 10
11586.7787820877
 20
5615.4275856686
 10
11587.440793284
 20
5615.5335182084
 10
11588.0281677398
 20
5615.8393727376
 10
11588.4746834409
 20
5616.3106664781
 10
11588.7299991291
 20
5616.8942646358
 10
11588.7653298973
 20
5617.5243709454
 10
11588.5766924695
 20
5618.1299457005
 10
11588.1853542847
 20
5618.642714941
 10
11587.6354357545
 20
5619.0048678249
 10
11586.9889360218
 20
5619.1755743617
 10
11586.7787820877
 20
5619.1859774161
  0
LWPOLYLINE
  5
B8
330
1F
100
AcDbEntity
  8
0
  6
Continuous
 62
     7
370
    25
100
AcDbPolyline
 90
       21
 70
   128
 43
0.0
 10
11586.7787820877
 20
5506.4342274218
 10
11586.3187430337
 20
5506.3838386908
 10
11585.7004159623
 20
5506.1376688846
 10
11585.2036664912
 20
5505.7130687272
 10
11584.8844993552
 20
5505.1579086654
 10
11584.7788982277
 20
5504.534778785
 10
11584.8987688348
 20
5503.913932253
 10
11585.2305966748
 20
5503.3653648063
 10
11585.736970676
 20
5502.9509232633
 10
11586.3608010109
 20
5502.7173327639
 10
11586.7787820877
 20
5502.6758357279
 10
11587.4407932746
 20
5502.7817682662
 10
11588.028167722
 20
5503.087622791
 10
11588.4746834167
 20
5503.5589165248
 10
11588.7299991013
 20
5504.1425146741
 10
11588.765329869
 20
5504.7726209748
 10
11588.5766924439
 20
5505.3781957212
 10
11588.1853542646
 20
5505.8909649544
 10
11587.6354357423
 20
5506.2531178332
 10
11586.9889360188
 20
5506.4238243676
 10
11586.7787820877
 20
5506.4342274218
  0
LWPOLYLINE
  5
B9
330
1F
100
AcDbEntity
  8
0
  6
Continuous
 62
     7
370
    25
100
AcDbPolyline
 90
       21
 70
   128
 43
0.0
 10
11586.7787820877
 20
5393.6824774414
 10
11586.3187430369
 20
5393.6320887107
 10
11585.7004159697
 20
5393.3859189062
 10
11585.203666502
 20
5392.9613187517
 10
11584.8844993682
 20
5392.4061586938
 10
11584.7788982414
 20
5391.7830288176
 10
11584.8987688477
 20
5391.1621822899
 10
11585.2305966855
 20
5390.613614847
 10
11585.7369706831
 20
5390.1991733067
 10
11586.3608010138
 20
5389.965582809
 10
11586.7787820877
 20
5389.9240857732
 10
11587.4407932701
 20
5390.0300183108
 10
11588.0281677135
 20
5390.3358728335
 10
11588.4746834051
 20
5390.8071665641
 10
11588.7299990879
 20
5391.3907647094
 10
11588.7653298554
 20
5392.0208710058
 10
11588.5766924316
 20
5392.626445748
 10
11588.185354255
 20
5393.1392149778
 10
11587.6354357364
 20
5393.501367854
 10
11586.9889360173
 20
5393.6720743872
 10
11586.7787820877
 20
5393.6824774414
  0
ARC
  5
BA
330
1F
100
AcDbEntity
  8
0
  6
Continuous
 62
     7
370
    25
100
AcDbCircle
 10
11913.8388850101
 20
5322.6232907311
 30
0.0
 40
4.180007096697095
100
AcDbArc
 50
272.616134453
 51
339.7547132453
  0
LWPOLYLINE
  5
BB
330
1F
100
AcDbEntity
  8
0
  6
Continuous
 62
     7
370
    25
100
AcDbPolyline
 90
       15
 70
   128
 43
0.0
 10
11914.0296784904
 20
5318.4476402217
 10
11911.5777782525
 20
5318.6610953067
 10
11908.987251456
 20
5319.2797736535
 10
11906.1667763494
 20
5320.3132616594
 10
11903.2144684681
 20
5321.7073686515
 10
11899.7090809543
 20
5323.6849683841
 10
11896.0688915728
 20
5326.0255576874
 10
11892.1930496626
 20
5328.7674782606
 10
11888.2160157692
 20
5331.7934472295
 10
11882.4487035948
 20
5336.4801611276
 10
11876.5017522473
 20
5341.6067402092
 10
11873.9142847923
 20
5343.9129802412
 10
11873.2293708102
 20
5344.5287850642
 10
11873.0133374215
 20
5344.7234039502
 10
11872.9767686458
 20
5344.756365054
  0
LINE
  5
BC
330
1F
100
AcDbEntity
  8
0
  6
Continuous
 62
     7
370
    25
100
AcDbLine
 10
11914.0296784904
 20
5318.4476402217
 30
0.0
 11
11565.7787820877
 21
5318.4476402217
 31
0.0
  0
LINE
  5
BD
330
1F
100
AcDbEntity
  8
0
  6
Continuous
 62
     7
370
    25
100
AcDbLine
 10
11565.7787820877
 20
5344.756365054
 30
0.0
 11
11565.7787820877
 21
5318.4476402217
 31
0.0
  0
LINE
  5
BE
330
1F
100
AcDbEntity
  8
0
  6
Continuous
 62
     7
370
    25
100
AcDbLine
 10
11914.0296784904
 20
5318.4476402217
 30
0.0
 11
11922.7929792384
 21
5318.4476402217
 31
0.0
  0
LWPOLYLINE
  5
BF
330
1F
100
AcDbEntity
  8
0
  6
Continuous
 62
     8
370
    25
100
AcDbPolyline
 90
       20
 70
   128
 43
0.0
 10
12114.0490587929
 20
5665.4936088884
 10
12113.7607675568
 20
5665.4939701012
 10
12112.0968325159
 20
5665.496079909
 10
12109.1507846847
 20
5665.4998301397
 10
12104.9200045134
 20
5665.505240343
 10
12099.4343020987
 20
5665.5123109648
 10
12092.7581113284
 20
5665.5210024685
 10
12084.9558660903
 20
5665.5312753173
 10
12076.0350971864
 20
5665.5431877266
 10
12066.0461383426
 20
5665.5567529752
 10
12055.0996558934
 20
5665.5718879233
 10
12043.3063161737
 20
5665.5885094311
 10
12030.706613988
 20
5665.6066291535
 10
12017.3493317118
 20
5665.6262377181
 10
12003.3786877243
 20
5665.6471903803
 10
11988.9389004049
 20
5665.6693423958
 10
11977.907252906
 20
5665.6865895361
 10
11962.4095648153
 20
5665.7112448367
 10
11946.6431951913
 20
5665.7366626355
 10
11930.783733838
 20
5665.7622955107
  0
LWPOLYLINE
  5
C0
330
1F
100
AcDbEntity
  8
0
  6
Continuous
 62
     8
370
    25
100
AcDbPolyline
 90
        8
 70
   128
 43
0.0
 10
11917.7606504529
 20
5321.1768415822
 10
11920.2296595845
 20
5321.1475918395
 10
11922.3453281614
 20
5321.1221477897
 10
11924.1366035938
 20
5321.1002841952
 10
11925.5258508934
 20
5321.0831165011
 10
11926.4796838918
 20
5321.0712136698
 10
11927.0379487694
 20
5321.0641989119
 10
11927.173551127
 20
5321.0624922768
  0
CIRCLE
  5
C1
330
1F
100
AcDbEntity
  8
0
  6
Continuous
 62
     7
100
AcDbCircle
 10
10980.7692307578
 20
4696.7730484967
 30
0.0
 40
49.99999999999967
  0
LWPOLYLINE
  5
C2
330
1F
100
AcDbEntity
  8
0
  6
Continuous
 62
     7
370
    25
100
AcDbPolyline
 90
        7
 70
   128
 43
0.0
 10
10796.626373615
 20
5016.7730484967
 10
10796.626373615
 20
4940.5176804221
 10
10796.626373615
 20
4773.2510063045
 10
10796.6242469499
 20
4689.6208546153
 10
10796.5402144998
 20
4668.7099396259
 10
10796.595488261
 20
4653.0799738346
 10
10796.6254638659
 20
4651.7675102823
  0
LWPOLYLINE
  5
C3
330
1F
100
AcDbEntity
  8
0
  6
Continuous
 62
     7
370
    25
100
AcDbPolyline
 90
        7
 70
   128
 43
0.0
 10
11164.9141558335
 20
4651.7675980614
 10
11164.9621559283
 20
4654.8907547594
 10
11165.0037617751
 20
4665.1032072105
 10
11164.9382592485
 20
4682.4073392244
 10
11164.9120879007
 20
4710.7465495133
 10
11164.9120879007
 20
4745.8353794938
 10
11164.9120879007
 20
5016.7730484967
  0
ARC
  5
C4
330
1F
100
AcDbEntity
  8
0
  6
Continuous
 62
     7
370
    25
100
AcDbCircle
 10
10980.7679059281
 20
4652.2926759798
 30
0.0
 40
184.1316357284568
100
AcDbArc
 50
180.163324047
 51
359.8366844383
  0
LINE
  5
C5
330
1F
100
AcDbEntity
  8
0
  6
Continuous
 62
     7
370
    25
100
AcDbLine
 10
10796.626373615
 20
5016.7730484967
 30
0.0
 11
11164.9120879007
 21
5016.7730484967
 31
0.0
  0
LINE
  5
C6
330
1F
100
AcDbEntity
  8
0
  6
Continuous
 62
     7
370
    25
100
AcDbLine
 10
11164.9120879007
 20
5016.7730484967
 30
0.0
 11
11162.9120879007
 21
5014.7730484967
 31
0.0
  0
LINE
  5
C7
330
1F
100
AcDbEntity
  8
0
  6
Continuous
 62
     7
370
    25
100
AcDbLine
 10
11162.9120879007
 20
5014.7730484967
 30
0.0
 11
10798.626373615
 21
5014.7730484967
 31
0.0
  0
LINE
  5
C8
330
1F
100
AcDbEntity
  8
0
  6
Continuous
 62
     7
370
    25
100
AcDbLine
 10
10796.626373615
 20
5016.7730484967
 30
0.0
 11
10798.626373615
 21
5014.7730484967
 31
0.0
  0
LWPOLYLINE
  5
C9
330
1F
100
AcDbEntity
  8
0
  6
Continuous
 62
     7
370
    25
100
AcDbPolyline
 90
        6
 70
   128
 43
0.0
 10
10798.626373615
 20
5014.7730484967
 10
10798.626373615
 20
5010.7730484967
 10
10798.626373615
 20
4994.7730484967
 10
10798.626373615
 20
4930.7730484967
 10
10798.5347785027
 20
4791.2729273855
 10
10798.62700532
 20
4651.7730485006
  0
LWPOLYLINE
  5
CA
330
1F
100
AcDbEntity
  8
0
  6
Continuous
 62
     7
370
    25
100
AcDbPolyline
 90
        4
 70
   128
 43
0.0
 10
11162.911456216
 20
4651.773056244
 10
11162.9120879007
 20
4719.0780597527
 10
11162.9120879007
 20
4834.2730484967
 10
11162.9120879007
 20
5014.7730484967
  0
ARC
  5
CB
330
1F
100
AcDbEntity
  8
0
  6
Continuous
 62
     7
370
    25
100
AcDbCircle
 10
10980.769230757
 20
4652.2901625895
 30
0.0
 40
182.1429594964502
100
AcDbArc
 50
180.1626661536
 51
359.8373362822
  0
LINE
  5
CC
330
1F
100
AcDbEntity
  8
0
  6
Continuous
 62
     7
370
    25
100
AcDbLine
 10
11103.9708585582
 20
4711.7730484967
 30
0.0
 11
11103.9708585582
 21
4651.7730484967
 31
0.0
  0
ARC
  5
CD
330
1F
100
AcDbEntity
  8
0
  6
Continuous
 62
     7
370
    25
100
AcDbCircle
 10
10980.7692307578
 20
4711.7730484967
 30
0.0
 40
123.2016278003503
100
AcDbArc
 50
0.0
 51
180.0
  0
LINE
  5
CE
330
1F
100
AcDbEntity
  8
0
  6
Continuous
 62
     7
370
    25
100
AcDbLine
 10
10857.5676029575
 20
4651.7730484967
 30
0.0
 11
10857.5676029575
 21
4711.7730484967
 31
0.0
  0
ARC
  5
CF
330
1F
100
AcDbEntity
  8
0
  6
Continuous
 62
     7
370
    25
100
AcDbCircle
 10
10980.7692307578
 20
4651.7730484967
 30
0.0
 40
123.2016278003503
100
AcDbArc
 50
180.0
 51
360.0
  0
CIRCLE
  5
D0
330
1F
100
AcDbEntity
  8
0
  6
Continuous
 62
     7
370
    25
100
AcDbCircle
 10
11060.7692307578
 20
4936.7730484967
 30
0.0
 40
3.0
  0
CIRCLE
  5
D1
330
1F
100
AcDbEntity
  8
0
  6
Continuous
 62
     7
370
    25
100
AcDbCircle
 10
10900.7692307578
 20
4936.7730484967
 30
0.0
 40
3.0
  0
LINE
  5
D2
330
1F
100
AcDbEntity
  8
0
  6
Continuous
 62
     7
370
    25
100
AcDbLine
 10
11100.0541780829
 20
4711.7730484967
 30
0.0
 11
11103.9708585582
 21
4711.7730484967
 31
0.0
  0
ARC
  5
D3
330
1F
100
AcDbEntity
  8
0
  6
Continuous
 62
     7
370
    25
100
AcDbCircle
 10
10980.7692307578
 20
4711.7730484967
 30
0.0
 40
119.2849473250681
100
AcDbArc
 50
0.0
 51
180.0
  0
LINE
  5
D4
330
1F
100
AcDbEntity
  8
0
  6
Continuous
 62
     7
370
    25
100
AcDbLine
 10
10861.4842834328
 20
4711.7730484967
 30
0.0
 11
10857.5676029575
 21
4711.7730484967
 31
0.0
  0
LINE
  5
D5
330
1F
100
AcDbEntity
  8
0
  6
Continuous
 62
     7
370
    25
100
AcDbLine
 10
10861.4842834328
 20
4651.7730484967
 30
0.0
 11
10861.4842834328
 21
4711.7730484967
 31
0.0
  0
LINE
  5
D6
330
1F
100
AcDbEntity
  8
0
  6
Continuous
 62
     7
370
    25
100
AcDbLine
 10
10861.4842834328
 20
4651.7730484967
 30
0.0
 11
10857.5676029575
 21
4651.7730484967
 31
0.0
  0
LINE
  5
D7
330
1F
100
AcDbEntity
  8
0
  6
Continuous
 62
     7
370
    25
100
AcDbLine
 10
11100.0541780829
 20
4651.7730484967
 30
0.0
 11
11103.9708585582
 21
4651.7730484967
 31
0.0
  0
LINE
  5
D8
330
1F
100
AcDbEntity
  8
0
  6
Continuous
 62
     7
370
    25
100
AcDbLine
 10
11100.0541780829
 20
4711.7730484967
 30
0.0
 11
11100.0541780829
 21
4651.7730484967
 31
0.0
  0
ARC
  5
D9
330
1F
100
AcDbEntity
  8
0
  6
Continuous
 62
     7
370
    25
100
AcDbCircle
 10
10980.7692307578
 20
4651.7730484967
 30
0.0
 40
119.2849473250681
100
AcDbArc
 50
180.0
 51
360.0
  0
LWPOLYLINE
  5
DA
330
1F
100
AcDbEntity
  8
0
  6
Continuous
 62
     7
370
    25
100
AcDbPolyline
 90
       58
 70
   128
 43
0.0
 10
10980.7692307578
 20
4638.3712121036
 10
10977.4775621632
 20
4638.4776410855
 10
10971.0444675109
 20
4639.2974441524
 10
10964.7314417575
 20
4640.8863307074
 10
10958.6638567373
 20
4643.1857257168
 10
10952.8897861887
 20
4646.1637087627
 10
10947.4580886833
 20
4649.765091329
 10
10942.4559475077
 20
4653.9139690727
 10
10937.9309645971
 20
4658.5644353852
 10
10933.9073744129
 20
4663.6779586128
 10
10930.4563682338
 20
4669.1720835263
 10
10927.6368300293
 20
4674.9787951094
 10
10925.4623666038
 20
4681.0768755636
 10
10923.9889034569
 20
4687.3592424094
 10
10923.2482152552
 20
4693.7561093094
 10
10923.2451881338
 20
4700.2164514082
 10
10924.0047718379
 20
4706.6076189122
 10
10925.5523513013
 20
4712.810817935
 10
10927.8534014895
 20
4718.8035988547
 10
10930.820340034
 20
4724.4733219607
 10
10934.4240728559
 20
4729.8302900052
 10
10938.5696350636
 20
4734.803610124
 10
10943.1747780316
 20
4739.3330366716
 10
10948.2015078827
 20
4743.3924222341
 10
10953.6171422103
 20
4746.9440327149
 10
10959.3517710697
 20
4749.9141409755
 10
10965.3292718405
 20
4752.2262252155
 10
10971.5515505799
 20
4753.8417031191
 10
10977.8988046155
 20
4754.6682685627
 10
10980.7692307578
 20
4754.7594377502
 10
10985.4693804594
 20
4754.5178417266
 10
10990.1247625588
 20
4753.8200627593
 10
10996.3326531831
 20
4752.193427534
 10
11002.3347932277
 20
4749.8568973394
 10
11008.0369599908
 20
4746.8987451757
 10
11013.4548933684
 20
4743.3394684014
 10
11018.5070191319
 20
4739.251302405
 10
11023.1242231858
 20
4734.699739175
 10
11027.2332428868
 20
4729.756017077
 10
11030.8248682076
 20
4724.4056332233
 10
11033.8060864177
 20
4718.7159916827
 10
11036.0780895385
 20
4712.731988386
 10
11037.609108812
 20
4706.4914978772
 10
11038.3686913816
 20
4700.1352452758
 10
11038.353414019
 20
4693.6920104035
 10
11037.5932249095
 20
4687.2711879441
 10
11036.115524749
 20
4680.9979396792
 10
11033.9259544732
 20
4674.9081239089
 10
11031.0729378359
 20
4669.0766243662
 10
11027.6220297131
 20
4663.5994581962
 10
11023.5919870998
 20
4658.5033108449
 10
11019.0368147139
 20
4653.8451124198
 10
11014.0309175924
 20
4649.7040409296
 10
11008.60338975
 20
4646.1249275017
 10
11002.8013050069
 20
4643.1498136353
 10
10996.7226406285
 20
4640.8511765845
 10
10988.8381715372
 20
4639.008212041
 10
10980.7692307578
 20
4638.3712121036
  0
CIRCLE
  5
DB
330
1F
100
AcDbEntity
  8
0
  6
Continuous
 62
     7
370
    25
100
AcDbCircle
 10
10980.7691894814
 20
4696.7716038006
 30
0.0
 40
49.99855530387025
  0
LINE
  5
DC
330
1F
100
AcDbEntity
  8
0
  6
Continuous
 62
     8
370
    25
100
AcDbLine
 10
10798.62700532
 20
4651.7730485006
 30
0.0
 11
10796.627012479
 21
4651.7677776215
 31
0.0
  0
LINE
  5
DD
330
1F
100
AcDbEntity
  8
0
  6
Continuous
 62
     8
370
    25
100
AcDbLine
 10
11162.911456216
 20
4651.773056244
 30
0.0
 11
11164.9114489575
 21
4651.7677854503
 31
0.0
  0
ENDSEC
  0
SECTION
  2
OBJECTS
  0
DICTIONARY
  5
C
330
0
100
AcDbDictionary
281
     1
  3
ACAD_GROUP
350
D
  3
ACAD_LAYOUT
350
1A
  3
ACAD_MLINESTYLE
350
17
  3
ACAD_PLOTSETTINGS
350
19
  3
ACAD_PLOTSTYLENAME
350
E
  3
ACAD_SCALELIST
350
47
  3
DWGPROPS
350
DE
  0
DICTIONARY
  5
D
102
{ACAD_REACTORS
330
C
102
}
330
C
100
AcDbDictionary
281
     1
  0
DICTIONARY
  5
1A
102
{ACAD_REACTORS
330
C
102
}
330
C
100
AcDbDictionary
281
     1
  3
Layout1
350
1E
  3
Layout2
350
26
  3
Model
350
22
  0
DICTIONARY
  5
17
102
{ACAD_REACTORS
330
C
102
}
330
C
100
AcDbDictionary
281
     1
  3
Standard
350
18
  0
DICTIONARY
  5
19
102
{ACAD_REACTORS
330
C
102
}
330
C
100
AcDbDictionary
281
     1
  0
ACDBDICTIONARYWDFLT
  5
E
102
{ACAD_REACTORS
330
C
102
}
330
C
100
AcDbDictionary
281
     1
  3
Normal
350
F
100
AcDbDictionaryWithDefault
340
F
  0
DICTIONARY
  5
47
102
{ACAD_REACTORS
330
C
102
}
330
C
100
AcDbDictionary
281
     1
  3
A0
350
48
  3
A1
350
49
  3
A2
350
4A
  3
A3
350
4B
  3
A4
350
4C
  3
A5
350
4D
  3
A6
350
4E
  3
A7
350
4F
  3
A8
350
50
  3
A9
350
51
  3
B0
350
52
  3
B1
350
53
  3
B2
350
54
  3
B3
350
55
  3
B4
350
56
  3
B5
350
57
  3
B6
350
58
  3
B7
350
59
  3
B8
350
5A
  3
B9
350
5B
  3
C0
350
5C
  3
C1
350
5D
  3
C2
350
5E
  3
C3
350
5F
  3
C4
350
60
  3
C5
350
61
  3
C6
350
62
  3
C7
350
63
  3
C8
350
64
  3
C9
350
65
  3
D0
350
66
  3
D1
350
67
  3
D2
350
68
  0
XRECORD
  5
DE
102
{ACAD_REACTORS
330
C
102
}
330
C
100
AcDbXrecord
280
     1
  1
DWGPROPS COOKIE
  2

  3

  4

  6

  7

  8
radek.stransky
  9

300
=
301
=
302
=
303
=
304
=
305
=
306
=
307
=
308
=
309
=
 40
0.0
 41
2459115.332358426
 42
2459115.332358785
  1

 90
        0
  0
LAYOUT
  5
1E
102
{ACAD_REACTORS
330
1A
102
}
330
1A
100
AcDbPlotSettings
  1

  2
none_device
  4

  6

 40
0.0
 41
0.0
 42
0.0
 43
0.0
 44
0.0
 45
0.0
 46
0.0
 47
0.0
 48
0.0
 49
0.0
140
0.0
141
0.0
142
1.0
143
1.0
 70
   688
 72
     1
 73
     0
 74
     5
  7

 75
    16
147
1.0
148
0.0
149
0.0
100
AcDbLayout
  1
Layout1
 70
     1
 71
     1
 10
0.0
 20
0.0
 11
420.0
 21
297.0
 12
0.0
 22
0.0
 32
0.0
 14
1.0000000000E+20
 24
1.0000000000E+20
 34
1.0000000000E+20
 15
-1.0000000000E+20
 25
-1.0000000000E+20
 35
-1.0000000000E+20
146
0.0
 13
0.0
 23
0.0
 33
0.0
 16
1.0
 26
0.0
 36
0.0
 17
0.0
 27
1.0
 37
0.0
 76
     0
330
1B
  0
LAYOUT
  5
26
102
{ACAD_REACTORS
330
1A
102
}
330
1A
100
AcDbPlotSettings
  1

  2
none_device
  4

  6

 40
0.0
 41
0.0
 42
0.0
 43
0.0
 44
0.0
 45
0.0
 46
0.0
 47
0.0
 48
0.0
 49
0.0
140
0.0
141
0.0
142
1.0
143
1.0
 70
   688
 72
     1
 73
     0
 74
     5
  7

 75
    16
147
1.0
148
0.0
149
0.0
100
AcDbLayout
  1
Layout2
 70
     1
 71
     2
 10
0.0
 20
0.0
 11
0.0
 21
0.0
 12
0.0
 22
0.0
 32
0.0
 14
0.0
 24
0.0
 34
0.0
 15
0.0
 25
0.0
 35
0.0
146
0.0
 13
0.0
 23
0.0
 33
0.0
 16
1.0
 26
0.0
 36
0.0
 17
0.0
 27
1.0
 37
0.0
 76
     0
330
23
  0
LAYOUT
  5
22
102
{ACAD_REACTORS
330
1A
102
}
330
1A
100
AcDbPlotSettings
  1

  2
none_device
  4
Letter_(8.50_x_11.00_Inches)
  6

 40
6.35
 41
6.35
 42
6.35000508
 43
6.35000508
 44
215.9
 45
279.4
 46
0.0
 47
0.0
 48
0.0
 49
0.0
140
0.0
141
0.0
142
1.0
143
1.0
 70
  1712
 72
     1
 73
     0
 74
     0
  7

 75
     0
147
1.0
148
0.0
149
0.0
100
AcDbLayout
  1
Model
 70
     1
 71
     0
 10
0.0
 20
0.0
 11
20000.0
 21
10000.0
 12
0.0
 22
0.0
 32
0.0
 14
0.0
 24
0.0
 34
0.0
 15
20000.0
 25
10000.0
 35
0.0
146
0.0
 13
0.0
 23
0.0
 33
0.0
 16
1.0
 26
0.0
 36
0.0
 17
0.0
 27
1.0
 37
0.0
 76
     0
330
1F
331
29
  0
MLINESTYLE
  5
18
102
{ACAD_REACTORS
330
17
102
}
330
17
100
AcDbMlineStyle
  2
Standard
 70
     0
  3

 62
   256
 51
90.0
 52
90.0
 71
     2
 49
0.5
 62
   256
  6
BYLAYER
 49
-0.5
 62
   256
  6
BYLAYER
  0
ACDBPLACEHOLDER
  5
F
102
{ACAD_REACTORS
330
E
102
}
330
E
  0
SCALE
  5
48
102
{ACAD_REACTORS
330
47
102
}
330
47
100
AcDbScale
 70
     0
300
1:1
140
1.0
141
1.0
290
     1
  0
SCALE
  5
49
102
{ACAD_REACTORS
330
47
102
}
330
47
100
AcDbScale
 70
     0
300
1:2
140
1.0
141
2.0
290
     0
  0
SCALE
  5
4A
102
{ACAD_REACTORS
330
47
102
}
330
47
100
AcDbScale
 70
     0
300
1:4
140
1.0
141
4.0
290
     0
  0
SCALE
  5
4B
102
{ACAD_REACTORS
330
47
102
}
330
47
100
AcDbScale
 70
     0
300
1:5
140
1.0
141
5.0
290
     0
  0
SCALE
  5
4C
102
{ACAD_REACTORS
330
47
102
}
330
47
100
AcDbScale
 70
     0
300
1:8
140
1.0
141
8.0
290
     0
  0
SCALE
  5
4D
102
{ACAD_REACTORS
330
47
102
}
330
47
100
AcDbScale
 70
     0
300
1:10
140
1.0
141
10.0
290
     0
  0
SCALE
  5
4E
102
{ACAD_REACTORS
330
47
102
}
330
47
100
AcDbScale
 70
     0
300
1:16
140
1.0
141
16.0
290
     0
  0
SCALE
  5
4F
102
{ACAD_REACTORS
330
47
102
}
330
47
100
AcDbScale
 70
     0
300
1:20
140
1.0
141
20.0
290
     0
  0
SCALE
  5
50
102
{ACAD_REACTORS
330
47
102
}
330
47
100
AcDbScale
 70
     0
300
1:30
140
1.0
141
30.0
290
     0
  0
SCALE
  5
51
102
{ACAD_REACTORS
330
47
102
}
330
47
100
AcDbScale
 70
     0
300
1:40
140
1.0
141
40.0
290
     0
  0
SCALE
  5
52
102
{ACAD_REACTORS
330
47
102
}
330
47
100
AcDbScale
 70
     0
300
1:50
140
1.0
141
50.0
290
     0
  0
SCALE
  5
53
102
{ACAD_REACTORS
330
47
102
}
330
47
100
AcDbScale
 70
     0
300
1:100
140
1.0
141
100.0
290
     0
  0
SCALE
  5
54
102
{ACAD_REACTORS
330
47
102
}
330
47
100
AcDbScale
 70
     0
300
2:1
140
2.0
141
1.0
290
     0
  0
SCALE
  5
55
102
{ACAD_REACTORS
330
47
102
}
330
47
100
AcDbScale
 70
     0
300
4:1
140
4.0
141
1.0
290
     0
  0
SCALE
  5
56
102
{ACAD_REACTORS
330
47
102
}
330
47
100
AcDbScale
 70
     0
300
8:1
140
8.0
141
1.0
290
     0
  0
SCALE
  5
57
102
{ACAD_REACTORS
330
47
102
}
330
47
100
AcDbScale
 70
     0
300
10:1
140
10.0
141
1.0
290
     0
  0
SCALE
  5
58
102
{ACAD_REACTORS
330
47
102
}
330
47
100
AcDbScale
 70
     0
300
100:1
140
100.0
141
1.0
290
     0
  0
SCALE
  5
59
102
{ACAD_REACTORS
330
47
102
}
330
47
100
AcDbScale
 70
     0
300
1/128" = 1'-0"
140
0.0078125
141
12.0
290
     0
  0
SCALE
  5
5A
102
{ACAD_REACTORS
330
47
102
}
330
47
100
AcDbScale
 70
     0
300
1/64" = 1'-0"
140
0.015625
141
12.0
290
     0
  0
SCALE
  5
5B
102
{ACAD_REACTORS
330
47
102
}
330
47
100
AcDbScale
 70
     0
300
1/32" = 1'-0"
140
0.03125
141
12.0
290
     0
  0
SCALE
  5
5C
102
{ACAD_REACTORS
330
47
102
}
330
47
100
AcDbScale
 70
     0
300
1/16" = 1'-0"
140
0.0625
141
12.0
290
     0
  0
SCALE
  5
5D
102
{ACAD_REACTORS
330
47
102
}
330
47
100
AcDbScale
 70
     0
300
3/32" = 1'-0"
140
0.09375
141
12.0
290
     0
  0
SCALE
  5
5E
102
{ACAD_REACTORS
330
47
102
}
330
47
100
AcDbScale
 70
     0
300
1/8" = 1'-0"
140
0.125
141
12.0
290
     0
  0
SCALE
  5
5F
102
{ACAD_REACTORS
330
47
102
}
330
47
100
AcDbScale
 70
     0
300
3/16" = 1'-0"
140
0.1875
141
12.0
290
     0
  0
SCALE
  5
60
102
{ACAD_REACTORS
330
47
102
}
330
47
100
AcDbScale
 70
     0
300
1/4" = 1'-0"
140
0.25
141
12.0
290
     0
  0
SCALE
  5
61
102
{ACAD_REACTORS
330
47
102
}
330
47
100
AcDbScale
 70
     0
300
3/8" = 1'-0"
140
0.375
141
12.0
290
     0
  0
SCALE
  5
62
102
{ACAD_REACTORS
330
47
102
}
330
47
100
AcDbScale
 70
     0
300
1/2" = 1'-0"
140
0.5
141
12.0
290
     0
  0
SCALE
  5
63
102
{ACAD_REACTORS
330
47
102
}
330
47
100
AcDbScale
 70
     0
300
3/4" = 1'-0"
140
0.75
141
12.0
290
     0
  0
SCALE
  5
64
102
{ACAD_REACTORS
330
47
102
}
330
47
100
AcDbScale
 70
     0
300
1" = 1'-0"
140
1.0
141
12.0
290
     0
  0
SCALE
  5
65
102
{ACAD_REACTORS
330
47
102
}
330
47
100
AcDbScale
 70
     0
300
1-1/2" = 1'-0"
140
1.5
141
12.0
290
     0
  0
SCALE
  5
66
102
{ACAD_REACTORS
330
47
102
}
330
47
100
AcDbScale
 70
     0
300
3" = 1'-0"
140
3.0
141
12.0
290
     0
  0
SCALE
  5
67
102
{ACAD_REACTORS
330
47
102
}
330
47
100
AcDbScale
 70
     0
300
6" = 1'-0"
140
6.0
141
12.0
290
     0
  0
SCALE
  5
68
102
{ACAD_REACTORS
330
47
102
}
330
47
100
AcDbScale
 70
     0
300
1'-0" = 1'-0"
140
12.0
141
12.0
290
     0
  0
ENDSEC
  0
EOF
