  0
SECTION
  2
HEADER
  9
$ACADVER
  1
AC1015
  9
$ACADMAINTVER
 70
     6
  9
$DWGCODEPAGE
  3
ANSI_1250
  9
$INSBASE
 10
0.0
 20
0.0
 30
0.0
  9
$EXTMIN
 10
6163.9995110825
 20
4300.1602701398
 30
0.0
  9
$EXTMAX
 10
6738.6468299383
 20
5738.9091057617
 30
0.0
  9
$LIMMIN
 10
0.0
 20
0.0
  9
$LIMMAX
 10
420.0
 20
297.0
  9
$ORTHOMODE
 70
     0
  9
$REGENMODE
 70
     1
  9
$FILLMODE
 70
     1
  9
$QTEXTMODE
 70
     0
  9
$MIRRTEXT
 70
     1
  9
$LTSCALE
 40
1.0
  9
$ATTMODE
 70
     1
  9
$TEXTSIZE
 40
3.5
  9
$TRACEWID
 40
1.0
  9
$TEXTSTYLE
  7
Standard
  9
$CLAYER
  8
0
  9
$CELTYPE
  6
ByLayer
  9
$CECOLOR
 62
   256
  9
$CELTSCALE
 40
1.0
  9
$DISPSILH
 70
     0
  9
$DIMSCALE
 40
1.0
  9
$DIMASZ
 40
3.302
  9
$DIMEXO
 40
0.0
  9
$DIMDLI
 40
3.75
  9
$DIMRND
 40
0.0
  9
$DIMDLE
 40
0.0
  9
$DIMEXE
 40
1.0
  9
$DIMTP
 40
0.0
  9
$DIMTM
 40
0.0
  9
$DIMTXT
 40
3.5
  9
$DIMCEN
 40
2.5
  9
$DIMTSZ
 40
0.0
  9
$DIMTOL
 70
     0
  9
$DIMLIM
 70
     0
  9
$DIMTIH
 70
     1
  9
$DIMTOH
 70
     1
  9
$DIMSE1
 70
     0
  9
$DIMSE2
 70
     0
  9
$DIMTAD
 70
     1
  9
$DIMZIN
 70
     0
  9
$DIMBLK
  1

  9
$DIMASO
 70
     1
  9
$DIMSHO
 70
     1
  9
$DIMPOST
  1

  9
$DIMAPOST
  1

  9
$DIMALT
 70
     0
  9
$DIMALTD
 70
     3
  9
$DIMALTF
 40
0.0393700787
  9
$DIMLFAC
 40
1.0
  9
$DIMTOFL
 70
     1
  9
$DIMTVP
 40
0.0
  9
$DIMTIX
 70
     0
  9
$DIMSOXD
 70
     0
  9
$DIMSAH
 70
     0
  9
$DIMBLK1
  1

  9
$DIMBLK2
  1

  9
$DIMSTYLE
  2
ISO-25
  9
$DIMCLRD
 70
     0
  9
$DIMCLRE
 70
     0
  9
$DIMCLRT
 70
     0
  9
$DIMTFAC
 40
1.0
  9
$DIMGAP
 40
1.524
  9
$DIMJUST
 70
     0
  9
$DIMSD1
 70
     0
  9
$DIMSD2
 70
     0
  9
$DIMTOLJ
 70
     0
  9
$DIMTZIN
 70
     0
  9
$DIMALTZ
 70
     0
  9
$DIMALTTZ
 70
     0
  9
$DIMUPT
 70
     0
  9
$DIMDEC
 70
     2
  9
$DIMTDEC
 70
     2
  9
$DIMALTU
 70
     2
  9
$DIMALTTD
 70
     3
  9
$DIMTXSTY
  7
Standard
  9
$DIMAUNIT
 70
     0
  9
$DIMADEC
 70
     2
  9
$DIMALTRND
 40
0.0
  9
$DIMAZIN
 70
     0
  9
$DIMDSEP
 70
    44
  9
$DIMATFIT
 70
     3
  9
$DIMFRAC
 70
     0
  9
$DIMLDRBLK
  1

  9
$DIMLUNIT
 70
     2
  9
$DIMLWD
 70
    -2
  9
$DIMLWE
 70
    -2
  9
$DIMTMOVE
 70
     0
  9
$LUNITS
 70
     2
  9
$LUPREC
 70
     2
  9
$SKETCHINC
 40
1.0
  9
$FILLETRAD
 40
10.0
  9
$AUNITS
 70
     0
  9
$AUPREC
 70
     2
  9
$MENU
  1
.
  9
$ELEVATION
 40
0.0
  9
$PELEVATION
 40
0.0
  9
$THICKNESS
 40
0.0
  9
$LIMCHECK
 70
     0
  9
$CHAMFERA
 40
0.0
  9
$CHAMFERB
 40
0.0
  9
$CHAMFERC
 40
0.0
  9
$CHAMFERD
 40
0.0
  9
$SKPOLY
 70
     0
  9
$TDCREATE
 40
2459103.512910509
  9
$TDUCREATE
 40
2459103.429577176
  9
$TDUPDATE
 40
2459103.512947141
  9
$TDUUPDATE
 40
2459103.429613808
  9
$TDINDWG
 40
0.0000000116
  9
$TDUSRTIMER
 40
0.0000000116
  9
$USRTIMER
 70
     1
  9
$ANGBASE
 50
0.0
  9
$ANGDIR
 70
     0
  9
$PDMODE
 70
     0
  9
$PDSIZE
 40
-1.0
  9
$PLINEWID
 40
0.0
  9
$SPLFRAME
 70
     0
  9
$SPLINETYPE
 70
     6
  9
$SPLINESEGS
 70
     8
  9
$HANDSEED
  5
691
  9
$SURFTAB1
 70
     6
  9
$SURFTAB2
 70
     6
  9
$SURFTYPE
 70
     6
  9
$SURFU
 70
     6
  9
$SURFV
 70
     6
  9
$UCSBASE
  2

  9
$UCSNAME
  2

  9
$UCSORG
 10
0.0
 20
0.0
 30
0.0
  9
$UCSXDIR
 10
1.0
 20
0.0
 30
0.0
  9
$UCSYDIR
 10
0.0
 20
1.0
 30
0.0
  9
$UCSORTHOREF
  2

  9
$UCSORTHOVIEW
 70
     0
  9
$UCSORGTOP
 10
0.0
 20
0.0
 30
0.0
  9
$UCSORGBOTTOM
 10
0.0
 20
0.0
 30
0.0
  9
$UCSORGLEFT
 10
0.0
 20
0.0
 30
0.0
  9
$UCSORGRIGHT
 10
0.0
 20
0.0
 30
0.0
  9
$UCSORGFRONT
 10
0.0
 20
0.0
 30
0.0
  9
$UCSORGBACK
 10
0.0
 20
0.0
 30
0.0
  9
$PUCSBASE
  2

  9
$PUCSNAME
  2

  9
$PUCSORG
 10
0.0
 20
0.0
 30
0.0
  9
$PUCSXDIR
 10
1.0
 20
0.0
 30
0.0
  9
$PUCSYDIR
 10
0.0
 20
1.0
 30
0.0
  9
$PUCSORTHOREF
  2

  9
$PUCSORTHOVIEW
 70
     0
  9
$PUCSORGTOP
 10
0.0
 20
0.0
 30
0.0
  9
$PUCSORGBOTTOM
 10
0.0
 20
0.0
 30
0.0
  9
$PUCSORGLEFT
 10
0.0
 20
0.0
 30
0.0
  9
$PUCSORGRIGHT
 10
0.0
 20
0.0
 30
0.0
  9
$PUCSORGFRONT
 10
0.0
 20
0.0
 30
0.0
  9
$PUCSORGBACK
 10
0.0
 20
0.0
 30
0.0
  9
$USERI1
 70
     0
  9
$USERI2
 70
     0
  9
$USERI3
 70
     0
  9
$USERI4
 70
     0
  9
$USERI5
 70
     0
  9
$USERR1
 40
0.0
  9
$USERR2
 40
0.0
  9
$USERR3
 40
0.0
  9
$USERR4
 40
0.0
  9
$USERR5
 40
0.0
  9
$WORLDVIEW
 70
     1
  9
$SHADEDGE
 70
     3
  9
$SHADEDIF
 70
    70
  9
$TILEMODE
 70
     1
  9
$MAXACTVP
 70
    64
  9
$PINSBASE
 10
0.0
 20
0.0
 30
0.0
  9
$PLIMCHECK
 70
     0
  9
$PEXTMIN
 10
1.0000000000E+20
 20
1.0000000000E+20
 30
1.0000000000E+20
  9
$PEXTMAX
 10
-1.0000000000E+20
 20
-1.0000000000E+20
 30
-1.0000000000E+20
  9
$PLIMMIN
 10
0.0
 20
0.0
  9
$PLIMMAX
 10
420.0
 20
297.0
  9
$UNITMODE
 70
     0
  9
$VISRETAIN
 70
     1
  9
$PLINEGEN
 70
     0
  9
$PSLTSCALE
 70
     1
  9
$TREEDEPTH
 70
  3020
  9
$CMLSTYLE
  2
Standard
  9
$CMLJUST
 70
     0
  9
$CMLSCALE
 40
20.0
  9
$PROXYGRAPHICS
 70
     1
  9
$MEASUREMENT
 70
     1
  9
$CELWEIGHT
370
    -1
  9
$ENDCAPS
280
     0
  9
$JOINSTYLE
280
     0
  9
$LWDISPLAY
290
     1
  9
$INSUNITS
 70
     4
  9
$HYPERLINKBASE
  1

  9
$STYLESHEET
  1

  9
$XEDIT
290
     1
  9
$CEPSNTYPE
380
     0
  9
$PSTYLEMODE
290
     1
  9
$FINGERPRINTGUID
  2
{67eab79f-23f3-4ad9-98e4-fa5089d9d1b4}
  9
$VERSIONGUID
  2
{FAEB1C32-E019-11D5-929B-00C0DF256EC4}
  9
$EXTNAMES
290
     1
  9
$PSVPSCALE
 40
0.0
  9
$OLESTARTUP
290
     0
  0
ENDSEC
  0
SECTION
  2
CLASSES
  0
CLASS
  1
ACDBDICTIONARYWDFLT
  2
AcDbDictionaryWithDefault
  3
ObjectDBX Classes
 90
        0
280
     0
281
     0
  0
CLASS
  1
VISUALSTYLE
  2
AcDbVisualStyle
  3
ObjectDBX Classes
 90
     4095
280
     0
281
     0
  0
CLASS
  1
MATERIAL
  2
AcDbMaterial
  3
ObjectDBX Classes
 90
     1153
280
     0
281
     0
  0
CLASS
  1
SCALE
  2
AcDbScale
  3
ObjectDBX Classes
 90
     1153
280
     0
281
     0
  0
CLASS
  1
TABLESTYLE
  2
AcDbTableStyle
  3
ObjectDBX Classes
 90
     4095
280
     0
281
     0
  0
CLASS
  1
MLEADERSTYLE
  2
AcDbMLeaderStyle
  3
ACDB_MLEADERSTYLE_CLASS
 90
     4095
280
     0
281
     0
  0
CLASS
  1
SUN
  2
AcDbSun
  3
SCENEOE
 90
     1153
280
     0
281
     0
  0
CLASS
  1
ACDBPLACEHOLDER
  2
AcDbPlaceHolder
  3
ObjectDBX Classes
 90
        0
280
     0
281
     0
  0
CLASS
  1
LAYOUT
  2
AcDbLayout
  3
ObjectDBX Classes
 90
        0
280
     0
281
     0
  0
ENDSEC
  0
SECTION
  2
TABLES
  0
TABLE
  2
VPORT
  5
8
330
0
100
AcDbSymbolTable
 70
     1
  0
VPORT
  5
29
330
8
100
AcDbSymbolTableRecord
100
AcDbViewportTableRecord
  2
*Active
 70
     0
 10
0.0
 20
0.0
 11
1.0
 21
1.0
 12
6451.3231705104
 22
5019.5346879508
 13
0.0
 23
0.0
 14
10.0
 24
10.0
 15
10.0
 25
10.0
 16
0.0
 26
0.0
 36
1.0
 17
0.0
 27
0.0
 37
0.0
 40
1467.5238123343
 41
0.3994076691
 42
50.0
 43
0.0
 44
0.0
 50
0.0
 51
0.0
 71
     0
 72
   100
 73
     1
 74
     3
 75
     0
 76
     0
 77
     0
 78
     0
281
     0
 65
     1
110
0.0
120
0.0
130
0.0
111
1.0
121
0.0
131
0.0
112
0.0
122
1.0
132
0.0
 79
     0
146
0.0
  0
ENDTAB
  0
TABLE
  2
LTYPE
  5
5
330
0
100
AcDbSymbolTable
 70
     6
  0
LTYPE
  5
14
330
5
100
AcDbSymbolTableRecord
100
AcDbLinetypeTableRecord
  2
ByBlock
 70
     0
  3

 72
    65
 73
     0
 40
0.0
  0
LTYPE
  5
15
330
5
100
AcDbSymbolTableRecord
100
AcDbLinetypeTableRecord
  2
ByLayer
 70
     0
  3

 72
    65
 73
     0
 40
0.0
  0
LTYPE
  5
16
330
5
100
AcDbSymbolTableRecord
100
AcDbLinetypeTableRecord
  2
Continuous
 70
     0
  3
Solid line
 72
    65
 73
     0
 40
0.0
  0
LTYPE
  5
6E
330
5
100
AcDbSymbolTableRecord
100
AcDbLinetypeTableRecord
  2
HIDDEN
 70
     0
  3
Hidden __ __ __ __ __ __ __ __ __ __ __ __ __ __
 72
    65
 73
     2
 40
1.905
 49
1.27
 74
     0
 49
-0.635
 74
     0
  0
LTYPE
  5
6F
330
5
100
AcDbSymbolTableRecord
100
AcDbLinetypeTableRecord
  2
PHANTOM
 70
     0
  3
Phantom ______  __  __  ______  __  __  ______
 72
    65
 73
     6
 40
12.7
 49
6.35
 74
     0
 49
-1.27
 74
     0
 49
1.27
 74
     0
 49
-1.27
 74
     0
 49
1.27
 74
     0
 49
-1.27
 74
     0
  0
LTYPE
  5
70
330
5
100
AcDbSymbolTableRecord
100
AcDbLinetypeTableRecord
  2
CENTER
 70
     0
  3
Center ____ _ ____ _ ____ _ ____ _ ____ _ ____
 72
    65
 73
     4
 40
10.16
 49
6.35
 74
     0
 49
-1.27
 74
     0
 49
1.27
 74
     0
 49
-1.27
 74
     0
  0
LTYPE
  5
71
330
5
100
AcDbSymbolTableRecord
100
AcDbLinetypeTableRecord
  2
CENTERX2
 70
     0
  3
Center (2x) ________  __  ________  __  _____
 72
    65
 73
     4
 40
20.32
 49
12.7
 74
     0
 49
-2.54
 74
     0
 49
2.54
 74
     0
 49
-2.54
 74
     0
  0
LTYPE
  5
72
330
5
100
AcDbSymbolTableRecord
100
AcDbLinetypeTableRecord
  2
DOT2
 70
     0
  3
Dot (.5x) ........................................
 72
    65
 73
     2
 40
0.635
 49
0.0
 74
     0
 49
-0.635
 74
     0
  0
ENDTAB
  0
TABLE
  2
LAYER
  5
2
330
0
100
AcDbSymbolTable
 70
     1
  0
LAYER
  5
10
330
2
100
AcDbSymbolTableRecord
100
AcDbLayerTableRecord
  2
0
 70
     0
 62
     7
  6
Continuous
370
    -3
390
F
  0
ENDTAB
  0
TABLE
  2
STYLE
  5
3
330
0
100
AcDbSymbolTable
 70
     1
  0
STYLE
  5
11
330
3
100
AcDbSymbolTableRecord
100
AcDbTextStyleTableRecord
  2
Standard
 70
     0
 40
0.0
 41
1.0
 50
0.0
 71
     0
 42
3.5
  3
txt
  4

  0
ENDTAB
  0
TABLE
  2
VIEW
  5
6
330
0
100
AcDbSymbolTable
 70
     0
  0
ENDTAB
  0
TABLE
  2
UCS
  5
7
330
0
100
AcDbSymbolTable
 70
     0
  0
ENDTAB
  0
TABLE
  2
APPID
  5
9
330
0
100
AcDbSymbolTable
 70
     1
  0
APPID
  5
12
330
9
100
AcDbSymbolTableRecord
100
AcDbRegAppTableRecord
  2
ACAD
 70
     0
  0
ENDTAB
  0
TABLE
  2
DIMSTYLE
  5
A
330
0
100
AcDbSymbolTable
 70
     1
100
AcDbDimStyleTable
  0
DIMSTYLE
105
27
330
A
100
AcDbSymbolTableRecord
100
AcDbDimStyleTableRecord
  2
ISO-25
 70
     0
 41
2.5
 42
0.625
 43
3.75
 44
1.25
 73
     0
 74
     0
 77
     1
 78
     8
140
2.5
141
2.5
143
0.0393700787
147
0.625
171
     3
172
     1
178
     0
271
     2
272
     2
274
     3
278
    44
283
     0
284
     8
340
11
  0
ENDTAB
  0
TABLE
  2
BLOCK_RECORD
  5
1
330
0
100
AcDbSymbolTable
 70
     1
  0
BLOCK_RECORD
  5
1F
330
1
100
AcDbSymbolTableRecord
100
AcDbBlockTableRecord
  2
*Model_Space
340
22
  0
BLOCK_RECORD
  5
1B
330
1
100
AcDbSymbolTableRecord
100
AcDbBlockTableRecord
  2
*Paper_Space
340
1E
  0
BLOCK_RECORD
  5
23
330
1
100
AcDbSymbolTableRecord
100
AcDbBlockTableRecord
  2
*Paper_Space0
340
26
  0
ENDTAB
  0
ENDSEC
  0
SECTION
  2
BLOCKS
  0
BLOCK
  5
20
330
1F
100
AcDbEntity
  8
0
100
AcDbBlockBegin
  2
*Model_Space
 70
     0
 10
0.0
 20
0.0
 30
0.0
  3
*Model_Space
  1

  0
ENDBLK
  5
21
330
1F
100
AcDbEntity
  8
0
100
AcDbBlockEnd
  0
BLOCK
  5
1C
330
1B
100
AcDbEntity
 67
     1
  8
0
100
AcDbBlockBegin
  2
*Paper_Space
 70
     0
 10
0.0
 20
0.0
 30
0.0
  3
*Paper_Space
  1

  0
ENDBLK
  5
1D
330
1B
100
AcDbEntity
 67
     1
  8
0
100
AcDbBlockEnd
  0
BLOCK
  5
24
330
23
100
AcDbEntity
  8
0
100
AcDbBlockBegin
  2
*Paper_Space0
 70
     0
 10
0.0
 20
0.0
 30
0.0
  3
*Paper_Space0
  1

  0
ENDBLK
  5
25
330
23
100
AcDbEntity
  8
0
100
AcDbBlockEnd
  0
ENDSEC
  0
SECTION
  2
ENTITIES
  0
ARC
  5
73
330
1F
100
AcDbEntity
  8
0
  6
Continuous
 62
     7
100
AcDbCircle
 10
6278.5187552245
 20
4961.0634997079
 30
0.0
 40
0.5000000000003587
100
AcDbArc
 50
0.0016898961
 51
76.6576230613
  0
ARC
  5
74
330
1F
100
AcDbEntity
  8
0
  6
Continuous
 62
     7
100
AcDbCircle
 10
6269.5187554477
 20
4961.0634997079
 30
0.0
 40
0.500000000001018
100
AcDbArc
 50
103.3423769387
 51
179.9983101039
  0
ARC
  5
75
330
1F
100
AcDbEntity
  8
0
  6
Continuous
 62
     7
100
AcDbCircle
 10
6274.0187553361
 20
4942.0898337204
 30
0.0
 40
20.00000000000011
100
AcDbArc
 50
76.6576362029
 51
103.3423637971
  0
ARC
  5
76
330
1F
100
AcDbEntity
  8
0
  6
Continuous
 62
     7
100
AcDbCircle
 10
6216.9294696218
 20
4690.9898344461
 30
0.0
 40
2.660714285713865
100
AcDbArc
 50
180.0000156285
 51
249.9840786458
  0
ARC
  5
77
330
1F
100
AcDbEntity
  8
0
  6
Continuous
 62
     7
100
AcDbCircle
 10
6221.1080410504
 20
4690.9898342289
 30
0.0
 40
2.660714285714724
100
AcDbArc
 50
290.0159350135
 51
359.9999890468
  0
ARC
  5
78
330
1F
100
AcDbEntity
  8
0
  6
Continuous
 62
     7
100
AcDbCircle
 10
6326.9294696218
 20
4690.9898342289
 30
0.0
 40
2.660714285714724
100
AcDbArc
 50
180.0000109532
 51
249.9840649865
  0
ARC
  5
79
330
1F
100
AcDbEntity
  8
0
  6
Continuous
 62
     7
100
AcDbCircle
 10
6331.1080410504
 20
4690.9898344461
 30
0.0
 40
2.660714285713865
100
AcDbArc
 50
290.0159213542
 51
359.9999843715
  0
ARC
  5
7A
330
1F
100
AcDbEntity
  8
0
  6
Continuous
 62
     7
100
AcDbCircle
 10
6179.4294696218
 20
4690.9898339032
 30
0.0
 40
2.660714285713772
100
AcDbArc
 50
180.0000039394
 51
249.9840444952
  0
ARC
  5
7B
330
1F
100
AcDbEntity
  8
0
  6
Continuous
 62
     7
100
AcDbCircle
 10
6183.6080410504
 20
4690.9898347718
 30
0.0
 40
2.660714285715793
100
AcDbArc
 50
290.0159008629
 51
359.9999773577
  0
ARC
  5
7C
330
1F
100
AcDbEntity
  8
0
  6
Continuous
 62
     7
100
AcDbCircle
 10
6364.4294696218
 20
4690.9898347718
 30
0.0
 40
2.660714285714883
100
AcDbArc
 50
180.0000226423
 51
249.9840991371
  0
ARC
  5
7D
330
1F
100
AcDbEntity
  8
0
  6
Continuous
 62
     7
100
AcDbCircle
 10
6368.6080410504
 20
4690.9898339032
 30
0.0
 40
2.660714285714682
100
AcDbArc
 50
290.0159555048
 51
359.9999960606
  0
ARC
  5
7E
330
1F
100
AcDbEntity
  8
0
  6
Continuous
 62
     7
100
AcDbCircle
 10
6274.0187553361
 20
4937.9898394102
 30
0.0
 40
20.10000000000086
100
AcDbArc
 50
343.2536221031
 51
196.7463778969
  0
ARC
  5
7F
330
1F
100
AcDbEntity
  8
0
  6
Continuous
 62
     7
100
AcDbCircle
 10
6274.0187553361
 20
4937.9898394102
 30
0.0
 40
18.09999963530945
100
AcDbArc
 50
343.2536255327
 51
196.7463744673
  0
ARC
  5
80
330
1F
100
AcDbEntity
  8
0
  6
Continuous
 62
     7
100
AcDbCircle
 10
6274.0187553361
 20
4920.2898388329
 30
0.0
 40
13.0000000000003
100
AcDbArc
 50
196.7463742117
 51
343.2536257883
  0
ARC
  5
81
330
1F
100
AcDbEntity
  8
0
  6
Continuous
 62
     7
100
AcDbCircle
 10
6274.0187553361
 20
4920.2898388329
 30
0.0
 40
15.00000036469059
100
AcDbArc
 50
196.7463788414
 51
343.2536211586
  0
ARC
  5
82
330
1F
100
AcDbEntity
  8
0
  6
Continuous
 62
     7
100
AcDbCircle
 10
6274.0187553361
 20
4937.9898394102
 30
0.0
 40
27.00000484689017
100
AcDbArc
 50
301.5863317722
 51
88.8581645556
  0
ARC
  5
83
330
1F
100
AcDbEntity
  8
0
  6
Continuous
 62
     7
100
AcDbCircle
 10
6274.0187553361
 20
4937.9898394102
 30
0.0
 40
27.00000486528523
100
AcDbArc
 50
88.8581645556
 51
238.7691046512
  0
ARC
  5
84
330
1F
100
AcDbEntity
  8
0
  6
Continuous
 62
     7
100
AcDbCircle
 10
6356.9415842894
 20
5391.5117463592
 30
0.0
 40
307.9382117477001
100
AcDbArc
 50
92.211907359
 51
92.34903257
  0
ARC
  5
85
330
1F
100
AcDbEntity
  8
0
  6
Continuous
 62
     7
100
AcDbCircle
 10
6308.677281717
 20
5775.7564115564
 30
0.0
 40
82.53532097310799
100
AcDbArc
 50
333.3855880021
 51
333.4843096434
  0
ARC
  5
86
330
1F
100
AcDbEntity
  8
0
  6
Continuous
 62
     7
100
AcDbCircle
 10
6239.3602289552
 20
5775.7564115564
 30
0.0
 40
82.53532097310799
100
AcDbArc
 50
206.5156903566
 51
206.6144119979
  0
ARC
  5
87
330
1F
100
AcDbEntity
  8
0
  6
Continuous
 62
     7
100
AcDbCircle
 10
6180.6834856472
 20
5770.6421089537
 30
0.0
 40
37.19225267342792
100
AcDbArc
 50
243.346913285
 51
243.5659508268
  0
ARC
  5
88
330
1F
100
AcDbEntity
  8
0
  6
Continuous
 62
     7
100
AcDbCircle
 10
6177.1468976681
 20
5749.6958675329
 30
0.0
 40
17.42407508358113
100
AcDbArc
 50
224.8757054579
 51
225.1713051155
  0
ARC
  5
89
330
1F
100
AcDbEntity
  8
0
  6
Continuous
 62
     7
100
AcDbCircle
 10
6274.0187555015
 20
5649.1912369695
 30
0.0
 40
14.90000000000012
100
AcDbArc
 50
90.000000636
 51
179.9999853804
  0
ARC
  5
8A
330
1F
100
AcDbEntity
  8
0
  6
Continuous
 62
     7
100
AcDbCircle
 10
6274.0187555015
 20
5649.1912369695
 30
0.0
 40
14.89999999999873
100
AcDbArc
 50
0.0000146196
 51
90.000000636
  0
ARC
  5
8B
330
1F
100
AcDbEntity
  8
0
  6
Continuous
 62
     7
100
AcDbCircle
 10
6274.0187555015
 20
5649.1912369695
 30
0.0
 40
27.50000008961753
100
AcDbArc
 50
302.8074960474
 51
237.1925033734
  0
ARC
  5
8C
330
1F
100
AcDbEntity
  8
0
  6
Continuous
 62
     7
100
AcDbCircle
 10
6274.0187553361
 20
4937.9898394102
 30
0.0
 40
24.0000043503076
100
AcDbArc
 50
101.255654677
 51
229.8693185459
  0
ARC
  5
8D
330
1F
100
AcDbEntity
  8
0
  6
Continuous
 62
     7
100
AcDbCircle
 10
6274.0187553361
 20
4937.9898394102
 30
0.0
 40
24.00000435030726
100
AcDbArc
 50
310.1306814544
 51
78.7443453227
  0
ARC
  5
8E
330
1F
100
AcDbEntity
  8
0
  6
Continuous
 62
     7
100
AcDbCircle
 10
6274.0187555015
 20
5649.1912369695
 30
0.0
 40
27.00000009127811
100
AcDbArc
 50
303.4941504375
 51
236.5058489771
  0
ARC
  5
8F
330
1F
100
AcDbEntity
  8
0
  6
Continuous
 62
     7
100
AcDbCircle
 10
6725.743050521
 20
4956.0898387271
 30
0.0
 40
1.999999999999559
100
AcDbArc
 50
359.9998838872
 51
90.0000093909
  0
ARC
  5
90
330
1F
100
AcDbEntity
  8
0
  6
Continuous
 62
     7
100
AcDbCircle
 10
6719.5430514747
 20
4914.8898287851
 30
0.0
 40
3.000000000001331
100
AcDbArc
 50
0.0000942573
 51
89.9999656207
  0
ARC
  5
91
330
1F
100
AcDbEntity
  8
0
  6
Continuous
 62
     7
100
AcDbCircle
 10
6723.0430519039
 20
4905.7898390132
 30
0.0
 40
0.499999999999602
100
AcDbArc
 50
180.0007376601
 51
270.0001161204
  0
ARC
  5
92
330
1F
100
AcDbEntity
  8
0
  6
Continuous
 62
     7
100
AcDbCircle
 10
6725.743050521
 20
4907.2898390132
 30
0.0
 40
2.000000000000316
100
AcDbArc
 50
269.9999906084
 51
359.9996892277
  0
ARC
  5
93
330
1F
100
AcDbEntity
  8
0
  6
Continuous
 62
     7
100
AcDbCircle
 10
6719.2430529352
 20
4961.063499335
 30
0.0
 40
0.5000000000001079
100
AcDbArc
 50
0.0017326223
 51
76.6578082094
  0
ARC
  5
94
330
1F
100
AcDbEntity
  8
0
  6
Continuous
 62
     7
100
AcDbCircle
 10
6710.2430512957
 20
4961.063499639
 30
0.0
 40
0.4999999999994423
100
AcDbArc
 50
103.3423427144
 51
179.9983022061
  0
ARC
  5
95
330
1F
100
AcDbEntity
  8
0
  6
Continuous
 62
     7
100
AcDbCircle
 10
6714.7430514747
 20
4942.0898337204
 30
0.0
 40
20.00000000000032
100
AcDbArc
 50
76.6576362029
 51
103.3423637971
  0
ARC
  5
96
330
1F
100
AcDbEntity
  8
0
  6
Continuous
 62
     7
100
AcDbCircle
 10
6683.7430512512
 20
4913.9898311931
 30
0.0
 40
3.000000000000703
100
AcDbArc
 50
270.0000083956
 51
0.0001161137
  0
ARC
  5
97
330
1F
100
AcDbEntity
  8
0
  6
Continuous
 62
     7
100
AcDbCircle
 10
6683.7430512512
 20
4961.989821418
 30
0.0
 40
3.000000000000237
100
AcDbArc
 50
0.0001684763
 51
89.9999916045
  0
ARC
  5
98
330
1F
100
AcDbEntity
  8
0
  6
Continuous
 62
     7
100
AcDbCircle
 10
6661.6537657604
 20
4690.9898335613
 30
0.0
 40
2.66071428571468
100
AcDbArc
 50
179.9999965757
 51
249.9840229818
  0
ARC
  5
99
330
1F
100
AcDbEntity
  8
0
  6
Continuous
 62
     7
100
AcDbCircle
 10
6665.8323371889
 20
4690.9898337567
 30
0.0
 40
2.660714285715585
100
AcDbArc
 50
290.0159647271
 51
359.9999992173
  0
ARC
  5
9A
330
1F
100
AcDbEntity
  8
0
  6
Continuous
 62
     7
100
AcDbCircle
 10
6596.6537657604
 20
4690.9898337513
 30
0.0
 40
2.660714285714675
100
AcDbArc
 50
180.0000006667
 51
249.9840349337
  0
ARC
  5
9B
330
1F
100
AcDbEntity
  8
0
  6
Continuous
 62
     7
100
AcDbCircle
 10
6600.8323371889
 20
4690.9898349237
 30
0.0
 40
2.660714285714948
100
AcDbArc
 50
290.0158913037
 51
359.9999740858
  0
ARC
  5
9C
330
1F
100
AcDbEntity
  8
0
  6
Continuous
 62
     7
100
AcDbCircle
 10
6698.4919871089
 20
5653.090678154
 30
0.0
 40
56.5025000000008
100
AcDbArc
 50
305.7386833799
 51
315.2897588978
  0
ARC
  5
9D
330
1F
100
AcDbEntity
  8
0
  6
Continuous
 62
     7
100
AcDbCircle
 10
6698.4919063216
 20
5653.090548684
 30
0.0
 40
56.50250000000116
100
AcDbArc
 50
284.7098648088
 51
294.2609662727
  0
ARC
  5
9E
330
1F
100
AcDbEntity
  8
0
  6
Continuous
 62
     7
100
AcDbCircle
 10
6677.2430514742
 20
5676.1912145454
 30
0.0
 40
0.4999999999998896
100
AcDbArc
 50
89.9999972149
 51
179.9974303875
  0
ARC
  5
9F
330
1F
100
AcDbEntity
  8
0
  6
Continuous
 62
     7
100
AcDbCircle
 10
6677.2430514738
 20
5622.1912073928
 30
0.0
 40
0.5000000000016662
100
AcDbArc
 50
179.9966107599
 51
270.0000028275
  0
ARC
  5
A0
330
1F
100
AcDbEntity
  8
0
  6
Continuous
 62
     7
100
AcDbCircle
 10
6678.243051571
 20
5676.1912145454
 30
0.0
 40
0.5000000000018173
100
AcDbArc
 50
0.0041527524
 51
90.0000095353
  0
ARC
  5
A1
330
1F
100
AcDbEntity
  8
0
  6
Continuous
 62
     7
100
AcDbCircle
 10
6678.2430515702
 20
5622.1912073928
 30
0.0
 40
0.500000000000231
100
AcDbArc
 50
269.9999905524
 51
0.0026774432
  0
ARC
  5
A2
330
1F
100
AcDbEntity
  8
0
  6
Continuous
 62
     7
100
AcDbCircle
 10
6586.7430492693
 20
4693.9898337822
 30
0.0
 40
2.999999999999092
100
AcDbArc
 50
180.0000017246
 51
269.9999738177
  0
ARC
  5
A3
330
1F
100
AcDbEntity
  8
0
  6
Continuous
 62
     7
100
AcDbCircle
 10
6585.343047909
 20
5737.3090317853
 30
0.0
 40
0.8000000000017173
100
AcDbArc
 50
66.9997783742
 51
179.9966416044
  0
ARC
  5
A4
330
1F
100
AcDbEntity
  8
0
  6
Continuous
 62
     7
100
AcDbCircle
 10
6585.3430492691
 20
5737.3091041014
 30
0.0
 40
1.600000000001985
100
AcDbArc
 50
66.9997784655
 51
180.0009104338
  0
ARC
  5
A5
330
1F
100
AcDbEntity
  8
0
  6
Continuous
 62
     7
100
AcDbCircle
 10
6675.1430514749
 20
5699.1912160999
 30
0.0
 40
1.600000000000323
100
AcDbArc
 50
359.9991759376
 51
66.9999995156
  0
ARC
  5
A6
330
1F
100
AcDbEntity
  8
0
  6
Continuous
 62
     7
100
AcDbCircle
 10
6675.1430514752
 20
5699.1912642192
 30
0.0
 40
0.800000000001198
100
AcDbArc
 50
359.9980483808
 51
66.9999957096
  0
ARC
  5
A7
330
1F
100
AcDbEntity
  8
0
  6
Continuous
 62
     7
100
AcDbCircle
 10
6292.1187547192
 20
4313.0640495571
 30
0.0
 40
2.000000000000589
100
AcDbArc
 50
270.0000439688
 51
0.0000093908
  0
ARC
  5
A8
330
1F
100
AcDbEntity
  8
0
  6
Continuous
 62
     7
100
AcDbCircle
 10
6255.918755953
 20
4313.0640495571
 30
0.0
 40
2.000000000000589
100
AcDbArc
 50
179.9999906092
 51
269.9999560312
  0
ARC
  5
A9
330
1F
100
AcDbEntity
  8
0
  6
Continuous
 62
     7
100
AcDbCircle
 10
6250.0187546357
 20
4355.0640488269
 30
0.0
 40
3.00000000000004
100
AcDbArc
 50
180.0000083938
 51
270.0000093927
  0
ARC
  5
AA
330
1F
100
AcDbEntity
  8
0
  6
Continuous
 62
     7
100
AcDbCircle
 10
6298.0187560365
 20
4355.0640488269
 30
0.0
 40
3.00000000000004
100
AcDbArc
 50
269.9999906073
 51
359.9999916062
  0
ARC
  5
AB
330
1F
100
AcDbEntity
  8
0
  6
Continuous
 62
     7
100
AcDbCircle
 10
6301.0187551871
 20
4360.5640485084
 30
0.0
 40
0.5000000000009162
100
AcDbArc
 50
270.0000973342
 51
0.0000093964
  0
ARC
  5
AC
330
1F
100
AcDbEntity
  8
0
  6
Continuous
 62
     7
100
AcDbCircle
 10
6247.0187554851
 20
4360.5640485084
 30
0.0
 40
0.5000000000009162
100
AcDbArc
 50
179.9999906036
 51
269.9999026658
  0
ARC
  5
AD
330
1F
100
AcDbEntity
  8
0
  6
Continuous
 62
     7
100
AcDbCircle
 10
6301.0187551871
 20
4361.5640486034
 30
0.0
 40
0.50000000000091
100
AcDbArc
 50
359.9999972841
 51
89.9999829258
  0
ARC
  5
AE
330
1F
100
AcDbEntity
  8
0
  6
Continuous
 62
     7
100
AcDbCircle
 10
6247.0187554851
 20
4361.5640486034
 30
0.0
 40
0.50000000000091
100
AcDbArc
 50
90.0000170742
 51
180.0000027159
  0
ARC
  5
AF
330
1F
100
AcDbEntity
  8
0
  6
Continuous
 62
     7
100
AcDbCircle
 10
6165.5995120784
 20
4453.4640521678
 30
0.0
 40
0.8000000000007849
100
AcDbArc
 50
89.9997323778
 51
203.0002773285
  0
ARC
  5
B0
330
1F
100
AcDbEntity
  8
0
  6
Continuous
 62
     7
100
AcDbCircle
 10
6165.5995120784
 20
4453.4640521678
 30
0.0
 40
1.599999919404555
100
AcDbArc
 50
89.9998661888
 51
203.0002756168
  0
ARC
  5
B1
330
1F
100
AcDbEntity
  8
0
  6
Continuous
 62
     7
100
AcDbCircle
 10
6382.4379979294
 20
4453.4640508088
 30
0.0
 40
1.600000000001437
100
AcDbArc
 50
336.9997784771
 51
90.000110018
  0
ARC
  5
B2
330
1F
100
AcDbEntity
  8
0
  6
Continuous
 62
     7
100
AcDbCircle
 10
6382.4379979294
 20
4453.4640508088
 30
0.0
 40
0.8000013590039874
100
AcDbArc
 50
336.9998308592
 51
90.0002200357
  0
ARC
  5
B3
330
1F
100
AcDbEntity
  8
0
  6
Continuous
 62
     7
100
AcDbCircle
 10
6203.717352087
 20
4363.6640486034
 30
0.0
 40
0.8000000000001819
100
AcDbArc
 50
203.0000193753
 51
270.0
  0
ARC
  5
B4
330
1F
100
AcDbEntity
  8
0
  6
Continuous
 62
     7
100
AcDbCircle
 10
6203.717352087
 20
4363.6640486034
 30
0.0
 40
1.600003218852288
100
AcDbArc
 50
202.9999515632
 51
270.0
  0
ARC
  5
B5
330
1F
100
AcDbEntity
  8
0
  6
Continuous
 62
     7
100
AcDbCircle
 10
6344.3201585852
 20
4363.6640486034
 30
0.0
 40
0.8000000000001819
100
AcDbArc
 50
270.0000000001
 51
336.9999806247
  0
ARC
  5
B6
330
1F
100
AcDbEntity
  8
0
  6
Continuous
 62
     7
100
AcDbCircle
 10
6344.3201585852
 20
4363.6640486034
 30
0.0
 40
1.600003218851451
100
AcDbArc
 50
270.0
 51
337.0000484368
  0
ELLIPSE
  5
B7
330
1F
100
AcDbEntity
  8
0
  6
Continuous
 62
     7
100
AcDbEllipse
 10
6585.3430514747
 20
5736.6019686839
 30
0.0
 11
1.600000000000364
 21
0.0
 31
0.0
210
0.0
220
0.0
230
1.0
 40
0.5
 41
1.169370598836429
 42
3.141592653592095
  0
ELLIPSE
  5
B8
330
1F
100
AcDbEntity
  8
0
  6
Continuous
 62
     7
100
AcDbEllipse
 10
6675.1430514747
 20
5699.1912369695
 30
0.0
 11
1.599999999999454
 21
0.0
 31
0.0
210
0.0
220
0.0
230
1.0
 40
0.0198920065
 41
0.0
 42
1.16937059884961
  0
ELLIPSE
  5
B9
330
1F
100
AcDbEntity
  8
0
  6
Continuous
 62
     7
100
AcDbEllipse
 10
6381.7308902996
 20
4453.4640486034
 30
0.0
 11
0.0
 21
1.600000000001273
 31
0.0
210
0.0
220
0.0
230
1.0
 40
0.5
 41
4.31096325242539
 42
6.283185307179586
  0
ELLIPSE
  5
BA
330
1F
100
AcDbEntity
  8
0
  6
Continuous
 62
     7
100
AcDbEllipse
 10
6166.3066203725
 20
4453.4640486034
 30
0.0
 11
0.0
 21
1.600000000001273
 31
0.0
210
0.0
220
0.0
230
1.0
 40
0.5
 41
0.0
 42
1.972222054751146
  0
ELLIPSE
  5
BB
330
1F
100
AcDbEntity
  8
0
  6
Continuous
 62
     7
100
AcDbEllipse
 10
6203.717352087
 20
4363.6640486034
 30
0.0
 11
0.0
 21
1.600000000001273
 31
0.0
210
0.0
220
0.0
230
1.0
 40
0.0198920064
 41
1.972222054748729
 42
3.141592653589787
  0
ELLIPSE
  5
BC
330
1F
100
AcDbEntity
  8
0
  6
Continuous
 62
     7
100
AcDbEllipse
 10
6344.3201585852
 20
4363.6640486034
 30
0.0
 11
0.0
 21
1.600000000001273
 31
0.0
210
0.0
220
0.0
230
1.0
 40
0.0198920064
 41
3.141592653589787
 42
4.310963252427982
  0
ELLIPSE
  5
BD
330
1F
100
AcDbEntity
  8
0
  6
Continuous
 62
     7
100
AcDbEllipse
 10
6274.0187553361
 20
4338.0640486034
 30
0.0
 11
14.90000000000055
 21
0.0
 31
0.0
210
0.0
220
0.0
230
1.0
 40
0.5773502692
 41
3.141592653589793
 42
4.712388980384698
  0
ELLIPSE
  5
BE
330
1F
100
AcDbEntity
  8
0
  6
Continuous
 62
     7
100
AcDbEllipse
 10
6274.0187553361
 20
4338.0640486034
 30
0.0
 11
14.90000000000055
 21
0.0
 31
0.0
210
0.0
220
0.0
230
1.0
 40
0.5773502692
 41
4.712388980384698
 42
6.283185307179586
  0
LINE
  5
BF
330
1F
100
AcDbEntity
  8
0
  6
Continuous
 62
     7
100
AcDbLine
 10
6279.0187552243
 20
4957.4647648174
 30
0.0
 11
6279.0187552243
 21
4961.063514455
 31
0.0
  0
LINE
  5
C0
330
1F
100
AcDbEntity
  8
0
  6
Continuous
 62
     7
100
AcDbLine
 10
6269.0187554479
 20
4961.063514455
 30
0.0
 11
6269.0187554479
 21
4957.4730200607
 31
0.0
  0
LINE
  5
C1
330
1F
100
AcDbEntity
  8
0
  6
Continuous
 62
     7
100
AcDbLine
 10
6382.530888696
 20
5738.9091057617
 30
0.0
 11
6165.5066219762
 21
5738.9091057617
 31
0.0
  0
LINE
  5
C2
330
1F
100
AcDbEntity
  8
0
  6
Continuous
 62
     7
100
AcDbLine
 10
6165.5066219762
 20
5738.9091057617
 30
0.0
 11
6165.5066294268
 21
5738.1090922195
 31
0.0
  0
LINE
  5
C3
330
1F
100
AcDbEntity
  8
0
  6
Continuous
 62
     7
100
AcDbLine
 10
6384.0379995897
 20
4694.5898337204
 30
0.0
 11
6384.0379995897
 21
5737.4019427139
 31
0.0
  0
LINE
  5
C4
330
1F
100
AcDbEntity
  8
0
  6
Continuous
 62
     7
100
AcDbLine
 10
6384.0379995897
 20
5737.4019427139
 30
0.0
 11
6383.2379934981
 21
5737.4019427139
 31
0.0
  0
LINE
  5
C5
330
1F
100
AcDbEntity
  8
0
  6
Continuous
 62
     7
100
AcDbLine
 10
6163.9995110825
 20
5737.4019427139
 30
0.0
 11
6163.9995110825
 21
4694.5898337204
 31
0.0
  0
LINE
  5
C6
330
1F
100
AcDbEntity
  8
0
  6
Continuous
 62
     7
100
AcDbLine
 10
6382.530888696
 20
5738.1090922195
 30
0.0
 11
6382.530888696
 21
5738.9091057617
 31
0.0
  0
LINE
  5
C7
330
1F
100
AcDbEntity
  8
0
  6
Continuous
 62
     7
100
AcDbLine
 10
6164.7995171741
 20
5737.4019427139
 30
0.0
 11
6163.9995110825
 21
5737.4019427139
 31
0.0
  0
LINE
  5
C8
330
1F
100
AcDbEntity
  8
0
  6
Continuous
 62
     7
100
AcDbLine
 10
6259.1187555015
 20
5633.1697506744
 30
0.0
 11
6259.1187555015
 21
5605.8899564582
 31
0.0
  0
LINE
  5
C9
330
1F
100
AcDbEntity
  8
0
  6
Continuous
 62
     7
100
AcDbLine
 10
6288.9187551707
 20
5605.8899564582
 30
0.0
 11
6288.9187551707
 21
5633.1697506744
 31
0.0
  0
LINE
  5
CA
330
1F
100
AcDbEntity
  8
0
  6
Continuous
 62
     7
100
AcDbLine
 10
6259.1187555015
 20
5649.1912407714
 30
0.0
 11
6259.1187555015
 21
5633.6027784187
 31
0.0
  0
LINE
  5
CB
330
1F
100
AcDbEntity
  8
0
  6
Continuous
 62
     7
100
AcDbLine
 10
6288.9187551707
 20
5633.6027784187
 30
0.0
 11
6288.9187551707
 21
5649.1912407714
 31
0.0
  0
LINE
  5
CC
330
1F
100
AcDbEntity
  8
0
  6
Continuous
 62
     7
100
AcDbLine
 10
6293.2663058534
 20
4932.1983111936
 30
0.0
 11
6293.2295074359
 21
4932.2093827564
 31
0.0
  0
LINE
  5
CD
330
1F
100
AcDbEntity
  8
0
  6
Continuous
 62
     7
100
AcDbLine
 10
6293.2295074359
 20
4932.2093827564
 30
0.0
 11
6293.1205222055
 21
4932.2421802122
 31
0.0
  0
LINE
  5
CE
330
1F
100
AcDbEntity
  8
0
  6
Continuous
 62
     7
100
AcDbLine
 10
6293.1205222055
 20
4932.2421802122
 30
0.0
 11
6292.943541114
 21
4932.2954220611
 31
0.0
  0
LINE
  5
CF
330
1F
100
AcDbEntity
  8
0
  6
Continuous
 62
     7
100
AcDbLine
 10
6292.943541114
 20
4932.2954220611
 30
0.0
 11
6292.7053628161
 21
4932.3670966465
 31
0.0
  0
LINE
  5
D0
330
1F
100
AcDbEntity
  8
0
  6
Continuous
 62
     7
100
AcDbLine
 10
6292.7053628161
 20
4932.3670966465
 30
0.0
 11
6292.4151440754
 21
4932.4544174511
 31
0.0
  0
LINE
  5
D1
330
1F
100
AcDbEntity
  8
0
  6
Continuous
 62
     7
100
AcDbLine
 10
6292.4151440754
 20
4932.4544174511
 30
0.0
 11
6292.0840346858
 21
4932.5540466148
 31
0.0
  0
LINE
  5
D2
330
1F
100
AcDbEntity
  8
0
  6
Continuous
 62
     7
100
AcDbLine
 10
6292.0840346858
 20
4932.5540466148
 30
0.0
 11
6291.7247602388
 21
4932.6621545393
 31
0.0
  0
LINE
  5
D3
330
1F
100
AcDbEntity
  8
0
  6
Continuous
 62
     7
100
AcDbLine
 10
6291.7247602388
 20
4932.6621545393
 30
0.0
 11
6291.3511266604
 21
4932.7745838005
 31
0.0
  0
LINE
  5
D4
330
1F
100
AcDbEntity
  8
0
  6
Continuous
 62
     7
100
AcDbLine
 10
6254.7712048188
 20
4932.1983111936
 30
0.0
 11
6254.8080032363
 21
4932.2093827564
 31
0.0
  0
LINE
  5
D5
330
1F
100
AcDbEntity
  8
0
  6
Continuous
 62
     7
100
AcDbLine
 10
6254.8080032363
 20
4932.2093827564
 30
0.0
 11
6254.9169884667
 21
4932.2421802122
 31
0.0
  0
LINE
  5
D6
330
1F
100
AcDbEntity
  8
0
  6
Continuous
 62
     7
100
AcDbLine
 10
6254.9169884667
 20
4932.2421802122
 30
0.0
 11
6255.0939695582
 21
4932.2954220611
 31
0.0
  0
LINE
  5
D7
330
1F
100
AcDbEntity
  8
0
  6
Continuous
 62
     7
100
AcDbLine
 10
6255.0939695582
 20
4932.2954220611
 30
0.0
 11
6255.3321478561
 21
4932.3670966465
 31
0.0
  0
LINE
  5
D8
330
1F
100
AcDbEntity
  8
0
  6
Continuous
 62
     7
100
AcDbLine
 10
6255.3321478561
 20
4932.3670966465
 30
0.0
 11
6255.6223665968
 21
4932.4544174511
 31
0.0
  0
LINE
  5
D9
330
1F
100
AcDbEntity
  8
0
  6
Continuous
 62
     7
100
AcDbLine
 10
6255.6223665968
 20
4932.4544174511
 30
0.0
 11
6255.9534759864
 21
4932.5540466148
 31
0.0
  0
LINE
  5
DA
330
1F
100
AcDbEntity
  8
0
  6
Continuous
 62
     7
100
AcDbLine
 10
6255.9534759864
 20
4932.5540466148
 30
0.0
 11
6256.3127504334
 21
4932.6621545393
 31
0.0
  0
LINE
  5
DB
330
1F
100
AcDbEntity
  8
0
  6
Continuous
 62
     7
100
AcDbLine
 10
6256.3127504334
 20
4932.6621545393
 30
0.0
 11
6256.6863840118
 21
4932.7745838005
 31
0.0
  0
LINE
  5
DC
330
1F
100
AcDbEntity
  8
0
  6
Continuous
 62
     7
100
AcDbLine
 10
6286.4674200907
 20
4916.5440751154
 30
0.0
 11
6286.8410536691
 21
4916.4316458541
 31
0.0
  0
LINE
  5
DD
330
1F
100
AcDbEntity
  8
0
  6
Continuous
 62
     7
100
AcDbLine
 10
6286.8410536691
 20
4916.4316458541
 30
0.0
 11
6287.2003281161
 21
4916.3235379297
 31
0.0
  0
LINE
  5
DE
330
1F
100
AcDbEntity
  8
0
  6
Continuous
 62
     7
100
AcDbLine
 10
6287.2003281161
 20
4916.3235379297
 30
0.0
 11
6287.5314365745
 21
4916.2239087659
 31
0.0
  0
LINE
  5
DF
330
1F
100
AcDbEntity
  8
0
  6
Continuous
 62
     7
100
AcDbLine
 10
6287.5314365745
 20
4916.2239087659
 30
0.0
 11
6287.8216562465
 21
4916.1365879613
 31
0.0
  0
LINE
  5
E0
330
1F
100
AcDbEntity
  8
0
  6
Continuous
 62
     7
100
AcDbLine
 10
6287.8216562465
 20
4916.1365879613
 30
0.0
 11
6288.059833613
 21
4916.064913376
 31
0.0
  0
LINE
  5
E1
330
1F
100
AcDbEntity
  8
0
  6
Continuous
 62
     7
100
AcDbLine
 10
6288.059833613
 20
4916.064913376
 30
0.0
 11
6288.2368156359
 21
4916.0116715271
 31
0.0
  0
LINE
  5
E2
330
1F
100
AcDbEntity
  8
0
  6
Continuous
 62
     7
100
AcDbLine
 10
6288.2368156359
 20
4916.0116715271
 30
0.0
 11
6288.3457999349
 21
4915.9788740713
 31
0.0
  0
LINE
  5
E3
330
1F
100
AcDbEntity
  8
0
  6
Continuous
 62
     7
100
AcDbLine
 10
6288.3457999349
 20
4915.9788740713
 30
0.0
 11
6288.3825992837
 21
4915.9678025085
 31
0.0
  0
LINE
  5
E4
330
1F
100
AcDbEntity
  8
0
  6
Continuous
 62
     7
100
AcDbLine
 10
6261.5700905815
 20
4916.5440751154
 30
0.0
 11
6261.1964570031
 21
4916.4316458541
 31
0.0
  0
LINE
  5
E5
330
1F
100
AcDbEntity
  8
0
  6
Continuous
 62
     7
100
AcDbLine
 10
6261.1964570031
 20
4916.4316458541
 30
0.0
 11
6260.8371825561
 21
4916.3235379297
 31
0.0
  0
LINE
  5
E6
330
1F
100
AcDbEntity
  8
0
  6
Continuous
 62
     7
100
AcDbLine
 10
6260.8371825561
 20
4916.3235379297
 30
0.0
 11
6260.5060740977
 21
4916.2239087659
 31
0.0
  0
LINE
  5
E7
330
1F
100
AcDbEntity
  8
0
  6
Continuous
 62
     7
100
AcDbLine
 10
6260.5060740977
 20
4916.2239087659
 30
0.0
 11
6260.2158544257
 21
4916.1365879613
 31
0.0
  0
LINE
  5
E8
330
1F
100
AcDbEntity
  8
0
  6
Continuous
 62
     7
100
AcDbLine
 10
6260.2158544257
 20
4916.1365879613
 30
0.0
 11
6259.9776770592
 21
4916.064913376
 31
0.0
  0
LINE
  5
E9
330
1F
100
AcDbEntity
  8
0
  6
Continuous
 62
     7
100
AcDbLine
 10
6259.9776770592
 20
4916.064913376
 30
0.0
 11
6259.8006950363
 21
4916.0116715271
 31
0.0
  0
LINE
  5
EA
330
1F
100
AcDbEntity
  8
0
  6
Continuous
 62
     7
100
AcDbLine
 10
6259.8006950363
 20
4916.0116715271
 30
0.0
 11
6259.6917107373
 21
4915.9788740713
 31
0.0
  0
LINE
  5
EB
330
1F
100
AcDbEntity
  8
0
  6
Continuous
 62
     7
100
AcDbLine
 10
6259.6917107373
 20
4915.9788740713
 30
0.0
 11
6259.6549113885
 21
4915.9678025085
 31
0.0
  0
LINE
  5
EC
330
1F
100
AcDbEntity
  8
0
  6
Continuous
 62
     7
100
AcDbLine
 10
6256.6863840118
 20
4932.7745838005
 30
0.0
 11
6261.5700905815
 21
4916.5440751154
 31
0.0
  0
LINE
  5
ED
330
1F
100
AcDbEntity
  8
0
  6
Continuous
 62
     7
100
AcDbLine
 10
6259.6549113885
 20
4915.9678025085
 30
0.0
 11
6254.7712048188
 21
4932.1983111936
 31
0.0
  0
LINE
  5
EE
330
1F
100
AcDbEntity
  8
0
  6
Continuous
 62
     7
100
AcDbLine
 10
6286.4674200907
 20
4916.5440751154
 30
0.0
 11
6291.3511266604
 21
4932.7745838005
 31
0.0
  0
LINE
  5
EF
330
1F
100
AcDbEntity
  8
0
  6
Continuous
 62
     7
100
AcDbLine
 10
6293.2663058534
 20
4932.1983111936
 30
0.0
 11
6288.3825992837
 21
4915.9678025085
 31
0.0
  0
LINE
  5
F0
330
1F
100
AcDbEntity
  8
0
  6
Continuous
 62
     7
100
AcDbLine
 10
6216.018757005
 20
4688.4898338381
 30
0.0
 11
6222.0187542632
 21
4688.4898338381
 31
0.0
  0
LINE
  5
F1
330
1F
100
AcDbEntity
  8
0
  6
Continuous
 62
     7
100
AcDbLine
 10
6326.018756409
 20
4688.4898338381
 30
0.0
 11
6332.0187536672
 21
4688.4898338381
 31
0.0
  0
LINE
  5
F2
330
1F
100
AcDbEntity
  8
0
  6
Continuous
 62
     7
100
AcDbLine
 10
6178.5187555149
 20
4688.4898338381
 30
0.0
 11
6184.5187527731
 21
4688.4898338381
 31
0.0
  0
LINE
  5
F3
330
1F
100
AcDbEntity
  8
0
  6
Continuous
 62
     7
100
AcDbLine
 10
6363.5187578991
 20
4688.4898338381
 30
0.0
 11
6369.5187551573
 21
4688.4898338381
 31
0.0
  0
LINE
  5
F4
330
1F
100
AcDbEntity
  8
0
  6
Continuous
 62
     7
100
AcDbLine
 10
6349.0187583163
 20
5703.1826777298
 30
0.0
 11
6349.0187583163
 21
5704.596976741
 31
0.0
  0
LINE
  5
F5
330
1F
100
AcDbEntity
  8
0
  6
Continuous
 62
     7
100
AcDbLine
 10
6199.0187523559
 20
5703.1826777298
 30
0.0
 11
6199.0187523559
 21
5704.596976741
 31
0.0
  0
LINE
  5
F6
330
1F
100
AcDbEntity
  8
0
  6
Continuous
 62
     7
100
AcDbLine
 10
6338.3988944486
 20
4690.9898337822
 30
0.0
 11
6338.3988944486
 21
4692.9898337608
 31
0.0
  0
LINE
  5
F7
330
1F
100
AcDbEntity
  8
0
  6
Continuous
 62
     7
100
AcDbLine
 10
6344.8424322203
 20
4692.9898337608
 30
0.0
 11
6344.8424322203
 21
4690.9898337822
 31
0.0
  0
LINE
  5
F8
330
1F
100
AcDbEntity
  8
0
  6
Continuous
 62
     7
100
AcDbLine
 10
6344.8424322203
 20
4690.9898337822
 30
0.0
 11
6338.3988944486
 21
4690.9898337822
 31
0.0
  0
LINE
  5
F9
330
1F
100
AcDbEntity
  8
0
  6
Continuous
 62
     7
100
AcDbLine
 10
6209.6386162236
 20
4692.9898337608
 30
0.0
 11
6209.6386162236
 21
4690.9898337822
 31
0.0
  0
LINE
  5
FA
330
1F
100
AcDbEntity
  8
0
  6
Continuous
 62
     7
100
AcDbLine
 10
6209.6386162236
 20
4690.9898337822
 30
0.0
 11
6338.3988944486
 21
4690.9898337822
 31
0.0
  0
LINE
  5
FB
330
1F
100
AcDbEntity
  8
0
  6
Continuous
 62
     7
100
AcDbLine
 10
6203.1950784519
 20
4690.9898337822
 30
0.0
 11
6203.1950784519
 21
4692.9898337608
 31
0.0
  0
LINE
  5
FC
330
1F
100
AcDbEntity
  8
0
  6
Continuous
 62
     7
100
AcDbLine
 10
6209.6386162236
 20
4690.9898337822
 30
0.0
 11
6203.1950784519
 21
4690.9898337822
 31
0.0
  0
LINE
  5
FD
330
1F
100
AcDbEntity
  8
0
  6
Continuous
 62
     7
100
AcDbLine
 10
6174.5752228096
 20
4692.9898337608
 30
0.0
 11
6174.5752228096
 21
4690.9898337822
 31
0.0
  0
LINE
  5
FE
330
1F
100
AcDbEntity
  8
0
  6
Continuous
 62
     7
100
AcDbLine
 10
6174.5752228096
 20
4690.9898337822
 30
0.0
 11
6203.1950784519
 21
4690.9898337822
 31
0.0
  0
LINE
  5
FF
330
1F
100
AcDbEntity
  8
0
  6
Continuous
 62
     7
100
AcDbLine
 10
6373.4622878626
 20
4690.9898337822
 30
0.0
 11
6373.4622878626
 21
4692.9898337608
 31
0.0
  0
LINE
  5
100
330
1F
100
AcDbEntity
  8
0
  6
Continuous
 62
     7
100
AcDbLine
 10
6344.8424322203
 20
4690.9898337822
 30
0.0
 11
6373.4622878626
 21
4690.9898337822
 31
0.0
  0
LINE
  5
101
330
1F
100
AcDbEntity
  8
0
  6
Continuous
 62
     7
100
AcDbLine
 10
6174.018753846
 20
4690.9898337822
 30
0.0
 11
6174.018753846
 21
4692.9898337608
 31
0.0
  0
LINE
  5
102
330
1F
100
AcDbEntity
  8
0
  6
Continuous
 62
     7
100
AcDbLine
 10
6174.5752228096
 20
4690.9898337822
 30
0.0
 11
6174.018753846
 21
4690.9898337822
 31
0.0
  0
LINE
  5
103
330
1F
100
AcDbEntity
  8
0
  6
Continuous
 62
     7
100
AcDbLine
 10
6374.0187568262
 20
4692.9898337608
 30
0.0
 11
6374.0187568262
 21
4690.9898337822
 31
0.0
  0
LINE
  5
104
330
1F
100
AcDbEntity
  8
0
  6
Continuous
 62
     7
100
AcDbLine
 10
6374.0187568262
 20
4690.9898337822
 30
0.0
 11
6373.4622878626
 21
4690.9898337822
 31
0.0
  0
LINE
  5
105
330
1F
100
AcDbEntity
  8
0
  6
Continuous
 62
     7
100
AcDbLine
 10
6320.4433900908
 20
4715.3196995992
 30
0.0
 11
6322.3664668992
 21
4715.3196995992
 31
0.0
  0
LINE
  5
106
330
1F
100
AcDbEntity
  8
0
  6
Continuous
 62
     7
100
AcDbLine
 10
6322.3664668992
 20
4715.3196995992
 30
0.0
 11
6322.3664668992
 21
4709.0857261706
 31
0.0
  0
LINE
  5
107
330
1F
100
AcDbEntity
  8
0
  6
Continuous
 62
     7
100
AcDbLine
 10
6314.7943524316
 20
4707.4991874311
 30
0.0
 11
6316.7895434096
 21
4707.4991874311
 31
0.0
  0
LINE
  5
108
330
1F
100
AcDbEntity
  8
0
  6
Continuous
 62
     7
100
AcDbLine
 10
6320.4433900908
 20
4714.5063998092
 30
0.0
 11
6320.4433900908
 21
4715.3196995992
 31
0.0
  0
LINE
  5
109
330
1F
100
AcDbEntity
  8
0
  6
Continuous
 62
     7
100
AcDbLine
 10
6300.3151865348
 20
4718.0120078761
 30
0.0
 11
6302.1100574776
 21
4718.0120078761
 31
0.0
  0
LINE
  5
10A
330
1F
100
AcDbEntity
  8
0
  6
Continuous
 62
     7
100
AcDbLine
 10
6302.1100574776
 20
4718.0120078761
 30
0.0
 11
6302.1100574776
 21
4709.8068799737
 31
0.0
  0
LINE
  5
10B
330
1F
100
AcDbEntity
  8
0
  6
Continuous
 62
     7
100
AcDbLine
 10
6302.1100574776
 20
4709.8068799737
 30
0.0
 11
6304.9305697575
 21
4709.8068799737
 31
0.0
  0
LINE
  5
10C
330
1F
100
AcDbEntity
  8
0
  6
Continuous
 62
     7
100
AcDbLine
 10
6304.9305697575
 20
4708.0120080996
 30
0.0
 11
6300.3151865348
 21
4708.0120080996
 31
0.0
  0
LINE
  5
10D
330
1F
100
AcDbEntity
  8
0
  6
Continuous
 62
     7
100
AcDbLine
 10
6300.3151865348
 20
4708.0120080996
 30
0.0
 11
6300.3151865348
 21
4718.0120078761
 31
0.0
  0
LINE
  5
10E
330
1F
100
AcDbEntity
  8
0
  6
Continuous
 62
     7
100
AcDbLine
 10
6304.9305697575
 20
4709.8068799737
 30
0.0
 11
6304.9305697575
 21
4708.0120080996
 31
0.0
  0
LINE
  5
10F
330
1F
100
AcDbEntity
  8
0
  6
Continuous
 62
     7
100
AcDbLine
 10
6334.3206589714
 20
4722.9898339051
 30
0.0
 11
6294.3206580028
 21
4722.9898339051
 31
0.0
  0
LINE
  5
110
330
1F
100
AcDbEntity
  8
0
  6
Continuous
 62
     7
100
AcDbLine
 10
6334.3206589714
 20
4702.9898334208
 30
0.0
 11
6334.3206589714
 21
4722.9898339051
 31
0.0
  0
LINE
  5
111
330
1F
100
AcDbEntity
  8
0
  6
Continuous
 62
     7
100
AcDbLine
 10
6294.3206580028
 20
4702.9898334208
 30
0.0
 11
6334.3206589714
 21
4702.9898334208
 31
0.0
  0
LINE
  5
112
330
1F
100
AcDbEntity
  8
0
  6
Continuous
 62
     7
100
AcDbLine
 10
6294.3206580028
 20
4722.9898339051
 30
0.0
 11
6294.3206580028
 21
4702.9898334208
 31
0.0
  0
LINE
  5
113
330
1F
100
AcDbEntity
  8
0
  6
Continuous
 62
     7
100
AcDbLine
 10
6344.3201614216
 20
5699.1911930877
 30
0.0
 11
6344.3201614216
 21
4694.5898337204
 31
0.0
  0
LINE
  5
114
330
1F
100
AcDbEntity
  8
0
  6
Continuous
 62
     7
100
AcDbLine
 10
6345.7929698422
 20
5699.220518573
 30
0.0
 11
6345.6440103844
 21
5699.2175383407
 31
0.0
  0
LINE
  5
115
330
1F
100
AcDbEntity
  8
0
  6
Continuous
 62
     7
100
AcDbLine
 10
6345.6440103844
 20
5699.2175383407
 30
0.0
 11
6345.4449308708
 21
5699.2136044342
 31
0.0
  0
LINE
  5
116
330
1F
100
AcDbEntity
  8
0
  6
Continuous
 62
     7
100
AcDbLine
 10
6345.4449308708
 20
5699.2136044342
 30
0.0
 11
6345.203256388
 21
5699.2088360626
 31
0.0
  0
LINE
  5
117
330
1F
100
AcDbEntity
  8
0
  6
Continuous
 62
     7
100
AcDbLine
 10
6345.203256388
 20
5699.2088360626
 30
0.0
 11
6344.92815115
 21
5699.2033524353
 31
0.0
  0
LINE
  5
118
330
1F
100
AcDbEntity
  8
0
  6
Continuous
 62
     7
100
AcDbLine
 10
6344.92815115
 20
5699.2033524353
 30
0.0
 11
6344.630023618
 21
5699.1973919708
 31
0.0
  0
LINE
  5
119
330
1F
100
AcDbEntity
  8
0
  6
Continuous
 62
     7
100
AcDbLine
 10
6344.630023618
 20
5699.1973919708
 30
0.0
 11
6344.3201614216
 21
5699.1911930877
 31
0.0
  0
LINE
  5
11A
330
1F
100
AcDbEntity
  8
0
  6
Continuous
 62
     7
100
AcDbLine
 10
6345.7929698422
 20
5699.220518573
 30
0.0
 11
6345.7929698422
 21
4694.5898337204
 31
0.0
  0
LINE
  5
11B
330
1F
100
AcDbEntity
  8
0
  6
Continuous
 62
     7
100
AcDbLine
 10
6344.3201614216
 20
4694.5898337204
 30
0.0
 11
6345.7929698422
 21
4694.5898337204
 31
0.0
  0
LINE
  5
11C
330
1F
100
AcDbEntity
  8
0
  6
Continuous
 62
     7
100
AcDbLine
 10
6203.6880535677
 20
5699.9276680786
 30
0.0
 11
6203.6910188988
 21
5699.8531622726
 31
0.0
  0
LINE
  5
11D
330
1F
100
AcDbEntity
  8
0
  6
Continuous
 62
     7
100
AcDbLine
 10
6203.6910188988
 20
5699.8531622726
 30
0.0
 11
6203.6949751571
 21
5699.7536225158
 31
0.0
  0
LINE
  5
11E
330
1F
100
AcDbEntity
  8
0
  6
Continuous
 62
     7
100
AcDbLine
 10
6203.6949751571
 20
5699.7536225158
 30
0.0
 11
6203.6997882321
 21
5699.6327442962
 31
0.0
  0
LINE
  5
11F
330
1F
100
AcDbEntity
  8
0
  6
Continuous
 62
     7
100
AcDbLine
 10
6203.6997882321
 20
5699.6327442962
 30
0.0
 11
6203.7052569583
 21
5699.4951767761
 31
0.0
  0
LINE
  5
120
330
1F
100
AcDbEntity
  8
0
  6
Continuous
 62
     7
100
AcDbLine
 10
6203.7052569583
 20
5699.4951767761
 30
0.0
 11
6203.7111876205
 21
5699.3461651641
 31
0.0
  0
LINE
  5
121
330
1F
100
AcDbEntity
  8
0
  6
Continuous
 62
     7
100
AcDbLine
 10
6203.7111876205
 20
5699.3461651641
 30
0.0
 11
6203.7173492506
 21
5699.1911930877
 31
0.0
  0
LINE
  5
122
330
1F
100
AcDbEntity
  8
0
  6
Continuous
 62
     7
100
AcDbLine
 10
6203.6880535677
 20
5700.6640238601
 30
0.0
 11
6203.6880535677
 21
5699.9276680786
 31
0.0
  0
LINE
  5
123
330
1F
100
AcDbEntity
  8
0
  6
Continuous
 62
     7
100
AcDbLine
 10
6203.6880535677
 20
5700.6640238601
 30
0.0
 11
6203.6910188988
 21
5700.5151314575
 31
0.0
  0
LINE
  5
124
330
1F
100
AcDbEntity
  8
0
  6
Continuous
 62
     7
100
AcDbLine
 10
6203.6910188988
 20
5700.5151314575
 30
0.0
 11
6203.6949751571
 21
5700.3160519439
 31
0.0
  0
LINE
  5
125
330
1F
100
AcDbEntity
  8
0
  6
Continuous
 62
     7
100
AcDbLine
 10
6203.6949751571
 20
5700.3160519439
 30
0.0
 11
6203.6997882321
 21
5700.0742955047
 31
0.0
  0
LINE
  5
126
330
1F
100
AcDbEntity
  8
0
  6
Continuous
 62
     7
100
AcDbLine
 10
6203.6997882321
 20
5700.0742955047
 30
0.0
 11
6203.7052569583
 21
5699.7992796737
 31
0.0
  0
LINE
  5
127
330
1F
100
AcDbEntity
  8
0
  6
Continuous
 62
     7
100
AcDbLine
 10
6203.7052569583
 20
5699.7992796737
 30
0.0
 11
6203.7111876205
 21
5699.5011372406
 31
0.0
  0
LINE
  5
128
330
1F
100
AcDbEntity
  8
0
  6
Continuous
 62
     7
100
AcDbLine
 10
6203.7111876205
 20
5699.5011372406
 30
0.0
 11
6203.7173492506
 21
5699.1911930877
 31
0.0
  0
LINE
  5
129
330
1F
100
AcDbEntity
  8
0
  6
Continuous
 62
     7
100
AcDbLine
 10
6344.3201614216
 20
5699.1911930877
 30
0.0
 11
6344.3263230517
 21
5699.3461651641
 31
0.0
  0
LINE
  5
12A
330
1F
100
AcDbEntity
  8
0
  6
Continuous
 62
     7
100
AcDbLine
 10
6344.3263230517
 20
5699.3461651641
 30
0.0
 11
6344.3322537139
 21
5699.4951767761
 31
0.0
  0
LINE
  5
12B
330
1F
100
AcDbEntity
  8
0
  6
Continuous
 62
     7
100
AcDbLine
 10
6344.3322537139
 20
5699.4951767761
 30
0.0
 11
6344.3377224401
 21
5699.6327442962
 31
0.0
  0
LINE
  5
12C
330
1F
100
AcDbEntity
  8
0
  6
Continuous
 62
     7
100
AcDbLine
 10
6344.3377224401
 20
5699.6327442962
 30
0.0
 11
6344.3425355151
 21
5699.7536225158
 31
0.0
  0
LINE
  5
12D
330
1F
100
AcDbEntity
  8
0
  6
Continuous
 62
     7
100
AcDbLine
 10
6344.3425355151
 20
5699.7536225158
 30
0.0
 11
6344.3464917734
 21
5699.8531622726
 31
0.0
  0
LINE
  5
12E
330
1F
100
AcDbEntity
  8
0
  6
Continuous
 62
     7
100
AcDbLine
 10
6344.3464917734
 20
5699.8531622726
 30
0.0
 11
6344.3494571045
 21
5699.9276680786
 31
0.0
  0
LINE
  5
12F
330
1F
100
AcDbEntity
  8
0
  6
Continuous
 62
     7
100
AcDbLine
 10
6344.3201614216
 20
5699.1911930877
 30
0.0
 11
6344.3263230517
 21
5699.5011372406
 31
0.0
  0
LINE
  5
130
330
1F
100
AcDbEntity
  8
0
  6
Continuous
 62
     7
100
AcDbLine
 10
6344.3263230517
 20
5699.5011372406
 30
0.0
 11
6344.3322537139
 21
5699.7992796737
 31
0.0
  0
LINE
  5
131
330
1F
100
AcDbEntity
  8
0
  6
Continuous
 62
     7
100
AcDbLine
 10
6344.3322537139
 20
5699.7992796737
 30
0.0
 11
6344.3377224401
 21
5700.0742955047
 31
0.0
  0
LINE
  5
132
330
1F
100
AcDbEntity
  8
0
  6
Continuous
 62
     7
100
AcDbLine
 10
6344.3377224401
 20
5700.0742955047
 30
0.0
 11
6344.3425355151
 21
5700.3160519439
 31
0.0
  0
LINE
  5
133
330
1F
100
AcDbEntity
  8
0
  6
Continuous
 62
     7
100
AcDbLine
 10
6344.3425355151
 20
5700.3160519439
 30
0.0
 11
6344.3464917734
 21
5700.5151314575
 31
0.0
  0
LINE
  5
134
330
1F
100
AcDbEntity
  8
0
  6
Continuous
 62
     7
100
AcDbLine
 10
6344.3464917734
 20
5700.5151314575
 30
0.0
 11
6344.3494571045
 21
5700.6640238601
 31
0.0
  0
LINE
  5
135
330
1F
100
AcDbEntity
  8
0
  6
Continuous
 62
     7
100
AcDbLine
 10
6344.3494571045
 20
5700.6640238601
 30
0.0
 11
6344.3494571045
 21
5699.9276680786
 31
0.0
  0
LINE
  5
136
330
1F
100
AcDbEntity
  8
0
  6
Continuous
 62
     7
100
AcDbLine
 10
6203.7173492506
 20
4694.5898337204
 30
0.0
 11
6203.7173492506
 21
5699.1911930877
 31
0.0
  0
LINE
  5
137
330
1F
100
AcDbEntity
  8
0
  6
Continuous
 62
     7
100
AcDbLine
 10
6202.24454083
 20
4694.5898337204
 30
0.0
 11
6203.7173492506
 21
4694.5898337204
 31
0.0
  0
LINE
  5
138
330
1F
100
AcDbEntity
  8
0
  6
Continuous
 62
     7
100
AcDbLine
 10
6202.24454083
 20
4694.5898337204
 30
0.0
 11
6202.24454083
 21
5699.220518573
 31
0.0
  0
LINE
  5
139
330
1F
100
AcDbEntity
  8
0
  6
Continuous
 62
     7
100
AcDbLine
 10
6203.7173492506
 20
5699.1911930877
 30
0.0
 11
6203.4074870542
 21
5699.1973919708
 31
0.0
  0
LINE
  5
13A
330
1F
100
AcDbEntity
  8
0
  6
Continuous
 62
     7
100
AcDbLine
 10
6203.4074870542
 20
5699.1973919708
 30
0.0
 11
6203.1093595222
 21
5699.2033524353
 31
0.0
  0
LINE
  5
13B
330
1F
100
AcDbEntity
  8
0
  6
Continuous
 62
     7
100
AcDbLine
 10
6203.1093595222
 20
5699.2033524353
 30
0.0
 11
6202.8342542842
 21
5699.2088360626
 31
0.0
  0
LINE
  5
13C
330
1F
100
AcDbEntity
  8
0
  6
Continuous
 62
     7
100
AcDbLine
 10
6202.8342542842
 20
5699.2088360626
 30
0.0
 11
6202.5925798014
 21
5699.2136044342
 31
0.0
  0
LINE
  5
13D
330
1F
100
AcDbEntity
  8
0
  6
Continuous
 62
     7
100
AcDbLine
 10
6202.5925798014
 20
5699.2136044342
 30
0.0
 11
6202.3935002878
 21
5699.2175383407
 31
0.0
  0
LINE
  5
13E
330
1F
100
AcDbEntity
  8
0
  6
Continuous
 62
     7
100
AcDbLine
 10
6202.3935002878
 20
5699.2175383407
 30
0.0
 11
6202.24454083
 21
5699.220518573
 31
0.0
  0
LINE
  5
13F
330
1F
100
AcDbEntity
  8
0
  6
Continuous
 62
     7
100
AcDbLine
 10
6345.7929698422
 20
5699.220518573
 30
0.0
 11
6345.0565619066
 21
5699.220518573
 31
0.0
  0
LINE
  5
140
330
1F
100
AcDbEntity
  8
0
  6
Continuous
 62
     7
100
AcDbLine
 10
6204.2468620136
 20
4692.9898337608
 30
0.0
 11
6343.7906486586
 21
4692.9898337608
 31
0.0
  0
LINE
  5
141
330
1F
100
AcDbEntity
  8
0
  6
Continuous
 62
     7
100
AcDbLine
 10
6203.7173492506
 20
4694.5898337204
 30
0.0
 11
6344.3201614216
 21
4694.5898337204
 31
0.0
  0
LINE
  5
142
330
1F
100
AcDbEntity
  8
0
  6
Continuous
 62
     7
100
AcDbLine
 10
6203.7173492506
 20
5699.1911930877
 30
0.0
 11
6344.3201614216
 21
5699.1911930877
 31
0.0
  0
LINE
  5
143
330
1F
100
AcDbEntity
  8
0
  6
Continuous
 62
     7
100
AcDbLine
 10
6203.6880535677
 20
5700.6640238601
 30
0.0
 11
6344.3494571045
 21
5700.6640238601
 31
0.0
  0
LINE
  5
144
330
1F
100
AcDbEntity
  8
0
  6
Continuous
 62
     7
100
AcDbLine
 10
6203.7173492506
 20
5699.1911930877
 30
0.0
 11
6203.5624218777
 21
5699.1973919708
 31
0.0
  0
LINE
  5
145
330
1F
100
AcDbEntity
  8
0
  6
Continuous
 62
     7
100
AcDbLine
 10
6203.5624218777
 20
5699.1973919708
 30
0.0
 11
6203.4133581117
 21
5699.2033524353
 31
0.0
  0
LINE
  5
146
330
1F
100
AcDbEntity
  8
0
  6
Continuous
 62
     7
100
AcDbLine
 10
6203.4133581117
 20
5699.2033524353
 30
0.0
 11
6203.2758054927
 21
5699.2088360626
 31
0.0
  0
LINE
  5
147
330
1F
100
AcDbEntity
  8
0
  6
Continuous
 62
     7
100
AcDbLine
 10
6203.2758054927
 20
5699.2088360626
 30
0.0
 11
6203.154964526
 21
5699.2136044342
 31
0.0
  0
LINE
  5
148
330
1F
100
AcDbEntity
  8
0
  6
Continuous
 62
     7
100
AcDbLine
 10
6203.154964526
 20
5699.2136044342
 30
0.0
 11
6203.0554247692
 21
5699.2175383407
 31
0.0
  0
LINE
  5
149
330
1F
100
AcDbEntity
  8
0
  6
Continuous
 62
     7
100
AcDbLine
 10
6203.0554247692
 20
5699.2175383407
 30
0.0
 11
6202.9809487656
 21
5699.220518573
 31
0.0
  0
LINE
  5
14A
330
1F
100
AcDbEntity
  8
0
  6
Continuous
 62
     7
100
AcDbLine
 10
6202.24454083
 20
5699.220518573
 30
0.0
 11
6202.9809487656
 21
5699.220518573
 31
0.0
  0
LINE
  5
14B
330
1F
100
AcDbEntity
  8
0
  6
Continuous
 62
     7
100
AcDbLine
 10
6383.9108032778
 20
5737.3384041626
 30
0.0
 11
6383.9108032778
 21
4694.5898337204
 31
0.0
  0
LINE
  5
14C
330
1F
100
AcDbEntity
  8
0
  6
Continuous
 62
     7
100
AcDbLine
 10
6345.7929698422
 20
4694.5898337204
 30
0.0
 11
6383.9108032778
 21
4694.5898337204
 31
0.0
  0
LINE
  5
14D
330
1F
100
AcDbEntity
  8
0
  6
Continuous
 62
     7
100
AcDbLine
 10
6383.9108032778
 20
5737.3384041626
 30
0.0
 11
6345.7929698422
 21
5699.220518573
 31
0.0
  0
LINE
  5
14E
330
1F
100
AcDbEntity
  8
0
  6
Continuous
 62
     7
100
AcDbLine
 10
6344.5270565942
 20
4692.9898337608
 30
0.0
 11
6382.3053149179
 21
4692.9898337608
 31
0.0
  0
LINE
  5
14F
330
1F
100
AcDbEntity
  8
0
  6
Continuous
 62
     7
100
AcDbLine
 10
6344.5270565942
 20
4693.7898337406
 30
0.0
 11
6344.5270565942
 21
4692.9898337608
 31
0.0
  0
LINE
  5
150
330
1F
100
AcDbEntity
  8
0
  6
Continuous
 62
     7
100
AcDbLine
 10
6165.5702201322
 20
5738.7819094497
 30
0.0
 11
6203.6880535677
 21
5700.6640238601
 31
0.0
  0
LINE
  5
151
330
1F
100
AcDbEntity
  8
0
  6
Continuous
 62
     7
100
AcDbLine
 10
6165.5702201322
 20
5738.7819094497
 30
0.0
 11
6382.46729054
 21
5738.7819094497
 31
0.0
  0
LINE
  5
152
330
1F
100
AcDbEntity
  8
0
  6
Continuous
 62
     7
100
AcDbLine
 10
6344.3494571045
 20
5700.6640238601
 30
0.0
 11
6382.46729054
 21
5738.7819094497
 31
0.0
  0
LINE
  5
153
330
1F
100
AcDbEntity
  8
0
  6
Continuous
 62
     7
100
AcDbLine
 10
6344.3494571045
 20
5699.9276680786
 30
0.0
 11
6382.46729054
 21
5738.0454344589
 31
0.0
  0
LINE
  5
154
330
1F
100
AcDbEntity
  8
0
  6
Continuous
 62
     7
100
AcDbLine
 10
6382.46729054
 20
5738.7819094497
 30
0.0
 11
6382.46729054
 21
5738.0454344589
 31
0.0
  0
LINE
  5
155
330
1F
100
AcDbEntity
  8
0
  6
Continuous
 62
     7
100
AcDbLine
 10
6165.7321957543
 20
4692.9898337608
 30
0.0
 11
6203.510454078
 21
4692.9898337608
 31
0.0
  0
LINE
  5
156
330
1F
100
AcDbEntity
  8
0
  6
Continuous
 62
     7
100
AcDbLine
 10
6164.1267073944
 20
4694.5898337204
 30
0.0
 11
6202.24454083
 21
4694.5898337204
 31
0.0
  0
LINE
  5
157
330
1F
100
AcDbEntity
  8
0
  6
Continuous
 62
     7
100
AcDbLine
 10
6203.510454078
 20
4693.7898337406
 30
0.0
 11
6203.510454078
 21
4692.9898337608
 31
0.0
  0
LINE
  5
158
330
1F
100
AcDbEntity
  8
0
  6
Continuous
 62
     7
100
AcDbLine
 10
6164.1267073944
 20
4694.5898337204
 30
0.0
 11
6164.1267073944
 21
5737.3384041626
 31
0.0
  0
LINE
  5
159
330
1F
100
AcDbEntity
  8
0
  6
Continuous
 62
     7
100
AcDbLine
 10
6202.24454083
 20
5699.220518573
 30
0.0
 11
6164.1267073944
 21
5737.3384041626
 31
0.0
  0
LINE
  5
15A
330
1F
100
AcDbEntity
  8
0
  6
Continuous
 62
     7
100
AcDbLine
 10
6202.9809487656
 20
5699.220518573
 30
0.0
 11
6164.8631078795
 21
5737.3384041626
 31
0.0
  0
LINE
  5
15B
330
1F
100
AcDbEntity
  8
0
  6
Continuous
 62
     7
100
AcDbLine
 10
6164.1267073944
 20
5737.3384041626
 30
0.0
 11
6164.8631078795
 21
5737.3384041626
 31
0.0
  0
LINE
  5
15C
330
1F
100
AcDbEntity
  8
0
  6
Continuous
 62
     7
100
AcDbLine
 10
6165.5702201322
 20
5738.0454344589
 30
0.0
 11
6203.6880535677
 21
5699.9276680786
 31
0.0
  0
LINE
  5
15D
330
1F
100
AcDbEntity
  8
0
  6
Continuous
 62
     7
100
AcDbLine
 10
6165.5702201322
 20
5738.7819094497
 30
0.0
 11
6165.5702201322
 21
5738.0454344589
 31
0.0
  0
LINE
  5
15E
330
1F
100
AcDbEntity
  8
0
  6
Continuous
 62
     7
100
AcDbLine
 10
6383.1744027927
 20
5737.3384041626
 30
0.0
 11
6345.0565619066
 21
5699.220518573
 31
0.0
  0
LINE
  5
15F
330
1F
100
AcDbEntity
  8
0
  6
Continuous
 62
     7
100
AcDbLine
 10
6383.9108032778
 20
5737.3384041626
 30
0.0
 11
6383.1744027927
 21
5737.3384041626
 31
0.0
  0
LINE
  5
160
330
1F
100
AcDbEntity
  8
0
  6
Continuous
 62
     7
100
AcDbLine
 10
6344.1399095252
 20
4693.7898337406
 30
0.0
 11
6344.5270565942
 21
4693.7898337406
 31
0.0
  0
LINE
  5
161
330
1F
100
AcDbEntity
  8
0
  6
Continuous
 62
     7
100
AcDbLine
 10
6343.7906486586
 20
4692.9898337608
 30
0.0
 11
6344.5270565942
 21
4692.9898337608
 31
0.0
  0
LINE
  5
162
330
1F
100
AcDbEntity
  8
0
  6
Continuous
 62
     7
100
AcDbLine
 10
6203.510454078
 20
4692.9898337608
 30
0.0
 11
6204.2468620136
 21
4692.9898337608
 31
0.0
  0
LINE
  5
163
330
1F
100
AcDbEntity
  8
0
  6
Continuous
 62
     7
100
AcDbLine
 10
6203.510454078
 20
4693.7898337406
 30
0.0
 11
6203.897601147
 21
4693.7898337406
 31
0.0
  0
LINE
  5
164
330
1F
100
AcDbEntity
  8
0
  6
Continuous
 62
     7
100
AcDbLine
 10
6165.5702201322
 20
5738.0454344589
 30
0.0
 11
6165.5262766078
 21
5738.0894226867
 31
0.0
  0
LINE
  5
165
330
1F
100
AcDbEntity
  8
0
  6
Continuous
 62
     7
100
AcDbLine
 10
6165.5262766078
 20
5738.0894226867
 30
0.0
 11
6165.5073521331
 21
5738.1083769638
 31
0.0
  0
LINE
  5
166
330
1F
100
AcDbEntity
  8
0
  6
Continuous
 62
     7
100
AcDbLine
 10
6165.5073521331
 20
5738.1083769638
 30
0.0
 11
6165.5066294268
 21
5738.1090922195
 31
0.0
  0
LINE
  5
167
330
1F
100
AcDbEntity
  8
0
  6
Continuous
 62
     7
100
AcDbLine
 10
6383.9108032778
 20
5737.3384041626
 30
0.0
 11
6383.9986828759
 21
5737.3822731811
 31
0.0
  0
LINE
  5
168
330
1F
100
AcDbEntity
  8
0
  6
Continuous
 62
     7
100
AcDbLine
 10
6383.9986828759
 20
5737.3822731811
 30
0.0
 11
6384.0365318254
 21
5737.4012274582
 31
0.0
  0
LINE
  5
169
330
1F
100
AcDbEntity
  8
0
  6
Continuous
 62
     7
100
AcDbLine
 10
6384.0365318254
 20
5737.4012274582
 30
0.0
 11
6384.0379995897
 21
5737.4019427139
 31
0.0
  0
LINE
  5
16A
330
1F
100
AcDbEntity
  8
0
  6
Continuous
 62
     7
100
AcDbLine
 10
6384.0379995897
 20
4694.5898337204
 30
0.0
 11
6383.9108032778
 21
4694.5898337204
 31
0.0
  0
LINE
  5
16B
330
1F
100
AcDbEntity
  8
0
  6
Continuous
 62
     7
100
AcDbLine
 10
6383.1744027927
 20
5737.3384041626
 30
0.0
 11
6383.2183388665
 21
5737.3822731811
 31
0.0
  0
LINE
  5
16C
330
1F
100
AcDbEntity
  8
0
  6
Continuous
 62
     7
100
AcDbLine
 10
6383.2183388665
 20
5737.3822731811
 30
0.0
 11
6383.2372633412
 21
5737.4012274582
 31
0.0
  0
LINE
  5
16D
330
1F
100
AcDbEntity
  8
0
  6
Continuous
 62
     7
100
AcDbLine
 10
6383.2372633412
 20
5737.4012274582
 30
0.0
 11
6383.2379934981
 21
5737.4019427139
 31
0.0
  0
LINE
  5
16E
330
1F
100
AcDbEntity
  8
0
  6
Continuous
 62
     7
100
AcDbLine
 10
6164.1267073944
 20
4694.5898337204
 30
0.0
 11
6163.9995110825
 21
4694.5898337204
 31
0.0
  0
LINE
  5
16F
330
1F
100
AcDbEntity
  8
0
  6
Continuous
 62
     7
100
AcDbLine
 10
6382.530888696
 20
5738.1090922195
 30
0.0
 11
6382.5301585391
 21
5738.1083769638
 31
0.0
  0
LINE
  5
170
330
1F
100
AcDbEntity
  8
0
  6
Continuous
 62
     7
100
AcDbLine
 10
6382.5301585391
 20
5738.1083769638
 30
0.0
 11
6382.5112340644
 21
5738.0894226867
 31
0.0
  0
LINE
  5
171
330
1F
100
AcDbEntity
  8
0
  6
Continuous
 62
     7
100
AcDbLine
 10
6382.5112340644
 20
5738.0894226867
 30
0.0
 11
6382.46729054
 21
5738.0454344589
 31
0.0
  0
LINE
  5
172
330
1F
100
AcDbEntity
  8
0
  6
Continuous
 62
     7
100
AcDbLine
 10
6176.0187578991
 20
5734.1851992446
 30
0.0
 11
6176.0187578991
 21
5734.0930504638
 31
0.0
  0
LINE
  5
173
330
1F
100
AcDbEntity
  8
0
  6
Continuous
 62
     7
100
AcDbLine
 10
6176.0187578991
 20
5734.1851992446
 30
0.0
 11
6204.0187550381
 21
5734.1851992446
 31
0.0
  0
LINE
  5
174
330
1F
100
AcDbEntity
  8
0
  6
Continuous
 62
     7
100
AcDbLine
 10
6176.0187578991
 20
5734.0930504638
 30
0.0
 11
6204.0187550381
 21
5734.0930504638
 31
0.0
  0
LINE
  5
175
330
1F
100
AcDbEntity
  8
0
  6
Continuous
 62
     7
100
AcDbLine
 10
6204.0187550381
 20
5734.1851992446
 30
0.0
 11
6204.0187550381
 21
5734.0930504638
 31
0.0
  0
LINE
  5
176
330
1F
100
AcDbEntity
  8
0
  6
Continuous
 62
     7
100
AcDbLine
 10
6189.5778907135
 20
5735.7334894973
 30
0.0
 11
6188.6445564821
 21
5734.9339527923
 31
0.0
  0
LINE
  5
177
330
1F
100
AcDbEntity
  8
0
  6
Continuous
 62
     7
100
AcDbLine
 10
6189.3058551148
 20
5735.7334894973
 30
0.0
 11
6189.5778907135
 21
5735.7334894973
 31
0.0
  0
LINE
  5
178
330
1F
100
AcDbEntity
  8
0
  6
Continuous
 62
     7
100
AcDbLine
 10
6188.6266080335
 20
5735.1513905365
 30
0.0
 11
6189.3058551148
 21
5735.7334894973
 31
0.0
  0
LINE
  5
179
330
1F
100
AcDbEntity
  8
0
  6
Continuous
 62
     7
100
AcDbLine
 10
6187.9473609522
 20
5735.7334894973
 30
0.0
 11
6188.6266080335
 21
5735.1513905365
 31
0.0
  0
LINE
  5
17A
330
1F
100
AcDbEntity
  8
0
  6
Continuous
 62
     7
100
AcDbLine
 10
6187.6753253534
 20
5735.7334894973
 30
0.0
 11
6187.9473609522
 21
5735.7334894973
 31
0.0
  0
LINE
  5
17B
330
1F
100
AcDbEntity
  8
0
  6
Continuous
 62
     7
100
AcDbLine
 10
6188.6086595848
 20
5734.9339527923
 30
0.0
 11
6187.6753253534
 21
5735.7334894973
 31
0.0
  0
LINE
  5
17C
330
1F
100
AcDbEntity
  8
0
  6
Continuous
 62
     7
100
AcDbLine
 10
6188.6445564821
 20
5734.9339527923
 30
0.0
 11
6188.6086595848
 21
5734.9339527923
 31
0.0
  0
LINE
  5
17D
330
1F
100
AcDbEntity
  8
0
  6
Continuous
 62
     7
100
AcDbLine
 10
6180.3163570955
 20
5735.8709378082
 30
0.0
 11
6180.0891888931
 21
5735.8035845596
 31
0.0
  0
LINE
  5
17E
330
1F
100
AcDbEntity
  8
0
  6
Continuous
 62
     7
100
AcDbLine
 10
6178.700966914
 20
5735.1450724441
 30
0.0
 11
6178.9376718596
 21
5735.2005047638
 31
0.0
  0
LINE
  5
17F
330
1F
100
AcDbEntity
  8
0
  6
Continuous
 62
     7
100
AcDbLine
 10
6204.0187550381
 20
5736.9203371841
 30
0.0
 11
6176.0187578991
 21
5736.9203371841
 31
0.0
  0
LINE
  5
180
330
1F
100
AcDbEntity
  8
0
  6
Continuous
 62
     7
100
AcDbLine
 10
6176.0187578991
 20
5736.9203371841
 30
0.0
 11
6176.0187578991
 21
5734.1851992446
 31
0.0
  0
LINE
  5
181
330
1F
100
AcDbEntity
  8
0
  6
Continuous
 62
     7
100
AcDbLine
 10
6182.8650740579
 20
5735.3126807052
 30
0.0
 11
6181.0343024924
 21
5735.3126807052
 31
0.0
  0
LINE
  5
182
330
1F
100
AcDbEntity
  8
0
  6
Continuous
 62
     7
100
AcDbLine
 10
6182.5341416195
 20
5735.1864380676
 30
0.0
 11
6182.7573833659
 21
5735.1406617004
 31
0.0
  0
LINE
  5
183
330
1F
100
AcDbEntity
  8
0
  6
Continuous
 62
     7
100
AcDbLine
 10
6182.3266131476
 20
5736.0842032272
 30
0.0
 11
6181.7887110308
 21
5735.859732135
 31
0.0
  0
LINE
  5
184
330
1F
100
AcDbEntity
  8
0
  6
Continuous
 62
     7
100
AcDbLine
 10
6181.9345412448
 20
5736.0842032272
 30
0.0
 11
6182.3266131476
 21
5736.0842032272
 31
0.0
  0
LINE
  5
185
330
1F
100
AcDbEntity
  8
0
  6
Continuous
 62
     7
100
AcDbLine
 10
6181.5368665054
 20
5735.859732135
 30
0.0
 11
6181.9345412448
 21
5736.0842032272
 31
0.0
  0
LINE
  5
186
330
1F
100
AcDbEntity
  8
0
  6
Continuous
 62
     7
100
AcDbLine
 10
6181.7887110308
 20
5735.859732135
 30
0.0
 11
6181.5368665054
 21
5735.859732135
 31
0.0
  0
LINE
  5
187
330
1F
100
AcDbEntity
  8
0
  6
Continuous
 62
     7
100
AcDbLine
 10
6183.5471225575
 20
5735.202650531
 30
0.0
 11
6183.5471225575
 21
5734.9339527923
 31
0.0
  0
LINE
  5
188
330
1F
100
AcDbEntity
  8
0
  6
Continuous
 62
     7
100
AcDbLine
 10
6184.2650754049
 20
5735.7201380569
 30
0.0
 11
6184.1270906523
 21
5735.6351418335
 31
0.0
  0
LINE
  5
189
330
1F
100
AcDbEntity
  8
0
  6
Continuous
 62
     7
100
AcDbLine
 10
6183.5471225575
 20
5735.7334894973
 30
0.0
 11
6183.5471225575
 21
5735.6158299285
 31
0.0
  0
LINE
  5
18A
330
1F
100
AcDbEntity
  8
0
  6
Continuous
 62
     7
100
AcDbLine
 10
6183.2958442762
 20
5735.7334894973
 30
0.0
 11
6183.5471225575
 21
5735.7334894973
 31
0.0
  0
LINE
  5
18B
330
1F
100
AcDbEntity
  8
0
  6
Continuous
 62
     7
100
AcDbLine
 10
6183.2958442762
 20
5734.9339527923
 30
0.0
 11
6183.2958442762
 21
5735.7334894973
 31
0.0
  0
LINE
  5
18C
330
1F
100
AcDbEntity
  8
0
  6
Continuous
 62
     7
100
AcDbLine
 10
6183.5471225575
 20
5734.9339527923
 30
0.0
 11
6183.2958442762
 21
5734.9339527923
 31
0.0
  0
LINE
  5
18D
330
1F
100
AcDbEntity
  8
0
  6
Continuous
 62
     7
100
AcDbLine
 10
6184.7317425206
 20
5735.7334894973
 30
0.0
 11
6184.7317425206
 21
5734.9339527923
 31
0.0
  0
LINE
  5
18E
330
1F
100
AcDbEntity
  8
0
  6
Continuous
 62
     7
100
AcDbLine
 10
6184.4804567888
 20
5735.7334894973
 30
0.0
 11
6184.7317425206
 21
5735.7334894973
 31
0.0
  0
LINE
  5
18F
330
1F
100
AcDbEntity
  8
0
  6
Continuous
 62
     7
100
AcDbLine
 10
6184.4804567888
 20
5734.9339527923
 30
0.0
 11
6184.4804567888
 21
5735.7334894973
 31
0.0
  0
LINE
  5
190
330
1F
100
AcDbEntity
  8
0
  6
Continuous
 62
     7
100
AcDbLine
 10
6184.7317425206
 20
5734.9339527923
 30
0.0
 11
6184.4804567888
 21
5734.9339527923
 31
0.0
  0
LINE
  5
191
330
1F
100
AcDbEntity
  8
0
  6
Continuous
 62
     7
100
AcDbLine
 10
6192.0189169839
 20
5735.3126807052
 30
0.0
 11
6190.188152869
 21
5735.3126807052
 31
0.0
  0
LINE
  5
192
330
1F
100
AcDbEntity
  8
0
  6
Continuous
 62
     7
100
AcDbLine
 10
6191.6879919961
 20
5735.1864380676
 30
0.0
 11
6191.9112262919
 21
5735.1406617004
 31
0.0
  0
LINE
  5
193
330
1F
100
AcDbEntity
  8
0
  6
Continuous
 62
     7
100
AcDbLine
 10
6191.4804560736
 20
5736.0842032272
 30
0.0
 11
6190.9425539568
 21
5735.859732135
 31
0.0
  0
LINE
  5
194
330
1F
100
AcDbEntity
  8
0
  6
Continuous
 62
     7
100
AcDbLine
 10
6191.0883916214
 20
5736.0842032272
 30
0.0
 11
6191.4804560736
 21
5736.0842032272
 31
0.0
  0
LINE
  5
195
330
1F
100
AcDbEntity
  8
0
  6
Continuous
 62
     7
100
AcDbLine
 10
6190.690716882
 20
5735.859732135
 30
0.0
 11
6191.0883916214
 21
5736.0842032272
 31
0.0
  0
LINE
  5
196
330
1F
100
AcDbEntity
  8
0
  6
Continuous
 62
     7
100
AcDbLine
 10
6190.9425539568
 20
5735.859732135
 30
0.0
 11
6190.690716882
 21
5735.859732135
 31
0.0
  0
LINE
  5
197
330
1F
100
AcDbEntity
  8
0
  6
Continuous
 62
     7
100
AcDbLine
 10
6195.3983289793
 20
5735.1584238845
 30
0.0
 11
6195.6086588696
 21
5735.1045412857
 31
0.0
  0
LINE
  5
198
330
1F
100
AcDbEntity
  8
0
  6
Continuous
 62
     7
100
AcDbLine
 10
6195.6086588696
 20
5735.5601591903
 30
0.0
 11
6195.3983289793
 21
5735.5090184051
 31
0.0
  0
LINE
  5
199
330
1F
100
AcDbEntity
  8
0
  6
Continuous
 62
     7
100
AcDbLine
 10
6194.5872662261
 20
5735.945801242
 30
0.0
 11
6194.8761326864
 21
5736.042122348
 31
0.0
  0
LINE
  5
19A
330
1F
100
AcDbEntity
  8
0
  6
Continuous
 62
     7
100
AcDbLine
 10
6194.2944807604
 20
5736.042122348
 30
0.0
 11
6194.5872662261
 21
5735.945801242
 31
0.0
  0
LINE
  5
19B
330
1F
100
AcDbEntity
  8
0
  6
Continuous
 62
     7
100
AcDbLine
 10
6193.921482344
 20
5736.042122348
 30
0.0
 11
6194.2944807604
 21
5736.042122348
 31
0.0
  0
LINE
  5
19C
330
1F
100
AcDbEntity
  8
0
  6
Continuous
 62
     7
100
AcDbLine
 10
6194.4666785791
 20
5735.859732135
 30
0.0
 11
6193.921482344
 21
5736.042122348
 31
0.0
  0
LINE
  5
19D
330
1F
100
AcDbEntity
  8
0
  6
Continuous
 62
     7
100
AcDbLine
 10
6194.70280983
 20
5735.859732135
 30
0.0
 11
6194.4666785791
 21
5735.859732135
 31
0.0
  0
LINE
  5
19E
330
1F
100
AcDbEntity
  8
0
  6
Continuous
 62
     7
100
AcDbLine
 10
6195.2496898964
 20
5736.042122348
 30
0.0
 11
6194.70280983
 21
5735.859732135
 31
0.0
  0
LINE
  5
19F
330
1F
100
AcDbEntity
  8
0
  6
Continuous
 62
     7
100
AcDbLine
 10
6194.8761326864
 20
5736.042122348
 30
0.0
 11
6195.2496898964
 21
5736.042122348
 31
0.0
  0
LINE
  5
1A0
330
1F
100
AcDbEntity
  8
0
  6
Continuous
 62
     7
100
AcDbLine
 10
6196.326611717
 20
5735.7334894973
 30
0.0
 11
6196.326611717
 21
5734.9339527923
 31
0.0
  0
LINE
  5
1A1
330
1F
100
AcDbEntity
  8
0
  6
Continuous
 62
     7
100
AcDbLine
 10
6196.0753259852
 20
5735.7334894973
 30
0.0
 11
6196.326611717
 21
5735.7334894973
 31
0.0
  0
LINE
  5
1A2
330
1F
100
AcDbEntity
  8
0
  6
Continuous
 62
     7
100
AcDbLine
 10
6196.0753259852
 20
5734.9339527923
 30
0.0
 11
6196.0753259852
 21
5735.7334894973
 31
0.0
  0
LINE
  5
1A3
330
1F
100
AcDbEntity
  8
0
  6
Continuous
 62
     7
100
AcDbLine
 10
6196.326611717
 20
5734.9339527923
 30
0.0
 11
6196.0753259852
 21
5734.9339527923
 31
0.0
  0
LINE
  5
1A4
330
1F
100
AcDbEntity
  8
0
  6
Continuous
 62
     7
100
AcDbLine
 10
6196.7214850381
 20
5736.0842032272
 30
0.0
 11
6196.1835829213
 21
5735.859732135
 31
0.0
  0
LINE
  5
1A5
330
1F
100
AcDbEntity
  8
0
  6
Continuous
 62
     7
100
AcDbLine
 10
6196.3294131353
 20
5736.0842032272
 30
0.0
 11
6196.7214850381
 21
5736.0842032272
 31
0.0
  0
LINE
  5
1A6
330
1F
100
AcDbEntity
  8
0
  6
Continuous
 62
     7
100
AcDbLine
 10
6195.931738396
 20
5735.859732135
 30
0.0
 11
6196.3294131353
 21
5736.0842032272
 31
0.0
  0
LINE
  5
1A7
330
1F
100
AcDbEntity
  8
0
  6
Continuous
 62
     7
100
AcDbLine
 10
6196.1835829213
 20
5735.859732135
 30
0.0
 11
6195.931738396
 21
5735.859732135
 31
0.0
  0
LINE
  5
1A8
330
1F
100
AcDbEntity
  8
0
  6
Continuous
 62
     7
100
AcDbLine
 10
6196.7214850381
 20
5735.0282473404
 30
0.0
 11
6196.8880725697
 21
5735.1022763092
 31
0.0
  0
LINE
  5
1A9
330
1F
100
AcDbEntity
  8
0
  6
Continuous
 62
     7
100
AcDbLine
 10
6197.8702006534
 20
5735.6338305313
 30
0.0
 11
6197.6996866658
 21
5735.5651659805
 31
0.0
  0
LINE
  5
1AA
330
1F
100
AcDbEntity
  8
0
  6
Continuous
 62
     7
100
AcDbLine
 10
6198.6240503982
 20
5736.0560698349
 30
0.0
 11
6198.6240503982
 21
5734.9339527923
 31
0.0
  0
LINE
  5
1AB
330
1F
100
AcDbEntity
  8
0
  6
Continuous
 62
     7
100
AcDbLine
 10
6198.3727646664
 20
5736.0560698349
 30
0.0
 11
6198.6240503982
 21
5736.0560698349
 31
0.0
  0
LINE
  5
1AC
330
1F
100
AcDbEntity
  8
0
  6
Continuous
 62
     7
100
AcDbLine
 10
6198.3727646664
 20
5734.9339527923
 30
0.0
 11
6198.3727646664
 21
5736.0560698349
 31
0.0
  0
LINE
  5
1AD
330
1F
100
AcDbEntity
  8
0
  6
Continuous
 62
     7
100
AcDbLine
 10
6198.6240503982
 20
5734.9339527923
 30
0.0
 11
6198.3727646664
 21
5734.9339527923
 31
0.0
  0
LINE
  5
1AE
330
1F
100
AcDbEntity
  8
0
  6
Continuous
 62
     7
100
AcDbLine
 10
6204.0187550381
 20
5734.1851992446
 30
0.0
 11
6204.0187550381
 21
5736.9203371841
 31
0.0
  0
LINE
  5
1AF
330
1F
100
AcDbEntity
  8
0
  6
Continuous
 62
     7
100
AcDbLine
 10
6178.700966914
 20
5735.0990576583
 30
0.0
 11
6178.9376718596
 21
5735.154489978
 31
0.0
  0
LINE
  5
1B0
330
1F
100
AcDbEntity
  8
0
  6
Continuous
 62
     7
100
AcDbLine
 10
6196.781283398
 20
5735.0088162262
 30
0.0
 11
6196.8880725697
 21
5735.0562615234
 31
0.0
  0
LINE
  5
1B1
330
1F
100
AcDbEntity
  8
0
  6
Continuous
 62
     7
100
AcDbLine
 10
6191.6879919961
 20
5735.1404232818
 30
0.0
 11
6191.9112262919
 21
5735.0946469146
 31
0.0
  0
LINE
  5
1B2
330
1F
100
AcDbEntity
  8
0
  6
Continuous
 62
     7
100
AcDbLine
 10
6190.2145130232
 20
5735.364894374
 30
0.0
 11
6191.7676387027
 21
5735.364894374
 31
0.0
  0
LINE
  5
1B3
330
1F
100
AcDbEntity
  8
0
  6
Continuous
 62
     7
100
AcDbLine
 10
6195.3983289793
 20
5735.1124090988
 30
0.0
 11
6195.6086588696
 21
5735.0585264999
 31
0.0
  0
LINE
  5
1B4
330
1F
100
AcDbEntity
  8
0
  6
Continuous
 62
     7
100
AcDbLine
 10
6182.5341416195
 20
5735.1404232818
 30
0.0
 11
6182.7573833659
 21
5735.0946469146
 31
0.0
  0
LINE
  5
1B5
330
1F
100
AcDbEntity
  8
0
  6
Continuous
 62
     7
100
AcDbLine
 10
6181.0606626466
 20
5735.364894374
 30
0.0
 11
6182.6137883261
 21
5735.364894374
 31
0.0
  0
LINE
  5
1B6
330
1F
100
AcDbEntity
  8
0
  6
Continuous
 62
     7
100
AcDbLine
 10
6198.3727646664
 20
5736.0100550491
 30
0.0
 11
6198.6240503982
 21
5736.0100550491
 31
0.0
  0
LINE
  5
1B7
330
1F
100
AcDbEntity
  8
0
  6
Continuous
 62
     7
100
AcDbLine
 10
6196.0753259852
 20
5735.6874747116
 30
0.0
 11
6196.326611717
 21
5735.6874747116
 31
0.0
  0
LINE
  5
1B8
330
1F
100
AcDbEntity
  8
0
  6
Continuous
 62
     7
100
AcDbLine
 10
6183.2958442762
 20
5735.6874747116
 30
0.0
 11
6183.5471225575
 21
5735.6874747116
 31
0.0
  0
LINE
  5
1B9
330
1F
100
AcDbEntity
  8
0
  6
Continuous
 62
     7
100
AcDbLine
 10
6187.7290589407
 20
5735.6874747116
 30
0.0
 11
6187.9473609522
 21
5735.6874747116
 31
0.0
  0
LINE
  5
1BA
330
1F
100
AcDbEntity
  8
0
  6
Continuous
 62
     7
100
AcDbLine
 10
6187.9473609522
 20
5735.6874747116
 30
0.0
 11
6188.6266080335
 21
5735.1053757507
 31
0.0
  0
LINE
  5
1BB
330
1F
100
AcDbEntity
  8
0
  6
Continuous
 62
     7
100
AcDbLine
 10
6188.6266080335
 20
5735.1053757507
 30
0.0
 11
6189.3058551148
 21
5735.6874747116
 31
0.0
  0
LINE
  5
1BC
330
1F
100
AcDbEntity
  8
0
  6
Continuous
 62
     7
100
AcDbLine
 10
6189.3058551148
 20
5735.6874747116
 30
0.0
 11
6189.5241645768
 21
5735.6874747116
 31
0.0
  0
LINE
  5
1BD
330
1F
100
AcDbEntity
  8
0
  6
Continuous
 62
     7
100
AcDbLine
 10
6184.4804567888
 20
5735.6874747116
 30
0.0
 11
6184.7317425206
 21
5735.6874747116
 31
0.0
  0
LINE
  5
1BE
330
1F
100
AcDbEntity
  8
0
  6
Continuous
 62
     7
100
AcDbLine
 10
6197.6548192695
 20
5735.1007265884
 30
0.0
 11
6197.6548192695
 21
5735.1467413742
 31
0.0
  0
LINE
  5
1BF
330
1F
100
AcDbEntity
  8
0
  6
Continuous
 62
     7
100
AcDbLine
 10
6197.293600221
 20
5734.972099765
 30
0.0
 11
6197.293600221
 21
5735.0181145507
 31
0.0
  0
LINE
  5
1C0
330
1F
100
AcDbEntity
  8
0
  6
Continuous
 62
     7
100
AcDbLine
 10
6200.9932754233
 20
5735.2849049408
 30
0.0
 11
6200.9932754233
 21
5735.3309197265
 31
0.0
  0
LINE
  5
1C1
330
1F
100
AcDbEntity
  8
0
  6
Continuous
 62
     7
100
AcDbLine
 10
6200.1855877832
 20
5734.972099765
 30
0.0
 11
6200.1855877832
 21
5735.0181145507
 31
0.0
  0
LINE
  5
1C2
330
1F
100
AcDbEntity
  8
0
  6
Continuous
 62
     7
100
AcDbLine
 10
6196.8880725697
 20
5735.0562615234
 30
0.0
 11
6196.8880725697
 21
5735.1022763092
 31
0.0
  0
LINE
  5
1C3
330
1F
100
AcDbEntity
  8
0
  6
Continuous
 62
     7
100
AcDbLine
 10
6199.3778926924
 20
5735.2849049408
 30
0.0
 11
6199.3778926924
 21
5735.3309197265
 31
0.0
  0
LINE
  5
1C4
330
1F
100
AcDbEntity
  8
0
  6
Continuous
 62
     7
100
AcDbLine
 10
6195.3983289793
 20
5735.1124090988
 30
0.0
 11
6195.3983289793
 21
5735.1584238845
 31
0.0
  0
LINE
  5
1C5
330
1F
100
AcDbEntity
  8
0
  6
Continuous
 62
     7
100
AcDbLine
 10
6194.6551335648
 20
5734.972099765
 30
0.0
 11
6194.6551335648
 21
5735.0181145507
 31
0.0
  0
LINE
  5
1C6
330
1F
100
AcDbEntity
  8
0
  6
Continuous
 62
     7
100
AcDbLine
 10
6191.6879919961
 20
5735.1404232818
 30
0.0
 11
6191.6879919961
 21
5735.1864380676
 31
0.0
  0
LINE
  5
1C7
330
1F
100
AcDbEntity
  8
0
  6
Continuous
 62
     7
100
AcDbLine
 10
6190.9347010449
 20
5734.972099765
 30
0.0
 11
6190.9347010449
 21
5735.0181145507
 31
0.0
  0
LINE
  5
1C8
330
1F
100
AcDbEntity
  8
0
  6
Continuous
 62
     7
100
AcDbLine
 10
6193.7778947547
 20
5735.2899117309
 30
0.0
 11
6193.7778947547
 21
5735.3359265167
 31
0.0
  0
LINE
  5
1C9
330
1F
100
AcDbEntity
  8
0
  6
Continuous
 62
     7
100
AcDbLine
 10
6190.188152869
 20
5735.2666659195
 30
0.0
 11
6190.188152869
 21
5735.3126807052
 31
0.0
  0
LINE
  5
1CA
330
1F
100
AcDbEntity
  8
0
  6
Continuous
 62
     7
100
AcDbLine
 10
6181.7808581188
 20
5734.972099765
 30
0.0
 11
6181.7808581188
 21
5735.0181145507
 31
0.0
  0
LINE
  5
1CB
330
1F
100
AcDbEntity
  8
0
  6
Continuous
 62
     7
100
AcDbLine
 10
6181.0343024924
 20
5735.2666659195
 30
0.0
 11
6181.0343024924
 21
5735.3126807052
 31
0.0
  0
LINE
  5
1CC
330
1F
100
AcDbEntity
  8
0
  6
Continuous
 62
     7
100
AcDbLine
 10
6187.1368644431
 20
5735.2849049408
 30
0.0
 11
6187.1368644431
 21
5735.3309197265
 31
0.0
  0
LINE
  5
1CD
330
1F
100
AcDbEntity
  8
0
  6
Continuous
 62
     7
100
AcDbLine
 10
6186.3291768029
 20
5734.972099765
 30
0.0
 11
6186.3291768029
 21
5735.0181145507
 31
0.0
  0
LINE
  5
1CE
330
1F
100
AcDbEntity
  8
0
  6
Continuous
 62
     7
100
AcDbLine
 10
6179.552411814
 20
5734.972099765
 30
0.0
 11
6179.552411814
 21
5735.0181145507
 31
0.0
  0
LINE
  5
1CF
330
1F
100
AcDbEntity
  8
0
  6
Continuous
 62
     7
100
AcDbLine
 10
6178.9376718596
 20
5735.154489978
 30
0.0
 11
6178.9376718596
 21
5735.2005047638
 31
0.0
  0
LINE
  5
1D0
330
1F
100
AcDbEntity
  8
0
  6
Continuous
 62
     7
100
AcDbLine
 10
6180.1009682611
 20
5735.1575894195
 30
0.0
 11
6180.1009682611
 21
5735.2036042053
 31
0.0
  0
LINE
  5
1D1
330
1F
100
AcDbEntity
  8
0
  6
Continuous
 62
     7
100
AcDbLine
 10
6185.5214817122
 20
5735.2849049408
 30
0.0
 11
6185.5214817122
 21
5735.3309197265
 31
0.0
  0
LINE
  5
1D2
330
1F
100
AcDbEntity
  8
0
  6
Continuous
 62
     7
100
AcDbLine
 10
6182.5341416195
 20
5735.1404232818
 30
0.0
 11
6182.5341416195
 21
5735.1864380676
 31
0.0
  0
LINE
  5
1D3
330
1F
100
AcDbEntity
  8
0
  6
Continuous
 62
     7
100
AcDbLine
 10
6197.8107450202
 20
5735.2285189468
 30
0.0
 11
6197.8107450202
 21
5735.2745337326
 31
0.0
  0
LINE
  5
1D4
330
1F
100
AcDbEntity
  8
0
  6
Continuous
 62
     7
100
AcDbLine
 10
6188.6266080335
 20
5735.1053757507
 30
0.0
 11
6188.6266080335
 21
5735.1513905365
 31
0.0
  0
LINE
  5
1D5
330
1F
100
AcDbEntity
  8
0
  6
Continuous
 62
     7
100
AcDbLine
 10
6187.9473609522
 20
5735.6874747116
 30
0.0
 11
6187.9473609522
 21
5735.7334894973
 31
0.0
  0
LINE
  5
1D6
330
1F
100
AcDbEntity
  8
0
  6
Continuous
 62
     7
100
AcDbLine
 10
6189.3058551148
 20
5735.6874747116
 30
0.0
 11
6189.3058551148
 21
5735.7334894973
 31
0.0
  0
LINE
  5
1D7
330
1F
100
AcDbEntity
  8
0
  6
Continuous
 62
     7
100
AcDbLine
 10
6179.6926391914
 20
5735.5090184051
 30
0.0
 11
6179.6926391914
 21
5735.5551524002
 31
0.0
  0
LINE
  5
1D8
330
1F
100
AcDbEntity
  8
0
  6
Continuous
 62
     7
100
AcDbLine
 10
6197.4422393039
 20
5735.3408140976
 30
0.0
 11
6197.4422393039
 21
5735.3868288833
 31
0.0
  0
LINE
  5
1D9
330
1F
100
AcDbEntity
  8
0
  6
Continuous
 62
     7
100
AcDbLine
 10
6191.7962414816
 20
5735.5441851455
 30
0.0
 11
6191.7962414816
 21
5735.5901999313
 31
0.0
  0
LINE
  5
1DA
330
1F
100
AcDbEntity
  8
0
  6
Continuous
 62
     7
100
AcDbLine
 10
6182.6423985556
 20
5735.5441851455
 30
0.0
 11
6182.6423985556
 21
5735.5901999313
 31
0.0
  0
LINE
  5
1DB
330
1F
100
AcDbEntity
  8
0
  6
Continuous
 62
     7
100
AcDbLine
 10
6194.6719644263
 20
5735.7015414077
 30
0.0
 11
6194.6719644263
 21
5735.7475561935
 31
0.0
  0
LINE
  5
1DC
330
1F
100
AcDbEntity
  8
0
  6
Continuous
 62
     7
100
AcDbLine
 10
6199.4070617154
 20
5735.569099887
 30
0.0
 11
6199.4070617154
 21
5735.6151146728
 31
0.0
  0
LINE
  5
1DD
330
1F
100
AcDbEntity
  8
0
  6
Continuous
 62
     7
100
AcDbLine
 10
6200.9641138509
 20
5735.5698151428
 30
0.0
 11
6200.9641138509
 21
5735.6158299285
 31
0.0
  0
LINE
  5
1DE
330
1F
100
AcDbEntity
  8
0
  6
Continuous
 62
     7
100
AcDbLine
 10
6190.1724470451
 20
5735.5524105865
 30
0.0
 11
6190.1724470451
 21
5735.5985445816
 31
0.0
  0
LINE
  5
1DF
330
1F
100
AcDbEntity
  8
0
  6
Continuous
 62
     7
100
AcDbLine
 10
6187.1077028707
 20
5735.5698151428
 30
0.0
 11
6187.1077028707
 21
5735.6158299285
 31
0.0
  0
LINE
  5
1E0
330
1F
100
AcDbEntity
  8
0
  6
Continuous
 62
     7
100
AcDbLine
 10
6181.0185966685
 20
5735.5524105865
 30
0.0
 11
6181.0185966685
 21
5735.5985445816
 31
0.0
  0
LINE
  5
1E1
330
1F
100
AcDbEntity
  8
0
  6
Continuous
 62
     7
100
AcDbLine
 10
6185.5506507352
 20
5735.569099887
 30
0.0
 11
6185.5506507352
 21
5735.6151146728
 31
0.0
  0
LINE
  5
1E2
330
1F
100
AcDbEntity
  8
0
  6
Continuous
 62
     7
100
AcDbLine
 10
6197.1500051811
 20
5735.4231877166
 30
0.0
 11
6197.1500051811
 21
5735.4692025024
 31
0.0
  0
LINE
  5
1E3
330
1F
100
AcDbEntity
  8
0
  6
Continuous
 62
     7
100
AcDbLine
 10
6191.7676387027
 20
5735.364894374
 30
0.0
 11
6191.7676387027
 21
5735.4109091598
 31
0.0
  0
LINE
  5
1E4
330
1F
100
AcDbEntity
  8
0
  6
Continuous
 62
     7
100
AcDbLine
 10
6190.2145130232
 20
5735.364894374
 30
0.0
 11
6190.2145130232
 21
5735.4109091598
 31
0.0
  0
LINE
  5
1E5
330
1F
100
AcDbEntity
  8
0
  6
Continuous
 62
     7
100
AcDbLine
 10
6190.2145130232
 20
5735.4109091598
 30
0.0
 11
6191.7676387027
 21
5735.4109091598
 31
0.0
  0
LINE
  5
1E6
330
1F
100
AcDbEntity
  8
0
  6
Continuous
 62
     7
100
AcDbLine
 10
6181.0606626466
 20
5735.4109091598
 30
0.0
 11
6182.6137883261
 21
5735.4109091598
 31
0.0
  0
LINE
  5
1E7
330
1F
100
AcDbEntity
  8
0
  6
Continuous
 62
     7
100
AcDbLine
 10
6182.6137883261
 20
5735.364894374
 30
0.0
 11
6182.6137883261
 21
5735.4109091598
 31
0.0
  0
LINE
  5
1E8
330
1F
100
AcDbEntity
  8
0
  6
Continuous
 62
     7
100
AcDbLine
 10
6181.0606626466
 20
5735.364894374
 30
0.0
 11
6181.0606626466
 21
5735.4109091598
 31
0.0
  0
LINE
  5
1E9
330
1F
100
AcDbEntity
  8
0
  6
Continuous
 62
     7
100
AcDbLine
 10
6197.0804540113
 20
5735.4956669647
 30
0.0
 11
6197.0804540113
 21
5735.5416817504
 31
0.0
  0
LINE
  5
1EA
330
1F
100
AcDbEntity
  8
0
  6
Continuous
 62
     7
100
AcDbLine
 10
6197.3463205293
 20
5735.7015414077
 30
0.0
 11
6197.3463205293
 21
5735.7475561935
 31
0.0
  0
LINE
  5
1EB
330
1F
100
AcDbEntity
  8
0
  6
Continuous
 62
     7
100
AcDbLine
 10
6179.3162731126
 20
5735.6179756958
 30
0.0
 11
6179.3162731126
 21
5735.6639904815
 31
0.0
  0
LINE
  5
1EC
330
1F
100
AcDbEntity
  8
0
  6
Continuous
 62
     7
100
AcDbLine
 10
6190.9722817734
 20
5735.7015414077
 30
0.0
 11
6190.9722817734
 21
5735.7475561935
 31
0.0
  0
LINE
  5
1ED
330
1F
100
AcDbEntity
  8
0
  6
Continuous
 62
     7
100
AcDbLine
 10
6181.8184388474
 20
5735.7015414077
 30
0.0
 11
6181.8184388474
 21
5735.7475561935
 31
0.0
  0
LINE
  5
1EE
330
1F
100
AcDbEntity
  8
0
  6
Continuous
 62
     7
100
AcDbLine
 10
6200.1867053702
 20
5735.7015414077
 30
0.0
 11
6200.1867053702
 21
5735.7475561935
 31
0.0
  0
LINE
  5
1EF
330
1F
100
AcDbEntity
  8
0
  6
Continuous
 62
     7
100
AcDbLine
 10
6186.33029439
 20
5735.7015414077
 30
0.0
 11
6186.33029439
 21
5735.7475561935
 31
0.0
  0
LINE
  5
1F0
330
1F
100
AcDbEntity
  8
0
  6
Continuous
 62
     7
100
AcDbLine
 10
6184.046318908
 20
5735.7015414077
 30
0.0
 11
6184.046318908
 21
5735.7475561935
 31
0.0
  0
LINE
  5
1F1
330
1F
100
AcDbEntity
  8
0
  6
Continuous
 62
     7
100
AcDbLine
 10
6183.5471225575
 20
5735.5698151428
 30
0.0
 11
6183.5471225575
 21
5735.6158299285
 31
0.0
  0
LINE
  5
1F2
330
1F
100
AcDbEntity
  8
0
  6
Continuous
 62
     7
100
AcDbLine
 10
6179.1317371324
 20
5735.7593579132
 30
0.0
 11
6179.1317371324
 21
5735.8053726989
 31
0.0
  0
LINE
  5
1F3
330
1F
100
AcDbEntity
  8
0
  6
Continuous
 62
     7
100
AcDbLine
 10
6179.5703602627
 20
5736.0100550491
 30
0.0
 11
6179.5703602627
 21
5736.0560698349
 31
0.0
  0
LINE
  5
1F4
330
1F
100
AcDbEntity
  8
0
  6
Continuous
 62
     7
100
AcDbLine
 10
6196.3294131353
 20
5736.0380692321
 30
0.0
 11
6196.3294131353
 21
5736.0842032272
 31
0.0
  0
LINE
  5
1F5
330
1F
100
AcDbEntity
  8
0
  6
Continuous
 62
     7
100
AcDbLine
 10
6196.0132999018
 20
5735.859732135
 30
0.0
 11
6196.3294131353
 21
5736.0380692321
 31
0.0
  0
LINE
  5
1F6
330
1F
100
AcDbEntity
  8
0
  6
Continuous
 62
     7
100
AcDbLine
 10
6191.0883916214
 20
5736.0380692321
 30
0.0
 11
6191.0883916214
 21
5736.0842032272
 31
0.0
  0
LINE
  5
1F7
330
1F
100
AcDbEntity
  8
0
  6
Continuous
 62
     7
100
AcDbLine
 10
6190.7722709373
 20
5735.859732135
 30
0.0
 11
6191.0883916214
 21
5736.0380692321
 31
0.0
  0
LINE
  5
1F8
330
1F
100
AcDbEntity
  8
0
  6
Continuous
 62
     7
100
AcDbLine
 10
6181.9345412448
 20
5736.0380692321
 30
0.0
 11
6181.9345412448
 21
5736.0842032272
 31
0.0
  0
LINE
  5
1F9
330
1F
100
AcDbEntity
  8
0
  6
Continuous
 62
     7
100
AcDbLine
 10
6181.6184280112
 20
5735.859732135
 30
0.0
 11
6181.9345412448
 21
5736.0380692321
 31
0.0
  0
LINE
  5
1FA
330
1F
100
AcDbEntity
  8
0
  6
Continuous
 62
     7
100
AcDbLine
 10
6196.3294131353
 20
5736.0380692321
 30
0.0
 11
6196.6111642912
 21
5736.0380692321
 31
0.0
  0
LINE
  5
1FB
330
1F
100
AcDbEntity
  8
0
  6
Continuous
 62
     7
100
AcDbLine
 10
6194.0590945676
 20
5735.9959883529
 30
0.0
 11
6194.2944807604
 21
5735.9959883529
 31
0.0
  0
LINE
  5
1FC
330
1F
100
AcDbEntity
  8
0
  6
Continuous
 62
     7
100
AcDbLine
 10
6194.2944807604
 20
5735.9959883529
 30
0.0
 11
6194.5872662261
 21
5735.8997864563
 31
0.0
  0
LINE
  5
1FD
330
1F
100
AcDbEntity
  8
0
  6
Continuous
 62
     7
100
AcDbLine
 10
6194.5872662261
 20
5735.8997864563
 30
0.0
 11
6194.8761326864
 21
5735.9959883529
 31
0.0
  0
LINE
  5
1FE
330
1F
100
AcDbEntity
  8
0
  6
Continuous
 62
     7
100
AcDbLine
 10
6194.8761326864
 20
5735.9959883529
 30
0.0
 11
6195.1116529897
 21
5735.9959883529
 31
0.0
  0
LINE
  5
1FF
330
1F
100
AcDbEntity
  8
0
  6
Continuous
 62
     7
100
AcDbLine
 10
6191.0883916214
 20
5736.0380692321
 30
0.0
 11
6191.3701427773
 21
5736.0380692321
 31
0.0
  0
LINE
  5
200
330
1F
100
AcDbEntity
  8
0
  6
Continuous
 62
     7
100
AcDbLine
 10
6181.9345412448
 20
5736.0380692321
 30
0.0
 11
6182.2162924007
 21
5736.0380692321
 31
0.0
  0
LINE
  5
201
330
1F
100
AcDbEntity
  8
0
  6
Continuous
 62
     7
100
AcDbLine
 10
6194.5872662261
 20
5735.8997864563
 30
0.0
 11
6194.5872662261
 21
5735.945801242
 31
0.0
  0
LINE
  5
202
330
1F
100
AcDbEntity
  8
0
  6
Continuous
 62
     7
100
AcDbLine
 10
6194.2944807604
 20
5735.9959883529
 30
0.0
 11
6194.2944807604
 21
5736.042122348
 31
0.0
  0
LINE
  5
203
330
1F
100
AcDbEntity
  8
0
  6
Continuous
 62
     7
100
AcDbLine
 10
6194.8761326864
 20
5735.9959883529
 30
0.0
 11
6194.8761326864
 21
5736.042122348
 31
0.0
  0
LINE
  5
204
330
1F
100
AcDbEntity
  8
0
  6
Continuous
 62
     7
100
AcDbLine
 10
6184.6049783423
 20
5736.0241217453
 30
0.0
 11
6184.6049783423
 21
5736.070136531
 31
0.0
  0
LINE
  5
205
330
1F
100
AcDbEntity
  8
0
  6
Continuous
 62
     7
100
AcDbLine
 10
6268.3687551551
 20
5604.403178199
 30
0.0
 11
6268.5462605812
 21
5603.700618251
 31
0.0
  0
LINE
  5
206
330
1F
100
AcDbEntity
  8
0
  6
Continuous
 62
     7
100
AcDbLine
 10
6268.5462605812
 20
5603.700618251
 30
0.0
 11
6269.067622409
 21
5603.0422253448
 31
0.0
  0
LINE
  5
207
330
1F
100
AcDbEntity
  8
0
  6
Continuous
 62
     7
100
AcDbLine
 10
6269.067622409
 20
5603.0422253448
 30
0.0
 11
6269.900082764
 21
5602.4693054992
 31
0.0
  0
LINE
  5
208
330
1F
100
AcDbEntity
  8
0
  6
Continuous
 62
     7
100
AcDbLine
 10
6269.900082764
 20
5602.4693054992
 30
0.0
 11
6270.9913339138
 21
5602.0179195243
 31
0.0
  0
LINE
  5
209
330
1F
100
AcDbEntity
  8
0
  6
Continuous
 62
     7
100
AcDbLine
 10
6270.9913339138
 20
5602.0179195243
 30
0.0
 11
6272.2728093293
 21
5601.7164392311
 31
0.0
  0
LINE
  5
20A
330
1F
100
AcDbEntity
  8
0
  6
Continuous
 62
     7
100
AcDbLine
 10
6272.2728093293
 20
5601.7164392311
 30
0.0
 11
6273.6639888979
 21
5601.5837592918
 31
0.0
  0
LINE
  5
20B
330
1F
100
AcDbEntity
  8
0
  6
Continuous
 62
     7
100
AcDbLine
 10
6273.6639888979
 20
5601.5837592918
 30
0.0
 11
6275.0774597887
 21
5601.6282243568
 31
0.0
  0
LINE
  5
20C
330
1F
100
AcDbEntity
  8
0
  6
Continuous
 62
     7
100
AcDbLine
 10
6275.0774597887
 20
5601.6282243568
 30
0.0
 11
6276.4244083453
 21
5601.8470330078
 31
0.0
  0
LINE
  5
20D
330
1F
100
AcDbEntity
  8
0
  6
Continuous
 62
     7
100
AcDbLine
 10
6276.4244083453
 20
5601.8470330078
 30
0.0
 11
6277.6202009197
 21
5602.2264761764
 31
0.0
  0
LINE
  5
20E
330
1F
100
AcDbEntity
  8
0
  6
Continuous
 62
     7
100
AcDbLine
 10
6277.6202009197
 20
5602.2264761764
 30
0.0
 11
6278.5897014335
 21
5602.7426524002
 31
0.0
  0
LINE
  5
20F
330
1F
100
AcDbEntity
  8
0
  6
Continuous
 62
     7
100
AcDbLine
 10
6278.5897014335
 20
5602.7426524002
 30
0.0
 11
6279.2719925426
 21
5603.3631963569
 31
0.0
  0
LINE
  5
210
330
1F
100
AcDbEntity
  8
0
  6
Continuous
 62
     7
100
AcDbLine
 10
6279.2719925426
 20
5603.3631963569
 30
0.0
 11
6279.6242033735
 21
5604.049126609
 31
0.0
  0
LINE
  5
211
330
1F
100
AcDbEntity
  8
0
  6
Continuous
 62
     7
100
AcDbLine
 10
6279.6242033735
 20
5604.049126609
 30
0.0
 11
6279.6242033735
 21
5604.7572297889
 31
0.0
  0
LINE
  5
212
330
1F
100
AcDbEntity
  8
0
  6
Continuous
 62
     7
100
AcDbLine
 10
6279.6242033735
 20
5604.7572297889
 30
0.0
 11
6279.2719925426
 21
5605.4431004364
 31
0.0
  0
LINE
  5
213
330
1F
100
AcDbEntity
  8
0
  6
Continuous
 62
     7
100
AcDbLine
 10
6279.2719925426
 20
5605.4431004364
 30
0.0
 11
6278.5897014335
 21
5606.0636443931
 31
0.0
  0
LINE
  5
214
330
1F
100
AcDbEntity
  8
0
  6
Continuous
 62
     7
100
AcDbLine
 10
6278.5897014335
 20
5606.0636443931
 30
0.0
 11
6277.6202009197
 21
5606.5798802215
 31
0.0
  0
LINE
  5
215
330
1F
100
AcDbEntity
  8
0
  6
Continuous
 62
     7
100
AcDbLine
 10
6277.6202009197
 20
5606.5798802215
 30
0.0
 11
6276.4244083453
 21
5606.9593233902
 31
0.0
  0
LINE
  5
216
330
1F
100
AcDbEntity
  8
0
  6
Continuous
 62
     7
100
AcDbLine
 10
6276.4244083453
 20
5606.9593233902
 30
0.0
 11
6275.0774597887
 21
5607.1781320411
 31
0.0
  0
LINE
  5
217
330
1F
100
AcDbEntity
  8
0
  6
Continuous
 62
     7
100
AcDbLine
 10
6275.0774597887
 20
5607.1781320411
 30
0.0
 11
6273.6639888979
 21
5607.2225971061
 31
0.0
  0
LINE
  5
218
330
1F
100
AcDbEntity
  8
0
  6
Continuous
 62
     7
100
AcDbLine
 10
6273.6639888979
 20
5607.2225971061
 30
0.0
 11
6272.2728093293
 21
5607.0899171669
 31
0.0
  0
LINE
  5
219
330
1F
100
AcDbEntity
  8
0
  6
Continuous
 62
     7
100
AcDbLine
 10
6272.2728093293
 20
5607.0899171669
 30
0.0
 11
6270.9913339138
 21
5606.7883772689
 31
0.0
  0
LINE
  5
21A
330
1F
100
AcDbEntity
  8
0
  6
Continuous
 62
     7
100
AcDbLine
 10
6270.9913339138
 20
5606.7883772689
 30
0.0
 11
6269.900082764
 21
5606.3369912941
 31
0.0
  0
LINE
  5
21B
330
1F
100
AcDbEntity
  8
0
  6
Continuous
 62
     7
100
AcDbLine
 10
6269.900082764
 20
5606.3369912941
 30
0.0
 11
6269.067622409
 21
5605.7641310531
 31
0.0
  0
LINE
  5
21C
330
1F
100
AcDbEntity
  8
0
  6
Continuous
 62
     7
100
AcDbLine
 10
6269.067622409
 20
5605.7641310531
 30
0.0
 11
6268.5462605812
 21
5605.1057381469
 31
0.0
  0
LINE
  5
21D
330
1F
100
AcDbEntity
  8
0
  6
Continuous
 62
     7
100
AcDbLine
 10
6268.5462605812
 20
5605.1057381469
 30
0.0
 11
6268.3687551551
 21
5604.403178199
 31
0.0
  0
LINE
  5
21E
330
1F
100
AcDbEntity
  8
0
  6
Continuous
 62
     7
100
AcDbLine
 10
6274.0187553361
 20
5613.3399410087
 30
0.0
 11
6276.3496289633
 21
5613.2482690651
 31
0.0
  0
LINE
  5
21F
330
1F
100
AcDbEntity
  8
0
  6
Continuous
 62
     7
100
AcDbLine
 10
6276.3496289633
 20
5613.2482690651
 30
0.0
 11
6278.6231084399
 21
5612.9753393966
 31
0.0
  0
LINE
  5
220
330
1F
100
AcDbEntity
  8
0
  6
Continuous
 62
     7
100
AcDbLine
 10
6278.6231084399
 20
5612.9753393966
 30
0.0
 11
6280.7832138285
 21
5612.5279469329
 31
0.0
  0
LINE
  5
221
330
1F
100
AcDbEntity
  8
0
  6
Continuous
 62
     7
100
AcDbLine
 10
6280.7832138285
 20
5612.5279469329
 30
0.0
 11
6282.7767554343
 21
5611.9171185333
 31
0.0
  0
LINE
  5
222
330
1F
100
AcDbEntity
  8
0
  6
Continuous
 62
     7
100
AcDbLine
 10
6282.7767554343
 20
5611.9171185333
 30
0.0
 11
6284.5546465039
 21
5611.1579341728
 31
0.0
  0
LINE
  5
223
330
1F
100
AcDbEntity
  8
0
  6
Continuous
 62
     7
100
AcDbLine
 10
6284.5546465039
 20
5611.1579341728
 30
0.0
 11
6286.0731083572
 21
5610.2689905006
 31
0.0
  0
LINE
  5
224
330
1F
100
AcDbEntity
  8
0
  6
Continuous
 62
     7
100
AcDbLine
 10
6286.0731083572
 20
5610.2689905006
 30
0.0
 11
6287.294752118
 21
5609.272222026
 31
0.0
  0
LINE
  5
225
330
1F
100
AcDbEntity
  8
0
  6
Continuous
 62
     7
100
AcDbLine
 10
6287.294752118
 20
5609.272222026
 30
0.0
 11
6288.1894969985
 21
5608.192126258
 31
0.0
  0
LINE
  5
226
330
1F
100
AcDbEntity
  8
0
  6
Continuous
 62
     7
100
AcDbLine
 10
6288.1894969985
 20
5608.192126258
 30
0.0
 11
6288.7353116319
 21
5607.0554060775
 31
0.0
  0
LINE
  5
227
330
1F
100
AcDbEntity
  8
0
  6
Continuous
 62
     7
100
AcDbLine
 10
6288.7353116319
 20
5607.0554060775
 30
0.0
 11
6288.9187551707
 21
5605.8899564582
 31
0.0
  0
LINE
  5
228
330
1F
100
AcDbEntity
  8
0
  6
Continuous
 62
     7
100
AcDbLine
 10
6288.9187551707
 20
5605.8899564582
 30
0.0
 11
6288.7353116319
 21
5604.7245068389
 31
0.0
  0
LINE
  5
229
330
1F
100
AcDbEntity
  8
0
  6
Continuous
 62
     7
100
AcDbLine
 10
6288.7353116319
 20
5604.7245068389
 30
0.0
 11
6288.1894969985
 21
5603.5877866584
 31
0.0
  0
LINE
  5
22A
330
1F
100
AcDbEntity
  8
0
  6
Continuous
 62
     7
100
AcDbLine
 10
6288.1894969985
 20
5603.5877866584
 30
0.0
 11
6287.294752118
 21
5602.5077504951
 31
0.0
  0
LINE
  5
22B
330
1F
100
AcDbEntity
  8
0
  6
Continuous
 62
     7
100
AcDbLine
 10
6287.294752118
 20
5602.5077504951
 30
0.0
 11
6286.0731083572
 21
5601.5109820205
 31
0.0
  0
LINE
  5
22C
330
1F
100
AcDbEntity
  8
0
  6
Continuous
 62
     7
100
AcDbLine
 10
6286.0731083572
 20
5601.5109820205
 30
0.0
 11
6284.5546465039
 21
5600.6220383483
 31
0.0
  0
LINE
  5
22D
330
1F
100
AcDbEntity
  8
0
  6
Continuous
 62
     7
100
AcDbLine
 10
6284.5546465039
 20
5600.6220383483
 30
0.0
 11
6282.7767554343
 21
5599.8627943832
 31
0.0
  0
LINE
  5
22E
330
1F
100
AcDbEntity
  8
0
  6
Continuous
 62
     7
100
AcDbLine
 10
6282.7767554343
 20
5599.8627943832
 30
0.0
 11
6280.7832138285
 21
5599.2519659835
 31
0.0
  0
LINE
  5
22F
330
1F
100
AcDbEntity
  8
0
  6
Continuous
 62
     7
100
AcDbLine
 10
6280.7832138285
 20
5599.2519659835
 30
0.0
 11
6278.6231084399
 21
5598.8045735199
 31
0.0
  0
LINE
  5
230
330
1F
100
AcDbEntity
  8
0
  6
Continuous
 62
     7
100
AcDbLine
 10
6278.6231084399
 20
5598.8045735199
 30
0.0
 11
6276.3496289633
 21
5598.5317034561
 31
0.0
  0
LINE
  5
231
330
1F
100
AcDbEntity
  8
0
  6
Continuous
 62
     7
100
AcDbLine
 10
6276.3496289633
 20
5598.5317034561
 30
0.0
 11
6274.0187553361
 21
5598.4399719078
 31
0.0
  0
LINE
  5
232
330
1F
100
AcDbEntity
  8
0
  6
Continuous
 62
     7
100
AcDbLine
 10
6274.0187553361
 20
5598.4399719078
 30
0.0
 11
6271.6878817089
 21
5598.5317034561
 31
0.0
  0
LINE
  5
233
330
1F
100
AcDbEntity
  8
0
  6
Continuous
 62
     7
100
AcDbLine
 10
6271.6878817089
 20
5598.5317034561
 30
0.0
 11
6269.4144022323
 21
5598.8045735199
 31
0.0
  0
LINE
  5
234
330
1F
100
AcDbEntity
  8
0
  6
Continuous
 62
     7
100
AcDbLine
 10
6269.4144022323
 20
5598.8045735199
 30
0.0
 11
6267.2542968437
 21
5599.2519659835
 31
0.0
  0
LINE
  5
235
330
1F
100
AcDbEntity
  8
0
  6
Continuous
 62
     7
100
AcDbLine
 10
6267.2542968437
 20
5599.2519659835
 30
0.0
 11
6265.2607552379
 21
5599.8627943832
 31
0.0
  0
LINE
  5
236
330
1F
100
AcDbEntity
  8
0
  6
Continuous
 62
     7
100
AcDbLine
 10
6265.2607552379
 20
5599.8627943832
 30
0.0
 11
6263.4828641683
 21
5600.6220383483
 31
0.0
  0
LINE
  5
237
330
1F
100
AcDbEntity
  8
0
  6
Continuous
 62
     7
100
AcDbLine
 10
6263.4828641683
 20
5600.6220383483
 30
0.0
 11
6261.964402315
 21
5601.5109820205
 31
0.0
  0
LINE
  5
238
330
1F
100
AcDbEntity
  8
0
  6
Continuous
 62
     7
100
AcDbLine
 10
6261.964402315
 20
5601.5109820205
 30
0.0
 11
6260.7427585542
 21
5602.5077504951
 31
0.0
  0
LINE
  5
239
330
1F
100
AcDbEntity
  8
0
  6
Continuous
 62
     7
100
AcDbLine
 10
6260.7427585542
 20
5602.5077504951
 30
0.0
 11
6259.8480136737
 21
5603.5877866584
 31
0.0
  0
LINE
  5
23A
330
1F
100
AcDbEntity
  8
0
  6
Continuous
 62
     7
100
AcDbLine
 10
6259.8480136737
 20
5603.5877866584
 30
0.0
 11
6259.3021990403
 21
5604.7245068389
 31
0.0
  0
LINE
  5
23B
330
1F
100
AcDbEntity
  8
0
  6
Continuous
 62
     7
100
AcDbLine
 10
6259.3021990403
 20
5604.7245068389
 30
0.0
 11
6259.1187555015
 21
5605.8899564582
 31
0.0
  0
LINE
  5
23C
330
1F
100
AcDbEntity
  8
0
  6
Continuous
 62
     7
100
AcDbLine
 10
6259.1187555015
 20
5605.8899564582
 30
0.0
 11
6259.3021990403
 21
5607.0554060775
 31
0.0
  0
LINE
  5
23D
330
1F
100
AcDbEntity
  8
0
  6
Continuous
 62
     7
100
AcDbLine
 10
6259.3021990403
 20
5607.0554060775
 30
0.0
 11
6259.8480136737
 21
5608.192126258
 31
0.0
  0
LINE
  5
23E
330
1F
100
AcDbEntity
  8
0
  6
Continuous
 62
     7
100
AcDbLine
 10
6259.8480136737
 20
5608.192126258
 30
0.0
 11
6260.7427585542
 21
5609.272222026
 31
0.0
  0
LINE
  5
23F
330
1F
100
AcDbEntity
  8
0
  6
Continuous
 62
     7
100
AcDbLine
 10
6260.7427585542
 20
5609.272222026
 30
0.0
 11
6261.964402315
 21
5610.2689905006
 31
0.0
  0
LINE
  5
240
330
1F
100
AcDbEntity
  8
0
  6
Continuous
 62
     7
100
AcDbLine
 10
6261.964402315
 20
5610.2689905006
 30
0.0
 11
6263.4828641683
 21
5611.1579341728
 31
0.0
  0
LINE
  5
241
330
1F
100
AcDbEntity
  8
0
  6
Continuous
 62
     7
100
AcDbLine
 10
6263.4828641683
 20
5611.1579341728
 30
0.0
 11
6265.2607552379
 21
5611.9171185333
 31
0.0
  0
LINE
  5
242
330
1F
100
AcDbEntity
  8
0
  6
Continuous
 62
     7
100
AcDbLine
 10
6265.2607552379
 20
5611.9171185333
 30
0.0
 11
6267.2542968437
 21
5612.5279469329
 31
0.0
  0
LINE
  5
243
330
1F
100
AcDbEntity
  8
0
  6
Continuous
 62
     7
100
AcDbLine
 10
6267.2542968437
 20
5612.5279469329
 30
0.0
 11
6269.4144022323
 21
5612.9753393966
 31
0.0
  0
LINE
  5
244
330
1F
100
AcDbEntity
  8
0
  6
Continuous
 62
     7
100
AcDbLine
 10
6269.4144022323
 20
5612.9753393966
 30
0.0
 11
6271.6878817089
 21
5613.2482690651
 31
0.0
  0
LINE
  5
245
330
1F
100
AcDbEntity
  8
0
  6
Continuous
 62
     7
100
AcDbLine
 10
6271.6878817089
 20
5613.2482690651
 30
0.0
 11
6274.0187553361
 21
5613.3399410087
 31
0.0
  0
LINE
  5
246
330
1F
100
AcDbEntity
  8
0
  6
Continuous
 62
     7
100
AcDbLine
 10
6259.1187555015
 20
5633.1697506744
 30
0.0
 11
6259.3021990403
 21
5634.3352002937
 31
0.0
  0
LINE
  5
247
330
1F
100
AcDbEntity
  8
0
  6
Continuous
 62
     7
100
AcDbLine
 10
6259.3021990403
 20
5634.3352002937
 30
0.0
 11
6259.8480136737
 21
5635.4719204742
 31
0.0
  0
LINE
  5
248
330
1F
100
AcDbEntity
  8
0
  6
Continuous
 62
     7
100
AcDbLine
 10
6259.8480136737
 20
5635.4719204742
 30
0.0
 11
6260.7427585542
 21
5636.5520162422
 31
0.0
  0
LINE
  5
249
330
1F
100
AcDbEntity
  8
0
  6
Continuous
 62
     7
100
AcDbLine
 10
6260.7427585542
 20
5636.5520162422
 30
0.0
 11
6261.964402315
 21
5637.5487847168
 31
0.0
  0
LINE
  5
24A
330
1F
100
AcDbEntity
  8
0
  6
Continuous
 62
     7
100
AcDbLine
 10
6261.964402315
 20
5637.5487847168
 30
0.0
 11
6263.4828641683
 21
5638.4377283889
 31
0.0
  0
LINE
  5
24B
330
1F
100
AcDbEntity
  8
0
  6
Continuous
 62
     7
100
AcDbLine
 10
6263.4828641683
 20
5638.4377283889
 30
0.0
 11
6265.2607552379
 21
5639.1969723541
 31
0.0
  0
LINE
  5
24C
330
1F
100
AcDbEntity
  8
0
  6
Continuous
 62
     7
100
AcDbLine
 10
6265.2607552379
 20
5639.1969723541
 30
0.0
 11
6267.2542968437
 21
5639.8077411491
 31
0.0
  0
LINE
  5
24D
330
1F
100
AcDbEntity
  8
0
  6
Continuous
 62
     7
100
AcDbLine
 10
6267.2542968437
 20
5639.8077411491
 30
0.0
 11
6269.4144022323
 21
5640.2551336128
 31
0.0
  0
LINE
  5
24E
330
1F
100
AcDbEntity
  8
0
  6
Continuous
 62
     7
100
AcDbLine
 10
6269.4144022323
 20
5640.2551336128
 30
0.0
 11
6271.6878817089
 21
5640.5280632812
 31
0.0
  0
LINE
  5
24F
330
1F
100
AcDbEntity
  8
0
  6
Continuous
 62
     7
100
AcDbLine
 10
6271.6878817089
 20
5640.5280632812
 30
0.0
 11
6274.0187553361
 21
5640.6197948295
 31
0.0
  0
LINE
  5
250
330
1F
100
AcDbEntity
  8
0
  6
Continuous
 62
     7
100
AcDbLine
 10
6274.0187553361
 20
5640.6197948295
 30
0.0
 11
6276.3496289633
 21
5640.5280632812
 31
0.0
  0
LINE
  5
251
330
1F
100
AcDbEntity
  8
0
  6
Continuous
 62
     7
100
AcDbLine
 10
6276.3496289633
 20
5640.5280632812
 30
0.0
 11
6278.6231084399
 21
5640.2551336128
 31
0.0
  0
LINE
  5
252
330
1F
100
AcDbEntity
  8
0
  6
Continuous
 62
     7
100
AcDbLine
 10
6278.6231084399
 20
5640.2551336128
 30
0.0
 11
6280.7832138285
 21
5639.8077411491
 31
0.0
  0
LINE
  5
253
330
1F
100
AcDbEntity
  8
0
  6
Continuous
 62
     7
100
AcDbLine
 10
6280.7832138285
 20
5639.8077411491
 30
0.0
 11
6282.7767554343
 21
5639.1969723541
 31
0.0
  0
LINE
  5
254
330
1F
100
AcDbEntity
  8
0
  6
Continuous
 62
     7
100
AcDbLine
 10
6282.7767554343
 20
5639.1969723541
 30
0.0
 11
6284.5546465039
 21
5638.4377283889
 31
0.0
  0
LINE
  5
255
330
1F
100
AcDbEntity
  8
0
  6
Continuous
 62
     7
100
AcDbLine
 10
6284.5546465039
 20
5638.4377283889
 30
0.0
 11
6286.0731083572
 21
5637.5487847168
 31
0.0
  0
LINE
  5
256
330
1F
100
AcDbEntity
  8
0
  6
Continuous
 62
     7
100
AcDbLine
 10
6286.0731083572
 20
5637.5487847168
 30
0.0
 11
6287.294752118
 21
5636.5520162422
 31
0.0
  0
LINE
  5
257
330
1F
100
AcDbEntity
  8
0
  6
Continuous
 62
     7
100
AcDbLine
 10
6287.294752118
 20
5636.5520162422
 30
0.0
 11
6288.1894969985
 21
5635.4719204742
 31
0.0
  0
LINE
  5
258
330
1F
100
AcDbEntity
  8
0
  6
Continuous
 62
     7
100
AcDbLine
 10
6288.1894969985
 20
5635.4719204742
 30
0.0
 11
6288.7353116319
 21
5634.3352002937
 31
0.0
  0
LINE
  5
259
330
1F
100
AcDbEntity
  8
0
  6
Continuous
 62
     7
100
AcDbLine
 10
6288.7353116319
 20
5634.3352002937
 30
0.0
 11
6288.9187551707
 21
5633.1697506744
 31
0.0
  0
LINE
  5
25A
330
1F
100
AcDbEntity
  8
0
  6
Continuous
 62
     7
100
AcDbLine
 10
6259.1250484481
 20
5633.3862943489
 30
0.0
 11
6259.1187555015
 21
5633.6027784187
 31
0.0
  0
LINE
  5
25B
330
1F
100
AcDbEntity
  8
0
  6
Continuous
 62
     7
100
AcDbLine
 10
6259.1187555015
 20
5633.6027784187
 30
0.0
 11
6259.3021990403
 21
5634.768228038
 31
0.0
  0
LINE
  5
25C
330
1F
100
AcDbEntity
  8
0
  6
Continuous
 62
     7
100
AcDbLine
 10
6259.3021990403
 20
5634.768228038
 30
0.0
 11
6259.8480136737
 21
5635.9049482185
 31
0.0
  0
LINE
  5
25D
330
1F
100
AcDbEntity
  8
0
  6
Continuous
 62
     7
100
AcDbLine
 10
6259.8480136737
 20
5635.9049482185
 30
0.0
 11
6260.7427585542
 21
5636.9849843818
 31
0.0
  0
LINE
  5
25E
330
1F
100
AcDbEntity
  8
0
  6
Continuous
 62
     7
100
AcDbLine
 10
6260.7427585542
 20
5636.9849843818
 30
0.0
 11
6261.964402315
 21
5637.9817528564
 31
0.0
  0
LINE
  5
25F
330
1F
100
AcDbEntity
  8
0
  6
Continuous
 62
     7
100
AcDbLine
 10
6261.964402315
 20
5637.9817528564
 30
0.0
 11
6263.4828641683
 21
5638.8706965286
 31
0.0
  0
LINE
  5
260
330
1F
100
AcDbEntity
  8
0
  6
Continuous
 62
     7
100
AcDbLine
 10
6263.4828641683
 20
5638.8706965286
 30
0.0
 11
6265.2607552379
 21
5639.6299404937
 31
0.0
  0
LINE
  5
261
330
1F
100
AcDbEntity
  8
0
  6
Continuous
 62
     7
100
AcDbLine
 10
6265.2607552379
 20
5639.6299404937
 30
0.0
 11
6267.2542968437
 21
5640.2407688934
 31
0.0
  0
LINE
  5
262
330
1F
100
AcDbEntity
  8
0
  6
Continuous
 62
     7
100
AcDbLine
 10
6267.2542968437
 20
5640.2407688934
 30
0.0
 11
6269.4144022323
 21
5640.6881613571
 31
0.0
  0
LINE
  5
263
330
1F
100
AcDbEntity
  8
0
  6
Continuous
 62
     7
100
AcDbLine
 10
6269.4144022323
 20
5640.6881613571
 30
0.0
 11
6271.6878817089
 21
5640.9610314209
 31
0.0
  0
LINE
  5
264
330
1F
100
AcDbEntity
  8
0
  6
Continuous
 62
     7
100
AcDbLine
 10
6271.6878817089
 20
5640.9610314209
 30
0.0
 11
6274.0187553361
 21
5641.0527629692
 31
0.0
  0
LINE
  5
265
330
1F
100
AcDbEntity
  8
0
  6
Continuous
 62
     7
100
AcDbLine
 10
6274.0187553361
 20
5641.0527629692
 30
0.0
 11
6276.3496289633
 21
5640.9610314209
 31
0.0
  0
LINE
  5
266
330
1F
100
AcDbEntity
  8
0
  6
Continuous
 62
     7
100
AcDbLine
 10
6276.3496289633
 20
5640.9610314209
 30
0.0
 11
6278.6231084399
 21
5640.6881613571
 31
0.0
  0
LINE
  5
267
330
1F
100
AcDbEntity
  8
0
  6
Continuous
 62
     7
100
AcDbLine
 10
6278.6231084399
 20
5640.6881613571
 30
0.0
 11
6280.7832138285
 21
5640.2407688934
 31
0.0
  0
LINE
  5
268
330
1F
100
AcDbEntity
  8
0
  6
Continuous
 62
     7
100
AcDbLine
 10
6280.7832138285
 20
5640.2407688934
 30
0.0
 11
6282.7767554343
 21
5639.6299404937
 31
0.0
  0
LINE
  5
269
330
1F
100
AcDbEntity
  8
0
  6
Continuous
 62
     7
100
AcDbLine
 10
6282.7767554343
 20
5639.6299404937
 30
0.0
 11
6284.5546465039
 21
5638.8706965286
 31
0.0
  0
LINE
  5
26A
330
1F
100
AcDbEntity
  8
0
  6
Continuous
 62
     7
100
AcDbLine
 10
6284.5546465039
 20
5638.8706965286
 30
0.0
 11
6286.0731083572
 21
5637.9817528564
 31
0.0
  0
LINE
  5
26B
330
1F
100
AcDbEntity
  8
0
  6
Continuous
 62
     7
100
AcDbLine
 10
6286.0731083572
 20
5637.9817528564
 30
0.0
 11
6287.294752118
 21
5636.9849843818
 31
0.0
  0
LINE
  5
26C
330
1F
100
AcDbEntity
  8
0
  6
Continuous
 62
     7
100
AcDbLine
 10
6287.294752118
 20
5636.9849843818
 30
0.0
 11
6288.1894969985
 21
5635.9049482185
 31
0.0
  0
LINE
  5
26D
330
1F
100
AcDbEntity
  8
0
  6
Continuous
 62
     7
100
AcDbLine
 10
6288.1894969985
 20
5635.9049482185
 30
0.0
 11
6288.7353116319
 21
5634.768228038
 31
0.0
  0
LINE
  5
26E
330
1F
100
AcDbEntity
  8
0
  6
Continuous
 62
     7
100
AcDbLine
 10
6288.7353116319
 20
5634.768228038
 30
0.0
 11
6288.9187551707
 21
5633.6027784187
 31
0.0
  0
LINE
  5
26F
330
1F
100
AcDbEntity
  8
0
  6
Continuous
 62
     7
100
AcDbLine
 10
6288.9187551707
 20
5633.6027784187
 30
0.0
 11
6288.9124622241
 21
5633.3862943489
 31
0.0
  0
LINE
  5
270
330
1F
100
AcDbEntity
  8
0
  6
Continuous
 62
     7
100
AcDbLine
 10
6279.0187552243
 20
4961.063514455
 30
0.0
 11
6269.0187554479
 21
4961.063514455
 31
0.0
  0
LINE
  5
271
330
1F
100
AcDbEntity
  8
0
  6
Continuous
 62
     7
100
AcDbLine
 10
6269.4033707207
 20
4961.5500039368
 30
0.0
 11
6278.6341399515
 21
4961.5500039368
 31
0.0
  0
LINE
  5
272
330
1F
100
AcDbEntity
  8
0
  6
Continuous
 62
     7
100
AcDbLine
 10
6344.9072820738
 20
4693.9898336919
 30
0.0
 11
6344.1904393628
 21
4693.9898336919
 31
0.0
  0
LINE
  5
273
330
1F
100
AcDbEntity
  8
0
  6
Continuous
 62
     7
100
AcDbLine
 10
6203.8470713094
 20
4693.9898336919
 30
0.0
 11
6203.1302285984
 21
4693.9898336919
 31
0.0
  0
LINE
  5
274
330
1F
100
AcDbEntity
  8
0
  6
Continuous
 62
     7
100
AcDbLine
 10
6686.7430512512
 20
4917.8898287851
 30
0.0
 11
6719.5430532748
 21
4917.8898287851
 31
0.0
  0
LINE
  5
275
330
1F
100
AcDbEntity
  8
0
  6
Continuous
 62
     7
100
AcDbLine
 10
6709.7430512959
 20
4958.0898387271
 30
0.0
 11
6686.7430512512
 21
4958.0898387271
 31
0.0
  0
LINE
  5
276
330
1F
100
AcDbEntity
  8
0
  6
Continuous
 62
     7
100
AcDbLine
 10
6725.7430501932
 20
4958.0898387271
 30
0.0
 11
6719.6764447445
 21
4958.0898387271
 31
0.0
  0
LINE
  5
277
330
1F
100
AcDbEntity
  8
0
  6
Continuous
 62
     7
100
AcDbLine
 10
6723.0430529172
 20
4905.2898390132
 30
0.0
 11
6725.7430501932
 21
4905.2898390132
 31
0.0
  0
LINE
  5
278
330
1F
100
AcDbEntity
  8
0
  6
Continuous
 62
     7
100
AcDbLine
 10
6719.743052935
 20
4958.0733878452
 30
0.0
 11
6719.743052935
 21
4961.063514455
 31
0.0
  0
LINE
  5
279
330
1F
100
AcDbEntity
  8
0
  6
Continuous
 62
     7
100
AcDbLine
 10
6709.7430512959
 20
4961.063514455
 30
0.0
 11
6709.7430512959
 21
4958.0898387271
 31
0.0
  0
LINE
  5
27A
330
1F
100
AcDbEntity
  8
0
  6
Continuous
 62
     7
100
AcDbLine
 10
6683.7430516908
 20
4964.989821418
 30
0.0
 11
6676.7430514741
 21
4964.989821418
 31
0.0
  0
LINE
  5
27B
330
1F
100
AcDbEntity
  8
0
  6
Continuous
 62
     7
100
AcDbLine
 10
6676.7430514741
 20
4910.9898311931
 30
0.0
 11
6683.7430516908
 21
4910.9898311931
 31
0.0
  0
LINE
  5
27C
330
1F
100
AcDbEntity
  8
0
  6
Continuous
 62
     7
100
AcDbLine
 10
6676.7430514747
 20
4916.5086848575
 30
0.0
 11
6676.8403864708
 21
4916.6772467929
 31
0.0
  0
LINE
  5
27D
330
1F
100
AcDbEntity
  8
0
  6
Continuous
 62
     7
100
AcDbLine
 10
6676.879753054
 20
4959.9820179779
 30
0.0
 11
6676.7430514747
 21
4959.7452981311
 31
0.0
  0
LINE
  5
27E
330
1F
100
AcDbEntity
  8
0
  6
Continuous
 62
     7
100
AcDbLine
 10
6583.6659506613
 20
4716.7526511389
 30
0.0
 11
6583.7430492693
 21
4716.6203660804
 31
0.0
  0
LINE
  5
27F
330
1F
100
AcDbEntity
  8
0
  6
Continuous
 62
     7
100
AcDbLine
 10
6337.9455117181
 20
4466.3138165625
 30
0.0
 11
6338.2955921486
 21
4466.5162711891
 31
0.0
  0
LINE
  5
280
330
1F
100
AcDbEntity
  8
0
  6
Continuous
 62
     7
100
AcDbLine
 10
6319.0187533989
 20
4456.4406945856
 30
0.0
 11
6319.0187533989
 21
4455.4192944916
 31
0.0
  0
LINE
  5
281
330
1F
100
AcDbEntity
  8
0
  6
Continuous
 62
     7
100
AcDbLine
 10
6319.0187533989
 20
4458.3945348414
 30
0.0
 11
6319.0187533989
 21
4458.1501110943
 31
0.0
  0
LINE
  5
282
330
1F
100
AcDbEntity
  8
0
  6
Continuous
 62
     7
100
AcDbLine
 10
6319.0187533989
 20
4460.3483825477
 30
0.0
 11
6319.0187533989
 21
4460.1039588006
 31
0.0
  0
LINE
  5
283
330
1F
100
AcDbEntity
  8
0
  6
Continuous
 62
     7
100
AcDbLine
 10
6319.0187533989
 20
4462.302230254
 30
0.0
 11
6319.0187533989
 21
4462.057806507
 31
0.0
  0
LINE
  5
284
330
1F
100
AcDbEntity
  8
0
  6
Continuous
 62
     7
100
AcDbLine
 10
6319.0187533989
 20
4464.2560779603
 30
0.0
 11
6319.0187533989
 21
4464.0116542133
 31
0.0
  0
LINE
  5
285
330
1F
100
AcDbEntity
  8
0
  6
Continuous
 62
     7
100
AcDbLine
 10
6339.0187529519
 20
4464.9883061202
 30
0.0
 11
6339.0187529519
 21
4465.2326032074
 31
0.0
  0
LINE
  5
286
330
1F
100
AcDbEntity
  8
0
  6
Continuous
 62
     7
100
AcDbLine
 10
6339.0187529519
 20
4463.0344584139
 30
0.0
 11
6339.0187529519
 21
4463.2787629517
 31
0.0
  0
LINE
  5
287
330
1F
100
AcDbEntity
  8
0
  6
Continuous
 62
     7
100
AcDbLine
 10
6339.0187529519
 20
4461.0806107076
 30
0.0
 11
6339.0187529519
 21
4461.3249152454
 31
0.0
  0
LINE
  5
288
330
1F
100
AcDbEntity
  8
0
  6
Continuous
 62
     7
100
AcDbLine
 10
6339.0187529519
 20
4459.1267704519
 30
0.0
 11
6339.0187529519
 21
4459.3710675391
 31
0.0
  0
LINE
  5
289
330
1F
100
AcDbEntity
  8
0
  6
Continuous
 62
     7
100
AcDbLine
 10
6339.0187529519
 20
4455.4192944916
 30
0.0
 11
6339.0187529519
 21
4457.4172198327
 31
0.0
  0
LINE
  5
28A
330
1F
100
AcDbEntity
  8
0
  6
Continuous
 62
     7
100
AcDbLine
 10
6318.8187537387
 20
4455.4192944916
 30
0.0
 11
6318.8187537387
 21
4455.0640508088
 31
0.0
  0
LINE
  5
28B
330
1F
100
AcDbEntity
  8
0
  6
Continuous
 62
     7
100
AcDbLine
 10
6339.2187488869
 20
4455.0640508088
 30
0.0
 11
6339.2187488869
 21
4455.4192944916
 31
0.0
  0
LINE
  5
28C
330
1F
100
AcDbEntity
  8
0
  6
Continuous
 62
     7
100
AcDbLine
 10
6338.355718334
 20
4466.5823280366
 30
0.0
 11
6337.5187499121
 21
4467.4192964586
 31
0.0
  0
LINE
  5
28D
330
1F
100
AcDbEntity
  8
0
  6
Continuous
 62
     7
100
AcDbLine
 10
6319.7058086887
 20
4466.6063487085
 30
0.0
 11
6319.0879357651
 21
4465.9884795102
 31
0.0
  0
LINE
  5
28E
330
1F
100
AcDbEntity
  8
0
  6
Continuous
 62
     7
100
AcDbLine
 10
6320.5187527135
 20
4467.4192964586
 30
0.0
 11
6320.07630371
 21
4466.9768437298
 31
0.0
  0
LINE
  5
28F
330
1F
100
AcDbEntity
  8
0
  6
Continuous
 62
     7
100
AcDbLine
 10
6320.07630371
 20
4465.354867235
 30
0.0
 11
6320.07630371
 21
4464.8664071711
 31
0.0
  0
LINE
  5
290
330
1F
100
AcDbEntity
  8
0
  6
Continuous
 62
     7
100
AcDbLine
 10
6320.07630371
 20
4463.4010269793
 30
0.0
 11
6320.07630371
 21
4462.9125594648
 31
0.0
  0
LINE
  5
291
330
1F
100
AcDbEntity
  8
0
  6
Continuous
 62
     7
100
AcDbLine
 10
6320.07630371
 20
4461.447179273
 30
0.0
 11
6320.07630371
 21
4460.958719209
 31
0.0
  0
LINE
  5
292
330
1F
100
AcDbEntity
  8
0
  6
Continuous
 62
     7
100
AcDbLine
 10
6320.07630371
 20
4459.4933315667
 30
0.0
 11
6320.07630371
 21
4459.0048715027
 31
0.0
  0
LINE
  5
293
330
1F
100
AcDbEntity
  8
0
  6
Continuous
 62
     7
100
AcDbLine
 10
6572.4932835156
 20
4771.9165934164
 30
0.0
 11
6572.290828889
 21
4772.2666738469
 31
0.0
  0
LINE
  5
294
330
1F
100
AcDbEntity
  8
0
  6
Continuous
 62
     7
100
AcDbLine
 10
6582.3664054925
 20
4752.9898350972
 30
0.0
 11
6583.3878055865
 21
4752.9898350972
 31
0.0
  0
LINE
  5
295
330
1F
100
AcDbEntity
  8
0
  6
Continuous
 62
     7
100
AcDbLine
 10
6580.4125652367
 20
4752.9898350972
 30
0.0
 11
6580.6569889838
 21
4752.9898350972
 31
0.0
  0
LINE
  5
296
330
1F
100
AcDbEntity
  8
0
  6
Continuous
 62
     7
100
AcDbLine
 10
6578.4587175304
 20
4752.9898350972
 30
0.0
 11
6578.7031412775
 21
4752.9898350972
 31
0.0
  0
LINE
  5
297
330
1F
100
AcDbEntity
  8
0
  6
Continuous
 62
     7
100
AcDbLine
 10
6576.5048698241
 20
4752.9898350972
 30
0.0
 11
6576.7492935711
 21
4752.9898350972
 31
0.0
  0
LINE
  5
298
330
1F
100
AcDbEntity
  8
0
  6
Continuous
 62
     7
100
AcDbLine
 10
6574.5510221178
 20
4752.9898350972
 30
0.0
 11
6574.7954458648
 21
4752.9898350972
 31
0.0
  0
LINE
  5
299
330
1F
100
AcDbEntity
  8
0
  6
Continuous
 62
     7
100
AcDbLine
 10
6573.8187939579
 20
4772.9898346502
 30
0.0
 11
6573.5744968707
 21
4772.9898346502
 31
0.0
  0
LINE
  5
29A
330
1F
100
AcDbEntity
  8
0
  6
Continuous
 62
     7
100
AcDbLine
 10
6575.7726416642
 20
4772.9898346502
 30
0.0
 11
6575.5283371264
 21
4772.9898346502
 31
0.0
  0
LINE
  5
29B
330
1F
100
AcDbEntity
  8
0
  6
Continuous
 62
     7
100
AcDbLine
 10
6577.7264893705
 20
4772.9898346502
 30
0.0
 11
6577.4821848327
 21
4772.9898346502
 31
0.0
  0
LINE
  5
29C
330
1F
100
AcDbEntity
  8
0
  6
Continuous
 62
     7
100
AcDbLine
 10
6579.6803296262
 20
4772.9898346502
 30
0.0
 11
6579.436032539
 21
4772.9898346502
 31
0.0
  0
LINE
  5
29D
330
1F
100
AcDbEntity
  8
0
  6
Continuous
 62
     7
100
AcDbLine
 10
6583.3878055865
 20
4772.9898346502
 30
0.0
 11
6581.3898802454
 21
4772.9898346502
 31
0.0
  0
LINE
  5
29E
330
1F
100
AcDbEntity
  8
0
  6
Continuous
 62
     7
100
AcDbLine
 10
6583.3878055865
 20
4752.789835437
 30
0.0
 11
6583.7430492693
 21
4752.789835437
 31
0.0
  0
LINE
  5
29F
330
1F
100
AcDbEntity
  8
0
  6
Continuous
 62
     7
100
AcDbLine
 10
6583.7430492693
 20
4773.1898305852
 30
0.0
 11
6583.3878055865
 21
4773.1898305852
 31
0.0
  0
LINE
  5
2A0
330
1F
100
AcDbEntity
  8
0
  6
Continuous
 62
     7
100
AcDbLine
 10
6572.2247720415
 20
4772.3268000323
 30
0.0
 11
6571.3878036195
 21
4771.4898316104
 31
0.0
  0
LINE
  5
2A1
330
1F
100
AcDbEntity
  8
0
  6
Continuous
 62
     7
100
AcDbLine
 10
6572.2007513696
 20
4753.676890387
 30
0.0
 11
6572.8186205679
 21
4753.0590174634
 31
0.0
  0
LINE
  5
2A2
330
1F
100
AcDbEntity
  8
0
  6
Continuous
 62
     7
100
AcDbLine
 10
6571.3878036195
 20
4754.4898344118
 30
0.0
 11
6571.8302563483
 21
4754.0473854083
 31
0.0
  0
LINE
  5
2A3
330
1F
100
AcDbEntity
  8
0
  6
Continuous
 62
     7
100
AcDbLine
 10
6573.4522328431
 20
4754.0473854083
 30
0.0
 11
6573.940692907
 21
4754.0473854083
 31
0.0
  0
LINE
  5
2A4
330
1F
100
AcDbEntity
  8
0
  6
Continuous
 62
     7
100
AcDbLine
 10
6575.4060730988
 20
4754.0473854083
 30
0.0
 11
6575.8945406133
 21
4754.0473854083
 31
0.0
  0
LINE
  5
2A5
330
1F
100
AcDbEntity
  8
0
  6
Continuous
 62
     7
100
AcDbLine
 10
6577.3599208051
 20
4754.0473854083
 30
0.0
 11
6577.8483808691
 21
4754.0473854083
 31
0.0
  0
LINE
  5
2A6
330
1F
100
AcDbEntity
  8
0
  6
Continuous
 62
     7
100
AcDbLine
 10
6579.3137685114
 20
4754.0473854083
 30
0.0
 11
6579.8022285754
 21
4754.0473854083
 31
0.0
  0
LINE
  5
2A7
330
1F
100
AcDbEntity
  8
0
  6
Continuous
 62
     7
100
AcDbLine
 10
6581.2676162178
 20
4754.0473854083
 30
0.0
 11
6581.7560762817
 21
4754.0473854083
 31
0.0
  0
LINE
  5
2A8
330
1F
100
AcDbEntity
  8
0
  6
Continuous
 62
     7
100
AcDbLine
 10
6575.4060730988
 20
4754.0473854083
 30
0.0
 11
6575.8945406133
 21
4754.0473854083
 31
0.0
  0
LINE
  5
2A9
330
1F
100
AcDbEntity
  8
0
  6
Continuous
 62
     7
100
AcDbLine
 10
6577.3599208051
 20
4754.0473854083
 30
0.0
 11
6577.8483808691
 21
4754.0473854083
 31
0.0
  0
LINE
  5
2AA
330
1F
100
AcDbEntity
  8
0
  6
Continuous
 62
     7
100
AcDbLine
 10
6579.3137685114
 20
4754.0473854083
 30
0.0
 11
6579.8022285754
 21
4754.0473854083
 31
0.0
  0
LINE
  5
2AB
330
1F
100
AcDbEntity
  8
0
  6
Continuous
 62
     7
100
AcDbLine
 10
6581.2676162178
 20
4754.0473854083
 30
0.0
 11
6581.7560762817
 21
4754.0473854083
 31
0.0
  0
LINE
  5
2AC
330
1F
100
AcDbEntity
  8
0
  6
Continuous
 62
     7
100
AcDbLine
 10
6574.9176130349
 20
4771.9322843391
 30
0.0
 11
6574.4380564148
 21
4771.9322843391
 31
0.0
  0
LINE
  5
2AD
330
1F
100
AcDbEntity
  8
0
  6
Continuous
 62
     7
100
AcDbLine
 10
6576.8714607412
 20
4771.9322843391
 30
0.0
 11
6576.3918966705
 21
4771.9322843391
 31
0.0
  0
LINE
  5
2AE
330
1F
100
AcDbEntity
  8
0
  6
Continuous
 62
     7
100
AcDbLine
 10
6578.8253084475
 20
4771.9322843391
 30
0.0
 11
6578.3457443768
 21
4771.9322843391
 31
0.0
  0
LINE
  5
2AF
330
1F
100
AcDbEntity
  8
0
  6
Continuous
 62
     7
100
AcDbLine
 10
6580.7791561538
 20
4771.9322843391
 30
0.0
 11
6580.2995920831
 21
4771.9322843391
 31
0.0
  0
LINE
  5
2B0
330
1F
100
AcDbEntity
  8
0
  6
Continuous
 62
     7
100
AcDbLine
 10
6572.9637653286
 20
4771.9322843391
 30
0.0
 11
6572.4842087084
 21
4771.9322843391
 31
0.0
  0
LINE
  5
2B1
330
1F
100
AcDbEntity
  8
0
  6
Continuous
 62
     7
100
AcDbLine
 10
6573.4522328431
 20
4754.0473854083
 30
0.0
 11
6573.940692907
 21
4754.0473854083
 31
0.0
  0
LINE
  5
2B2
330
1F
100
AcDbEntity
  8
0
  6
Continuous
 62
     7
100
AcDbLine
 10
6686.7430512512
 20
5634.2912120658
 30
0.0
 11
6692.1405321637
 21
5634.2912120658
 31
0.0
  0
LINE
  5
2B3
330
1F
100
AcDbEntity
  8
0
  6
Continuous
 62
     7
100
AcDbLine
 10
6709.3455702716
 20
5664.0912098724
 30
0.0
 11
6686.7430512512
 21
5664.0912098724
 31
0.0
  0
LINE
  5
2B4
330
1F
100
AcDbEntity
  8
0
  6
Continuous
 62
     7
100
AcDbLine
 10
6692.1405321637
 20
5634.2912120658
 30
0.0
 11
6696.8392734135
 21
5626.1527938682
 31
0.0
  0
LINE
  5
2B5
330
1F
100
AcDbEntity
  8
0
  6
Continuous
 62
     7
100
AcDbLine
 10
6722.646831041
 20
5641.0527629692
 30
0.0
 11
6709.3455702716
 21
5664.0912098724
 31
0.0
  0
LINE
  5
2B6
330
1F
100
AcDbEntity
  8
0
  6
Continuous
 62
     7
100
AcDbLine
 10
6697.0892720574
 20
5625.7197661239
 30
0.0
 11
6712.8392741734
 21
5598.4399719078
 31
0.0
  0
LINE
  5
2B7
330
1F
100
AcDbEntity
  8
0
  6
Continuous
 62
     7
100
AcDbLine
 10
6738.6468299383
 20
5613.3399410087
 30
0.0
 11
6722.8968315476
 21
5640.6197948295
 31
0.0
  0
LINE
  5
2B8
330
1F
100
AcDbEntity
  8
0
  6
Continuous
 62
     7
100
AcDbLine
 10
6684.7430518547
 20
5664.0912098724
 30
0.0
 11
6678.7430515697
 21
5664.0912098724
 31
0.0
  0
LINE
  5
2B9
330
1F
100
AcDbEntity
  8
0
  6
Continuous
 62
     7
100
AcDbLine
 10
6678.7430515697
 20
5634.2912120658
 30
0.0
 11
6684.7430518547
 21
5634.2912120658
 31
0.0
  0
LINE
  5
2BA
330
1F
100
AcDbEntity
  8
0
  6
Continuous
 62
     7
100
AcDbLine
 10
6698.5713229233
 20
5627.1527809936
 30
0.0
 11
6698.82132343
 21
5626.7197532493
 31
0.0
  0
LINE
  5
2BB
330
1F
100
AcDbEntity
  8
0
  6
Continuous
 62
     7
100
AcDbLine
 10
6721.1647801751
 20
5639.6197480995
 30
0.0
 11
6720.9147796685
 21
5640.0527758438
 31
0.0
  0
LINE
  5
2BC
330
1F
100
AcDbEntity
  8
0
  6
Continuous
 62
     7
100
AcDbLine
 10
6676.7430514747
 20
5638.7638254005
 30
0.0
 11
6676.7546438505
 21
5638.7839121658
 31
0.0
  0
LINE
  5
2BD
330
1F
100
AcDbEntity
  8
0
  6
Continuous
 62
     7
100
AcDbLine
 10
6686.7430512512
 20
5658.6912078697
 30
0.0
 11
6684.7430518547
 21
5658.6912078697
 31
0.0
  0
LINE
  5
2BE
330
1F
100
AcDbEntity
  8
0
  6
Continuous
 62
     7
100
AcDbLine
 10
6684.7430518547
 20
5639.6912140686
 30
0.0
 11
6686.7430512512
 21
5639.6912140686
 31
0.0
  0
LINE
  5
2BF
330
1F
100
AcDbEntity
  8
0
  6
Continuous
 62
     7
100
AcDbLine
 10
6677.2430514985
 20
5621.6912073928
 30
0.0
 11
6678.2430514878
 21
5621.6912073928
 31
0.0
  0
LINE
  5
2C0
330
1F
100
AcDbEntity
  8
0
  6
Continuous
 62
     7
100
AcDbLine
 10
6678.2430514878
 20
5676.6912145454
 30
0.0
 11
6677.2430514985
 21
5676.6912145454
 31
0.0
  0
LINE
  5
2C1
330
1F
100
AcDbEntity
  8
0
  6
Continuous
 62
     7
100
AcDbLine
 10
6722.5430519039
 20
4920.6358743745
 30
0.0
 11
6722.5526594276
 21
4920.6077558834
 31
0.0
  0
LINE
  5
2C2
330
1F
100
AcDbEntity
  8
0
  6
Continuous
 62
     7
100
AcDbLine
 10
6722.5526594276
 20
4920.6077558834
 30
0.0
 11
6722.5811131949
 21
4920.5807400781
 31
0.0
  0
LINE
  5
2C3
330
1F
100
AcDbEntity
  8
0
  6
Continuous
 62
     7
100
AcDbLine
 10
6722.5811131949
 20
4920.5807400781
 30
0.0
 11
6722.6273179704
 21
4920.5558253366
 31
0.0
  0
LINE
  5
2C4
330
1F
100
AcDbEntity
  8
0
  6
Continuous
 62
     7
100
AcDbLine
 10
6722.6273179704
 20
4920.5558253366
 30
0.0
 11
6722.6894967908
 21
4920.5339951355
 31
0.0
  0
LINE
  5
2C5
330
1F
100
AcDbEntity
  8
0
  6
Continuous
 62
     7
100
AcDbLine
 10
6722.6894967908
 20
4920.5339951355
 30
0.0
 11
6722.7652654702
 21
4920.5160839397
 31
0.0
  0
LINE
  5
2C6
330
1F
100
AcDbEntity
  8
0
  6
Continuous
 62
     7
100
AcDbLine
 10
6722.7652654702
 20
4920.5160839397
 30
0.0
 11
6722.8517108316
 21
4920.5027623016
 31
0.0
  0
LINE
  5
2C7
330
1F
100
AcDbEntity
  8
0
  6
Continuous
 62
     7
100
AcDbLine
 10
6722.8517108316
 20
4920.5027623016
 30
0.0
 11
6722.9455061907
 21
4920.4945666629
 31
0.0
  0
LINE
  5
2C8
330
1F
100
AcDbEntity
  8
0
  6
Continuous
 62
     7
100
AcDbLine
 10
6722.9455061907
 20
4920.4945666629
 30
0.0
 11
6723.0430529172
 21
4920.491795047
 31
0.0
  0
LINE
  5
2C9
330
1F
100
AcDbEntity
  8
0
  6
Continuous
 62
     7
100
AcDbLine
 10
6723.0430529172
 20
4920.491795047
 30
0.0
 11
6723.0430529172
 21
4915.9678025085
 31
0.0
  0
LINE
  5
2CA
330
1F
100
AcDbEntity
  8
0
  6
Continuous
 62
     7
100
AcDbLine
 10
6719.5430532748
 20
4932.1983111936
 30
0.0
 11
6725.7430501932
 21
4932.1983111936
 31
0.0
  0
LINE
  5
2CB
330
1F
100
AcDbEntity
  8
0
  6
Continuous
 62
     7
100
AcDbLine
 10
6725.7430501932
 20
4915.9678025085
 30
0.0
 11
6725.7430501932
 21
4932.1983111936
 31
0.0
  0
LINE
  5
2CC
330
1F
100
AcDbEntity
  8
0
  6
Continuous
 62
     7
100
AcDbLine
 10
6723.0430529172
 20
4915.9678025085
 30
0.0
 11
6725.7430501932
 21
4915.9678025085
 31
0.0
  0
LINE
  5
2CD
330
1F
100
AcDbEntity
  8
0
  6
Continuous
 62
     7
100
AcDbLine
 10
6727.743050521
 20
4956.089834674
 30
0.0
 11
6727.743050521
 21
4932.7745838005
 31
0.0
  0
LINE
  5
2CE
330
1F
100
AcDbEntity
  8
0
  6
Continuous
 62
     7
100
AcDbLine
 10
6725.7430501932
 20
4932.1983111936
 30
0.0
 11
6726.1332333738
 21
4932.2093827564
 31
0.0
  0
LINE
  5
2CF
330
1F
100
AcDbEntity
  8
0
  6
Continuous
 62
     7
100
AcDbLine
 10
6726.1332333738
 20
4932.2093827564
 30
0.0
 11
6726.5084185356
 21
4932.2421802122
 31
0.0
  0
LINE
  5
2D0
330
1F
100
AcDbEntity
  8
0
  6
Continuous
 62
     7
100
AcDbLine
 10
6726.5084185356
 20
4932.2421802122
 30
0.0
 11
6726.8541925305
 21
4932.2954220611
 31
0.0
  0
LINE
  5
2D1
330
1F
100
AcDbEntity
  8
0
  6
Continuous
 62
     7
100
AcDbLine
 10
6726.8541925305
 20
4932.2954220611
 30
0.0
 11
6727.1572635228
 21
4932.3670966465
 31
0.0
  0
LINE
  5
2D2
330
1F
100
AcDbEntity
  8
0
  6
Continuous
 62
     7
100
AcDbLine
 10
6727.1572635228
 20
4932.3670966465
 30
0.0
 11
6727.4059899801
 21
4932.4544174511
 31
0.0
  0
LINE
  5
2D3
330
1F
100
AcDbEntity
  8
0
  6
Continuous
 62
     7
100
AcDbLine
 10
6727.4059899801
 20
4932.4544174511
 30
0.0
 11
6727.5908090824
 21
4932.5540466148
 31
0.0
  0
LINE
  5
2D4
330
1F
100
AcDbEntity
  8
0
  6
Continuous
 62
     7
100
AcDbLine
 10
6727.5908090824
 20
4932.5540466148
 30
0.0
 11
6727.7046204263
 21
4932.6621545393
 31
0.0
  0
LINE
  5
2D5
330
1F
100
AcDbEntity
  8
0
  6
Continuous
 62
     7
100
AcDbLine
 10
6727.7046204263
 20
4932.6621545393
 30
0.0
 11
6727.743050521
 21
4932.7745838005
 31
0.0
  0
LINE
  5
2D6
330
1F
100
AcDbEntity
  8
0
  6
Continuous
 62
     7
100
AcDbLine
 10
6727.743050521
 20
4932.7745838005
 30
0.0
 11
6727.743050521
 21
4916.5440751154
 31
0.0
  0
LINE
  5
2D7
330
1F
100
AcDbEntity
  8
0
  6
Continuous
 62
     7
100
AcDbLine
 10
6727.743050521
 20
4916.5440751154
 30
0.0
 11
6727.7046204263
 21
4916.4316458541
 31
0.0
  0
LINE
  5
2D8
330
1F
100
AcDbEntity
  8
0
  6
Continuous
 62
     7
100
AcDbLine
 10
6727.7046204263
 20
4916.4316458541
 30
0.0
 11
6727.5908090824
 21
4916.3235379297
 31
0.0
  0
LINE
  5
2D9
330
1F
100
AcDbEntity
  8
0
  6
Continuous
 62
     7
100
AcDbLine
 10
6727.5908090824
 20
4916.3235379297
 30
0.0
 11
6727.4059899801
 21
4916.2239087659
 31
0.0
  0
LINE
  5
2DA
330
1F
100
AcDbEntity
  8
0
  6
Continuous
 62
     7
100
AcDbLine
 10
6727.4059899801
 20
4916.2239087659
 30
0.0
 11
6727.1572635228
 21
4916.1365879613
 31
0.0
  0
LINE
  5
2DB
330
1F
100
AcDbEntity
  8
0
  6
Continuous
 62
     7
100
AcDbLine
 10
6727.1572635228
 20
4916.1365879613
 30
0.0
 11
6726.8541925305
 21
4916.064913376
 31
0.0
  0
LINE
  5
2DC
330
1F
100
AcDbEntity
  8
0
  6
Continuous
 62
     7
100
AcDbLine
 10
6726.8541925305
 20
4916.064913376
 30
0.0
 11
6726.5084185356
 21
4916.0116715271
 31
0.0
  0
LINE
  5
2DD
330
1F
100
AcDbEntity
  8
0
  6
Continuous
 62
     7
100
AcDbLine
 10
6726.5084185356
 20
4916.0116715271
 30
0.0
 11
6726.1332333738
 21
4915.9788740713
 31
0.0
  0
LINE
  5
2DE
330
1F
100
AcDbEntity
  8
0
  6
Continuous
 62
     7
100
AcDbLine
 10
6726.1332333738
 20
4915.9788740713
 30
0.0
 11
6725.7430501932
 21
4915.9678025085
 31
0.0
  0
LINE
  5
2DF
330
1F
100
AcDbEntity
  8
0
  6
Continuous
 62
     7
100
AcDbLine
 10
6722.5430519039
 20
4916.1118669349
 30
0.0
 11
6722.5430519039
 21
4920.6358743745
 31
0.0
  0
LINE
  5
2E0
330
1F
100
AcDbEntity
  8
0
  6
Continuous
 62
     7
100
AcDbLine
 10
6722.5430519039
 20
4916.1118669349
 30
0.0
 11
6722.5526594276
 21
4916.0837633449
 31
0.0
  0
LINE
  5
2E1
330
1F
100
AcDbEntity
  8
0
  6
Continuous
 62
     7
100
AcDbLine
 10
6722.5526594276
 20
4916.0837633449
 30
0.0
 11
6722.5811131949
 21
4916.0567326385
 31
0.0
  0
LINE
  5
2E2
330
1F
100
AcDbEntity
  8
0
  6
Continuous
 62
     7
100
AcDbLine
 10
6722.5811131949
 20
4916.0567326385
 30
0.0
 11
6722.6273179704
 21
4916.0318327982
 31
0.0
  0
LINE
  5
2E3
330
1F
100
AcDbEntity
  8
0
  6
Continuous
 62
     7
100
AcDbLine
 10
6722.6273179704
 20
4916.0318327982
 30
0.0
 11
6722.6894967908
 21
4916.010002597
 31
0.0
  0
LINE
  5
2E4
330
1F
100
AcDbEntity
  8
0
  6
Continuous
 62
     7
100
AcDbLine
 10
6722.6894967908
 20
4916.010002597
 30
0.0
 11
6722.7652654702
 21
4915.9920765001
 31
0.0
  0
LINE
  5
2E5
330
1F
100
AcDbEntity
  8
0
  6
Continuous
 62
     7
100
AcDbLine
 10
6722.7652654702
 20
4915.9920765001
 30
0.0
 11
6722.8517108316
 21
4915.9787697631
 31
0.0
  0
LINE
  5
2E6
330
1F
100
AcDbEntity
  8
0
  6
Continuous
 62
     7
100
AcDbLine
 10
6722.8517108316
 20
4915.9787697631
 30
0.0
 11
6722.9455061907
 21
4915.9705741245
 31
0.0
  0
LINE
  5
2E7
330
1F
100
AcDbEntity
  8
0
  6
Continuous
 62
     7
100
AcDbLine
 10
6722.9455061907
 20
4915.9705741245
 30
0.0
 11
6723.0430529172
 21
4915.9678025085
 31
0.0
  0
LINE
  5
2E8
330
1F
100
AcDbEntity
  8
0
  6
Continuous
 62
     7
100
AcDbLine
 10
6722.5430519039
 20
4905.7898325759
 30
0.0
 11
6722.5430519039
 21
4916.1118669349
 31
0.0
  0
LINE
  5
2E9
330
1F
100
AcDbEntity
  8
0
  6
Continuous
 62
     7
100
AcDbLine
 10
6727.743050521
 20
4916.5440751154
 30
0.0
 11
6727.743050521
 21
4907.2898281652
 31
0.0
  0
LINE
  5
2EA
330
1F
100
AcDbEntity
  8
0
  6
Continuous
 62
     7
100
AcDbLine
 10
6686.7430512512
 20
4961.9898302394
 30
0.0
 11
6686.7430512512
 21
4913.9898372728
 31
0.0
  0
LINE
  5
2EB
330
1F
100
AcDbEntity
  8
0
  6
Continuous
 62
     7
100
AcDbLine
 10
6320.07630371
 20
4457.5394838603
 30
0.0
 11
6320.07630371
 21
4457.0510237964
 31
0.0
  0
LINE
  5
2EC
330
1F
100
AcDbEntity
  8
0
  6
Continuous
 62
     7
100
AcDbLine
 10
6320.07630371
 20
4463.4010269793
 30
0.0
 11
6320.07630371
 21
4462.9125594648
 31
0.0
  0
LINE
  5
2ED
330
1F
100
AcDbEntity
  8
0
  6
Continuous
 62
     7
100
AcDbLine
 10
6320.07630371
 20
4461.447179273
 30
0.0
 11
6320.07630371
 21
4460.958719209
 31
0.0
  0
LINE
  5
2EE
330
1F
100
AcDbEntity
  8
0
  6
Continuous
 62
     7
100
AcDbLine
 10
6320.07630371
 20
4459.4933315667
 30
0.0
 11
6320.07630371
 21
4459.0048715027
 31
0.0
  0
LINE
  5
2EF
330
1F
100
AcDbEntity
  8
0
  6
Continuous
 62
     7
100
AcDbLine
 10
6320.07630371
 20
4457.5394838603
 30
0.0
 11
6320.07630371
 21
4457.0510237964
 31
0.0
  0
LINE
  5
2F0
330
1F
100
AcDbEntity
  8
0
  6
Continuous
 62
     7
100
AcDbLine
 10
6337.9612026408
 20
4463.8894870432
 30
0.0
 11
6337.9612026408
 21
4464.3690436633
 31
0.0
  0
LINE
  5
2F1
330
1F
100
AcDbEntity
  8
0
  6
Continuous
 62
     7
100
AcDbLine
 10
6337.9612026408
 20
4461.9356393369
 30
0.0
 11
6337.9612026408
 21
4462.4152034076
 31
0.0
  0
LINE
  5
2F2
330
1F
100
AcDbEntity
  8
0
  6
Continuous
 62
     7
100
AcDbLine
 10
6337.9612026408
 20
4459.9817916306
 30
0.0
 11
6337.9612026408
 21
4460.4613557013
 31
0.0
  0
LINE
  5
2F3
330
1F
100
AcDbEntity
  8
0
  6
Continuous
 62
     7
100
AcDbLine
 10
6337.9612026408
 20
4458.0279439243
 30
0.0
 11
6337.9612026408
 21
4458.507507995
 31
0.0
  0
LINE
  5
2F4
330
1F
100
AcDbEntity
  8
0
  6
Continuous
 62
     7
100
AcDbLine
 10
6660.7430507148
 20
4688.4898338381
 30
0.0
 11
6666.7430516982
 21
4688.4898338381
 31
0.0
  0
LINE
  5
2F5
330
1F
100
AcDbEntity
  8
0
  6
Continuous
 62
     7
100
AcDbLine
 10
6595.7430512363
 20
4688.4898338381
 30
0.0
 11
6601.7430484945
 21
4688.4898338381
 31
0.0
  0
LINE
  5
2F6
330
1F
100
AcDbEntity
  8
0
  6
Continuous
 62
     7
100
AcDbLine
 10
6337.9612026408
 20
4465.8433347495
 30
0.0
 11
6337.9612026408
 21
4466.3228913697
 31
0.0
  0
LINE
  5
2F7
330
1F
100
AcDbEntity
  8
0
  6
Continuous
 62
     7
100
AcDbLine
 10
6320.07630371
 20
4465.354867235
 30
0.0
 11
6320.07630371
 21
4464.8664071711
 31
0.0
  0
LINE
  5
2F8
330
1F
100
AcDbEntity
  8
0
  6
Continuous
 62
     7
100
AcDbLine
 10
6329.0187550381
 20
4455.4192944916
 30
0.0
 11
6339.2187488869
 21
4455.4192944916
 31
0.0
  0
LINE
  5
2F9
330
1F
100
AcDbEntity
  8
0
  6
Continuous
 62
     7
100
AcDbLine
 10
6318.8187537387
 20
4455.4192944916
 30
0.0
 11
6329.0187550381
 21
4455.4192944916
 31
0.0
  0
LINE
  5
2FA
330
1F
100
AcDbEntity
  8
0
  6
Continuous
 62
     7
100
AcDbLine
 10
6319.7058086887
 20
4466.6063487085
 30
0.0
 11
6320.07630371
 21
4466.9768437298
 31
0.0
  0
LINE
  5
2FB
330
1F
100
AcDbEntity
  8
0
  6
Continuous
 62
     7
100
AcDbLine
 10
6320.5187527135
 20
4467.4192964586
 30
0.0
 11
6337.5187499121
 21
4467.4192964586
 31
0.0
  0
LINE
  5
2FC
330
1F
100
AcDbEntity
  8
0
  6
Continuous
 62
     7
100
AcDbLine
 10
6227.9455197647
 20
4466.3138165625
 30
0.0
 11
6228.2956001952
 21
4466.5162711891
 31
0.0
  0
LINE
  5
2FD
330
1F
100
AcDbEntity
  8
0
  6
Continuous
 62
     7
100
AcDbLine
 10
6209.0187614455
 20
4456.4406945856
 30
0.0
 11
6209.0187614455
 21
4455.4192944916
 31
0.0
  0
LINE
  5
2FE
330
1F
100
AcDbEntity
  8
0
  6
Continuous
 62
     7
100
AcDbLine
 10
6209.0187614455
 20
4458.3945348414
 30
0.0
 11
6209.0187614455
 21
4458.1501110943
 31
0.0
  0
LINE
  5
2FF
330
1F
100
AcDbEntity
  8
0
  6
Continuous
 62
     7
100
AcDbLine
 10
6209.0187614455
 20
4460.3483825477
 30
0.0
 11
6209.0187614455
 21
4460.1039588006
 31
0.0
  0
LINE
  5
300
330
1F
100
AcDbEntity
  8
0
  6
Continuous
 62
     7
100
AcDbLine
 10
6209.0187614455
 20
4462.302230254
 30
0.0
 11
6209.0187614455
 21
4462.057806507
 31
0.0
  0
LINE
  5
301
330
1F
100
AcDbEntity
  8
0
  6
Continuous
 62
     7
100
AcDbLine
 10
6209.0187614455
 20
4464.2560779603
 30
0.0
 11
6209.0187614455
 21
4464.0116542133
 31
0.0
  0
LINE
  5
302
330
1F
100
AcDbEntity
  8
0
  6
Continuous
 62
     7
100
AcDbLine
 10
6229.0187609985
 20
4464.9883061202
 30
0.0
 11
6229.0187609985
 21
4465.2326032074
 31
0.0
  0
LINE
  5
303
330
1F
100
AcDbEntity
  8
0
  6
Continuous
 62
     7
100
AcDbLine
 10
6229.0187609985
 20
4463.0344584139
 30
0.0
 11
6229.0187609985
 21
4463.2787629517
 31
0.0
  0
LINE
  5
304
330
1F
100
AcDbEntity
  8
0
  6
Continuous
 62
     7
100
AcDbLine
 10
6229.0187609985
 20
4461.0806107076
 30
0.0
 11
6229.0187609985
 21
4461.3249152454
 31
0.0
  0
LINE
  5
305
330
1F
100
AcDbEntity
  8
0
  6
Continuous
 62
     7
100
AcDbLine
 10
6229.0187609985
 20
4459.1267704519
 30
0.0
 11
6229.0187609985
 21
4459.3710675391
 31
0.0
  0
LINE
  5
306
330
1F
100
AcDbEntity
  8
0
  6
Continuous
 62
     7
100
AcDbLine
 10
6229.0187609985
 20
4455.4192944916
 30
0.0
 11
6229.0187609985
 21
4457.4172198327
 31
0.0
  0
LINE
  5
307
330
1F
100
AcDbEntity
  8
0
  6
Continuous
 62
     7
100
AcDbLine
 10
6208.8187617853
 20
4455.4192944916
 30
0.0
 11
6208.8187617853
 21
4455.0640508088
 31
0.0
  0
LINE
  5
308
330
1F
100
AcDbEntity
  8
0
  6
Continuous
 62
     7
100
AcDbLine
 10
6229.2187569335
 20
4455.0640508088
 30
0.0
 11
6229.2187569335
 21
4455.4192944916
 31
0.0
  0
LINE
  5
309
330
1F
100
AcDbEntity
  8
0
  6
Continuous
 62
     7
100
AcDbLine
 10
6228.3557263806
 20
4466.5823280366
 30
0.0
 11
6227.5187579587
 21
4467.4192964586
 31
0.0
  0
LINE
  5
30A
330
1F
100
AcDbEntity
  8
0
  6
Continuous
 62
     7
100
AcDbLine
 10
6209.7058167353
 20
4466.6063487085
 30
0.0
 11
6209.0879438117
 21
4465.9884795102
 31
0.0
  0
LINE
  5
30B
330
1F
100
AcDbEntity
  8
0
  6
Continuous
 62
     7
100
AcDbLine
 10
6210.5187607601
 20
4467.4192964586
 30
0.0
 11
6210.0763117566
 21
4466.9768437298
 31
0.0
  0
LINE
  5
30C
330
1F
100
AcDbEntity
  8
0
  6
Continuous
 62
     7
100
AcDbLine
 10
6210.0763117566
 20
4465.354867235
 30
0.0
 11
6210.0763117566
 21
4464.8664071711
 31
0.0
  0
LINE
  5
30D
330
1F
100
AcDbEntity
  8
0
  6
Continuous
 62
     7
100
AcDbLine
 10
6210.0763117566
 20
4463.4010269793
 30
0.0
 11
6210.0763117566
 21
4462.9125594648
 31
0.0
  0
LINE
  5
30E
330
1F
100
AcDbEntity
  8
0
  6
Continuous
 62
     7
100
AcDbLine
 10
6210.0763117566
 20
4461.447179273
 30
0.0
 11
6210.0763117566
 21
4460.958719209
 31
0.0
  0
LINE
  5
30F
330
1F
100
AcDbEntity
  8
0
  6
Continuous
 62
     7
100
AcDbLine
 10
6210.0763117566
 20
4459.4933315667
 30
0.0
 11
6210.0763117566
 21
4459.0048715027
 31
0.0
  0
LINE
  5
310
330
1F
100
AcDbEntity
  8
0
  6
Continuous
 62
     7
100
AcDbLine
 10
6210.0763117566
 20
4457.5394838603
 30
0.0
 11
6210.0763117566
 21
4457.0510237964
 31
0.0
  0
LINE
  5
311
330
1F
100
AcDbEntity
  8
0
  6
Continuous
 62
     7
100
AcDbLine
 10
6210.0763117566
 20
4463.4010269793
 30
0.0
 11
6210.0763117566
 21
4462.9125594648
 31
0.0
  0
LINE
  5
312
330
1F
100
AcDbEntity
  8
0
  6
Continuous
 62
     7
100
AcDbLine
 10
6210.0763117566
 20
4461.447179273
 30
0.0
 11
6210.0763117566
 21
4460.958719209
 31
0.0
  0
LINE
  5
313
330
1F
100
AcDbEntity
  8
0
  6
Continuous
 62
     7
100
AcDbLine
 10
6210.0763117566
 20
4459.4933315667
 30
0.0
 11
6210.0763117566
 21
4459.0048715027
 31
0.0
  0
LINE
  5
314
330
1F
100
AcDbEntity
  8
0
  6
Continuous
 62
     7
100
AcDbLine
 10
6210.0763117566
 20
4457.5394838603
 30
0.0
 11
6210.0763117566
 21
4457.0510237964
 31
0.0
  0
LINE
  5
315
330
1F
100
AcDbEntity
  8
0
  6
Continuous
 62
     7
100
AcDbLine
 10
6227.9612106874
 20
4463.8894870432
 30
0.0
 11
6227.9612106874
 21
4464.3690436633
 31
0.0
  0
LINE
  5
316
330
1F
100
AcDbEntity
  8
0
  6
Continuous
 62
     7
100
AcDbLine
 10
6227.9612106874
 20
4461.9356393369
 30
0.0
 11
6227.9612106874
 21
4462.4152034076
 31
0.0
  0
LINE
  5
317
330
1F
100
AcDbEntity
  8
0
  6
Continuous
 62
     7
100
AcDbLine
 10
6227.9612106874
 20
4459.9817916306
 30
0.0
 11
6227.9612106874
 21
4460.4613557013
 31
0.0
  0
LINE
  5
318
330
1F
100
AcDbEntity
  8
0
  6
Continuous
 62
     7
100
AcDbLine
 10
6227.9612106874
 20
4458.0279439243
 30
0.0
 11
6227.9612106874
 21
4458.507507995
 31
0.0
  0
LINE
  5
319
330
1F
100
AcDbEntity
  8
0
  6
Continuous
 62
     7
100
AcDbLine
 10
6227.9612106874
 20
4465.8433347495
 30
0.0
 11
6227.9612106874
 21
4466.3228913697
 31
0.0
  0
LINE
  5
31A
330
1F
100
AcDbEntity
  8
0
  6
Continuous
 62
     7
100
AcDbLine
 10
6210.0763117566
 20
4465.354867235
 30
0.0
 11
6210.0763117566
 21
4464.8664071711
 31
0.0
  0
LINE
  5
31B
330
1F
100
AcDbEntity
  8
0
  6
Continuous
 62
     7
100
AcDbLine
 10
6219.0187630847
 20
4455.4192944916
 30
0.0
 11
6229.2187569335
 21
4455.4192944916
 31
0.0
  0
LINE
  5
31C
330
1F
100
AcDbEntity
  8
0
  6
Continuous
 62
     7
100
AcDbLine
 10
6208.8187617853
 20
4455.4192944916
 30
0.0
 11
6219.0187630847
 21
4455.4192944916
 31
0.0
  0
LINE
  5
31D
330
1F
100
AcDbEntity
  8
0
  6
Continuous
 62
     7
100
AcDbLine
 10
6209.7058167353
 20
4466.6063487085
 30
0.0
 11
6210.0763117566
 21
4466.9768437298
 31
0.0
  0
LINE
  5
31E
330
1F
100
AcDbEntity
  8
0
  6
Continuous
 62
     7
100
AcDbLine
 10
6210.5187607601
 20
4467.4192964586
 30
0.0
 11
6227.5187579587
 21
4467.4192964586
 31
0.0
  0
LINE
  5
31F
330
1F
100
AcDbEntity
  8
0
  6
Continuous
 62
     7
100
AcDbLine
 10
6585.2430523092
 20
5737.4003929931
 30
0.0
 11
6585.2430523092
 21
5738.0755944091
 31
0.0
  0
LINE
  5
320
330
1F
100
AcDbEntity
  8
0
  6
Continuous
 62
     7
100
AcDbLine
 10
6585.5722413117
 20
5738.0755944091
 30
0.0
 11
6585.2430523092
 21
5738.0755944091
 31
0.0
  0
LINE
  5
321
330
1F
100
AcDbEntity
  8
0
  6
Continuous
 62
     7
100
AcDbLine
 10
6587.2430489117
 20
5736.797193988
 30
0.0
 11
6587.2430489117
 21
5737.3716635543
 31
0.0
  0
LINE
  5
322
330
1F
100
AcDbEntity
  8
0
  6
Continuous
 62
     7
100
AcDbLine
 10
6585.7430533225
 20
4693.9898336919
 30
0.0
 11
6583.7430492693
 21
4693.9898336919
 31
0.0
  0
LINE
  5
323
330
1F
100
AcDbEntity
  8
0
  6
Continuous
 62
     7
100
AcDbLine
 10
6583.7430492693
 20
4693.9898336919
 30
0.0
 11
6583.7430492693
 21
4694.5898337204
 31
0.0
  0
LINE
  5
324
330
1F
100
AcDbEntity
  8
0
  6
Continuous
 62
     7
100
AcDbLine
 10
6586.7430478984
 20
4692.9898337608
 30
0.0
 11
6586.7430478984
 21
4690.9898337822
 31
0.0
  0
LINE
  5
325
330
1F
100
AcDbEntity
  8
0
  6
Continuous
 62
     7
100
AcDbLine
 10
6597.3188862855
 20
4690.9898337822
 30
0.0
 11
6597.3188862855
 21
4692.9898337608
 31
0.0
  0
LINE
  5
326
330
1F
100
AcDbEntity
  8
0
  6
Continuous
 62
     7
100
AcDbLine
 10
6586.7430478984
 20
4690.9898337822
 30
0.0
 11
6597.3188862855
 21
4690.9898337822
 31
0.0
  0
LINE
  5
327
330
1F
100
AcDbEntity
  8
0
  6
Continuous
 62
     7
100
AcDbLine
 10
6600.0540018732
 20
4692.9898337608
 30
0.0
 11
6600.0540018732
 21
4690.9898337822
 31
0.0
  0
LINE
  5
328
330
1F
100
AcDbEntity
  8
0
  6
Continuous
 62
     7
100
AcDbLine
 10
6600.0540018732
 20
4690.9898337822
 30
0.0
 11
6597.3188862855
 21
4690.9898337822
 31
0.0
  0
LINE
  5
329
330
1F
100
AcDbEntity
  8
0
  6
Continuous
 62
     7
100
AcDbLine
 10
6667.4781697521
 20
4690.9898337822
 30
0.0
 11
6667.4781697521
 21
4692.9898337608
 31
0.0
  0
LINE
  5
32A
330
1F
100
AcDbEntity
  8
0
  6
Continuous
 62
     7
100
AcDbLine
 10
6600.0540018732
 20
4690.9898337822
 30
0.0
 11
6667.4781697521
 21
4690.9898337822
 31
0.0
  0
LINE
  5
32B
330
1F
100
AcDbEntity
  8
0
  6
Continuous
 62
     7
100
AcDbLine
 10
6671.7430515865
 20
4692.9898337608
 30
0.0
 11
6671.7430515865
 21
4690.9898337822
 31
0.0
  0
LINE
  5
32C
330
1F
100
AcDbEntity
  8
0
  6
Continuous
 62
     7
100
AcDbLine
 10
6671.7430515865
 20
4690.9898337822
 30
0.0
 11
6667.4781697521
 21
4690.9898337822
 31
0.0
  0
LINE
  5
32D
330
1F
100
AcDbEntity
  8
0
  6
Continuous
 62
     7
100
AcDbLine
 10
6583.3878055865
 20
4762.9898367364
 30
0.0
 11
6583.3878055865
 21
4773.1898305852
 31
0.0
  0
LINE
  5
32E
330
1F
100
AcDbEntity
  8
0
  6
Continuous
 62
     7
100
AcDbLine
 10
6583.3878055865
 20
4752.789835437
 30
0.0
 11
6583.3878055865
 21
4762.9898367364
 31
0.0
  0
LINE
  5
32F
330
1F
100
AcDbEntity
  8
0
  6
Continuous
 62
     7
100
AcDbLine
 10
6572.2007513696
 20
4753.676890387
 30
0.0
 11
6571.8302563483
 21
4754.0473854083
 31
0.0
  0
LINE
  5
330
330
1F
100
AcDbEntity
  8
0
  6
Continuous
 62
     7
100
AcDbLine
 10
6571.3878036195
 20
4754.4898344118
 30
0.0
 11
6571.3878036195
 21
4771.4898316104
 31
0.0
  0
LINE
  5
331
330
1F
100
AcDbEntity
  8
0
  6
Continuous
 62
     7
100
AcDbLine
 10
6676.8430514722
 20
4722.9898339051
 30
0.0
 11
6676.7430514747
 21
4722.9898339051
 31
0.0
  0
LINE
  5
332
330
1F
100
AcDbEntity
  8
0
  6
Continuous
 62
     7
100
AcDbLine
 10
6676.8430514722
 20
4722.9898339051
 30
0.0
 11
6676.8430514722
 21
4702.9898334208
 31
0.0
  0
LINE
  5
333
330
1F
100
AcDbEntity
  8
0
  6
Continuous
 62
     7
100
AcDbLine
 10
6676.8430514722
 20
4702.9898334208
 30
0.0
 11
6676.7430514747
 21
4702.9898334208
 31
0.0
  0
LINE
  5
334
330
1F
100
AcDbEntity
  8
0
  6
Continuous
 62
     7
100
AcDbLine
 10
6676.8930514818
 20
4718.0120078761
 30
0.0
 11
6676.8430514722
 21
4718.0120078761
 31
0.0
  0
LINE
  5
335
330
1F
100
AcDbEntity
  8
0
  6
Continuous
 62
     7
100
AcDbLine
 10
6676.8930514818
 20
4708.0120080996
 30
0.0
 11
6676.8930514818
 21
4718.0120078761
 31
0.0
  0
LINE
  5
336
330
1F
100
AcDbEntity
  8
0
  6
Continuous
 62
     7
100
AcDbLine
 10
6676.8930514818
 20
4708.0120080996
 30
0.0
 11
6676.8430514722
 21
4708.0120080996
 31
0.0
  0
LINE
  5
337
330
1F
100
AcDbEntity
  8
0
  6
Continuous
 62
     7
100
AcDbLine
 10
6676.8930514818
 20
4707.8838031653
 30
0.0
 11
6676.8430514722
 21
4707.8838031653
 31
0.0
  0
LINE
  5
338
330
1F
100
AcDbEntity
  8
0
  6
Continuous
 62
     7
100
AcDbLine
 10
6676.8930514818
 20
4707.4991874311
 30
0.0
 11
6676.8430514722
 21
4707.4991874311
 31
0.0
  0
LINE
  5
339
330
1F
100
AcDbEntity
  8
0
  6
Continuous
 62
     7
100
AcDbLine
 10
6676.8930514818
 20
4705.1914948884
 30
0.0
 11
6676.8430514722
 21
4705.1914948884
 31
0.0
  0
LINE
  5
33A
330
1F
100
AcDbEntity
  8
0
  6
Continuous
 62
     7
100
AcDbLine
 10
6585.9682247693
 20
4694.5898337204
 30
0.0
 11
6585.9682247693
 21
5737.3384041626
 31
0.0
  0
LINE
  5
33B
330
1F
100
AcDbEntity
  8
0
  6
Continuous
 62
     7
100
AcDbLine
 10
6585.9682247693
 20
4694.5898337204
 30
0.0
 11
6583.7430492693
 21
4694.5898337204
 31
0.0
  0
LINE
  5
33C
330
1F
100
AcDbEntity
  8
0
  6
Continuous
 62
     7
100
AcDbLine
 10
6583.7430492693
 20
4694.5898337204
 30
0.0
 11
6583.7430492693
 21
5736.6019291717
 31
0.0
  0
LINE
  5
33D
330
1F
100
AcDbEntity
  8
0
  6
Continuous
 62
     7
100
AcDbLine
 10
6675.7682212929
 20
4694.5898337204
 30
0.0
 11
6675.7682212929
 21
5699.220518573
 31
0.0
  0
LINE
  5
33E
330
1F
100
AcDbEntity
  8
0
  6
Continuous
 62
     7
100
AcDbLine
 10
6585.9682247693
 20
4694.5898337204
 30
0.0
 11
6675.7682212929
 21
4694.5898337204
 31
0.0
  0
LINE
  5
33F
330
1F
100
AcDbEntity
  8
0
  6
Continuous
 62
     7
100
AcDbLine
 10
6675.7682212929
 20
5699.220518573
 30
0.0
 11
6585.9682247693
 21
5737.3384041626
 31
0.0
  0
LINE
  5
340
330
1F
100
AcDbEntity
  8
0
  6
Continuous
 62
     7
100
AcDbLine
 10
6585.6556356603
 20
4692.9898337608
 30
0.0
 11
6674.6556362787
 21
4692.9898337608
 31
0.0
  0
LINE
  5
341
330
1F
100
AcDbEntity
  8
0
  6
Continuous
 62
     7
100
AcDbLine
 10
6585.6556356603
 20
4693.7898337406
 30
0.0
 11
6585.6556356603
 21
4692.9898337608
 31
0.0
  0
LINE
  5
342
330
1F
100
AcDbEntity
  8
0
  6
Continuous
 62
     7
100
AcDbLine
 10
6583.7430492693
 20
5737.3090786773
 30
0.0
 11
6584.5430479104
 21
5737.3090786773
 31
0.0
  0
LINE
  5
343
330
1F
100
AcDbEntity
  8
0
  6
Continuous
 62
     7
100
AcDbLine
 10
6585.9682247693
 20
5738.7819094497
 30
0.0
 11
6585.6556356603
 21
5738.0454344589
 31
0.0
  0
LINE
  5
344
330
1F
100
AcDbEntity
  8
0
  6
Continuous
 62
     7
100
AcDbLine
 10
6585.6556356603
 20
5738.0454344589
 30
0.0
 11
6675.4556364331
 21
5699.9276680786
 31
0.0
  0
LINE
  5
345
330
1F
100
AcDbEntity
  8
0
  6
Continuous
 62
     7
100
AcDbLine
 10
6585.9682247693
 20
5738.7819094497
 30
0.0
 11
6675.7682212929
 21
5700.6640238601
 31
0.0
  0
LINE
  5
346
330
1F
100
AcDbEntity
  8
0
  6
Continuous
 62
     7
100
AcDbLine
 10
6675.7682212929
 20
5700.6640238601
 30
0.0
 11
6675.4556364331
 21
5699.9276680786
 31
0.0
  0
LINE
  5
347
330
1F
100
AcDbEntity
  8
0
  6
Continuous
 62
     7
100
AcDbLine
 10
6584.5430479104
 20
5737.3090786773
 30
0.0
 11
6584.5430479104
 21
5737.2947735626
 31
0.0
  0
LINE
  5
348
330
1F
100
AcDbEntity
  8
0
  6
Continuous
 62
     7
100
AcDbLine
 10
6583.7430492693
 20
5737.3090786773
 30
0.0
 11
6583.7430492693
 21
5736.6019291717
 31
0.0
  0
LINE
  5
349
330
1F
100
AcDbEntity
  8
0
  6
Continuous
 62
     7
100
AcDbLine
 10
6676.7430514747
 20
4694.5898337204
 30
0.0
 11
6676.7430514747
 21
5699.1911930877
 31
0.0
  0
LINE
  5
34A
330
1F
100
AcDbEntity
  8
0
  6
Continuous
 62
     7
100
AcDbLine
 10
6675.7682212929
 20
4694.5898337204
 30
0.0
 11
6676.7430514747
 21
4694.5898337204
 31
0.0
  0
LINE
  5
34B
330
1F
100
AcDbEntity
  8
0
  6
Continuous
 62
     7
100
AcDbLine
 10
6675.1430515151
 20
4693.2465685445
 30
0.0
 11
6675.1430515151
 21
4692.9898337608
 31
0.0
  0
LINE
  5
34C
330
1F
100
AcDbEntity
  8
0
  6
Continuous
 62
     7
100
AcDbLine
 10
6674.6556362787
 20
4692.9898337608
 30
0.0
 11
6675.1430515151
 21
4692.9898337608
 31
0.0
  0
LINE
  5
34D
330
1F
100
AcDbEntity
  8
0
  6
Continuous
 62
     7
100
AcDbLine
 10
6590.6098172719
 20
5736.9203371841
 30
0.0
 11
6590.5707464272
 21
5736.8281884033
 31
0.0
  0
LINE
  5
34E
330
1F
100
AcDbEntity
  8
0
  6
Continuous
 62
     7
100
AcDbLine
 10
6590.6098172719
 20
5736.9203371841
 30
0.0
 11
6597.0533550436
 21
5734.1851992446
 31
0.0
  0
LINE
  5
34F
330
1F
100
AcDbEntity
  8
0
  6
Continuous
 62
     7
100
AcDbLine
 10
6597.0533550436
 20
5734.1851992446
 30
0.0
 11
6597.0142767483
 21
5734.0930504638
 31
0.0
  0
LINE
  5
350
330
1F
100
AcDbEntity
  8
0
  6
Continuous
 62
     7
100
AcDbLine
 10
6686.7430512512
 20
5649.1912407714
 30
0.0
 11
6686.7430512512
 21
5664.0912098724
 31
0.0
  0
LINE
  5
351
330
1F
100
AcDbEntity
  8
0
  6
Continuous
 62
     7
100
AcDbLine
 10
6686.7430512512
 20
5634.2912120658
 30
0.0
 11
6686.7430512512
 21
5649.1912407714
 31
0.0
  0
LINE
  5
352
330
1F
100
AcDbEntity
  8
0
  6
Continuous
 62
     7
100
AcDbLine
 10
6709.3455702716
 20
5664.0912098724
 30
0.0
 11
6709.2580110485
 21
5663.9395756561
 31
0.0
  0
LINE
  5
353
330
1F
100
AcDbEntity
  8
0
  6
Continuous
 62
     7
100
AcDbLine
 10
6709.2580110485
 20
5663.9395756561
 30
0.0
 11
6708.9971066171
 21
5663.4876532394
 31
0.0
  0
LINE
  5
354
330
1F
100
AcDbEntity
  8
0
  6
Continuous
 62
     7
100
AcDbLine
 10
6708.9971066171
 20
5663.4876532394
 30
0.0
 11
6708.5681766922
 21
5662.7447409469
 31
0.0
  0
LINE
  5
355
330
1F
100
AcDbEntity
  8
0
  6
Continuous
 62
     7
100
AcDbLine
 10
6708.5681766922
 20
5662.7447409469
 30
0.0
 11
6707.9799514914
 21
5661.7259187538
 31
0.0
  0
LINE
  5
356
330
1F
100
AcDbEntity
  8
0
  6
Continuous
 62
     7
100
AcDbLine
 10
6707.9799514914
 20
5661.7259187538
 30
0.0
 11
6707.2444022352
 21
5660.4519290763
 31
0.0
  0
LINE
  5
357
330
1F
100
AcDbEntity
  8
0
  6
Continuous
 62
     7
100
AcDbLine
 10
6707.2444022352
 20
5660.4519290763
 30
0.0
 11
6706.3765027279
 21
5658.9486403305
 31
0.0
  0
LINE
  5
358
330
1F
100
AcDbEntity
  8
0
  6
Continuous
 62
     7
100
AcDbLine
 10
6706.3765027279
 20
5658.9486403305
 30
0.0
 11
6705.3939238841
 21
5657.2468085128
 31
0.0
  0
LINE
  5
359
330
1F
100
AcDbEntity
  8
0
  6
Continuous
 62
     7
100
AcDbLine
 10
6705.3939238841
 20
5657.2468085128
 30
0.0
 11
6704.3166667873
 21
5655.3809447128
 31
0.0
  0
LINE
  5
35A
330
1F
100
AcDbEntity
  8
0
  6
Continuous
 62
     7
100
AcDbLine
 10
6704.3166667873
 20
5655.3809447128
 30
0.0
 11
6703.1666603589
 21
5653.3890766937
 31
0.0
  0
LINE
  5
35B
330
1F
100
AcDbEntity
  8
0
  6
Continuous
 62
     7
100
AcDbLine
 10
6703.1666603589
 20
5653.3890766937
 30
0.0
 11
6701.9673180485
 21
5651.311735614
 31
0.0
  0
LINE
  5
35C
330
1F
100
AcDbEntity
  8
0
  6
Continuous
 62
     7
100
AcDbLine
 10
6701.9673180485
 20
5651.311735614
 30
0.0
 11
6700.7430516833
 21
5649.1912407714
 31
0.0
  0
LINE
  5
35D
330
1F
100
AcDbEntity
  8
0
  6
Continuous
 62
     7
100
AcDbLine
 10
6700.7430516833
 20
5649.1912407714
 30
0.0
 11
6699.5187853182
 21
5647.0707459289
 31
0.0
  0
LINE
  5
35E
330
1F
100
AcDbEntity
  8
0
  6
Continuous
 62
     7
100
AcDbLine
 10
6699.5187853182
 20
5647.0707459289
 30
0.0
 11
6698.3194411451
 21
5644.9934048492
 31
0.0
  0
LINE
  5
35F
330
1F
100
AcDbEntity
  8
0
  6
Continuous
 62
     7
100
AcDbLine
 10
6698.3194411451
 20
5644.9934048492
 30
0.0
 11
6697.1694365794
 21
5643.0015368301
 31
0.0
  0
LINE
  5
360
330
1F
100
AcDbEntity
  8
0
  6
Continuous
 62
     7
100
AcDbLine
 10
6697.1694365794
 20
5643.0015368301
 30
0.0
 11
6696.0921794826
 21
5641.13567303
 31
0.0
  0
LINE
  5
361
330
1F
100
AcDbEntity
  8
0
  6
Continuous
 62
     7
100
AcDbLine
 10
6696.0921794826
 20
5641.13567303
 30
0.0
 11
6695.1095987761
 21
5639.4338412124
 31
0.0
  0
LINE
  5
362
330
1F
100
AcDbEntity
  8
0
  6
Continuous
 62
     7
100
AcDbLine
 10
6695.1095987761
 20
5639.4338412124
 30
0.0
 11
6694.2417011315
 21
5637.9305524665
 31
0.0
  0
LINE
  5
363
330
1F
100
AcDbEntity
  8
0
  6
Continuous
 62
     7
100
AcDbLine
 10
6694.2417011315
 20
5637.9305524665
 30
0.0
 11
6693.5061518753
 21
5636.6565627891
 31
0.0
  0
LINE
  5
364
330
1F
100
AcDbEntity
  8
0
  6
Continuous
 62
     7
100
AcDbLine
 10
6693.5061518753
 20
5636.6565627891
 30
0.0
 11
6692.9179248119
 21
5635.637740596
 31
0.0
  0
LINE
  5
365
330
1F
100
AcDbEntity
  8
0
  6
Continuous
 62
     7
100
AcDbLine
 10
6692.9179248119
 20
5635.637740596
 30
0.0
 11
6692.4889948869
 21
5634.8947686988
 31
0.0
  0
LINE
  5
366
330
1F
100
AcDbEntity
  8
0
  6
Continuous
 62
     7
100
AcDbLine
 10
6692.4889948869
 20
5634.8947686988
 30
0.0
 11
6692.2280932495
 21
5634.4429058868
 31
0.0
  0
LINE
  5
367
330
1F
100
AcDbEntity
  8
0
  6
Continuous
 62
     7
100
AcDbLine
 10
6692.2280932495
 20
5634.4429058868
 30
0.0
 11
6692.1405321637
 21
5634.2912120658
 31
0.0
  0
LINE
  5
368
330
1F
100
AcDbEntity
  8
0
  6
Continuous
 62
     7
100
AcDbLine
 10
6709.7430512959
 20
5633.6027784187
 30
0.0
 11
6711.7616482729
 21
5634.768228038
 31
0.0
  0
LINE
  5
369
330
1F
100
AcDbEntity
  8
0
  6
Continuous
 62
     7
100
AcDbLine
 10
6711.7616482729
 20
5634.768228038
 30
0.0
 11
6713.7305387014
 21
5635.9049482185
 31
0.0
  0
LINE
  5
36A
330
1F
100
AcDbEntity
  8
0
  6
Continuous
 62
     7
100
AcDbLine
 10
6713.7305387014
 20
5635.9049482185
 30
0.0
 11
6715.6012453789
 21
5636.9849843818
 31
0.0
  0
LINE
  5
36B
330
1F
100
AcDbEntity
  8
0
  6
Continuous
 62
     7
100
AcDbLine
 10
6715.6012453789
 20
5636.9849843818
 30
0.0
 11
6717.3277013654
 21
5637.9817528564
 31
0.0
  0
LINE
  5
36C
330
1F
100
AcDbEntity
  8
0
  6
Continuous
 62
     7
100
AcDbLine
 10
6717.3277013654
 20
5637.9817528564
 30
0.0
 11
6718.8674010986
 21
5638.8706965286
 31
0.0
  0
LINE
  5
36D
330
1F
100
AcDbEntity
  8
0
  6
Continuous
 62
     7
100
AcDbLine
 10
6718.8674010986
 20
5638.8706965286
 30
0.0
 11
6720.182428574
 21
5639.6299404937
 31
0.0
  0
LINE
  5
36E
330
1F
100
AcDbEntity
  8
0
  6
Continuous
 62
     7
100
AcDbLine
 10
6720.182428574
 20
5639.6299404937
 30
0.0
 11
6721.2404035682
 21
5640.2407688934
 31
0.0
  0
LINE
  5
36F
330
1F
100
AcDbEntity
  8
0
  6
Continuous
 62
     7
100
AcDbLine
 10
6721.2404035682
 20
5640.2407688934
 30
0.0
 11
6722.0152751261
 21
5640.6881613571
 31
0.0
  0
LINE
  5
370
330
1F
100
AcDbEntity
  8
0
  6
Continuous
 62
     7
100
AcDbLine
 10
6722.0152751261
 20
5640.6881613571
 30
0.0
 11
6722.4879623109
 21
5640.9610314209
 31
0.0
  0
LINE
  5
371
330
1F
100
AcDbEntity
  8
0
  6
Continuous
 62
     7
100
AcDbLine
 10
6722.4879623109
 20
5640.9610314209
 30
0.0
 11
6722.646831041
 21
5641.0527629692
 31
0.0
  0
LINE
  5
372
330
1F
100
AcDbEntity
  8
0
  6
Continuous
 62
     7
100
AcDbLine
 10
6696.8392734135
 20
5626.1527938682
 30
0.0
 11
6696.9981402809
 21
5626.2445254165
 31
0.0
  0
LINE
  5
373
330
1F
100
AcDbEntity
  8
0
  6
Continuous
 62
     7
100
AcDbLine
 10
6696.9981402809
 20
5626.2445254165
 30
0.0
 11
6697.4708293283
 21
5626.5173954803
 31
0.0
  0
LINE
  5
374
330
1F
100
AcDbEntity
  8
0
  6
Continuous
 62
     7
100
AcDbLine
 10
6697.4708293283
 20
5626.5173954803
 30
0.0
 11
6698.2457008863
 21
5626.964787944
 31
0.0
  0
LINE
  5
375
330
1F
100
AcDbEntity
  8
0
  6
Continuous
 62
     7
100
AcDbLine
 10
6698.2457008863
 20
5626.964787944
 30
0.0
 11
6699.3036758805
 21
5627.5756163436
 31
0.0
  0
LINE
  5
376
330
1F
100
AcDbEntity
  8
0
  6
Continuous
 62
     7
100
AcDbLine
 10
6699.3036758805
 20
5627.5756163436
 30
0.0
 11
6700.6187014932
 21
5628.3348603088
 31
0.0
  0
LINE
  5
377
330
1F
100
AcDbEntity
  8
0
  6
Continuous
 62
     7
100
AcDbLine
 10
6700.6187014932
 20
5628.3348603088
 30
0.0
 11
6702.1584012264
 21
5629.223803981
 31
0.0
  0
LINE
  5
378
330
1F
100
AcDbEntity
  8
0
  6
Continuous
 62
     7
100
AcDbLine
 10
6702.1584012264
 20
5629.223803981
 30
0.0
 11
6703.8848590756
 21
5630.2205724556
 31
0.0
  0
LINE
  5
379
330
1F
100
AcDbEntity
  8
0
  6
Continuous
 62
     7
100
AcDbLine
 10
6703.8848590756
 20
5630.2205724556
 30
0.0
 11
6705.7555638904
 21
5631.3006086189
 31
0.0
  0
LINE
  5
37A
330
1F
100
AcDbEntity
  8
0
  6
Continuous
 62
     7
100
AcDbLine
 10
6705.7555638904
 20
5631.3006086189
 30
0.0
 11
6707.7244561816
 21
5632.4373287994
 31
0.0
  0
LINE
  5
37B
330
1F
100
AcDbEntity
  8
0
  6
Continuous
 62
     7
100
AcDbLine
 10
6707.7244561816
 20
5632.4373287994
 30
0.0
 11
6709.7430512959
 21
5633.6027784187
 31
0.0
  0
LINE
  5
37C
330
1F
100
AcDbEntity
  8
0
  6
Continuous
 62
     7
100
AcDbLine
 10
6709.9930518025
 20
5633.1697506744
 30
0.0
 11
6712.0116487795
 21
5634.3352002937
 31
0.0
  0
LINE
  5
37D
330
1F
100
AcDbEntity
  8
0
  6
Continuous
 62
     7
100
AcDbLine
 10
6712.0116487795
 20
5634.3352002937
 30
0.0
 11
6713.9805392081
 21
5635.4719204742
 31
0.0
  0
LINE
  5
37E
330
1F
100
AcDbEntity
  8
0
  6
Continuous
 62
     7
100
AcDbLine
 10
6713.9805392081
 20
5635.4719204742
 30
0.0
 11
6715.8512458855
 21
5636.5520162422
 31
0.0
  0
LINE
  5
37F
330
1F
100
AcDbEntity
  8
0
  6
Continuous
 62
     7
100
AcDbLine
 10
6715.8512458855
 20
5636.5520162422
 30
0.0
 11
6717.577701872
 21
5637.5487847168
 31
0.0
  0
LINE
  5
380
330
1F
100
AcDbEntity
  8
0
  6
Continuous
 62
     7
100
AcDbLine
 10
6717.577701872
 20
5637.5487847168
 30
0.0
 11
6719.1174016053
 21
5638.4377283889
 31
0.0
  0
LINE
  5
381
330
1F
100
AcDbEntity
  8
0
  6
Continuous
 62
     7
100
AcDbLine
 10
6719.1174016053
 20
5638.4377283889
 30
0.0
 11
6720.4324290806
 21
5639.1969723541
 31
0.0
  0
LINE
  5
382
330
1F
100
AcDbEntity
  8
0
  6
Continuous
 62
     7
100
AcDbLine
 10
6720.4324290806
 20
5639.1969723541
 30
0.0
 11
6721.4904040748
 21
5639.8077411491
 31
0.0
  0
LINE
  5
383
330
1F
100
AcDbEntity
  8
0
  6
Continuous
 62
     7
100
AcDbLine
 10
6721.4904040748
 20
5639.8077411491
 30
0.0
 11
6722.2652756328
 21
5640.2551336128
 31
0.0
  0
LINE
  5
384
330
1F
100
AcDbEntity
  8
0
  6
Continuous
 62
     7
100
AcDbLine
 10
6722.2652756328
 20
5640.2551336128
 30
0.0
 11
6722.7379628176
 21
5640.5280632812
 31
0.0
  0
LINE
  5
385
330
1F
100
AcDbEntity
  8
0
  6
Continuous
 62
     7
100
AcDbLine
 10
6722.7379628176
 20
5640.5280632812
 30
0.0
 11
6722.8968315476
 21
5640.6197948295
 31
0.0
  0
LINE
  5
386
330
1F
100
AcDbEntity
  8
0
  6
Continuous
 62
     7
100
AcDbLine
 10
6697.0892720574
 20
5625.7197661239
 30
0.0
 11
6697.2481407875
 21
5625.8114976722
 31
0.0
  0
LINE
  5
387
330
1F
100
AcDbEntity
  8
0
  6
Continuous
 62
     7
100
AcDbLine
 10
6697.2481407875
 20
5625.8114976722
 30
0.0
 11
6697.7208279723
 21
5626.084367736
 31
0.0
  0
LINE
  5
388
330
1F
100
AcDbEntity
  8
0
  6
Continuous
 62
     7
100
AcDbLine
 10
6697.7208279723
 20
5626.084367736
 30
0.0
 11
6698.4957013929
 21
5626.5317601997
 31
0.0
  0
LINE
  5
389
330
1F
100
AcDbEntity
  8
0
  6
Continuous
 62
     7
100
AcDbLine
 10
6698.4957013929
 20
5626.5317601997
 30
0.0
 11
6699.5536745245
 21
5627.1425885994
 31
0.0
  0
LINE
  5
38A
330
1F
100
AcDbEntity
  8
0
  6
Continuous
 62
     7
100
AcDbLine
 10
6699.5536745245
 20
5627.1425885994
 30
0.0
 11
6700.8687019998
 21
5627.9018325645
 31
0.0
  0
LINE
  5
38B
330
1F
100
AcDbEntity
  8
0
  6
Continuous
 62
     7
100
AcDbLine
 10
6700.8687019998
 20
5627.9018325645
 30
0.0
 11
6702.4083998704
 21
5628.7907762367
 31
0.0
  0
LINE
  5
38C
330
1F
100
AcDbEntity
  8
0
  6
Continuous
 62
     7
100
AcDbLine
 10
6702.4083998704
 20
5628.7907762367
 30
0.0
 11
6704.1348577196
 21
5629.7875447113
 31
0.0
  0
LINE
  5
38D
330
1F
100
AcDbEntity
  8
0
  6
Continuous
 62
     7
100
AcDbLine
 10
6704.1348577196
 20
5629.7875447113
 30
0.0
 11
6706.005564397
 21
5630.8675808746
 31
0.0
  0
LINE
  5
38E
330
1F
100
AcDbEntity
  8
0
  6
Continuous
 62
     7
100
AcDbLine
 10
6706.005564397
 20
5630.8675808746
 30
0.0
 11
6707.9744566882
 21
5632.0043010551
 31
0.0
  0
LINE
  5
38F
330
1F
100
AcDbEntity
  8
0
  6
Continuous
 62
     7
100
AcDbLine
 10
6707.9744566882
 20
5632.0043010551
 30
0.0
 11
6709.9930518025
 21
5633.1697506744
 31
0.0
  0
LINE
  5
390
330
1F
100
AcDbEntity
  8
0
  6
Continuous
 62
     7
100
AcDbLine
 10
6712.8392741734
 20
5598.4399719078
 30
0.0
 11
6712.9981391782
 21
5598.5317034561
 31
0.0
  0
LINE
  5
391
330
1F
100
AcDbEntity
  8
0
  6
Continuous
 62
     7
100
AcDbLine
 10
6712.9981391782
 20
5598.5317034561
 30
0.0
 11
6713.4708300883
 21
5598.8045735199
 31
0.0
  0
LINE
  5
392
330
1F
100
AcDbEntity
  8
0
  6
Continuous
 62
     7
100
AcDbLine
 10
6713.4708300883
 20
5598.8045735199
 30
0.0
 11
6714.2457016462
 21
5599.2519659835
 31
0.0
  0
LINE
  5
393
330
1F
100
AcDbEntity
  8
0
  6
Continuous
 62
     7
100
AcDbLine
 10
6714.2457016462
 20
5599.2519659835
 30
0.0
 11
6715.3036766404
 21
5599.8627943832
 31
0.0
  0
LINE
  5
394
330
1F
100
AcDbEntity
  8
0
  6
Continuous
 62
     7
100
AcDbLine
 10
6715.3036766404
 20
5599.8627943832
 30
0.0
 11
6716.6187003905
 21
5600.6220383483
 31
0.0
  0
LINE
  5
395
330
1F
100
AcDbEntity
  8
0
  6
Continuous
 62
     7
100
AcDbLine
 10
6716.6187003905
 20
5600.6220383483
 30
0.0
 11
6718.1584001237
 21
5601.5109820205
 31
0.0
  0
LINE
  5
396
330
1F
100
AcDbEntity
  8
0
  6
Continuous
 62
     7
100
AcDbLine
 10
6718.1584001237
 20
5601.5109820205
 30
0.0
 11
6719.8848598355
 21
5602.5077504951
 31
0.0
  0
LINE
  5
397
330
1F
100
AcDbEntity
  8
0
  6
Continuous
 62
     7
100
AcDbLine
 10
6719.8848598355
 20
5602.5077504951
 30
0.0
 11
6721.7555627877
 21
5603.5877866584
 31
0.0
  0
LINE
  5
398
330
1F
100
AcDbEntity
  8
0
  6
Continuous
 62
     7
100
AcDbLine
 10
6721.7555627877
 20
5603.5877866584
 30
0.0
 11
6723.7244569415
 21
5604.7245068389
 31
0.0
  0
LINE
  5
399
330
1F
100
AcDbEntity
  8
0
  6
Continuous
 62
     7
100
AcDbLine
 10
6723.7244569415
 20
5604.7245068389
 30
0.0
 11
6725.7430501932
 21
5605.8899564582
 31
0.0
  0
LINE
  5
39A
330
1F
100
AcDbEntity
  8
0
  6
Continuous
 62
     7
100
AcDbLine
 10
6725.7430501932
 20
5605.8899564582
 30
0.0
 11
6727.7616471702
 21
5607.0554060775
 31
0.0
  0
LINE
  5
39B
330
1F
100
AcDbEntity
  8
0
  6
Continuous
 62
     7
100
AcDbLine
 10
6727.7616471702
 20
5607.0554060775
 30
0.0
 11
6729.7305375988
 21
5608.192126258
 31
0.0
  0
LINE
  5
39C
330
1F
100
AcDbEntity
  8
0
  6
Continuous
 62
     7
100
AcDbLine
 10
6729.7305375988
 20
5608.192126258
 30
0.0
 11
6731.6012442762
 21
5609.272222026
 31
0.0
  0
LINE
  5
39D
330
1F
100
AcDbEntity
  8
0
  6
Continuous
 62
     7
100
AcDbLine
 10
6731.6012442762
 20
5609.272222026
 30
0.0
 11
6733.327703988
 21
5610.2689905006
 31
0.0
  0
LINE
  5
39E
330
1F
100
AcDbEntity
  8
0
  6
Continuous
 62
     7
100
AcDbLine
 10
6733.327703988
 20
5610.2689905006
 30
0.0
 11
6734.867399996
 21
5611.1579341728
 31
0.0
  0
LINE
  5
39F
330
1F
100
AcDbEntity
  8
0
  6
Continuous
 62
     7
100
AcDbLine
 10
6734.867399996
 20
5611.1579341728
 30
0.0
 11
6736.1824274713
 21
5611.9171185333
 31
0.0
  0
LINE
  5
3A0
330
1F
100
AcDbEntity
  8
0
  6
Continuous
 62
     7
100
AcDbLine
 10
6736.1824274713
 20
5611.9171185333
 30
0.0
 11
6737.2404024655
 21
5612.5279469329
 31
0.0
  0
LINE
  5
3A1
330
1F
100
AcDbEntity
  8
0
  6
Continuous
 62
     7
100
AcDbLine
 10
6737.2404024655
 20
5612.5279469329
 30
0.0
 11
6738.0152740234
 21
5612.9753393966
 31
0.0
  0
LINE
  5
3A2
330
1F
100
AcDbEntity
  8
0
  6
Continuous
 62
     7
100
AcDbLine
 10
6738.0152740234
 20
5612.9753393966
 30
0.0
 11
6738.4879612083
 21
5613.2482690651
 31
0.0
  0
LINE
  5
3A3
330
1F
100
AcDbEntity
  8
0
  6
Continuous
 62
     7
100
AcDbLine
 10
6738.4879612083
 20
5613.2482690651
 30
0.0
 11
6738.6468299383
 21
5613.3399410087
 31
0.0
  0
LINE
  5
3A4
330
1F
100
AcDbEntity
  8
0
  6
Continuous
 62
     7
100
AcDbLine
 10
6726.6014539355
 20
5604.403178199
 30
0.0
 11
6725.3846027607
 21
5603.700618251
 31
0.0
  0
LINE
  5
3A5
330
1F
100
AcDbEntity
  8
0
  6
Continuous
 62
     7
100
AcDbLine
 10
6725.3846027607
 20
5603.700618251
 30
0.0
 11
6724.244209444
 21
5603.0422253448
 31
0.0
  0
LINE
  5
3A6
330
1F
100
AcDbEntity
  8
0
  6
Continuous
 62
     7
100
AcDbLine
 10
6724.244209444
 20
5603.0422253448
 30
0.0
 11
6723.2519336695
 21
5602.4693054992
 31
0.0
  0
LINE
  5
3A7
330
1F
100
AcDbEntity
  8
0
  6
Continuous
 62
     7
100
AcDbLine
 10
6723.2519336695
 20
5602.4693054992
 30
0.0
 11
6722.4701181704
 21
5602.0179195243
 31
0.0
  0
LINE
  5
3A8
330
1F
100
AcDbEntity
  8
0
  6
Continuous
 62
     7
100
AcDbLine
 10
6722.4701181704
 20
5602.0179195243
 30
0.0
 11
6721.9478920752
 21
5601.7164392311
 31
0.0
  0
LINE
  5
3A9
330
1F
100
AcDbEntity
  8
0
  6
Continuous
 62
     7
100
AcDbLine
 10
6721.9478920752
 20
5601.7164392311
 30
0.0
 11
6721.7180640155
 21
5601.5837592918
 31
0.0
  0
LINE
  5
3AA
330
1F
100
AcDbEntity
  8
0
  6
Continuous
 62
     7
100
AcDbLine
 10
6721.7180640155
 20
5601.5837592918
 30
0.0
 11
6721.7084080631
 21
5601.5781564552
 31
0.0
  0
LINE
  5
3AB
330
1F
100
AcDbEntity
  8
0
  6
Continuous
 62
     7
100
AcDbLine
 10
6731.4944960827
 20
5607.2281999427
 30
0.0
 11
6731.4848401302
 21
5607.2225971061
 31
0.0
  0
LINE
  5
3AC
330
1F
100
AcDbEntity
  8
0
  6
Continuous
 62
     7
100
AcDbLine
 10
6731.4848401302
 20
5607.2225971061
 30
0.0
 11
6731.2550120706
 21
5607.0899171669
 31
0.0
  0
LINE
  5
3AD
330
1F
100
AcDbEntity
  8
0
  6
Continuous
 62
     7
100
AcDbLine
 10
6731.2550120706
 20
5607.0899171669
 30
0.0
 11
6730.7327859754
 21
5606.7883772689
 31
0.0
  0
LINE
  5
3AE
330
1F
100
AcDbEntity
  8
0
  6
Continuous
 62
     7
100
AcDbLine
 10
6730.7327859754
 20
5606.7883772689
 30
0.0
 11
6729.9509704763
 21
5606.3369912941
 31
0.0
  0
LINE
  5
3AF
330
1F
100
AcDbEntity
  8
0
  6
Continuous
 62
     7
100
AcDbLine
 10
6729.9509704763
 20
5606.3369912941
 30
0.0
 11
6728.9586947018
 21
5605.7641310531
 31
0.0
  0
LINE
  5
3B0
330
1F
100
AcDbEntity
  8
0
  6
Continuous
 62
     7
100
AcDbLine
 10
6728.9586947018
 20
5605.7641310531
 30
0.0
 11
6727.8183051104
 21
5605.1057381469
 31
0.0
  0
LINE
  5
3B1
330
1F
100
AcDbEntity
  8
0
  6
Continuous
 62
     7
100
AcDbLine
 10
6727.8183051104
 20
5605.1057381469
 30
0.0
 11
6726.6014539355
 21
5604.403178199
 31
0.0
  0
LINE
  5
3B2
330
1F
100
AcDbEntity
  8
0
  6
Continuous
 62
     7
100
AcDbLine
 10
6678.7430515697
 20
5654.291252597
 30
0.0
 11
6684.7430518547
 21
5654.291252597
 31
0.0
  0
LINE
  5
3B3
330
1F
100
AcDbEntity
  8
0
  6
Continuous
 62
     7
100
AcDbLine
 10
6684.7430518547
 20
5654.291252597
 30
0.0
 11
6684.7430518547
 21
5664.0912098724
 31
0.0
  0
LINE
  5
3B4
330
1F
100
AcDbEntity
  8
0
  6
Continuous
 62
     7
100
AcDbLine
 10
6678.7430515697
 20
5644.0912289459
 30
0.0
 11
6684.7430518547
 21
5644.0912289459
 31
0.0
  0
LINE
  5
3B5
330
1F
100
AcDbEntity
  8
0
  6
Continuous
 62
     7
100
AcDbLine
 10
6684.7430518547
 20
5634.2912120658
 30
0.0
 11
6684.7430518547
 21
5644.0912289459
 31
0.0
  0
LINE
  5
3B6
330
1F
100
AcDbEntity
  8
0
  6
Continuous
 62
     7
100
AcDbLine
 10
6684.7430518547
 20
5644.0912289459
 30
0.0
 11
6684.7430518547
 21
5654.291252597
 31
0.0
  0
LINE
  5
3B7
330
1F
100
AcDbEntity
  8
0
  6
Continuous
 62
     7
100
AcDbLine
 10
6678.7430515697
 20
5676.191250785
 30
0.0
 11
6678.7430515697
 21
5622.1912307579
 31
0.0
  0
LINE
  5
3B8
330
1F
100
AcDbEntity
  8
0
  6
Continuous
 62
     7
100
AcDbLine
 10
6719.5430532748
 20
4917.8898287851
 30
0.0
 11
6719.5430532748
 21
4932.1983111936
 31
0.0
  0
LINE
  5
3B9
330
1F
100
AcDbEntity
  8
0
  6
Continuous
 62
     7
100
AcDbLine
 10
6725.7430501932
 20
4932.1983111936
 30
0.0
 11
6725.7430501932
 21
4958.0898387271
 31
0.0
  0
LINE
  5
3BA
330
1F
100
AcDbEntity
  8
0
  6
Continuous
 62
     7
100
AcDbLine
 10
6723.0430529172
 20
4915.9678025085
 30
0.0
 11
6723.0430529172
 21
4905.2898390132
 31
0.0
  0
LINE
  5
3BB
330
1F
100
AcDbEntity
  8
0
  6
Continuous
 62
     7
100
AcDbLine
 10
6725.7430501932
 20
4905.2898390132
 30
0.0
 11
6725.7430501932
 21
4915.9678025085
 31
0.0
  0
LINE
  5
3BC
330
1F
100
AcDbEntity
  8
0
  6
Continuous
 62
     7
100
AcDbLine
 10
6719.743052935
 20
4961.063514455
 30
0.0
 11
6709.7430512959
 21
4961.063514455
 31
0.0
  0
LINE
  5
3BD
330
1F
100
AcDbEntity
  8
0
  6
Continuous
 62
     7
100
AcDbLine
 10
6710.1276668593
 20
4961.5500039368
 30
0.0
 11
6719.3584360901
 21
4961.5500039368
 31
0.0
  0
LINE
  5
3BE
330
1F
100
AcDbEntity
  8
0
  6
Continuous
 62
     7
100
AcDbLine
 10
6683.7430516908
 20
4910.9898311931
 30
0.0
 11
6683.7430516908
 21
4964.989821418
 31
0.0
  0
LINE
  5
3BF
330
1F
100
AcDbEntity
  8
0
  6
Continuous
 62
     7
100
AcDbLine
 10
6677.2430514985
 20
5676.6912145454
 30
0.0
 11
6677.2430514985
 21
5621.6912073928
 31
0.0
  0
LINE
  5
3C0
330
1F
100
AcDbEntity
  8
0
  6
Continuous
 62
     7
100
AcDbLine
 10
6678.2430514878
 20
5621.6912073928
 30
0.0
 11
6678.2430514878
 21
5676.6912145454
 31
0.0
  0
LINE
  5
3C1
330
1F
100
AcDbEntity
  8
0
  6
Continuous
 62
     7
100
AcDbLine
 10
6253.918755953
 20
4352.0640488269
 30
0.0
 11
6253.918755953
 21
4313.0640498849
 31
0.0
  0
LINE
  5
3C2
330
1F
100
AcDbEntity
  8
0
  6
Continuous
 62
     7
100
AcDbLine
 10
6294.1187547192
 20
4313.0640498849
 30
0.0
 11
6294.1187547192
 21
4352.0640488269
 31
0.0
  0
LINE
  5
3C3
330
1F
100
AcDbEntity
  8
0
  6
Continuous
 62
     7
100
AcDbLine
 10
6301.0187560365
 20
4355.0640483874
 30
0.0
 11
6301.0187560365
 21
4360.0640485084
 31
0.0
  0
LINE
  5
3C4
330
1F
100
AcDbEntity
  8
0
  6
Continuous
 62
     7
100
AcDbLine
 10
6247.0187546357
 20
4360.0640485084
 30
0.0
 11
6247.0187546357
 21
4355.0640483874
 31
0.0
  0
LINE
  5
3C5
330
1F
100
AcDbEntity
  8
0
  6
Continuous
 62
     7
100
AcDbLine
 10
6259.1187555015
 20
4352.0640488269
 30
0.0
 11
6259.1187553361
 21
4338.0640486034
 31
0.0
  0
LINE
  5
3C6
330
1F
100
AcDbEntity
  8
0
  6
Continuous
 62
     7
100
AcDbLine
 10
6288.9187553361
 20
4338.0640486034
 30
0.0
 11
6288.9187551707
 21
4352.0640488269
 31
0.0
  0
LINE
  5
3C7
330
1F
100
AcDbEntity
  8
0
  6
Continuous
 62
     7
100
AcDbLine
 10
6259.1187553361
 20
4338.0640486034
 30
0.0
 11
6259.1187555015
 21
4329.0640487822
 31
0.0
  0
LINE
  5
3C8
330
1F
100
AcDbEntity
  8
0
  6
Continuous
 62
     7
100
AcDbLine
 10
6288.9187551707
 20
4329.0640487822
 30
0.0
 11
6288.9187553361
 21
4338.0640486034
 31
0.0
  0
LINE
  5
3C9
330
1F
100
AcDbEntity
  8
0
  6
Continuous
 62
     7
100
AcDbLine
 10
6283.5187550306
 20
4352.0640488269
 30
0.0
 11
6283.5187550306
 21
4354.0640482235
 31
0.0
  0
LINE
  5
3CA
330
1F
100
AcDbEntity
  8
0
  6
Continuous
 62
     7
100
AcDbLine
 10
6264.5187556416
 20
4354.0640482235
 30
0.0
 11
6264.5187556416
 21
4352.0640488269
 31
0.0
  0
LINE
  5
3CB
330
1F
100
AcDbEntity
  8
0
  6
Continuous
 62
     7
100
AcDbLine
 10
6259.1187555015
 20
4328.8140482756
 30
0.0
 11
6259.1187555015
 21
4313.0640498849
 31
0.0
  0
LINE
  5
3CC
330
1F
100
AcDbEntity
  8
0
  6
Continuous
 62
     7
100
AcDbLine
 10
6288.9187551707
 20
4313.0640498849
 30
0.0
 11
6288.9187551707
 21
4328.8140482756
 31
0.0
  0
LINE
  5
3CD
330
1F
100
AcDbEntity
  8
0
  6
Continuous
 62
     7
100
AcDbLine
 10
6246.5187554851
 20
4361.5640485797
 30
0.0
 11
6246.5187554851
 21
4360.5640485904
 31
0.0
  0
LINE
  5
3CE
330
1F
100
AcDbEntity
  8
0
  6
Continuous
 62
     7
100
AcDbLine
 10
6301.5187551871
 20
4360.5640485904
 30
0.0
 11
6301.5187551871
 21
4361.5640485797
 31
0.0
  0
LINE
  5
3CF
330
1F
100
AcDbEntity
  8
0
  6
Continuous
 62
     7
100
AcDbLine
 10
6292.118756254
 20
4311.0640495571
 30
0.0
 11
6288.7386960581
 21
4311.0640495571
 31
0.0
  0
LINE
  5
3D0
330
1F
100
AcDbEntity
  8
0
  6
Continuous
 62
     7
100
AcDbLine
 10
6259.2988146141
 20
4311.0640495571
 30
0.0
 11
6255.9187544182
 21
4311.0640495571
 31
0.0
  0
LINE
  5
3D1
330
1F
100
AcDbEntity
  8
0
  6
Continuous
 62
     7
100
AcDbLine
 10
6259.1187555015
 20
4352.0640488269
 30
0.0
 11
6250.0187551275
 21
4352.0640488269
 31
0.0
  0
LINE
  5
3D2
330
1F
100
AcDbEntity
  8
0
  6
Continuous
 62
     7
100
AcDbLine
 10
6298.0187555447
 20
4352.0640488269
 30
0.0
 11
6288.9187551707
 21
4352.0640488269
 31
0.0
  0
LINE
  5
3D3
330
1F
100
AcDbEntity
  8
0
  6
Continuous
 62
     7
100
AcDbLine
 10
6334.3206589714
 20
4361.964048606
 30
0.0
 11
6334.3206589714
 21
4362.0640486034
 31
0.0
  0
LINE
  5
3D4
330
1F
100
AcDbEntity
  8
0
  6
Continuous
 62
     7
100
AcDbLine
 10
6334.3206589714
 20
4361.964048606
 30
0.0
 11
6301.3187555268
 21
4361.964048606
 31
0.0
  0
LINE
  5
3D5
330
1F
100
AcDbEntity
  8
0
  6
Continuous
 62
     7
100
AcDbLine
 10
6301.3758269742
 20
4361.9140485963
 30
0.0
 11
6302.1100574776
 21
4361.9140485963
 31
0.0
  0
LINE
  5
3D6
330
1F
100
AcDbEntity
  8
0
  6
Continuous
 62
     7
100
AcDbLine
 10
6302.1100574776
 20
4361.9140485963
 30
0.0
 11
6302.1100574776
 21
4361.964048606
 31
0.0
  0
LINE
  5
3D7
330
1F
100
AcDbEntity
  8
0
  6
Continuous
 62
     7
100
AcDbLine
 10
6313.5203143254
 20
4361.9140485963
 30
0.0
 11
6313.5203143254
 21
4361.964048606
 31
0.0
  0
LINE
  5
3D8
330
1F
100
AcDbEntity
  8
0
  6
Continuous
 62
     7
100
AcDbLine
 10
6309.6941915944
 20
4361.9140485963
 30
0.0
 11
6309.6941915944
 21
4361.964048606
 31
0.0
  0
LINE
  5
3D9
330
1F
100
AcDbEntity
  8
0
  6
Continuous
 62
     7
100
AcDbLine
 10
6318.1557302967
 20
4361.9140485963
 30
0.0
 11
6318.1557302967
 21
4361.964048606
 31
0.0
  0
LINE
  5
3DA
330
1F
100
AcDbEntity
  8
0
  6
Continuous
 62
     7
100
AcDbLine
 10
6315.8620616093
 20
4361.9140485963
 30
0.0
 11
6315.8620616093
 21
4361.964048606
 31
0.0
  0
LINE
  5
3DB
330
1F
100
AcDbEntity
  8
0
  6
Continuous
 62
     7
100
AcDbLine
 10
6327.6429084733
 20
4361.9140485963
 30
0.0
 11
6327.6429084733
 21
4361.964048606
 31
0.0
  0
LINE
  5
3DC
330
1F
100
AcDbEntity
  8
0
  6
Continuous
 62
     7
100
AcDbLine
 10
6325.1449113384
 20
4361.9140485963
 30
0.0
 11
6325.1449113384
 21
4361.964048606
 31
0.0
  0
LINE
  5
3DD
330
1F
100
AcDbEntity
  8
0
  6
Continuous
 62
     7
100
AcDbLine
 10
6307.1961944595
 20
4361.9140485963
 30
0.0
 11
6307.1961944595
 21
4361.964048606
 31
0.0
  0
LINE
  5
3DE
330
1F
100
AcDbEntity
  8
0
  6
Continuous
 62
     7
100
AcDbLine
 10
6331.4690312043
 20
4361.9140485963
 30
0.0
 11
6331.4690312043
 21
4361.964048606
 31
0.0
  0
LINE
  5
3DF
330
1F
100
AcDbEntity
  8
0
  6
Continuous
 62
     7
100
AcDbLine
 10
6322.3664668992
 20
4361.9140485963
 30
0.0
 11
6322.3664668992
 21
4361.964048606
 31
0.0
  0
LINE
  5
3E0
330
1F
100
AcDbEntity
  8
0
  6
Continuous
 62
     7
100
AcDbLine
 10
6320.4433900908
 20
4361.9140485963
 30
0.0
 11
6320.4433900908
 21
4361.964048606
 31
0.0
  0
LINE
  5
3E1
330
1F
100
AcDbEntity
  8
0
  6
Continuous
 62
     7
100
AcDbLine
 10
6320.4433900908
 20
4361.9140485963
 30
0.0
 11
6322.3664668992
 21
4361.9140485963
 31
0.0
  0
LINE
  5
3E2
330
1F
100
AcDbEntity
  8
0
  6
Continuous
 62
     7
100
AcDbLine
 10
6314.802365531
 20
4361.9140485963
 30
0.0
 11
6314.802365531
 21
4361.964048606
 31
0.0
  0
LINE
  5
3E3
330
1F
100
AcDbEntity
  8
0
  6
Continuous
 62
     7
100
AcDbLine
 10
6305.9562129572
 20
4361.9140485963
 30
0.0
 11
6305.9562129572
 21
4361.964048606
 31
0.0
  0
LINE
  5
3E4
330
1F
100
AcDbEntity
  8
0
  6
Continuous
 62
     7
100
AcDbLine
 10
6323.9049298361
 20
4361.9140485963
 30
0.0
 11
6323.9049298361
 21
4361.964048606
 31
0.0
  0
LINE
  5
3E5
330
1F
100
AcDbEntity
  8
0
  6
Continuous
 62
     7
100
AcDbLine
 10
6304.9305697575
 20
4361.9140485963
 30
0.0
 11
6304.9305697575
 21
4361.964048606
 31
0.0
  0
LINE
  5
3E6
330
1F
100
AcDbEntity
  8
0
  6
Continuous
 62
     7
100
AcDbLine
 10
6302.1100574776
 20
4361.9140485963
 30
0.0
 11
6304.9305697575
 21
4361.9140485963
 31
0.0
  0
LINE
  5
3E7
330
1F
100
AcDbEntity
  8
0
  6
Continuous
 62
     7
100
AcDbLine
 10
6314.7943524316
 20
4361.9140485963
 30
0.0
 11
6314.7943524316
 21
4361.964048606
 31
0.0
  0
LINE
  5
3E8
330
1F
100
AcDbEntity
  8
0
  6
Continuous
 62
     7
100
AcDbLine
 10
6165.5702164897
 20
4452.8388787978
 30
0.0
 11
6382.4672941824
 21
4452.8388787978
 31
0.0
  0
LINE
  5
3E9
330
1F
100
AcDbEntity
  8
0
  6
Continuous
 62
     7
100
AcDbLine
 10
6166.3066203725
 20
4455.0640486034
 30
0.0
 11
6381.7308902996
 21
4455.0640486034
 31
0.0
  0
LINE
  5
3EA
330
1F
100
AcDbEntity
  8
0
  6
Continuous
 62
     7
100
AcDbLine
 10
6203.6880549855
 20
4363.0388787978
 30
0.0
 11
6344.3494556867
 21
4363.0388787978
 31
0.0
  0
LINE
  5
3EB
330
1F
100
AcDbEntity
  8
0
  6
Continuous
 62
     7
100
AcDbLine
 10
6344.3494556867
 20
4363.0388787978
 30
0.0
 11
6382.4672941824
 21
4452.8388787978
 31
0.0
  0
LINE
  5
3EC
330
1F
100
AcDbEntity
  8
0
  6
Continuous
 62
     7
100
AcDbLine
 10
6165.5702164897
 20
4452.8388787978
 30
0.0
 11
6203.6880549855
 21
4363.0388787978
 31
0.0
  0
LINE
  5
3ED
330
1F
100
AcDbEntity
  8
0
  6
Continuous
 62
     7
100
AcDbLine
 10
6164.1267073944
 20
4452.8388753089
 30
0.0
 11
6164.8631097086
 21
4453.1514637006
 31
0.0
  0
LINE
  5
3EE
330
1F
100
AcDbEntity
  8
0
  6
Continuous
 62
     7
100
AcDbLine
 10
6165.5995158151
 20
4455.0640508088
 30
0.0
 11
6165.5995158151
 21
4454.2640521678
 31
0.0
  0
LINE
  5
3EF
330
1F
100
AcDbEntity
  8
0
  6
Continuous
 62
     7
100
AcDbLine
 10
6383.9108032778
 20
4452.8388753089
 30
0.0
 11
6383.1744009636
 21
4453.1514637006
 31
0.0
  0
LINE
  5
3F0
330
1F
100
AcDbEntity
  8
0
  6
Continuous
 62
     7
100
AcDbLine
 10
6382.4379948571
 20
4455.0640508088
 30
0.0
 11
6382.4379948571
 21
4454.2640521678
 31
0.0
  0
LINE
  5
3F1
330
1F
100
AcDbEntity
  8
0
  6
Continuous
 62
     7
100
AcDbLine
 10
6202.24454083
 20
4363.0388787852
 30
0.0
 11
6202.9809487656
 21
4363.351463645
 31
0.0
  0
LINE
  5
3F2
330
1F
100
AcDbEntity
  8
0
  6
Continuous
 62
     7
100
AcDbLine
 10
6202.24454083
 20
4363.0388787852
 30
0.0
 11
6164.1267073944
 21
4452.8388753089
 31
0.0
  0
LINE
  5
3F3
330
1F
100
AcDbEntity
  8
0
  6
Continuous
 62
     7
100
AcDbLine
 10
6202.9809487656
 20
4363.351463645
 30
0.0
 11
6164.8631097086
 21
4453.1514637006
 31
0.0
  0
LINE
  5
3F4
330
1F
100
AcDbEntity
  8
0
  6
Continuous
 62
     7
100
AcDbLine
 10
6383.9108032778
 20
4452.8388753089
 30
0.0
 11
6345.7929698422
 21
4363.0388787852
 31
0.0
  0
LINE
  5
3F5
330
1F
100
AcDbEntity
  8
0
  6
Continuous
 62
     7
100
AcDbLine
 10
6345.7929698422
 20
4363.0388787852
 30
0.0
 11
6345.0565619066
 21
4363.351463645
 31
0.0
  0
LINE
  5
3F6
330
1F
100
AcDbEntity
  8
0
  6
Continuous
 62
     7
100
AcDbLine
 10
6383.1744009636
 20
4453.1514637006
 30
0.0
 11
6345.0565619066
 21
4363.351463645
 31
0.0
  0
LINE
  5
3F7
330
1F
100
AcDbEntity
  8
0
  6
Continuous
 62
     7
100
AcDbLine
 10
6166.3066203725
 20
4455.0640486034
 30
0.0
 11
6165.5995158151
 21
4455.0640508088
 31
0.0
  0
LINE
  5
3F8
330
1F
100
AcDbEntity
  8
0
  6
Continuous
 62
     7
100
AcDbLine
 10
6165.6137985781
 20
4454.2640521678
 30
0.0
 11
6165.5995158151
 21
4454.2640521678
 31
0.0
  0
LINE
  5
3F9
330
1F
100
AcDbEntity
  8
0
  6
Continuous
 62
     7
100
AcDbLine
 10
6382.4379948571
 20
4454.2640521678
 30
0.0
 11
6382.4237120941
 21
4454.2640521678
 31
0.0
  0
LINE
  5
3FA
330
1F
100
AcDbEntity
  8
0
  6
Continuous
 62
     7
100
AcDbLine
 10
6382.4379948571
 20
4455.0640508088
 30
0.0
 11
6381.7308902996
 21
4455.0640486034
 31
0.0
  0
LINE
  5
3FB
330
1F
100
AcDbEntity
  8
0
  6
Continuous
 62
     7
100
AcDbLine
 10
6203.717352087
 20
4362.0640486034
 30
0.0
 11
6344.3201585852
 21
4362.0640486034
 31
0.0
  0
LINE
  5
3FC
330
1F
100
AcDbEntity
  8
0
  6
Continuous
 62
     7
100
AcDbLine
 10
6189.5778907135
 20
4445.4013853821
 30
0.0
 11
6188.6445564821
 21
4443.5178935083
 31
0.0
  0
LINE
  5
3FD
330
1F
100
AcDbEntity
  8
0
  6
Continuous
 62
     7
100
AcDbLine
 10
6189.3058551148
 20
4445.4013853821
 30
0.0
 11
6189.5778907135
 21
4445.4013853821
 31
0.0
  0
LINE
  5
3FE
330
1F
100
AcDbEntity
  8
0
  6
Continuous
 62
     7
100
AcDbLine
 10
6188.6266080335
 20
4444.0300687703
 30
0.0
 11
6189.3058551148
 21
4445.4013853821
 31
0.0
  0
LINE
  5
3FF
330
1F
100
AcDbEntity
  8
0
  6
Continuous
 62
     7
100
AcDbLine
 10
6187.9473609522
 20
4445.4013853821
 30
0.0
 11
6188.6266080335
 21
4444.0300687703
 31
0.0
  0
LINE
  5
400
330
1F
100
AcDbEntity
  8
0
  6
Continuous
 62
     7
100
AcDbLine
 10
6187.6753253534
 20
4445.4013853821
 30
0.0
 11
6187.9473609522
 21
4445.4013853821
 31
0.0
  0
LINE
  5
401
330
1F
100
AcDbEntity
  8
0
  6
Continuous
 62
     7
100
AcDbLine
 10
6188.6086595848
 20
4443.5178935083
 30
0.0
 11
6187.6753253534
 21
4445.4013853821
 31
0.0
  0
LINE
  5
402
330
1F
100
AcDbEntity
  8
0
  6
Continuous
 62
     7
100
AcDbLine
 10
6188.6445564821
 20
4443.5178935083
 30
0.0
 11
6188.6086595848
 21
4443.5178935083
 31
0.0
  0
LINE
  5
403
330
1F
100
AcDbEntity
  8
0
  6
Continuous
 62
     7
100
AcDbLine
 10
6180.3163570955
 20
4445.725113109
 30
0.0
 11
6180.0891888931
 21
4445.5666094574
 31
0.0
  0
LINE
  5
404
330
1F
100
AcDbEntity
  8
0
  6
Continuous
 62
     7
100
AcDbLine
 10
6178.700966914
 20
4444.0151005539
 30
0.0
 11
6178.9376718596
 21
4444.1457241329
 31
0.0
  0
LINE
  5
405
330
1F
100
AcDbEntity
  8
0
  6
Continuous
 62
     7
100
AcDbLine
 10
6204.0187550381
 20
4448.1972828063
 30
0.0
 11
6176.0187578991
 21
4448.1972828063
 31
0.0
  0
LINE
  5
406
330
1F
100
AcDbEntity
  8
0
  6
Continuous
 62
     7
100
AcDbLine
 10
6204.0187550381
 20
4441.7537450346
 30
0.0
 11
6204.0187550381
 21
4448.1972828063
 31
0.0
  0
LINE
  5
407
330
1F
100
AcDbEntity
  8
0
  6
Continuous
 62
     7
100
AcDbLine
 10
6176.0187578991
 20
4441.7537450346
 30
0.0
 11
6204.0187550381
 21
4441.7537450346
 31
0.0
  0
LINE
  5
408
330
1F
100
AcDbEntity
  8
0
  6
Continuous
 62
     7
100
AcDbLine
 10
6182.8650740579
 20
4444.4100707325
 30
0.0
 11
6181.0343024924
 21
4444.4100707325
 31
0.0
  0
LINE
  5
409
330
1F
100
AcDbEntity
  8
0
  6
Continuous
 62
     7
100
AcDbLine
 10
6182.5341416195
 20
4444.112680808
 30
0.0
 11
6182.7573833659
 21
4444.0047740492
 31
0.0
  0
LINE
  5
40A
330
1F
100
AcDbEntity
  8
0
  6
Continuous
 62
     7
100
AcDbLine
 10
6182.3266131476
 20
4446.2274834069
 30
0.0
 11
6181.7887110308
 21
4445.6987827572
 31
0.0
  0
LINE
  5
40B
330
1F
100
AcDbEntity
  8
0
  6
Continuous
 62
     7
100
AcDbLine
 10
6181.9345412448
 20
4446.2274834069
 30
0.0
 11
6182.3266131476
 21
4446.2274834069
 31
0.0
  0
LINE
  5
40C
330
1F
100
AcDbEntity
  8
0
  6
Continuous
 62
     7
100
AcDbLine
 10
6181.5368665054
 20
4445.6987827572
 30
0.0
 11
6181.9345412448
 21
4446.2274834069
 31
0.0
  0
LINE
  5
40D
330
1F
100
AcDbEntity
  8
0
  6
Continuous
 62
     7
100
AcDbLine
 10
6181.7887110308
 20
4445.6987827572
 30
0.0
 11
6181.5368665054
 21
4445.6987827572
 31
0.0
  0
LINE
  5
40E
330
1F
100
AcDbEntity
  8
0
  6
Continuous
 62
     7
100
AcDbLine
 10
6183.5471225575
 20
4444.1508873853
 30
0.0
 11
6183.5471225575
 21
4443.5178935083
 31
0.0
  0
LINE
  5
40F
330
1F
100
AcDbEntity
  8
0
  6
Continuous
 62
     7
100
AcDbLine
 10
6184.2650754049
 20
4445.3698917779
 30
0.0
 11
6184.1270906523
 21
4445.1695680174
 31
0.0
  0
LINE
  5
410
330
1F
100
AcDbEntity
  8
0
  6
Continuous
 62
     7
100
AcDbLine
 10
6183.5471225575
 20
4445.4013853821
 30
0.0
 11
6183.5471225575
 21
4445.1241269263
 31
0.0
  0
LINE
  5
411
330
1F
100
AcDbEntity
  8
0
  6
Continuous
 62
     7
100
AcDbLine
 10
6183.2958442762
 20
4445.4013853821
 30
0.0
 11
6183.5471225575
 21
4445.4013853821
 31
0.0
  0
LINE
  5
412
330
1F
100
AcDbEntity
  8
0
  6
Continuous
 62
     7
100
AcDbLine
 10
6183.2958442762
 20
4443.5178935083
 30
0.0
 11
6183.2958442762
 21
4445.4013853821
 31
0.0
  0
LINE
  5
413
330
1F
100
AcDbEntity
  8
0
  6
Continuous
 62
     7
100
AcDbLine
 10
6183.5471225575
 20
4443.5178935083
 30
0.0
 11
6183.2958442762
 21
4443.5178935083
 31
0.0
  0
LINE
  5
414
330
1F
100
AcDbEntity
  8
0
  6
Continuous
 62
     7
100
AcDbLine
 10
6184.7317425206
 20
4445.4013853821
 30
0.0
 11
6184.7317425206
 21
4443.5178935083
 31
0.0
  0
LINE
  5
415
330
1F
100
AcDbEntity
  8
0
  6
Continuous
 62
     7
100
AcDbLine
 10
6184.4804567888
 20
4445.4013853821
 30
0.0
 11
6184.7317425206
 21
4445.4013853821
 31
0.0
  0
LINE
  5
416
330
1F
100
AcDbEntity
  8
0
  6
Continuous
 62
     7
100
AcDbLine
 10
6184.4804567888
 20
4443.5178935083
 30
0.0
 11
6184.4804567888
 21
4445.4013853821
 31
0.0
  0
LINE
  5
417
330
1F
100
AcDbEntity
  8
0
  6
Continuous
 62
     7
100
AcDbLine
 10
6184.7317425206
 20
4443.5178935083
 30
0.0
 11
6184.4804567888
 21
4443.5178935083
 31
0.0
  0
LINE
  5
418
330
1F
100
AcDbEntity
  8
0
  6
Continuous
 62
     7
100
AcDbLine
 10
6192.0189169839
 20
4444.4100707325
 30
0.0
 11
6190.188152869
 21
4444.4100707325
 31
0.0
  0
LINE
  5
419
330
1F
100
AcDbEntity
  8
0
  6
Continuous
 62
     7
100
AcDbLine
 10
6191.6879919961
 20
4444.112680808
 30
0.0
 11
6191.9112262919
 21
4444.0047740492
 31
0.0
  0
LINE
  5
41A
330
1F
100
AcDbEntity
  8
0
  6
Continuous
 62
     7
100
AcDbLine
 10
6191.4804560736
 20
4446.2274834069
 30
0.0
 11
6190.9425539568
 21
4445.6987827572
 31
0.0
  0
LINE
  5
41B
330
1F
100
AcDbEntity
  8
0
  6
Continuous
 62
     7
100
AcDbLine
 10
6191.0883916214
 20
4446.2274834069
 30
0.0
 11
6191.4804560736
 21
4446.2274834069
 31
0.0
  0
LINE
  5
41C
330
1F
100
AcDbEntity
  8
0
  6
Continuous
 62
     7
100
AcDbLine
 10
6190.690716882
 20
4445.6987827572
 30
0.0
 11
6191.0883916214
 21
4446.2274834069
 31
0.0
  0
LINE
  5
41D
330
1F
100
AcDbEntity
  8
0
  6
Continuous
 62
     7
100
AcDbLine
 10
6190.9425539568
 20
4445.6987827572
 30
0.0
 11
6190.690716882
 21
4445.6987827572
 31
0.0
  0
LINE
  5
41E
330
1F
100
AcDbEntity
  8
0
  6
Continuous
 62
     7
100
AcDbLine
 10
6195.3983289793
 20
4444.0465941581
 30
0.0
 11
6195.6086588696
 21
4443.9195841106
 31
0.0
  0
LINE
  5
41F
330
1F
100
AcDbEntity
  8
0
  6
Continuous
 62
     7
100
AcDbLine
 10
6195.6086588696
 20
4444.9929892572
 30
0.0
 11
6195.3983289793
 21
4444.8726847323
 31
0.0
  0
LINE
  5
420
330
1F
100
AcDbEntity
  8
0
  6
Continuous
 62
     7
100
AcDbLine
 10
6194.5872662261
 20
4445.9016918692
 30
0.0
 11
6194.8761326864
 21
4446.1283534321
 31
0.0
  0
LINE
  5
421
330
1F
100
AcDbEntity
  8
0
  6
Continuous
 62
     7
100
AcDbLine
 10
6194.2944807604
 20
4446.1283534321
 30
0.0
 11
6194.5872662261
 21
4445.9016918692
 31
0.0
  0
LINE
  5
422
330
1F
100
AcDbEntity
  8
0
  6
Continuous
 62
     7
100
AcDbLine
 10
6193.921482344
 20
4446.1283534321
 30
0.0
 11
6194.2944807604
 21
4446.1283534321
 31
0.0
  0
LINE
  5
423
330
1F
100
AcDbEntity
  8
0
  6
Continuous
 62
     7
100
AcDbLine
 10
6194.4666785791
 20
4445.6987827572
 30
0.0
 11
6193.921482344
 21
4446.1283534321
 31
0.0
  0
LINE
  5
424
330
1F
100
AcDbEntity
  8
0
  6
Continuous
 62
     7
100
AcDbLine
 10
6194.70280983
 20
4445.6987827572
 30
0.0
 11
6194.4666785791
 21
4445.6987827572
 31
0.0
  0
LINE
  5
425
330
1F
100
AcDbEntity
  8
0
  6
Continuous
 62
     7
100
AcDbLine
 10
6195.2496898964
 20
4446.1283534321
 30
0.0
 11
6194.70280983
 21
4445.6987827572
 31
0.0
  0
LINE
  5
426
330
1F
100
AcDbEntity
  8
0
  6
Continuous
 62
     7
100
AcDbLine
 10
6194.8761326864
 20
4446.1283534321
 30
0.0
 11
6195.2496898964
 21
4446.1283534321
 31
0.0
  0
LINE
  5
427
330
1F
100
AcDbEntity
  8
0
  6
Continuous
 62
     7
100
AcDbLine
 10
6196.326611717
 20
4445.4013853821
 30
0.0
 11
6196.326611717
 21
4443.5178935083
 31
0.0
  0
LINE
  5
428
330
1F
100
AcDbEntity
  8
0
  6
Continuous
 62
     7
100
AcDbLine
 10
6196.0753259852
 20
4445.4013853821
 30
0.0
 11
6196.326611717
 21
4445.4013853821
 31
0.0
  0
LINE
  5
429
330
1F
100
AcDbEntity
  8
0
  6
Continuous
 62
     7
100
AcDbLine
 10
6196.0753259852
 20
4443.5178935083
 30
0.0
 11
6196.0753259852
 21
4445.4013853821
 31
0.0
  0
LINE
  5
42A
330
1F
100
AcDbEntity
  8
0
  6
Continuous
 62
     7
100
AcDbLine
 10
6196.326611717
 20
4443.5178935083
 30
0.0
 11
6196.0753259852
 21
4443.5178935083
 31
0.0
  0
LINE
  5
42B
330
1F
100
AcDbEntity
  8
0
  6
Continuous
 62
     7
100
AcDbLine
 10
6196.7214850381
 20
4446.2274834069
 30
0.0
 11
6196.1835829213
 21
4445.6987827572
 31
0.0
  0
LINE
  5
42C
330
1F
100
AcDbEntity
  8
0
  6
Continuous
 62
     7
100
AcDbLine
 10
6196.3294131353
 20
4446.2274834069
 30
0.0
 11
6196.7214850381
 21
4446.2274834069
 31
0.0
  0
LINE
  5
42D
330
1F
100
AcDbEntity
  8
0
  6
Continuous
 62
     7
100
AcDbLine
 10
6195.931738396
 20
4445.6987827572
 30
0.0
 11
6196.3294131353
 21
4446.2274834069
 31
0.0
  0
LINE
  5
42E
330
1F
100
AcDbEntity
  8
0
  6
Continuous
 62
     7
100
AcDbLine
 10
6196.1835829213
 20
4445.6987827572
 30
0.0
 11
6195.931738396
 21
4445.6987827572
 31
0.0
  0
LINE
  5
42F
330
1F
100
AcDbEntity
  8
0
  6
Continuous
 62
     7
100
AcDbLine
 10
6196.7214850381
 20
4443.739905909
 30
0.0
 11
6196.8880725697
 21
4443.9144208583
 31
0.0
  0
LINE
  5
430
330
1F
100
AcDbEntity
  8
0
  6
Continuous
 62
     7
100
AcDbLine
 10
6197.8702006534
 20
4445.1664685759
 30
0.0
 11
6197.6996866658
 21
4445.0048654827
 31
0.0
  0
LINE
  5
431
330
1F
100
AcDbEntity
  8
0
  6
Continuous
 62
     7
100
AcDbLine
 10
6198.6240503982
 20
4446.161396757
 30
0.0
 11
6198.6240503982
 21
4443.5178935083
 31
0.0
  0
LINE
  5
432
330
1F
100
AcDbEntity
  8
0
  6
Continuous
 62
     7
100
AcDbLine
 10
6198.3727646664
 20
4446.161396757
 30
0.0
 11
6198.6240503982
 21
4446.161396757
 31
0.0
  0
LINE
  5
433
330
1F
100
AcDbEntity
  8
0
  6
Continuous
 62
     7
100
AcDbLine
 10
6198.3727646664
 20
4443.5178935083
 30
0.0
 11
6198.3727646664
 21
4446.161396757
 31
0.0
  0
LINE
  5
434
330
1F
100
AcDbEntity
  8
0
  6
Continuous
 62
     7
100
AcDbLine
 10
6198.6240503982
 20
4443.5178935083
 30
0.0
 11
6198.3727646664
 21
4443.5178935083
 31
0.0
  0
LINE
  5
435
330
1F
100
AcDbEntity
  8
0
  6
Continuous
 62
     7
100
AcDbLine
 10
6176.0187578991
 20
4448.1972828063
 30
0.0
 11
6176.0187578991
 21
4441.7537450346
 31
0.0
  0
LINE
  5
436
330
1F
100
AcDbEntity
  8
0
  6
Continuous
 62
     7
100
AcDbLine
 10
6204.0187550381
 20
4448.2363536509
 30
0.0
 11
6176.0187578991
 21
4448.2363536509
 31
0.0
  0
LINE
  5
437
330
1F
100
AcDbEntity
  8
0
  6
Continuous
 62
     7
100
AcDbLine
 10
6204.0187550381
 20
4448.1972828063
 30
0.0
 11
6204.0187550381
 21
4448.2363536509
 31
0.0
  0
LINE
  5
438
330
1F
100
AcDbEntity
  8
0
  6
Continuous
 62
     7
100
AcDbLine
 10
6176.0187578991
 20
4448.1972828063
 30
0.0
 11
6176.0187578991
 21
4448.2363536509
 31
0.0
  0
LINE
  5
439
330
1F
100
AcDbEntity
  8
0
  6
Continuous
 62
     7
100
AcDbLine
 10
6196.1835829213
 20
4445.7183181795
 30
0.0
 11
6196.1835829213
 21
4445.6987827572
 31
0.0
  0
LINE
  5
43A
330
1F
100
AcDbEntity
  8
0
  6
Continuous
 62
     7
100
AcDbLine
 10
6196.7016068891
 20
4446.2274834069
 30
0.0
 11
6196.1835829213
 21
4445.7183181795
 31
0.0
  0
LINE
  5
43B
330
1F
100
AcDbEntity
  8
0
  6
Continuous
 62
     7
100
AcDbLine
 10
6181.7887110308
 20
4445.7183181795
 30
0.0
 11
6181.7887110308
 21
4445.6987827572
 31
0.0
  0
LINE
  5
43C
330
1F
100
AcDbEntity
  8
0
  6
Continuous
 62
     7
100
AcDbLine
 10
6182.3067349985
 20
4446.2274834069
 30
0.0
 11
6181.7887110308
 21
4445.7183181795
 31
0.0
  0
LINE
  5
43D
330
1F
100
AcDbEntity
  8
0
  6
Continuous
 62
     7
100
AcDbLine
 10
6190.9425539568
 20
4445.7183181795
 30
0.0
 11
6190.9425539568
 21
4445.6987827572
 31
0.0
  0
LINE
  5
43E
330
1F
100
AcDbEntity
  8
0
  6
Continuous
 62
     7
100
AcDbLine
 10
6191.4605779245
 20
4446.2274834069
 30
0.0
 11
6190.9425539568
 21
4445.7183181795
 31
0.0
  0
LINE
  5
43F
330
1F
100
AcDbEntity
  8
0
  6
Continuous
 62
     7
100
AcDbLine
 10
6194.70280983
 20
4445.7183181795
 30
0.0
 11
6194.70280983
 21
4445.6987827572
 31
0.0
  0
LINE
  5
440
330
1F
100
AcDbEntity
  8
0
  6
Continuous
 62
     7
100
AcDbLine
 10
6195.2248198584
 20
4446.1283534321
 30
0.0
 11
6194.70280983
 21
4445.7183181795
 31
0.0
  0
LINE
  5
441
330
1F
100
AcDbEntity
  8
0
  6
Continuous
 62
     7
100
AcDbLine
 10
6194.4666785791
 20
4445.7183181795
 30
0.0
 11
6193.9462778762
 21
4446.1283534321
 31
0.0
  0
LINE
  5
442
330
1F
100
AcDbEntity
  8
0
  6
Continuous
 62
     7
100
AcDbLine
 10
6194.4666785791
 20
4445.7183181795
 30
0.0
 11
6194.4666785791
 21
4445.6987827572
 31
0.0
  0
LINE
  5
443
330
1F
100
AcDbEntity
  8
0
  6
Continuous
 62
     7
100
AcDbLine
 10
6181.7887110308
 20
4445.7183181795
 30
0.0
 11
6181.5515590504
 21
4445.7183181795
 31
0.0
  0
LINE
  5
444
330
1F
100
AcDbEntity
  8
0
  6
Continuous
 62
     7
100
AcDbLine
 10
6190.9425539568
 20
4445.7183181795
 30
0.0
 11
6190.705409427
 21
4445.7183181795
 31
0.0
  0
LINE
  5
445
330
1F
100
AcDbEntity
  8
0
  6
Continuous
 62
     7
100
AcDbLine
 10
6196.1835829213
 20
4445.7183181795
 30
0.0
 11
6195.9464309409
 21
4445.7183181795
 31
0.0
  0
LINE
  5
446
330
1F
100
AcDbEntity
  8
0
  6
Continuous
 62
     7
100
AcDbLine
 10
6198.6240503982
 20
4443.5374289307
 30
0.0
 11
6198.3727646664
 21
4443.5374289307
 31
0.0
  0
LINE
  5
447
330
1F
100
AcDbEntity
  8
0
  6
Continuous
 62
     7
100
AcDbLine
 10
6180.3163570955
 20
4445.7446485313
 30
0.0
 11
6180.0891888931
 21
4445.5861448797
 31
0.0
  0
LINE
  5
448
330
1F
100
AcDbEntity
  8
0
  6
Continuous
 62
     7
100
AcDbLine
 10
6194.70280983
 20
4445.7183181795
 30
0.0
 11
6194.4666785791
 21
4445.7183181795
 31
0.0
  0
LINE
  5
449
330
1F
100
AcDbEntity
  8
0
  6
Continuous
 62
     7
100
AcDbLine
 10
6184.6049783423
 20
4445.8174481543
 30
0.0
 11
6184.6049783423
 21
4445.797912732
 31
0.0
  0
LINE
  5
44A
330
1F
100
AcDbEntity
  8
0
  6
Continuous
 62
     7
100
AcDbLine
 10
6179.1317371324
 20
4445.5902725014
 30
0.0
 11
6179.1317371324
 21
4445.570737079
 31
0.0
  0
LINE
  5
44B
330
1F
100
AcDbEntity
  8
0
  6
Continuous
 62
     7
100
AcDbLine
 10
6179.5423162773
 20
4445.9165781292
 30
0.0
 11
6179.5423162773
 21
4445.8970427069
 31
0.0
  0
LINE
  5
44C
330
1F
100
AcDbEntity
  8
0
  6
Continuous
 62
     7
100
AcDbLine
 10
6180.0891888931
 20
4445.5861448797
 30
0.0
 11
6180.0891888931
 21
4445.5666094574
 31
0.0
  0
LINE
  5
44D
330
1F
100
AcDbEntity
  8
0
  6
Continuous
 62
     7
100
AcDbLine
 10
6179.036950846
 20
4445.1870396289
 30
0.0
 11
6179.036950846
 21
4445.167496756
 31
0.0
  0
LINE
  5
44E
330
1F
100
AcDbEntity
  8
0
  6
Continuous
 62
     7
100
AcDbLine
 10
6188.6086595848
 20
4443.5374289307
 30
0.0
 11
6187.6850111082
 21
4445.4013853821
 31
0.0
  0
LINE
  5
44F
330
1F
100
AcDbEntity
  8
0
  6
Continuous
 62
     7
100
AcDbLine
 10
6188.6086595848
 20
4443.5374289307
 30
0.0
 11
6188.6086595848
 21
4443.5178935083
 31
0.0
  0
LINE
  5
450
330
1F
100
AcDbEntity
  8
0
  6
Continuous
 62
     7
100
AcDbLine
 10
6188.6445564821
 20
4443.5374289307
 30
0.0
 11
6188.6445564821
 21
4443.5178935083
 31
0.0
  0
LINE
  5
451
330
1F
100
AcDbEntity
  8
0
  6
Continuous
 62
     7
100
AcDbLine
 10
6189.5682124093
 20
4445.4013853821
 30
0.0
 11
6188.6445564821
 21
4443.5374289307
 31
0.0
  0
LINE
  5
452
330
1F
100
AcDbEntity
  8
0
  6
Continuous
 62
     7
100
AcDbLine
 10
6184.1270906523
 20
4445.1891034397
 30
0.0
 11
6184.1270906523
 21
4445.1695680174
 31
0.0
  0
LINE
  5
453
330
1F
100
AcDbEntity
  8
0
  6
Continuous
 62
     7
100
AcDbLine
 10
6184.2548383072
 20
4445.3745632919
 30
0.0
 11
6184.1270906523
 21
4445.1891034397
 31
0.0
  0
LINE
  5
454
330
1F
100
AcDbEntity
  8
0
  6
Continuous
 62
     7
100
AcDbLine
 10
6195.6086588696
 20
4445.0125246796
 30
0.0
 11
6195.3983289793
 21
4444.8922201547
 31
0.0
  0
LINE
  5
455
330
1F
100
AcDbEntity
  8
0
  6
Continuous
 62
     7
100
AcDbLine
 10
6192.0189169839
 20
4444.4296136054
 30
0.0
 11
6190.188152869
 21
4444.4296136054
 31
0.0
  0
LINE
  5
456
330
1F
100
AcDbEntity
  8
0
  6
Continuous
 62
     7
100
AcDbLine
 10
6183.5471225575
 20
4443.5374289307
 30
0.0
 11
6183.2958442762
 21
4443.5374289307
 31
0.0
  0
LINE
  5
457
330
1F
100
AcDbEntity
  8
0
  6
Continuous
 62
     7
100
AcDbLine
 10
6182.8650740579
 20
4444.4296136054
 30
0.0
 11
6181.0343024924
 21
4444.4296136054
 31
0.0
  0
LINE
  5
458
330
1F
100
AcDbEntity
  8
0
  6
Continuous
 62
     7
100
AcDbLine
 10
6197.8702006534
 20
4445.1860039982
 30
0.0
 11
6197.6996866658
 21
4445.024400905
 31
0.0
  0
LINE
  5
459
330
1F
100
AcDbEntity
  8
0
  6
Continuous
 62
     7
100
AcDbLine
 10
6196.326611717
 20
4443.5374289307
 30
0.0
 11
6196.0753259852
 21
4443.5374289307
 31
0.0
  0
LINE
  5
45A
330
1F
100
AcDbEntity
  8
0
  6
Continuous
 62
     7
100
AcDbLine
 10
6184.7317425206
 20
4443.5374289307
 30
0.0
 11
6184.4804567888
 21
4443.5374289307
 31
0.0
  0
LINE
  5
45B
330
1F
100
AcDbEntity
  8
0
  6
Continuous
 62
     7
100
AcDbLine
 10
6188.6445564821
 20
4443.5374289307
 30
0.0
 11
6188.6086595848
 21
4443.5374289307
 31
0.0
  0
LINE
  5
45C
330
1F
100
AcDbEntity
  8
0
  6
Continuous
 62
     7
100
AcDbLine
 10
6190.2145130232
 20
4444.6413814577
 30
0.0
 11
6191.7676387027
 21
4444.6413814577
 31
0.0
  0
LINE
  5
45D
330
1F
100
AcDbEntity
  8
0
  6
Continuous
 62
     7
100
AcDbLine
 10
6190.985186179
 20
4445.2226608547
 30
0.0
 11
6190.985186179
 21
4445.2031254324
 31
0.0
  0
LINE
  5
45E
330
1F
100
AcDbEntity
  8
0
  6
Continuous
 62
     7
100
AcDbLine
 10
6191.7676387027
 20
4444.66091688
 30
0.0
 11
6191.7676387027
 21
4444.6413814577
 31
0.0
  0
LINE
  5
45F
330
1F
100
AcDbEntity
  8
0
  6
Continuous
 62
     7
100
AcDbLine
 10
6197.3463205293
 20
4445.2226608547
 30
0.0
 11
6197.3463205293
 21
4445.2031254324
 31
0.0
  0
LINE
  5
460
330
1F
100
AcDbEntity
  8
0
  6
Continuous
 62
     7
100
AcDbLine
 10
6197.6996866658
 20
4445.024400905
 30
0.0
 11
6197.6996866658
 21
4445.0048654827
 31
0.0
  0
LINE
  5
461
330
1F
100
AcDbEntity
  8
0
  6
Continuous
 62
     7
100
AcDbLine
 10
6183.5919974044
 20
4444.8168426308
 30
0.0
 11
6183.5919974044
 21
4444.7973072084
 31
0.0
  0
LINE
  5
462
330
1F
100
AcDbEntity
  8
0
  6
Continuous
 62
     7
100
AcDbLine
 10
6183.9986426428
 20
4445.2226608547
 30
0.0
 11
6183.9986426428
 21
4445.2031254324
 31
0.0
  0
LINE
  5
463
330
1F
100
AcDbEntity
  8
0
  6
Continuous
 62
     7
100
AcDbLine
 10
6197.0804540113
 20
4444.9691548499
 30
0.0
 11
6197.0804540113
 21
4444.9496194276
 31
0.0
  0
LINE
  5
464
330
1F
100
AcDbEntity
  8
0
  6
Continuous
 62
     7
100
AcDbLine
 10
6200.1855877832
 20
4445.2226608547
 30
0.0
 11
6200.1855877832
 21
4445.2031254324
 31
0.0
  0
LINE
  5
465
330
1F
100
AcDbEntity
  8
0
  6
Continuous
 62
     7
100
AcDbLine
 10
6200.9932754233
 20
4444.4724618944
 30
0.0
 11
6200.9932754233
 21
4444.4529264721
 31
0.0
  0
LINE
  5
466
330
1F
100
AcDbEntity
  8
0
  6
Continuous
 62
     7
100
AcDbLine
 10
6199.3778926924
 20
4444.4724618944
 30
0.0
 11
6199.3778926924
 21
4444.4529264721
 31
0.0
  0
LINE
  5
467
330
1F
100
AcDbEntity
  8
0
  6
Continuous
 62
     7
100
AcDbLine
 10
6190.4579383925
 20
4445.0460820946
 30
0.0
 11
6190.4579383925
 21
4445.0265466722
 31
0.0
  0
LINE
  5
468
330
1F
100
AcDbEntity
  8
0
  6
Continuous
 62
     7
100
AcDbLine
 10
6181.3040954664
 20
4445.0460820946
 30
0.0
 11
6181.3040954664
 21
4445.0265466722
 31
0.0
  0
LINE
  5
469
330
1F
100
AcDbEntity
  8
0
  6
Continuous
 62
     7
100
AcDbLine
 10
6181.8313358024
 20
4445.2226608547
 30
0.0
 11
6181.8313358024
 21
4445.2031254324
 31
0.0
  0
LINE
  5
46A
330
1F
100
AcDbEntity
  8
0
  6
Continuous
 62
     7
100
AcDbLine
 10
6185.5214817122
 20
4444.4724618944
 30
0.0
 11
6185.5214817122
 21
4444.4529264721
 31
0.0
  0
LINE
  5
46B
330
1F
100
AcDbEntity
  8
0
  6
Continuous
 62
     7
100
AcDbLine
 10
6186.3291768029
 20
4445.2226608547
 30
0.0
 11
6186.3291768029
 21
4445.2031254324
 31
0.0
  0
LINE
  5
46C
330
1F
100
AcDbEntity
  8
0
  6
Continuous
 62
     7
100
AcDbLine
 10
6187.1368644431
 20
4444.4724618944
 30
0.0
 11
6187.1368644431
 21
4444.4529264721
 31
0.0
  0
LINE
  5
46D
330
1F
100
AcDbEntity
  8
0
  6
Continuous
 62
     7
100
AcDbLine
 10
6181.0606626466
 20
4444.6413814577
 30
0.0
 11
6182.6137883261
 21
4444.6413814577
 31
0.0
  0
LINE
  5
46E
330
1F
100
AcDbEntity
  8
0
  6
Continuous
 62
     7
100
AcDbLine
 10
6194.6534571841
 20
4445.2226608547
 30
0.0
 11
6194.6534571841
 21
4445.2031254324
 31
0.0
  0
LINE
  5
46F
330
1F
100
AcDbEntity
  8
0
  6
Continuous
 62
     7
100
AcDbLine
 10
6195.3983289793
 20
4444.8922201547
 30
0.0
 11
6195.3983289793
 21
4444.8726847323
 31
0.0
  0
LINE
  5
470
330
1F
100
AcDbEntity
  8
0
  6
Continuous
 62
     7
100
AcDbLine
 10
6193.7778947547
 20
4444.4843381199
 30
0.0
 11
6193.7778947547
 21
4444.4648026976
 31
0.0
  0
LINE
  5
471
330
1F
100
AcDbEntity
  8
0
  6
Continuous
 62
     7
100
AcDbLine
 10
6182.6137883261
 20
4444.66091688
 30
0.0
 11
6182.6137883261
 21
4444.6413814577
 31
0.0
  0
LINE
  5
472
330
1F
100
AcDbEntity
  8
0
  6
Continuous
 62
     7
100
AcDbLine
 10
6179.4957650497
 20
4444.8364600095
 30
0.0
 11
6179.4957650497
 21
4444.8169245871
 31
0.0
  0
LINE
  5
473
330
1F
100
AcDbEntity
  8
0
  6
Continuous
 62
     7
100
AcDbLine
 10
6181.0606626466
 20
4444.66091688
 30
0.0
 11
6181.0606626466
 21
4444.6413814577
 31
0.0
  0
LINE
  5
474
330
1F
100
AcDbEntity
  8
0
  6
Continuous
 62
     7
100
AcDbLine
 10
6190.2145130232
 20
4444.66091688
 30
0.0
 11
6190.2145130232
 21
4444.6413814577
 31
0.0
  0
LINE
  5
475
330
1F
100
AcDbEntity
  8
0
  6
Continuous
 62
     7
100
AcDbLine
 10
6196.9228444293
 20
4444.669693664
 30
0.0
 11
6196.9228444293
 21
4444.6501582416
 31
0.0
  0
LINE
  5
476
330
1F
100
AcDbEntity
  8
0
  6
Continuous
 62
     7
100
AcDbLine
 10
6180.0005716875
 20
4444.4254785332
 30
0.0
 11
6180.0005716875
 21
4444.4059431108
 31
0.0
  0
LINE
  5
477
330
1F
100
AcDbEntity
  8
0
  6
Continuous
 62
     7
100
AcDbLine
 10
6183.5471225575
 20
4444.1704228076
 30
0.0
 11
6183.5471225575
 21
4444.1508873853
 31
0.0
  0
LINE
  5
478
330
1F
100
AcDbEntity
  8
0
  6
Continuous
 62
     7
100
AcDbLine
 10
6197.2756517723
 20
4444.4125741276
 30
0.0
 11
6197.2756517723
 21
4444.3930387052
 31
0.0
  0
LINE
  5
479
330
1F
100
AcDbEntity
  8
0
  6
Continuous
 62
     7
100
AcDbLine
 10
6200.1867053702
 20
4443.5043856057
 30
0.0
 11
6200.1867053702
 21
4443.4848501834
 31
0.0
  0
LINE
  5
47A
330
1F
100
AcDbEntity
  8
0
  6
Continuous
 62
     7
100
AcDbLine
 10
6186.33029439
 20
4443.5043856057
 30
0.0
 11
6186.33029439
 21
4443.4848501834
 31
0.0
  0
LINE
  5
47B
330
1F
100
AcDbEntity
  8
0
  6
Continuous
 62
     7
100
AcDbLine
 10
6190.9661126926
 20
4443.5043856057
 30
0.0
 11
6190.9661126926
 21
4443.4848501834
 31
0.0
  0
LINE
  5
47C
330
1F
100
AcDbEntity
  8
0
  6
Continuous
 62
     7
100
AcDbLine
 10
6181.8122697666
 20
4443.5043856057
 30
0.0
 11
6181.8122697666
 21
4443.4848501834
 31
0.0
  0
LINE
  5
47D
330
1F
100
AcDbEntity
  8
0
  6
Continuous
 62
     7
100
AcDbLine
 10
6194.6512071088
 20
4443.5043856057
 30
0.0
 11
6194.6512071088
 21
4443.4848501834
 31
0.0
  0
LINE
  5
47E
330
1F
100
AcDbEntity
  8
0
  6
Continuous
 62
     7
100
AcDbLine
 10
6181.0343024924
 20
4444.4296136054
 30
0.0
 11
6181.0343024924
 21
4444.4100707325
 31
0.0
  0
LINE
  5
47F
330
1F
100
AcDbEntity
  8
0
  6
Continuous
 62
     7
100
AcDbLine
 10
6190.188152869
 20
4444.4296136054
 30
0.0
 11
6190.188152869
 21
4444.4100707325
 31
0.0
  0
LINE
  5
480
330
1F
100
AcDbEntity
  8
0
  6
Continuous
 62
     7
100
AcDbLine
 10
6180.1009682611
 20
4444.1724866184
 30
0.0
 11
6180.1009682611
 21
4444.1529511961
 31
0.0
  0
LINE
  5
481
330
1F
100
AcDbEntity
  8
0
  6
Continuous
 62
     7
100
AcDbLine
 10
6197.5858268931
 20
4444.2184417995
 30
0.0
 11
6197.5858268931
 21
4444.1989063772
 31
0.0
  0
LINE
  5
482
330
1F
100
AcDbEntity
  8
0
  6
Continuous
 62
     7
100
AcDbLine
 10
6197.6548192695
 20
4444.0387635979
 30
0.0
 11
6197.6548192695
 21
4444.0192281755
 31
0.0
  0
LINE
  5
483
330
1F
100
AcDbEntity
  8
0
  6
Continuous
 62
     7
100
AcDbLine
 10
6179.552411814
 20
4443.4713422808
 30
0.0
 11
6179.552411814
 21
4443.4518068584
 31
0.0
  0
LINE
  5
484
330
1F
100
AcDbEntity
  8
0
  6
Continuous
 62
     7
100
AcDbLine
 10
6197.306497176
 20
4443.5043856057
 30
0.0
 11
6197.306497176
 21
4443.4848501834
 31
0.0
  0
LINE
  5
485
330
1F
100
AcDbEntity
  8
0
  6
Continuous
 62
     7
100
AcDbLine
 10
6259.1187555015
 20
4352.0640488269
 30
0.0
 11
6288.9187551707
 21
4352.0640488269
 31
0.0
  0
LINE
  5
486
330
1F
100
AcDbEntity
  8
0
  6
Continuous
 62
     7
100
AcDbLine
 10
6260.018754904
 20
4360.0640485084
 30
0.0
 11
6260.018754904
 21
4354.0640482235
 31
0.0
  0
LINE
  5
487
330
1F
100
AcDbEntity
  8
0
  6
Continuous
 62
     7
100
AcDbLine
 10
6288.0187557682
 20
4360.0640485084
 30
0.0
 11
6288.0187557682
 21
4354.0640482235
 31
0.0
  0
LINE
  5
488
330
1F
100
AcDbEntity
  8
0
  6
Continuous
 62
     7
100
AcDbLine
 10
6260.018754904
 20
4354.0640482235
 30
0.0
 11
6288.0187557682
 21
4354.0640482235
 31
0.0
  0
LINE
  5
489
330
1F
100
AcDbEntity
  8
0
  6
Continuous
 62
     7
100
AcDbLine
 10
6259.1187555015
 20
4329.0640487822
 30
0.0
 11
6259.3021990403
 21
4327.0454518052
 31
0.0
  0
LINE
  5
48A
330
1F
100
AcDbEntity
  8
0
  6
Continuous
 62
     7
100
AcDbLine
 10
6259.3021990403
 20
4327.0454518052
 30
0.0
 11
6259.8480136737
 21
4325.0765613767
 31
0.0
  0
LINE
  5
48B
330
1F
100
AcDbEntity
  8
0
  6
Continuous
 62
     7
100
AcDbLine
 10
6259.8480136737
 20
4325.0765613767
 30
0.0
 11
6260.7427585542
 21
4323.2058546993
 31
0.0
  0
LINE
  5
48C
330
1F
100
AcDbEntity
  8
0
  6
Continuous
 62
     7
100
AcDbLine
 10
6260.7427585542
 20
4323.2058546993
 30
0.0
 11
6261.964402315
 21
4321.4793987128
 31
0.0
  0
LINE
  5
48D
330
1F
100
AcDbEntity
  8
0
  6
Continuous
 62
     7
100
AcDbLine
 10
6261.964402315
 20
4321.4793987128
 30
0.0
 11
6263.4828641683
 21
4319.9396989795
 31
0.0
  0
LINE
  5
48E
330
1F
100
AcDbEntity
  8
0
  6
Continuous
 62
     7
100
AcDbLine
 10
6263.4828641683
 20
4319.9396989795
 30
0.0
 11
6265.2607552379
 21
4318.6246715042
 31
0.0
  0
LINE
  5
48F
330
1F
100
AcDbEntity
  8
0
  6
Continuous
 62
     7
100
AcDbLine
 10
6265.2607552379
 20
4318.6246715042
 30
0.0
 11
6267.2542968437
 21
4317.56669651
 31
0.0
  0
LINE
  5
490
330
1F
100
AcDbEntity
  8
0
  6
Continuous
 62
     7
100
AcDbLine
 10
6267.2542968437
 20
4317.56669651
 30
0.0
 11
6269.4144022323
 21
4316.791824952
 31
0.0
  0
LINE
  5
491
330
1F
100
AcDbEntity
  8
0
  6
Continuous
 62
     7
100
AcDbLine
 10
6269.4144022323
 20
4316.791824952
 30
0.0
 11
6271.6878817089
 21
4316.3191377672
 31
0.0
  0
LINE
  5
492
330
1F
100
AcDbEntity
  8
0
  6
Continuous
 62
     7
100
AcDbLine
 10
6271.6878817089
 20
4316.3191377672
 30
0.0
 11
6274.0187553361
 21
4316.1602690371
 31
0.0
  0
LINE
  5
493
330
1F
100
AcDbEntity
  8
0
  6
Continuous
 62
     7
100
AcDbLine
 10
6274.0187553361
 20
4316.1602690371
 30
0.0
 11
6276.3496289633
 21
4316.3191377672
 31
0.0
  0
LINE
  5
494
330
1F
100
AcDbEntity
  8
0
  6
Continuous
 62
     7
100
AcDbLine
 10
6276.3496289633
 20
4316.3191377672
 30
0.0
 11
6278.6231084399
 21
4316.791824952
 31
0.0
  0
LINE
  5
495
330
1F
100
AcDbEntity
  8
0
  6
Continuous
 62
     7
100
AcDbLine
 10
6278.6231084399
 20
4316.791824952
 30
0.0
 11
6280.7832138285
 21
4317.56669651
 31
0.0
  0
LINE
  5
496
330
1F
100
AcDbEntity
  8
0
  6
Continuous
 62
     7
100
AcDbLine
 10
6280.7832138285
 20
4317.56669651
 30
0.0
 11
6282.7767554343
 21
4318.6246715042
 31
0.0
  0
LINE
  5
497
330
1F
100
AcDbEntity
  8
0
  6
Continuous
 62
     7
100
AcDbLine
 10
6282.7767554343
 20
4318.6246715042
 30
0.0
 11
6284.5546465039
 21
4319.9396989795
 31
0.0
  0
LINE
  5
498
330
1F
100
AcDbEntity
  8
0
  6
Continuous
 62
     7
100
AcDbLine
 10
6284.5546465039
 20
4319.9396989795
 30
0.0
 11
6286.0731083572
 21
4321.4793987128
 31
0.0
  0
LINE
  5
499
330
1F
100
AcDbEntity
  8
0
  6
Continuous
 62
     7
100
AcDbLine
 10
6286.0731083572
 20
4321.4793987128
 30
0.0
 11
6287.294752118
 21
4323.2058546993
 31
0.0
  0
LINE
  5
49A
330
1F
100
AcDbEntity
  8
0
  6
Continuous
 62
     7
100
AcDbLine
 10
6287.294752118
 20
4323.2058546993
 30
0.0
 11
6288.1894969985
 21
4325.0765613767
 31
0.0
  0
LINE
  5
49B
330
1F
100
AcDbEntity
  8
0
  6
Continuous
 62
     7
100
AcDbLine
 10
6288.1894969985
 20
4325.0765613767
 30
0.0
 11
6288.7353116319
 21
4327.0454518052
 31
0.0
  0
LINE
  5
49C
330
1F
100
AcDbEntity
  8
0
  6
Continuous
 62
     7
100
AcDbLine
 10
6288.7353116319
 20
4327.0454518052
 30
0.0
 11
6288.9187551707
 21
4329.0640487822
 31
0.0
  0
LINE
  5
49D
330
1F
100
AcDbEntity
  8
0
  6
Continuous
 62
     7
100
AcDbLine
 10
6259.1187555015
 20
4328.8140482756
 30
0.0
 11
6259.3021990403
 21
4326.7954512986
 31
0.0
  0
LINE
  5
49E
330
1F
100
AcDbEntity
  8
0
  6
Continuous
 62
     7
100
AcDbLine
 10
6259.3021990403
 20
4326.7954512986
 30
0.0
 11
6259.8480136737
 21
4324.8265608701
 31
0.0
  0
LINE
  5
49F
330
1F
100
AcDbEntity
  8
0
  6
Continuous
 62
     7
100
AcDbLine
 10
6259.8480136737
 20
4324.8265608701
 30
0.0
 11
6260.7427585542
 21
4322.9558541926
 31
0.0
  0
LINE
  5
4A0
330
1F
100
AcDbEntity
  8
0
  6
Continuous
 62
     7
100
AcDbLine
 10
6260.7427585542
 20
4322.9558541926
 30
0.0
 11
6261.964402315
 21
4321.2293982061
 31
0.0
  0
LINE
  5
4A1
330
1F
100
AcDbEntity
  8
0
  6
Continuous
 62
     7
100
AcDbLine
 10
6261.964402315
 20
4321.2293982061
 30
0.0
 11
6263.4828641683
 21
4319.6896984729
 31
0.0
  0
LINE
  5
4A2
330
1F
100
AcDbEntity
  8
0
  6
Continuous
 62
     7
100
AcDbLine
 10
6263.4828641683
 20
4319.6896984729
 30
0.0
 11
6265.2607552379
 21
4318.3746709975
 31
0.0
  0
LINE
  5
4A3
330
1F
100
AcDbEntity
  8
0
  6
Continuous
 62
     7
100
AcDbLine
 10
6265.2607552379
 20
4318.3746709975
 30
0.0
 11
6267.2542968437
 21
4317.3166960033
 31
0.0
  0
LINE
  5
4A4
330
1F
100
AcDbEntity
  8
0
  6
Continuous
 62
     7
100
AcDbLine
 10
6267.2542968437
 20
4317.3166960033
 30
0.0
 11
6269.4144022323
 21
4316.5418244454
 31
0.0
  0
LINE
  5
4A5
330
1F
100
AcDbEntity
  8
0
  6
Continuous
 62
     7
100
AcDbLine
 10
6269.4144022323
 20
4316.5418244454
 30
0.0
 11
6271.6878817089
 21
4316.0691372606
 31
0.0
  0
LINE
  5
4A6
330
1F
100
AcDbEntity
  8
0
  6
Continuous
 62
     7
100
AcDbLine
 10
6271.6878817089
 20
4316.0691372606
 30
0.0
 11
6274.0187553361
 21
4315.9102685305
 31
0.0
  0
LINE
  5
4A7
330
1F
100
AcDbEntity
  8
0
  6
Continuous
 62
     7
100
AcDbLine
 10
6274.0187553361
 20
4315.9102685305
 30
0.0
 11
6276.3496289633
 21
4316.0691372606
 31
0.0
  0
LINE
  5
4A8
330
1F
100
AcDbEntity
  8
0
  6
Continuous
 62
     7
100
AcDbLine
 10
6276.3496289633
 20
4316.0691372606
 30
0.0
 11
6278.6231084399
 21
4316.5418244454
 31
0.0
  0
LINE
  5
4A9
330
1F
100
AcDbEntity
  8
0
  6
Continuous
 62
     7
100
AcDbLine
 10
6278.6231084399
 20
4316.5418244454
 30
0.0
 11
6280.7832138285
 21
4317.3166960033
 31
0.0
  0
LINE
  5
4AA
330
1F
100
AcDbEntity
  8
0
  6
Continuous
 62
     7
100
AcDbLine
 10
6280.7832138285
 20
4317.3166960033
 30
0.0
 11
6282.7767554343
 21
4318.3746709975
 31
0.0
  0
LINE
  5
4AB
330
1F
100
AcDbEntity
  8
0
  6
Continuous
 62
     7
100
AcDbLine
 10
6282.7767554343
 20
4318.3746709975
 30
0.0
 11
6284.5546465039
 21
4319.6896984729
 31
0.0
  0
LINE
  5
4AC
330
1F
100
AcDbEntity
  8
0
  6
Continuous
 62
     7
100
AcDbLine
 10
6284.5546465039
 20
4319.6896984729
 30
0.0
 11
6286.0731083572
 21
4321.2293982061
 31
0.0
  0
LINE
  5
4AD
330
1F
100
AcDbEntity
  8
0
  6
Continuous
 62
     7
100
AcDbLine
 10
6286.0731083572
 20
4321.2293982061
 30
0.0
 11
6287.294752118
 21
4322.9558541926
 31
0.0
  0
LINE
  5
4AE
330
1F
100
AcDbEntity
  8
0
  6
Continuous
 62
     7
100
AcDbLine
 10
6287.294752118
 20
4322.9558541926
 30
0.0
 11
6288.1894969985
 21
4324.8265608701
 31
0.0
  0
LINE
  5
4AF
330
1F
100
AcDbEntity
  8
0
  6
Continuous
 62
     7
100
AcDbLine
 10
6288.1894969985
 20
4324.8265608701
 30
0.0
 11
6288.7353116319
 21
4326.7954512986
 31
0.0
  0
LINE
  5
4B0
330
1F
100
AcDbEntity
  8
0
  6
Continuous
 62
     7
100
AcDbLine
 10
6288.7353116319
 20
4326.7954512986
 30
0.0
 11
6288.9187551707
 21
4328.8140482756
 31
0.0
  0
LINE
  5
4B1
330
1F
100
AcDbEntity
  8
0
  6
Continuous
 62
     7
100
AcDbLine
 10
6274.0187553361
 20
4300.1602701398
 30
0.0
 11
6276.3496289633
 21
4300.3191388699
 31
0.0
  0
LINE
  5
4B2
330
1F
100
AcDbEntity
  8
0
  6
Continuous
 62
     7
100
AcDbLine
 10
6276.3496289633
 20
4300.3191388699
 30
0.0
 11
6278.6231084399
 21
4300.7918260547
 31
0.0
  0
LINE
  5
4B3
330
1F
100
AcDbEntity
  8
0
  6
Continuous
 62
     7
100
AcDbLine
 10
6278.6231084399
 20
4300.7918260547
 30
0.0
 11
6280.7832138285
 21
4301.5666976127
 31
0.0
  0
LINE
  5
4B4
330
1F
100
AcDbEntity
  8
0
  6
Continuous
 62
     7
100
AcDbLine
 10
6280.7832138285
 20
4301.5666976127
 30
0.0
 11
6282.7767554343
 21
4302.6246726068
 31
0.0
  0
LINE
  5
4B5
330
1F
100
AcDbEntity
  8
0
  6
Continuous
 62
     7
100
AcDbLine
 10
6282.7767554343
 20
4302.6246726068
 30
0.0
 11
6284.5546465039
 21
4303.9397000822
 31
0.0
  0
LINE
  5
4B6
330
1F
100
AcDbEntity
  8
0
  6
Continuous
 62
     7
100
AcDbLine
 10
6284.5546465039
 20
4303.9397000822
 30
0.0
 11
6286.0731083572
 21
4305.4793960902
 31
0.0
  0
LINE
  5
4B7
330
1F
100
AcDbEntity
  8
0
  6
Continuous
 62
     7
100
AcDbLine
 10
6286.0731083572
 20
4305.4793960902
 30
0.0
 11
6287.294752118
 21
4307.205855802
 31
0.0
  0
LINE
  5
4B8
330
1F
100
AcDbEntity
  8
0
  6
Continuous
 62
     7
100
AcDbLine
 10
6287.294752118
 20
4307.205855802
 30
0.0
 11
6288.1894969985
 21
4309.0765624794
 31
0.0
  0
LINE
  5
4B9
330
1F
100
AcDbEntity
  8
0
  6
Continuous
 62
     7
100
AcDbLine
 10
6288.1894969985
 20
4309.0765624794
 30
0.0
 11
6288.7353116319
 21
4311.0454529079
 31
0.0
  0
LINE
  5
4BA
330
1F
100
AcDbEntity
  8
0
  6
Continuous
 62
     7
100
AcDbLine
 10
6288.7353116319
 20
4311.0454529079
 30
0.0
 11
6288.9187551707
 21
4313.0640498849
 31
0.0
  0
LINE
  5
4BB
330
1F
100
AcDbEntity
  8
0
  6
Continuous
 62
     7
100
AcDbLine
 10
6259.1187555015
 20
4313.0640498849
 30
0.0
 11
6259.3021990403
 21
4311.0454529079
 31
0.0
  0
LINE
  5
4BC
330
1F
100
AcDbEntity
  8
0
  6
Continuous
 62
     7
100
AcDbLine
 10
6259.3021990403
 20
4311.0454529079
 30
0.0
 11
6259.8480136737
 21
4309.0765624794
 31
0.0
  0
LINE
  5
4BD
330
1F
100
AcDbEntity
  8
0
  6
Continuous
 62
     7
100
AcDbLine
 10
6259.8480136737
 20
4309.0765624794
 30
0.0
 11
6260.7427585542
 21
4307.205855802
 31
0.0
  0
LINE
  5
4BE
330
1F
100
AcDbEntity
  8
0
  6
Continuous
 62
     7
100
AcDbLine
 10
6260.7427585542
 20
4307.205855802
 30
0.0
 11
6261.964402315
 21
4305.4793960902
 31
0.0
  0
LINE
  5
4BF
330
1F
100
AcDbEntity
  8
0
  6
Continuous
 62
     7
100
AcDbLine
 10
6261.964402315
 20
4305.4793960902
 30
0.0
 11
6263.4828641683
 21
4303.9397000822
 31
0.0
  0
LINE
  5
4C0
330
1F
100
AcDbEntity
  8
0
  6
Continuous
 62
     7
100
AcDbLine
 10
6263.4828641683
 20
4303.9397000822
 30
0.0
 11
6265.2607552379
 21
4302.6246726068
 31
0.0
  0
LINE
  5
4C1
330
1F
100
AcDbEntity
  8
0
  6
Continuous
 62
     7
100
AcDbLine
 10
6265.2607552379
 20
4302.6246726068
 30
0.0
 11
6267.2542968437
 21
4301.5666976127
 31
0.0
  0
LINE
  5
4C2
330
1F
100
AcDbEntity
  8
0
  6
Continuous
 62
     7
100
AcDbLine
 10
6267.2542968437
 20
4301.5666976127
 30
0.0
 11
6269.4144022323
 21
4300.7918260547
 31
0.0
  0
LINE
  5
4C3
330
1F
100
AcDbEntity
  8
0
  6
Continuous
 62
     7
100
AcDbLine
 10
6269.4144022323
 20
4300.7918260547
 30
0.0
 11
6271.6878817089
 21
4300.3191388699
 31
0.0
  0
LINE
  5
4C4
330
1F
100
AcDbEntity
  8
0
  6
Continuous
 62
     7
100
AcDbLine
 10
6271.6878817089
 20
4300.3191388699
 30
0.0
 11
6274.0187553361
 21
4300.1602701398
 31
0.0
  0
LINE
  5
4C5
330
1F
100
AcDbEntity
  8
0
  6
Continuous
 62
     7
100
AcDbLine
 10
6301.0187560365
 20
4360.0640485084
 30
0.0
 11
6247.0187546357
 21
4360.0640485084
 31
0.0
  0
LINE
  5
4C6
330
1F
100
AcDbEntity
  8
0
  6
Continuous
 62
     7
100
AcDbLine
 10
6253.918755953
 20
4313.0640498849
 30
0.0
 11
6259.1187555015
 21
4313.0640498849
 31
0.0
  0
LINE
  5
4C7
330
1F
100
AcDbEntity
  8
0
  6
Continuous
 62
     7
100
AcDbLine
 10
6288.9187551707
 20
4313.0640498849
 30
0.0
 11
6294.1187547192
 21
4313.0640498849
 31
0.0
  0
LINE
  5
4C8
330
1F
100
AcDbEntity
  8
0
  6
Continuous
 62
     7
100
AcDbLine
 10
6288.0187557682
 20
4355.0640483874
 30
0.0
 11
6301.0187560365
 21
4355.0640483874
 31
0.0
  0
LINE
  5
4C9
330
1F
100
AcDbEntity
  8
0
  6
Continuous
 62
     7
100
AcDbLine
 10
6247.0187546357
 20
4355.0640483874
 30
0.0
 11
6260.018754904
 21
4355.0640483874
 31
0.0
  0
LINE
  5
4CA
330
1F
100
AcDbEntity
  8
0
  6
Continuous
 62
     7
100
AcDbLine
 10
6246.5187554851
 20
4360.5640485904
 30
0.0
 11
6301.5187551871
 21
4360.5640485904
 31
0.0
  0
LINE
  5
4CB
330
1F
100
AcDbEntity
  8
0
  6
Continuous
 62
     7
100
AcDbLine
 10
6301.5187551871
 20
4361.5640485797
 30
0.0
 11
6246.5187554851
 21
4361.5640485797
 31
0.0
  0
LWPOLYLINE
  5
4CC
330
1F
100
AcDbEntity
  8
0
  6
Continuous
 62
     7
100
AcDbPolyline
 90
        3
 70
   128
 43
0.0
 10
6307.7507019043
 20
4711.6758702237
 10
6308.4152691625
 20
4710.033577802
 10
6309.7282481983
 20
4709.5504701051
  0
LWPOLYLINE
  5
4CD
330
1F
100
AcDbEntity
  8
0
  6
Continuous
 62
     7
100
AcDbPolyline
 90
        3
 70
   128
 43
0.0
 10
6309.7267150879
 20
4709.5504701051
 10
6311.3116962228
 20
4710.3293898404
 10
6311.7254433826
 20
4711.6758702237
  0
LWPOLYLINE
  5
4CE
330
1F
100
AcDbEntity
  8
0
  6
Continuous
 62
     7
100
AcDbPolyline
 90
        3
 70
   128
 43
0.0
 10
6311.7218017578
 20
4711.6758702237
 10
6311.0485948455
 20
4713.3077367127
 10
6309.7342570916
 20
4713.7812385249
  0
LWPOLYLINE
  5
4CF
330
1F
100
AcDbEntity
  8
0
  6
Continuous
 62
     7
100
AcDbPolyline
 90
        3
 70
   128
 43
0.0
 10
6313.5185241699
 20
4711.671863674
 10
6312.1380316328
 20
4708.7291396526
 10
6309.7022046938
 20
4707.8838031653
  0
LWPOLYLINE
  5
4D0
330
1F
100
AcDbEntity
  8
0
  6
Continuous
 62
     7
100
AcDbPolyline
 90
        3
 70
   128
 43
0.0
 10
6309.700012207
 20
4707.8838031653
 10
6306.8025615053
 20
4709.2575628959
 10
6305.9562129572
 20
4711.6598440248
  0
LWPOLYLINE
  5
4D1
330
1F
100
AcDbEntity
  8
0
  6
Continuous
 62
     7
100
AcDbPolyline
 90
        3
 70
   128
 43
0.0
 10
6307.1937561035
 20
4714.4683385182
 10
6308.5076608132
 20
4715.2557176284
 10
6309.6941915944
 20
4715.4479054648
  0
LWPOLYLINE
  5
4D2
330
1F
100
AcDbEntity
  8
0
  6
Continuous
 62
     7
100
AcDbPolyline
 90
        3
 70
   128
 43
0.0
 10
6309.7305297852
 20
4713.7812385249
 10
6308.1637919352
 20
4713.0097155039
 10
6307.7510839
 20
4711.6758702237
  0
LWPOLYLINE
  5
4D3
330
1F
100
AcDbEntity
  8
0
  6
Continuous
 62
     7
100
AcDbPolyline
 90
        3
 70
   128
 43
0.0
 10
6305.9539794922
 20
4711.6598440248
 10
6306.348072679
 20
4713.375735685
 10
6307.1961944595
 20
4714.4683385182
  0
LWPOLYLINE
  5
4D4
330
1F
100
AcDbEntity
  8
0
  6
Continuous
 62
     7
100
AcDbPolyline
 90
        3
 70
   128
 43
0.0
 10
6309.6923828125
 20
4715.4479054648
 10
6312.6435410307
 20
4714.0894509313
 10
6313.5203143254
 20
4711.671863674
  0
LWPOLYLINE
  5
4D5
330
1F
100
AcDbEntity
  8
0
  6
Continuous
 62
     7
100
AcDbPolyline
 90
        3
 70
   128
 43
0.0
 10
6318.6149597168
 20
4709.6786750394
 10
6320.1709944256
 20
4710.4222761462
 10
6320.5715959564
 20
4711.7359666068
  0
LWPOLYLINE
  5
4D6
330
1F
100
AcDbEntity
  8
0
  6
Continuous
 62
     7
100
AcDbPolyline
 90
        3
 70
   128
 43
0.0
 10
6320.5680847168
 20
4711.7359666068
 10
6319.8876805498
 20
4713.3337480531
 10
6318.5844180778
 20
4713.7812385249
  0
LWPOLYLINE
  5
4D7
330
1F
100
AcDbEntity
  8
0
  6
Continuous
 62
     7
100
AcDbPolyline
 90
        3
 70
   128
 43
0.0
 10
6318.5806274414
 20
4713.7812385249
 10
6317.0242911693
 20
4713.0520174877
 10
6316.5972364739
 20
4711.7499885995
  0
LWPOLYLINE
  5
4D8
330
1F
100
AcDbEntity
  8
0
  6
Continuous
 62
     7
100
AcDbPolyline
 90
        3
 70
   128
 43
0.0
 10
6322.3648071289
 20
4709.0857261706
 10
6322.1833941639
 20
4707.4943169943
 10
6321.6192705229
 20
4706.3693795267
  0
LWPOLYLINE
  5
4D9
330
1F
100
AcDbEntity
  8
0
  6
Continuous
 62
     7
100
AcDbPolyline
 90
        3
 70
   128
 43
0.0
 10
6321.6171264648
 20
4706.3693795267
 10
6320.0529185394
 20
4705.381852509
 10
6318.5944316581
 20
4705.1914948884
  0
LWPOLYLINE
  5
4DA
330
1F
100
AcDbEntity
  8
0
  6
Continuous
 62
     7
100
AcDbPolyline
 90
        3
 70
   128
 43
0.0
 10
6318.5920715332
 20
4705.1914948884
 10
6316.02918546
 20
4705.8359334031
 10
6314.7943524316
 20
4707.4991874311
  0
LWPOLYLINE
  5
4DB
330
1F
100
AcDbEntity
  8
0
  6
Continuous
 62
     7
100
AcDbPolyline
 90
        3
 70
   128
 43
0.0
 10
6316.7877197266
 20
4707.4991874311
 10
6317.6557189451
 20
4706.9600199539
 10
6318.4602168992
 20
4706.8581618283
  0
LWPOLYLINE
  5
4DC
330
1F
100
AcDbEntity
  8
0
  6
Continuous
 62
     7
100
AcDbPolyline
 90
        3
 70
   128
 43
0.0
 10
6318.2525634766
 20
4708.0120080996
 10
6315.5233842016
 20
4709.3942458993
 10
6314.802365531
 20
4711.7299577135
  0
LWPOLYLINE
  5
4DD
330
1F
100
AcDbEntity
  8
0
  6
Continuous
 62
     7
100
AcDbPolyline
 90
        3
 70
   128
 43
0.0
 10
6314.8002624512
 20
4711.7299577135
 10
6315.1125511821
 20
4713.3990038278
 10
6315.8620616093
 20
4714.5023932594
  0
LWPOLYLINE
  5
4DE
330
1F
100
AcDbEntity
  8
0
  6
Continuous
 62
     7
100
AcDbPolyline
 90
        3
 70
   128
 43
0.0
 10
6315.860748291
 20
4714.5023932594
 10
6317.0566554176
 20
4715.2658486303
 10
6318.1557302967
 20
4715.4479054648
  0
LWPOLYLINE
  5
4DF
330
1F
100
AcDbEntity
  8
0
  6
Continuous
 62
     7
100
AcDbPolyline
 90
        3
 70
   128
 43
0.0
 10
6318.1533813477
 20
4715.4479054648
 10
6319.5330039577
 20
4715.139856258
 10
6320.4433900908
 20
4714.5063998092
  0
LWPOLYLINE
  5
4E0
330
1F
100
AcDbEntity
  8
0
  6
Continuous
 62
     7
100
AcDbPolyline
 90
        3
 70
   128
 43
0.0
 10
6320.442199707
 20
4708.923466495
 10
6319.3103418602
 20
4708.1753581876
 10
6318.2558921769
 20
4708.0120080996
  0
LWPOLYLINE
  5
4E1
330
1F
100
AcDbEntity
  8
0
  6
Continuous
 62
     7
100
AcDbPolyline
 90
        3
 70
   128
 43
0.0
 10
6318.4585571289
 20
4706.8581618283
 10
6320.1538663199
 20
4707.5045402102
 10
6320.4433900908
 20
4708.923466495
  0
LWPOLYLINE
  5
4E2
330
1F
100
AcDbEntity
  8
0
  6
Continuous
 62
     7
100
AcDbPolyline
 90
        3
 70
   128
 43
0.0
 10
6316.5969848633
 20
4711.7499885995
 10
6317.302013664
 20
4710.1387943618
 10
6318.6184709564
 20
4709.6786750394
  0
LWPOLYLINE
  5
4E3
330
1F
100
AcDbEntity
  8
0
  6
Continuous
 62
     7
100
AcDbPolyline
 90
        3
 70
   128
 43
0.0
 10
6327.6481628418
 20
4707.8838031653
 10
6324.7512803975
 20
4709.2575649693
 10
6323.9049298361
 20
4711.6598440248
  0
LWPOLYLINE
  5
4E4
330
1F
100
AcDbEntity
  8
0
  6
Continuous
 62
     7
100
AcDbPolyline
 90
        3
 70
   128
 43
0.0
 10
6325.1419067383
 20
4714.4683385182
 10
6326.4563776921
 20
4715.2557176284
 10
6327.6429084733
 20
4715.4479054648
  0
LWPOLYLINE
  5
4E5
330
1F
100
AcDbEntity
  8
0
  6
Continuous
 62
     7
100
AcDbPolyline
 90
        3
 70
   128
 43
0.0
 10
6325.6988525391
 20
4711.6758702237
 10
6326.3639865254
 20
4710.0335773573
 10
6327.6769650772
 20
4709.5504701051
  0
LWPOLYLINE
  5
4E6
330
1F
100
AcDbEntity
  8
0
  6
Continuous
 62
     7
100
AcDbPolyline
 90
        3
 70
   128
 43
0.0
 10
6327.6824951172
 20
4713.7812385249
 10
6326.1125088141
 20
4713.0097155039
 10
6325.6998007789
 20
4711.6758702237
  0
LWPOLYLINE
  5
4E7
330
1F
100
AcDbEntity
  8
0
  6
Continuous
 62
     7
100
AcDbPolyline
 90
        3
 70
   128
 43
0.0
 10
6327.6748657227
 20
4709.5504701051
 10
6329.2604152769
 20
4710.3293877732
 10
6329.6741602614
 20
4711.6758702237
  0
LWPOLYLINE
  5
4E8
330
1F
100
AcDbEntity
  8
0
  6
Continuous
 62
     7
100
AcDbPolyline
 90
        3
 70
   128
 43
0.0
 10
6323.902130127
 20
4711.6598440248
 10
6324.2967925579
 20
4713.375734255
 10
6325.1449113384
 20
4714.4683385182
  0
LWPOLYLINE
  5
4E9
330
1F
100
AcDbEntity
  8
0
  6
Continuous
 62
     7
100
AcDbPolyline
 90
        3
 70
   128
 43
0.0
 10
6327.6405334473
 20
4715.4479054648
 10
6330.5922579096
 20
4714.0894509313
 10
6331.4690312043
 20
4711.671863674
  0
LWPOLYLINE
  5
4EA
330
1F
100
AcDbEntity
  8
0
  6
Continuous
 62
     7
100
AcDbPolyline
 90
        3
 70
   128
 43
0.0
 10
6331.4666748047
 20
4711.671863674
 10
6330.0867498337
 20
4708.7291376733
 10
6327.6509215727
 20
4707.8838031653
  0
LWPOLYLINE
  5
4EB
330
1F
100
AcDbEntity
  8
0
  6
Continuous
 62
     7
100
AcDbPolyline
 90
        3
 70
   128
 43
0.0
 10
6329.6737670898
 20
4711.6758702237
 10
6328.9973133679
 20
4713.307738562
 10
6327.6829739705
 20
4713.7812385249
  0
LWPOLYLINE
  5
4EC
330
1F
100
AcDbEntity
  8
0
  6
Continuous
 62
     7
100
AcDbPolyline
 90
        5
 70
   128
 43
0.0
 10
6344.3183898926
 20
4694.5898337204
 10
6344.0554043607
 20
4693.4584628705
 10
6343.9230272485
 20
4693.1116264683
 10
6343.8568385077
 20
4693.0206742129
 10
6343.7906486586
 20
4692.9898337608
  0
LWPOLYLINE
  5
4ED
330
1F
100
AcDbEntity
  8
0
  6
Continuous
 62
     7
100
AcDbPolyline
 90
        5
 70
   128
 43
0.0
 10
6204.2465209961
 20
4692.9898337608
 10
6204.1806721645
 20
4693.0206742129
 10
6204.1144834237
 20
4693.1116264683
 10
6203.9821063115
 20
4693.4584628705
 10
6203.7173492506
 20
4694.5898337204
  0
LWPOLYLINE
  5
4EE
330
1F
100
AcDbEntity
  8
0
  6
Continuous
 62
     7
100
AcDbPolyline
 90
        3
 70
   128
 43
0.0
 10
6383.9073181152
 20
4694.5898337204
 10
6383.302469089
 20
4693.3570556645
 10
6382.3053149179
 20
4692.9898337608
  0
LWPOLYLINE
  5
4EF
330
1F
100
AcDbEntity
  8
0
  6
Continuous
 62
     7
100
AcDbPolyline
 90
        3
 70
   128
 43
0.0
 10
6344.5243835449
 20
4692.9898337608
 10
6345.5459707597
 20
4693.5699854497
 10
6345.7929698422
 20
4694.5898337204
  0
LWPOLYLINE
  5
4F0
330
1F
100
AcDbEntity
  8
0
  6
Continuous
 62
     7
100
AcDbPolyline
 90
        3
 70
   128
 43
0.0
 10
6344.5243835449
 20
4693.7898337406
 10
6344.9784857679
 20
4694.0799556671
 10
6345.056562468
 20
4694.5898337204
  0
LWPOLYLINE
  5
4F1
330
1F
100
AcDbEntity
  8
0
  6
Continuous
 62
     7
100
AcDbPolyline
 90
        3
 70
   128
 43
0.0
 10
6202.2438049316
 20
4694.5898337204
 10
6202.6627153612
 20
4693.3570556645
 10
6203.510454078
 20
4692.9898337608
  0
LWPOLYLINE
  5
4F2
330
1F
100
AcDbEntity
  8
0
  6
Continuous
 62
     7
100
AcDbPolyline
 90
        3
 70
   128
 43
0.0
 10
6165.7295227051
 20
4692.9898337608
 10
6164.5231165521
 20
4693.5699854497
 10
6164.1267073944
 20
4694.5898337204
  0
LWPOLYLINE
  5
4F3
330
1F
100
AcDbEntity
  8
0
  6
Continuous
 62
     7
100
AcDbPolyline
 90
        3
 70
   128
 43
0.0
 10
6202.9800415039
 20
4694.5898337204
 10
6203.1321454169
 20
4693.9735488744
 10
6203.510454078
 20
4693.7898337406
  0
LWPOLYLINE
  5
4F4
330
1F
100
AcDbEntity
  8
0
  6
Continuous
 62
     7
100
AcDbPolyline
 90
        3
 70
   128
 43
0.0
 10
6200.1838684082
 20
5734.9200053054
 10
6199.3679284351
 20
5735.0677616546
 10
6199.1266144112
 20
5735.331515773
  0
LWPOLYLINE
  5
4F5
330
1F
100
AcDbEntity
  8
0
  6
Continuous
 62
     7
100
AcDbPolyline
 90
        3
 70
   128
 43
0.0
 10
6201.244354248
 20
5735.331515773
 10
6200.8629087198
 20
5735.0115331413
 10
6200.1867053702
 20
5734.9200053054
  0
LWPOLYLINE
  5
4F6
330
1F
100
AcDbEntity
  8
0
  6
Continuous
 62
     7
100
AcDbPolyline
 90
        3
 70
   128
 43
0.0
 10
6200.9620666504
 20
5735.6158299285
 10
6201.1911803539
 20
5735.4664688213
 10
6201.2445611551
 20
5735.331515773
  0
LWPOLYLINE
  5
4F7
330
1F
100
AcDbEntity
  8
0
  6
Continuous
 62
     7
100
AcDbPolyline
 90
        3
 70
   128
 43
0.0
 10
6200.1838684082
 20
5735.7475561935
 10
6200.6608810478
 20
5735.7064267649
 10
6200.9641138509
 20
5735.6158299285
  0
LWPOLYLINE
  5
4F8
330
1F
100
AcDbEntity
  8
0
  6
Continuous
 62
     7
100
AcDbPolyline
 90
        3
 70
   128
 43
0.0
 10
6199.405670166
 20
5735.6151146728
 10
6199.8091377003
 20
5735.7226524715
 10
6200.1867053702
 20
5735.7475561935
  0
LWPOLYLINE
  5
4F9
330
1F
100
AcDbEntity
  8
0
  6
Continuous
 62
     7
100
AcDbPolyline
 90
        3
 70
   128
 43
0.0
 10
6199.1233825684
 20
5735.331515773
 10
6199.2149143428
 20
5735.50146408
 10
6199.4070617154
 20
5735.6151146728
  0
LWPOLYLINE
  5
4FA
330
1F
100
AcDbEntity
  8
0
  6
Continuous
 62
     7
100
AcDbPolyline
 90
        3
 70
   128
 43
0.0
 10
6186.3288879395
 20
5734.9200053054
 10
6185.5115174549
 20
5735.0677616546
 10
6185.2702034309
 20
5735.331515773
  0
LWPOLYLINE
  5
4FB
330
1F
100
AcDbEntity
  8
0
  6
Continuous
 62
     7
100
AcDbPolyline
 90
        3
 70
   128
 43
0.0
 10
6187.385559082
 20
5735.331515773
 10
6187.0064977396
 20
5735.0115331413
 10
6186.33029439
 20
5734.9200053054
  0
LWPOLYLINE
  5
4FC
330
1F
100
AcDbEntity
  8
0
  6
Continuous
 62
     7
100
AcDbPolyline
 90
        3
 70
   128
 43
0.0
 10
6187.1070861816
 20
5735.6158299285
 10
6187.3347693736
 20
5735.4664688213
 10
6187.3881501749
 20
5735.331515773
  0
LWPOLYLINE
  5
4FD
330
1F
100
AcDbEntity
  8
0
  6
Continuous
 62
     7
100
AcDbPolyline
 90
        3
 70
   128
 43
0.0
 10
6186.3288879395
 20
5735.7475561935
 10
6186.8044700676
 20
5735.7064267649
 10
6187.1077028707
 20
5735.6158299285
  0
LWPOLYLINE
  5
4FE
330
1F
100
AcDbEntity
  8
0
  6
Continuous
 62
     7
100
AcDbPolyline
 90
        3
 70
   128
 43
0.0
 10
6185.546875
 20
5735.6151146728
 10
6185.9527267201
 20
5735.7226524715
 10
6186.33029439
 20
5735.7475561935
  0
LWPOLYLINE
  5
4FF
330
1F
100
AcDbEntity
  8
0
  6
Continuous
 62
     7
100
AcDbPolyline
 90
        3
 70
   128
 43
0.0
 10
6185.2684020996
 20
5735.331515773
 10
6185.3585033626
 20
5735.50146408
 10
6185.5506507352
 20
5735.6151146728
  0
LWPOLYLINE
  5
500
330
1F
100
AcDbEntity
  8
0
  6
Continuous
 62
     7
100
AcDbPolyline
 90
        3
 70
   128
 43
0.0
 10
6179.6913146973
 20
5735.5551524002
 10
6180.1767639331
 20
5735.3862774961
 10
6180.3522539928
 20
5735.2020544845
  0
LWPOLYLINE
  5
501
330
1F
100
AcDbEntity
  8
0
  6
Continuous
 62
     7
100
AcDbPolyline
 90
        3
 70
   128
 43
0.0
 10
6179.313659668
 20
5735.6639904815
 10
6179.5248817513
 20
5735.6018739403
 10
6179.6926391914
 20
5735.5551524002
  0
LWPOLYLINE
  5
502
330
1F
100
AcDbEntity
  8
0
  6
Continuous
 62
     7
100
AcDbPolyline
 90
        3
 70
   128
 43
0.0
 10
6179.1305541992
 20
5735.8053726989
 10
6179.19665415
 20
5735.7185519019
 10
6179.3162731126
 20
5735.6639904815
  0
LWPOLYLINE
  5
503
330
1F
100
AcDbEntity
  8
0
  6
Continuous
 62
     7
100
AcDbPolyline
 90
        3
 70
   128
 43
0.0
 10
6179.5387268066
 20
5735.9438938934
 10
6179.2326104006
 20
5735.8987022246
 10
6179.1317371324
 20
5735.8053726989
  0
LWPOLYLINE
  5
504
330
1F
100
AcDbEntity
  8
0
  6
Continuous
 62
     7
100
AcDbPolyline
 90
        3
 70
   128
 43
0.0
 10
6180.0880432129
 20
5735.8035845596
 10
6179.825538648
 20
5735.91044485
 10
6179.5423162773
 20
5735.9438938934
  0
LWPOLYLINE
  5
505
330
1F
100
AcDbEntity
  8
0
  6
Continuous
 62
     7
100
AcDbPolyline
 90
        3
 70
   128
 43
0.0
 10
6179.5692443848
 20
5736.0560698349
 10
6180.0468686853
 20
5735.9887209681
 10
6180.3163570955
 20
5735.8709378082
  0
LWPOLYLINE
  5
506
330
1F
100
AcDbEntity
  8
0
  6
Continuous
 62
     7
100
AcDbPolyline
 90
        3
 70
   128
 43
0.0
 10
6178.8787841797
 20
5735.8007235366
 10
6179.1347278016
 20
5736.0015318447
 10
6179.5703602627
 20
5736.0560698349
  0
LWPOLYLINE
  5
507
330
1F
100
AcDbEntity
  8
0
  6
Continuous
 62
     7
100
AcDbPolyline
 90
        3
 70
   128
 43
0.0
 10
6179.0351867676
 20
5735.6341881591
 10
6178.9123907801
 20
5735.7225419507
 10
6178.8804588512
 20
5735.8007235366
  0
LWPOLYLINE
  5
508
330
1F
100
AcDbEntity
  8
0
  6
Continuous
 62
     7
100
AcDbPolyline
 90
        3
 70
   128
 43
0.0
 10
6179.4929504395
 20
5735.4854149658
 10
6179.2286154414
 20
5735.5640266641
 10
6179.036950846
 20
5735.6341881591
  0
LWPOLYLINE
  5
509
330
1F
100
AcDbEntity
  8
0
  6
Continuous
 62
     7
100
AcDbPolyline
 90
        3
 70
   128
 43
0.0
 10
6180.0003051758
 20
5735.3108925659
 10
6179.7323231549
 20
5735.4151630679
 10
6179.4957650497
 20
5735.4854149658
  0
LWPOLYLINE
  5
50A
330
1F
100
AcDbEntity
  8
0
  6
Continuous
 62
     7
100
AcDbPolyline
 90
        3
 70
   128
 43
0.0
 10
6180.0994873047
 20
5735.2036042053
 10
6180.0664475989
 20
5735.2670057357
 10
6180.0005716875
 20
5735.3108925659
  0
LWPOLYLINE
  5
50B
330
1F
100
AcDbEntity
  8
0
  6
Continuous
 62
     7
100
AcDbPolyline
 90
        3
 70
   128
 43
0.0
 10
6179.5501708984
 20
5735.0181145507
 10
6179.9645169864
 20
5735.0794728961
 10
6180.1009682611
 20
5735.2036042053
  0
LWPOLYLINE
  5
50C
330
1F
100
AcDbEntity
  8
0
  6
Continuous
 62
     7
100
AcDbPolyline
 90
        3
 70
   128
 43
0.0
 10
6178.9360046387
 20
5735.2005047638
 10
6179.2232147283
 20
5735.0639995574
 10
6179.552411814
 20
5735.0181145507
  0
LWPOLYLINE
  5
50D
330
1F
100
AcDbEntity
  8
0
  6
Continuous
 62
     7
100
AcDbPolyline
 90
        3
 70
   128
 43
0.0
 10
6179.5501708984
 20
5734.9059386093
 10
6178.9874230198
 20
5734.9919910588
 10
6178.700966914
 20
5735.1450724441
  0
LWPOLYLINE
  5
50E
330
1F
100
AcDbEntity
  8
0
  6
Continuous
 62
     7
100
AcDbPolyline
 90
        3
 70
   128
 43
0.0
 10
6180.3512573242
 20
5735.2020544845
 10
6180.0522275264
 20
5734.9713536591
 10
6179.552411814
 20
5734.9059386093
  0
LWPOLYLINE
  5
50F
330
1F
100
AcDbEntity
  8
0
  6
Continuous
 62
     7
100
AcDbPolyline
 90
        3
 70
   128
 43
0.0
 10
6182.6400756836
 20
5735.5901999313
 10
6182.824720163
 20
5735.4413559496
 10
6182.8650740579
 20
5735.3126807052
  0
LWPOLYLINE
  5
510
330
1F
100
AcDbEntity
  8
0
  6
Continuous
 62
     7
100
AcDbPolyline
 90
        3
 70
   128
 43
0.0
 10
6181.8161010742
 20
5735.7475561935
 10
6182.3319135523
 20
5735.6981315179
 10
6182.6423985556
 20
5735.5901999313
  0
LWPOLYLINE
  5
511
330
1F
100
AcDbEntity
  8
0
  6
Continuous
 62
     7
100
AcDbPolyline
 90
        3
 70
   128
 43
0.0
 10
6181.0150146484
 20
5735.5985445816
 10
6181.4237519395
 20
5735.7197284171
 10
6181.8184388474
 20
5735.7475561935
  0
LWPOLYLINE
  5
512
330
1F
100
AcDbEntity
  8
0
  6
Continuous
 62
     7
100
AcDbPolyline
 90
        3
 70
   128
 43
0.0
 10
6180.7823181152
 20
5735.331515773
 10
6180.8571789699
 20
5735.4893774363
 10
6181.0185966685
 20
5735.5985445816
  0
LWPOLYLINE
  5
513
330
1F
100
AcDbEntity
  8
0
  6
Continuous
 62
     7
100
AcDbPolyline
 90
        3
 70
   128
 43
0.0
 10
6181.8084716797
 20
5734.9200053054
 10
6181.0096977949
 20
5735.0686454796
 10
6180.7830242112
 20
5735.331515773
  0
LWPOLYLINE
  5
514
330
1F
100
AcDbEntity
  8
0
  6
Continuous
 62
     7
100
AcDbPolyline
 90
        3
 70
   128
 43
0.0
 10
6182.7545166016
 20
5735.1406617004
 10
6182.3091583397
 20
5734.9625916419
 10
6181.8122697666
 20
5734.9200053054
  0
LWPOLYLINE
  5
515
330
1F
100
AcDbEntity
  8
0
  6
Continuous
 62
     7
100
AcDbPolyline
 90
        3
 70
   128
 43
0.0
 10
6181.7779541016
 20
5735.0181145507
 10
6182.2642700505
 20
5735.071802624
 10
6182.5341416195
 20
5735.1864380676
  0
LWPOLYLINE
  5
516
330
1F
100
AcDbEntity
  8
0
  6
Continuous
 62
     7
100
AcDbPolyline
 90
        3
 70
   128
 43
0.0
 10
6181.0340881348
 20
5735.3126807052
 10
6181.3007834659
 20
5735.084199638
 10
6181.7808581188
 20
5735.0181145507
  0
LWPOLYLINE
  5
517
330
1F
100
AcDbEntity
  8
0
  6
Continuous
 62
     7
100
AcDbPolyline
 90
        3
 70
   128
 43
0.0
 10
6183.5899353027
 20
5735.4770703155
 10
6183.5518763316
 20
5735.3237797276
 10
6183.5471225575
 20
5735.202650531
  0
LWPOLYLINE
  5
518
330
1F
100
AcDbEntity
  8
0
  6
Continuous
 62
     7
100
AcDbPolyline
 90
        3
 70
   128
 43
0.0
 10
6183.9981079102
 20
5735.6493277389
 10
6183.70181688
 20
5735.5782549756
 10
6183.5919974044
 20
5735.4770703155
  0
LWPOLYLINE
  5
519
330
1F
100
AcDbEntity
  8
0
  6
Continuous
 62
     7
100
AcDbPolyline
 90
        3
 70
   128
 43
0.0
 10
6184.1239929199
 20
5735.6351418335
 10
6184.0570588697
 20
5735.6458658719
 10
6183.9986426428
 20
5735.6493277389
  0
LWPOLYLINE
  5
51A
330
1F
100
AcDbEntity
  8
0
  6
Continuous
 62
     7
100
AcDbPolyline
 90
        3
 70
   128
 43
0.0
 10
6184.0438842773
 20
5735.7475561935
 10
6184.1737213063
 20
5735.7378766982
 10
6184.2650754049
 20
5735.7201380569
  0
LWPOLYLINE
  5
51B
330
1F
100
AcDbEntity
  8
0
  6
Continuous
 62
     7
100
AcDbPolyline
 90
        3
 70
   128
 43
0.0
 10
6183.5441589355
 20
5735.6158299285
 10
6183.7852922305
 20
5735.7164905979
 10
6184.046318908
 20
5735.7475561935
  0
LWPOLYLINE
  5
51C
330
1F
100
AcDbEntity
  8
0
  6
Continuous
 62
     7
100
AcDbPolyline
 90
        3
 70
   128
 43
0.0
 10
6184.8373413086
 20
5735.9854979354
 10
6184.7496786969
 20
5735.9199541786
 10
6184.6049783423
 20
5735.9018130142
  0
LWPOLYLINE
  5
51D
330
1F
100
AcDbEntity
  8
0
  6
Continuous
 62
     7
100
AcDbPolyline
 90
        3
 70
   128
 43
0.0
 10
6184.6046447754
 20
5736.070136531
 10
6184.7827334067
 20
5736.0406797763
 10
6184.8394332126
 20
5735.9854979354
  0
LWPOLYLINE
  5
51E
330
1F
100
AcDbEntity
  8
0
  6
Continuous
 62
     7
100
AcDbPolyline
 90
        3
 70
   128
 43
0.0
 10
6184.3719482422
 20
5735.9854979354
 10
6184.4605436321
 20
5736.051632329
 10
6184.6049783423
 20
5736.070136531
  0
LWPOLYLINE
  5
51F
330
1F
100
AcDbEntity
  8
0
  6
Continuous
 62
     7
100
AcDbPolyline
 90
        3
 70
   128
 43
0.0
 10
6184.6046447754
 20
5735.9018130142
 10
6184.4294605252
 20
5735.9310521415
 10
6184.3727660969
 20
5735.9854979354
  0
LWPOLYLINE
  5
520
330
1F
100
AcDbEntity
  8
0
  6
Continuous
 62
     7
100
AcDbPolyline
 90
        3
 70
   128
 43
0.0
 10
6191.7953491211
 20
5735.5901999313
 10
6191.9785700376
 20
5735.441356667
 10
6192.0189169839
 20
5735.3126807052
  0
LWPOLYLINE
  5
521
330
1F
100
AcDbEntity
  8
0
  6
Continuous
 62
     7
100
AcDbPolyline
 90
        3
 70
   128
 43
0.0
 10
6190.9713745117
 20
5735.7475561935
 10
6191.4857585959
 20
5735.6981326923
 10
6191.7962414816
 20
5735.5901999313
  0
LWPOLYLINE
  5
522
330
1F
100
AcDbEntity
  8
0
  6
Continuous
 62
     7
100
AcDbPolyline
 90
        3
 70
   128
 43
0.0
 10
6190.1702880859
 20
5735.5985445816
 10
6190.5775972051
 20
5735.7197287916
 10
6190.9722817734
 20
5735.7475561935
  0
LWPOLYLINE
  5
523
330
1F
100
AcDbEntity
  8
0
  6
Continuous
 62
     7
100
AcDbPolyline
 90
        3
 70
   128
 43
0.0
 10
6189.9337768555
 20
5735.331515773
 10
6190.011029137
 20
5735.4893772239
 10
6190.1724470451
 20
5735.5985445816
  0
LWPOLYLINE
  5
524
330
1F
100
AcDbEntity
  8
0
  6
Continuous
 62
     7
100
AcDbPolyline
 90
        3
 70
   128
 43
0.0
 10
6190.9637451172
 20
5734.9200053054
 10
6190.1635453535
 20
5735.0686468981
 10
6189.9368671372
 20
5735.331515773
  0
LWPOLYLINE
  5
525
330
1F
100
AcDbEntity
  8
0
  6
Continuous
 62
     7
100
AcDbPolyline
 90
        3
 70
   128
 43
0.0
 10
6191.9097900391
 20
5735.1406617004
 10
6191.4630012657
 20
5734.9625916419
 10
6190.9661126926
 20
5734.9200053054
  0
LWPOLYLINE
  5
526
330
1F
100
AcDbEntity
  8
0
  6
Continuous
 62
     7
100
AcDbPolyline
 90
        3
 70
   128
 43
0.0
 10
6190.9332275391
 20
5735.0181145507
 10
6191.4181152816
 20
5735.0718032487
 10
6191.6879919961
 20
5735.1864380676
  0
LWPOLYLINE
  5
527
330
1F
100
AcDbEntity
  8
0
  6
Continuous
 62
     7
100
AcDbPolyline
 90
        3
 70
   128
 43
0.0
 10
6190.185546875
 20
5735.3126807052
 10
6190.4546269191
 20
5735.084199465
 10
6190.9347010449
 20
5735.0181145507
  0
LWPOLYLINE
  5
528
330
1F
100
AcDbEntity
  8
0
  6
Continuous
 62
     7
100
AcDbPolyline
 90
        3
 70
   128
 43
0.0
 10
6194.6487426758
 20
5734.9200053054
 10
6193.7924352014
 20
5735.0597770784
 10
6193.5266090229
 20
5735.3272242385
  0
LWPOLYLINE
  5
529
330
1F
100
AcDbEntity
  8
0
  6
Continuous
 62
     7
100
AcDbPolyline
 90
        3
 70
   128
 43
0.0
 10
6195.6062316895
 20
5735.1045412857
 10
6195.1314553757
 20
5734.9537124735
 10
6194.6512071088
 20
5734.9200053054
  0
LWPOLYLINE
  5
52A
330
1F
100
AcDbEntity
  8
0
  6
Continuous
 62
     7
100
AcDbPolyline
 90
        3
 70
   128
 43
0.0
 10
6194.652557373
 20
5735.0181145507
 10
6195.1161435921
 20
5735.0628893018
 10
6195.3983289793
 20
5735.1584238845
  0
LWPOLYLINE
  5
52B
330
1F
100
AcDbEntity
  8
0
  6
Continuous
 62
     7
100
AcDbPolyline
 90
        3
 70
   128
 43
0.0
 10
6193.775177002
 20
5735.3359265167
 10
6194.1050089056
 20
5735.0843708526
 10
6194.6551335648
 20
5735.0181145507
  0
LWPOLYLINE
  5
52C
330
1F
100
AcDbEntity
  8
0
  6
Continuous
 62
     7
100
AcDbPolyline
 90
        3
 70
   128
 43
0.0
 10
6194.652557373
 20
5735.6493277389
 10
6193.9868772706
 20
5735.5423109664
 10
6193.7778947547
 20
5735.3359265167
  0
LWPOLYLINE
  5
52D
330
1F
100
AcDbEntity
  8
0
  6
Continuous
 62
     7
100
AcDbPolyline
 90
        3
 70
   128
 43
0.0
 10
6195.3964233398
 20
5735.5090184051
 10
6195.0221997811
 20
5735.6234116614
 10
6194.6534571841
 20
5735.6493277389
  0
LWPOLYLINE
  5
52E
330
1F
100
AcDbEntity
  8
0
  6
Continuous
 62
     7
100
AcDbPolyline
 90
        3
 70
   128
 43
0.0
 10
6194.6716308594
 20
5735.7475561935
 10
6195.2637687982
 20
5735.6900001017
 10
6195.6086588696
 20
5735.5601591903
  0
LWPOLYLINE
  5
52F
330
1F
100
AcDbEntity
  8
0
  6
Continuous
 62
     7
100
AcDbPolyline
 90
        3
 70
   128
 43
0.0
 10
6193.5234069824
 20
5735.3272242385
 10
6193.9507736971
 20
5735.6587765389
 10
6194.6719644263
 20
5735.7475561935
  0
LWPOLYLINE
  5
530
330
1F
100
AcDbEntity
  8
0
  6
Continuous
 62
     7
100
AcDbPolyline
 90
        3
 70
   128
 43
0.0
 10
6196.9223022461
 20
5735.4146046478
 10
6196.8466202161
 20
5735.4810453085
 10
6196.82917573
 20
5735.5377478439
  0
LWPOLYLINE
  5
531
330
1F
100
AcDbEntity
  8
0
  6
Continuous
 62
     7
100
AcDbPolyline
 90
        3
 70
   128
 43
0.0
 10
6197.2732543945
 20
5735.3055281478
 10
6197.0622779106
 20
5735.3589814079
 10
6196.9228444293
 20
5735.4146046478
  0
LWPOLYLINE
  5
532
330
1F
100
AcDbEntity
  8
0
  6
Continuous
 62
     7
100
AcDbPolyline
 90
        3
 70
   128
 43
0.0
 10
6197.582244873
 20
5735.2230353195
 10
6197.4197858895
 20
5735.2736575754
 10
6197.2756517723
 20
5735.3055281478
  0
LWPOLYLINE
  5
533
330
1F
100
AcDbEntity
  8
0
  6
Continuous
 62
     7
100
AcDbPolyline
 90
        3
 70
   128
 43
0.0
 10
6197.6547241211
 20
5735.1467413742
 10
6197.6330028991
 20
5735.1919517336
 10
6197.5858268931
 20
5735.2230353195
  0
LWPOLYLINE
  5
534
330
1F
100
AcDbEntity
  8
0
  6
Continuous
 62
     7
100
AcDbPolyline
 90
        3
 70
   128
 43
0.0
 10
6197.2923278809
 20
5735.0181145507
 10
6197.5658315574
 20
5735.0628522766
 10
6197.6548192695
 20
5735.1467413742
  0
LWPOLYLINE
  5
535
330
1F
100
AcDbEntity
  8
0
  6
Continuous
 62
     7
100
AcDbPolyline
 90
        3
 70
   128
 43
0.0
 10
6196.8879699707
 20
5735.1022763092
 10
6197.0927924634
 20
5735.0376064676
 10
6197.293600221
 20
5735.0181145507
  0
LWPOLYLINE
  5
536
330
1F
100
AcDbEntity
  8
0
  6
Continuous
 62
     7
100
AcDbPolyline
 90
        3
 70
   128
 43
0.0
 10
6197.3037719727
 20
5734.9200053054
 10
6196.9459691438
 20
5734.9552576863
 10
6196.7214850381
 20
5735.0282473404
  0
LWPOLYLINE
  5
537
330
1F
100
AcDbEntity
  8
0
  6
Continuous
 62
     7
100
AcDbPolyline
 90
        3
 70
   128
 43
0.0
 10
6197.9026794434
 20
5735.1509136993
 10
6197.6892256068
 20
5734.9709616418
 10
6197.306497176
 20
5734.9200053054
  0
LWPOLYLINE
  5
538
330
1F
100
AcDbEntity
  8
0
  6
Continuous
 62
     7
100
AcDbPolyline
 90
        3
 70
   128
 43
0.0
 10
6197.8073120117
 20
5735.2745337326
 10
6197.8884170447
 20
5735.2080565841
 10
6197.9060975507
 20
5735.1509136993
  0
LWPOLYLINE
  5
539
330
1F
100
AcDbEntity
  8
0
  6
Continuous
 62
     7
100
AcDbPolyline
 90
        3
 70
   128
 43
0.0
 10
6197.4411010742
 20
5735.3868288833
 10
6197.664202155
 20
5735.3315891936
 10
6197.8107450202
 20
5735.2745337326
  0
LWPOLYLINE
  5
53A
330
1F
100
AcDbEntity
  8
0
  6
Continuous
 62
     7
100
AcDbPolyline
 90
        3
 70
   128
 43
0.0
 10
6197.1473693848
 20
5735.4692025024
 10
6197.3052985422
 20
5735.4184597181
 10
6197.4422393039
 20
5735.3868288833
  0
LWPOLYLINE
  5
53B
330
1F
100
AcDbEntity
  8
0
  6
Continuous
 62
     7
100
AcDbPolyline
 90
        3
 70
   128
 43
0.0
 10
6197.078704834
 20
5735.5416817504
 10
6197.1040539956
 20
5735.4987005958
 10
6197.1500051811
 20
5735.4692025024
  0
LWPOLYLINE
  5
53C
330
1F
100
AcDbEntity
  8
0
  6
Continuous
 62
     7
100
AcDbPolyline
 90
        3
 70
   128
 43
0.0
 10
6197.3457336426
 20
5735.6493277389
 10
6197.1410384752
 20
5735.6090349151
 10
6197.0804540113
 20
5735.5416817504
  0
LWPOLYLINE
  5
53D
330
1F
100
AcDbEntity
  8
0
  6
Continuous
 62
     7
100
AcDbPolyline
 90
        3
 70
   128
 43
0.0
 10
6197.696685791
 20
5735.5651659805
 10
6197.5242298763
 20
5735.6275947796
 10
6197.3463205293
 20
5735.6493277389
  0
LWPOLYLINE
  5
53E
330
1F
100
AcDbEntity
  8
0
  6
Continuous
 62
     7
100
AcDbPolyline
 90
        3
 70
   128
 43
0.0
 10
6197.3457336426
 20
5735.7475561935
 10
6197.6683129749
 20
5735.704243762
 10
6197.8702006534
 20
5735.6338305313
  0
LWPOLYLINE
  5
53F
330
1F
100
AcDbEntity
  8
0
  6
Continuous
 62
     7
100
AcDbPolyline
 90
        3
 70
   128
 43
0.0
 10
6196.8269348145
 20
5735.5377478439
 10
6197.0090831123
 20
5735.7001127923
 10
6197.3463205293
 20
5735.7475561935
  0
LWPOLYLINE
  5
540
330
1F
100
AcDbEntity
  8
0
  6
Continuous
 62
     7
100
AcDbPolyline
 90
        3
 70
   128
 43
0.0
 10
6178.9360046387
 20
5735.154489978
 10
6179.2232147283
 20
5735.0179847717
 10
6179.552411814
 20
5734.972099765
  0
LWPOLYLINE
  5
541
330
1F
100
AcDbEntity
  8
0
  6
Continuous
 62
     7
100
AcDbPolyline
 90
        3
 70
   128
 43
0.0
 10
6179.5501708984
 20
5734.972099765
 10
6179.9645412202
 20
5735.0333480832
 10
6180.1009682611
 20
5735.1575894195
  0
LWPOLYLINE
  5
542
330
1F
100
AcDbEntity
  8
0
  6
Continuous
 62
     7
100
AcDbPolyline
 90
        3
 70
   128
 43
0.0
 10
6178.8787841797
 20
5735.7547087509
 10
6179.1347502431
 20
5735.9554046281
 10
6179.5703602627
 20
5736.0100550491
  0
LWPOLYLINE
  5
543
330
1F
100
AcDbEntity
  8
0
  6
Continuous
 62
     7
100
AcDbPolyline
 90
        3
 70
   128
 43
0.0
 10
6179.5692443848
 20
5736.0100550491
 10
6180.0052203246
 20
5735.9555720385
 10
6180.2535710528
 20
5735.852341159
  0
LWPOLYLINE
  5
544
330
1F
100
AcDbEntity
  8
0
  6
Continuous
 62
     7
100
AcDbPolyline
 90
        3
 70
   128
 43
0.0
 10
6179.1305541992
 20
5735.7593579132
 10
6179.19665415
 20
5735.6725371161
 10
6179.3162731126
 20
5735.6179756958
  0
LWPOLYLINE
  5
545
330
1F
100
AcDbEntity
  8
0
  6
Continuous
 62
     7
100
AcDbPolyline
 90
        3
 70
   128
 43
0.0
 10
6179.313659668
 20
5735.6179756958
 10
6179.5248972287
 20
5735.5558546963
 10
6179.6926391914
 20
5735.5090184051
  0
LWPOLYLINE
  5
546
330
1F
100
AcDbEntity
  8
0
  6
Continuous
 62
     7
100
AcDbPolyline
 90
        3
 70
   128
 43
0.0
 10
6179.6913146973
 20
5735.5090184051
 10
6180.1767723367
 20
5735.3402584633
 10
6180.3522539928
 20
5735.1560396988
  0
LWPOLYLINE
  5
547
330
1F
100
AcDbEntity
  8
0
  6
Continuous
 62
     7
100
AcDbPolyline
 90
        3
 70
   128
 43
0.0
 10
6197.078704834
 20
5735.4956669647
 10
6197.1040539956
 20
5735.45268581
 10
6197.1500051811
 20
5735.4231877166
  0
LWPOLYLINE
  5
548
330
1F
100
AcDbEntity
  8
0
  6
Continuous
 62
     7
100
AcDbPolyline
 90
        3
 70
   128
 43
0.0
 10
6197.1473693848
 20
5735.4231877166
 10
6197.3052985422
 20
5735.3724449323
 10
6197.4422393039
 20
5735.3408140976
  0
LWPOLYLINE
  5
549
330
1F
100
AcDbEntity
  8
0
  6
Continuous
 62
     7
100
AcDbPolyline
 90
        3
 70
   128
 43
0.0
 10
6197.4411010742
 20
5735.3408140976
 10
6197.664202155
 20
5735.2855744079
 10
6197.8107450202
 20
5735.2285189468
  0
LWPOLYLINE
  5
54A
330
1F
100
AcDbEntity
  8
0
  6
Continuous
 62
     7
100
AcDbPolyline
 90
        3
 70
   128
 43
0.0
 10
6197.8073120117
 20
5735.2285189468
 10
6197.8884186839
 20
5735.1620393481
 10
6197.9060975507
 20
5735.1048989135
  0
LWPOLYLINE
  5
54B
330
1F
100
AcDbEntity
  8
0
  6
Continuous
 62
     7
100
AcDbPolyline
 90
        3
 70
   128
 43
0.0
 10
6196.8879699707
 20
5735.0562615234
 10
6197.0927924634
 20
5734.9915916818
 10
6197.293600221
 20
5734.972099765
  0
LWPOLYLINE
  5
54C
330
1F
100
AcDbEntity
  8
0
  6
Continuous
 62
     7
100
AcDbPolyline
 90
        3
 70
   128
 43
0.0
 10
6197.2923278809
 20
5734.972099765
 10
6197.5658315574
 20
5735.0168374908
 10
6197.6548192695
 20
5735.1007265884
  0
LWPOLYLINE
  5
54D
330
1F
100
AcDbEntity
  8
0
  6
Continuous
 62
     7
100
AcDbPolyline
 90
        3
 70
   128
 43
0.0
 10
6196.8269348145
 20
5735.4917330581
 10
6197.0090831123
 20
5735.6540980065
 10
6197.3463205293
 20
5735.7015414077
  0
LWPOLYLINE
  5
54E
330
1F
100
AcDbEntity
  8
0
  6
Continuous
 62
     7
100
AcDbPolyline
 90
        3
 70
   128
 43
0.0
 10
6197.3457336426
 20
5735.7015414077
 10
6197.6300414285
 20
5735.6683759104
 10
6197.8089345291
 20
5735.6091542083
  0
LWPOLYLINE
  5
54F
330
1F
100
AcDbEntity
  8
0
  6
Continuous
 62
     7
100
AcDbPolyline
 90
        3
 70
   128
 43
0.0
 10
6200.1838684082
 20
5735.7015414077
 10
6200.6608810478
 20
5735.6604119791
 10
6200.9641138509
 20
5735.5698151428
  0
LWPOLYLINE
  5
550
330
1F
100
AcDbEntity
  8
0
  6
Continuous
 62
     7
100
AcDbPolyline
 90
        3
 70
   128
 43
0.0
 10
6200.9620666504
 20
5735.5698151428
 10
6201.1911823371
 20
5735.4204517104
 10
6201.2445611551
 20
5735.2855009872
  0
LWPOLYLINE
  5
551
330
1F
100
AcDbEntity
  8
0
  6
Continuous
 62
     7
100
AcDbPolyline
 90
        3
 70
   128
 43
0.0
 10
6199.1233825684
 20
5735.2855009872
 10
6199.21491561
 20
5735.4554504179
 10
6199.4070617154
 20
5735.569099887
  0
LWPOLYLINE
  5
552
330
1F
100
AcDbEntity
  8
0
  6
Continuous
 62
     7
100
AcDbPolyline
 90
        3
 70
   128
 43
0.0
 10
6199.405670166
 20
5735.569099887
 10
6199.8091371161
 20
5735.6766376004
 10
6200.1867053702
 20
5735.7015414077
  0
LWPOLYLINE
  5
553
330
1F
100
AcDbEntity
  8
0
  6
Continuous
 62
     7
100
AcDbPolyline
 90
        3
 70
   128
 43
0.0
 10
6199.3751525879
 20
5735.2849049408
 10
6199.6691977847
 20
5735.0413343094
 10
6200.1855877832
 20
5734.972099765
  0
LWPOLYLINE
  5
554
330
1F
100
AcDbEntity
  8
0
  6
Continuous
 62
     7
100
AcDbPolyline
 90
        3
 70
   128
 43
0.0
 10
6200.1838684082
 20
5734.972099765
 10
6200.8107514784
 20
5735.0839070904
 10
6200.9932754233
 20
5735.2849049408
  0
LWPOLYLINE
  5
555
330
1F
100
AcDbEntity
  8
0
  6
Continuous
 62
     7
100
AcDbPolyline
 90
        3
 70
   128
 43
0.0
 10
6186.3288879395
 20
5735.7015414077
 10
6186.8044700676
 20
5735.6604119791
 10
6187.1077028707
 20
5735.5698151428
  0
LWPOLYLINE
  5
556
330
1F
100
AcDbEntity
  8
0
  6
Continuous
 62
     7
100
AcDbPolyline
 90
        3
 70
   128
 43
0.0
 10
6187.1070861816
 20
5735.5698151428
 10
6187.3347713568
 20
5735.4204517104
 10
6187.3881501749
 20
5735.2855009872
  0
LWPOLYLINE
  5
557
330
1F
100
AcDbEntity
  8
0
  6
Continuous
 62
     7
100
AcDbPolyline
 90
        3
 70
   128
 43
0.0
 10
6185.2684020996
 20
5735.2855009872
 10
6185.3585046298
 20
5735.4554504179
 10
6185.5506507352
 20
5735.569099887
  0
LWPOLYLINE
  5
558
330
1F
100
AcDbEntity
  8
0
  6
Continuous
 62
     7
100
AcDbPolyline
 90
        3
 70
   128
 43
0.0
 10
6185.546875
 20
5735.569099887
 10
6185.9527261359
 20
5735.6766376004
 10
6186.33029439
 20
5735.7015414077
  0
LWPOLYLINE
  5
559
330
1F
100
AcDbEntity
  8
0
  6
Continuous
 62
     7
100
AcDbPolyline
 90
        3
 70
   128
 43
0.0
 10
6185.5201721191
 20
5735.2849049408
 10
6185.8127868045
 20
5735.0413343094
 10
6186.3291768029
 20
5734.972099765
  0
LWPOLYLINE
  5
55A
330
1F
100
AcDbEntity
  8
0
  6
Continuous
 62
     7
100
AcDbPolyline
 90
        3
 70
   128
 43
0.0
 10
6186.3288879395
 20
5734.972099765
 10
6186.9543404982
 20
5735.0839070904
 10
6187.1368644431
 20
5735.2849049408
  0
LWPOLYLINE
  5
55B
330
1F
100
AcDbEntity
  8
0
  6
Continuous
 62
     7
100
AcDbPolyline
 90
        3
 70
   128
 43
0.0
 10
6189.9337768555
 20
5735.2855009872
 10
6190.0110210301
 20
5735.443354269
 10
6190.1724470451
 20
5735.5524105865
  0
LWPOLYLINE
  5
55C
330
1F
100
AcDbEntity
  8
0
  6
Continuous
 62
     7
100
AcDbPolyline
 90
        3
 70
   128
 43
0.0
 10
6190.1702880859
 20
5735.5524105865
 10
6190.577585948
 20
5735.673712343
 10
6190.9722817734
 20
5735.7015414077
  0
LWPOLYLINE
  5
55D
330
1F
100
AcDbEntity
  8
0
  6
Continuous
 62
     7
100
AcDbPolyline
 90
        3
 70
   128
 43
0.0
 10
6190.9713745117
 20
5735.7015414077
 10
6191.4857564428
 20
5735.6521183809
 10
6191.7962414816
 20
5735.5441851455
  0
LWPOLYLINE
  5
55E
330
1F
100
AcDbEntity
  8
0
  6
Continuous
 62
     7
100
AcDbPolyline
 90
        3
 70
   128
 43
0.0
 10
6191.7953491211
 20
5735.5441851455
 10
6191.9785683502
 20
5735.3953443118
 10
6192.0189169839
 20
5735.2666659195
  0
LWPOLYLINE
  5
55F
330
1F
100
AcDbEntity
  8
0
  6
Continuous
 62
     7
100
AcDbPolyline
 90
        3
 70
   128
 43
0.0
 10
6190.185546875
 20
5735.2666659195
 10
6190.4546246204
 20
5735.038185436
 10
6190.9347010449
 20
5734.972099765
  0
LWPOLYLINE
  5
560
330
1F
100
AcDbEntity
  8
0
  6
Continuous
 62
     7
100
AcDbPolyline
 90
        3
 70
   128
 43
0.0
 10
6190.9332275391
 20
5734.972099765
 10
6191.4181152816
 20
5735.025788463
 10
6191.6879919961
 20
5735.1404232818
  0
LWPOLYLINE
  5
561
330
1F
100
AcDbEntity
  8
0
  6
Continuous
 62
     7
100
AcDbPolyline
 90
        3
 70
   128
 43
0.0
 10
6193.775177002
 20
5735.2899117309
 10
6194.10500796
 20
5735.038356341
 10
6194.6551335648
 20
5734.972099765
  0
LWPOLYLINE
  5
562
330
1F
100
AcDbEntity
  8
0
  6
Continuous
 62
     7
100
AcDbPolyline
 90
        3
 70
   128
 43
0.0
 10
6194.652557373
 20
5734.972099765
 10
6195.1161435921
 20
5735.016874516
 10
6195.3983289793
 20
5735.1124090988
  0
LWPOLYLINE
  5
563
330
1F
100
AcDbEntity
  8
0
  6
Continuous
 62
     7
100
AcDbPolyline
 90
        3
 70
   128
 43
0.0
 10
6193.5234069824
 20
5735.2810902435
 10
6193.9507584116
 20
5735.6127572306
 10
6194.6719644263
 20
5735.7015414077
  0
LWPOLYLINE
  5
564
330
1F
100
AcDbEntity
  8
0
  6
Continuous
 62
     7
100
AcDbPolyline
 90
        3
 70
   128
 43
0.0
 10
6194.6716308594
 20
5735.7015414077
 10
6195.2637687982
 20
5735.643985316
 10
6195.6086588696
 20
5735.5141444046
  0
LWPOLYLINE
  5
565
330
1F
100
AcDbEntity
  8
0
  6
Continuous
 62
     7
100
AcDbPolyline
 90
        3
 70
   128
 43
0.0
 10
6180.7823181152
 20
5735.2855009872
 10
6180.8571708632
 20
5735.4433544813
 10
6181.0185966685
 20
5735.5524105865
  0
LWPOLYLINE
  5
566
330
1F
100
AcDbEntity
  8
0
  6
Continuous
 62
     7
100
AcDbPolyline
 90
        3
 70
   128
 43
0.0
 10
6181.0150146484
 20
5735.5524105865
 10
6181.4237406825
 20
5735.6737119683
 10
6181.8184388474
 20
5735.7015414077
  0
LWPOLYLINE
  5
567
330
1F
100
AcDbEntity
  8
0
  6
Continuous
 62
     7
100
AcDbPolyline
 90
        3
 70
   128
 43
0.0
 10
6181.8161010742
 20
5735.7015414077
 10
6182.3319113993
 20
5735.6521172066
 10
6182.6423985556
 20
5735.5441851455
  0
LWPOLYLINE
  5
568
330
1F
100
AcDbEntity
  8
0
  6
Continuous
 62
     7
100
AcDbPolyline
 90
        3
 70
   128
 43
0.0
 10
6182.6400756836
 20
5735.5441851455
 10
6182.8247184756
 20
5735.3953435944
 10
6182.8650740579
 20
5735.2666659195
  0
LWPOLYLINE
  5
569
330
1F
100
AcDbEntity
  8
0
  6
Continuous
 62
     7
100
AcDbPolyline
 90
        3
 70
   128
 43
0.0
 10
6181.0340881348
 20
5735.2666659195
 10
6181.3007811672
 20
5735.0381856089
 10
6181.7808581188
 20
5734.972099765
  0
LWPOLYLINE
  5
56A
330
1F
100
AcDbEntity
  8
0
  6
Continuous
 62
     7
100
AcDbPolyline
 90
        3
 70
   128
 43
0.0
 10
6181.7779541016
 20
5734.972099765
 10
6182.2642700505
 20
5735.0257878382
 10
6182.5341416195
 20
5735.1404232818
  0
LWPOLYLINE
  5
56B
330
1F
100
AcDbEntity
  8
0
  6
Continuous
 62
     7
100
AcDbPolyline
 90
        3
 70
   128
 43
0.0
 10
6183.5441589355
 20
5735.5698151428
 10
6183.7852863568
 20
5735.6704735281
 10
6184.046318908
 20
5735.7015414077
  0
LWPOLYLINE
  5
56C
330
1F
100
AcDbEntity
  8
0
  6
Continuous
 62
     7
100
AcDbPolyline
 90
        3
 70
   128
 43
0.0
 10
6184.0438842773
 20
5735.7015414077
 10
6184.1403376626
 20
5735.6962419813
 10
6184.2082498267
 20
5735.6850905258
  0
LWPOLYLINE
  5
56D
330
1F
100
AcDbEntity
  8
0
  6
Continuous
 62
     7
100
AcDbPolyline
 90
        3
 70
   128
 43
0.0
 10
6199.3751525879
 20
5735.3309197265
 10
6199.669197351
 20
5735.0873492308
 10
6200.1855877832
 20
5735.0181145507
  0
LWPOLYLINE
  5
56E
330
1F
100
AcDbEntity
  8
0
  6
Continuous
 62
     7
100
AcDbPolyline
 90
        3
 70
   128
 43
0.0
 10
6200.1838684082
 20
5735.6493277389
 10
6199.561530515
 20
5735.5329299687
 10
6199.3778926924
 20
5735.3309197265
  0
LWPOLYLINE
  5
56F
330
1F
100
AcDbEntity
  8
0
  6
Continuous
 62
     7
100
AcDbPolyline
 90
        3
 70
   128
 43
0.0
 10
6200.9925842285
 20
5735.3309197265
 10
6200.7005200734
 20
5735.5757311735
 10
6200.1855877832
 20
5735.6493277389
  0
LWPOLYLINE
  5
570
330
1F
100
AcDbEntity
  8
0
  6
Continuous
 62
     7
100
AcDbPolyline
 90
        3
 70
   128
 43
0.0
 10
6200.1838684082
 20
5735.0181145507
 10
6200.810751773
 20
5735.1299220192
 10
6200.9932754233
 20
5735.3309197265
  0
LWPOLYLINE
  5
571
330
1F
100
AcDbEntity
  8
0
  6
Continuous
 62
     7
100
AcDbPolyline
 90
        3
 70
   128
 43
0.0
 10
6186.3288879395
 20
5735.0181145507
 10
6186.9543407928
 20
5735.1299220192
 10
6187.1368644431
 20
5735.3309197265
  0
LWPOLYLINE
  5
572
330
1F
100
AcDbEntity
  8
0
  6
Continuous
 62
     7
100
AcDbPolyline
 90
        3
 70
   128
 43
0.0
 10
6185.5201721191
 20
5735.3309197265
 10
6185.8127863707
 20
5735.0873492308
 10
6186.3291768029
 20
5735.0181145507
  0
LWPOLYLINE
  5
573
330
1F
100
AcDbEntity
  8
0
  6
Continuous
 62
     7
100
AcDbPolyline
 90
        3
 70
   128
 43
0.0
 10
6186.3288879395
 20
5735.6493277389
 10
6185.7051195348
 20
5735.5329299687
 10
6185.5214817122
 20
5735.3309197265
  0
LWPOLYLINE
  5
574
330
1F
100
AcDbEntity
  8
0
  6
Continuous
 62
     7
100
AcDbPolyline
 90
        3
 70
   128
 43
0.0
 10
6187.1337890625
 20
5735.3309197265
 10
6186.8441101246
 20
5735.5757308292
 10
6186.3291768029
 20
5735.6493277389
  0
LWPOLYLINE
  5
575
330
1F
100
AcDbEntity
  8
0
  6
Continuous
 62
     7
100
AcDbPolyline
 90
        3
 70
   128
 43
0.0
 10
6190.9828186035
 20
5735.6493277389
 10
6190.671112408
 20
5735.626272809
 10
6190.4579383925
 20
5735.5743450958
  0
LWPOLYLINE
  5
576
330
1F
100
AcDbEntity
  8
0
  6
Continuous
 62
     7
100
AcDbPolyline
 90
        3
 70
   128
 43
0.0
 10
6190.4563903809
 20
5735.5743450958
 10
6190.2927484604
 20
5735.4891465616
 10
6190.2145130232
 20
5735.4109091598
  0
LWPOLYLINE
  5
577
330
1F
100
AcDbEntity
  8
0
  6
Continuous
 62
     7
100
AcDbPolyline
 90
        3
 70
   128
 43
0.0
 10
6191.764831543
 20
5735.4109091598
 10
6191.435098859
 20
5735.6001577909
 10
6190.985186179
 20
5735.6493277389
  0
LWPOLYLINE
  5
578
330
1F
100
AcDbEntity
  8
0
  6
Continuous
 62
     7
100
AcDbPolyline
 90
        3
 70
   128
 43
0.0
 10
6181.827545166
 20
5735.6493277389
 10
6181.5172652485
 20
5735.6262733307
 10
6181.3040954664
 20
5735.5743450958
  0
LWPOLYLINE
  5
579
330
1F
100
AcDbEntity
  8
0
  6
Continuous
 62
     7
100
AcDbPolyline
 90
        3
 70
   128
 43
0.0
 10
6182.6133728027
 20
5735.4109091598
 10
6182.2812491621
 20
5735.6001576217
 10
6181.8313358024
 20
5735.6493277389
  0
LWPOLYLINE
  5
57A
330
1F
100
AcDbEntity
  8
0
  6
Continuous
 62
     7
100
AcDbPolyline
 90
        3
 70
   128
 43
0.0
 10
6181.3011169434
 20
5735.5743450958
 10
6181.1388990087
 20
5735.4891472377
 10
6181.0606626466
 20
5735.4109091598
  0
LWPOLYLINE
  5
57B
330
1F
100
AcDbEntity
  8
0
  6
Continuous
 62
     7
100
AcDbPolyline
 90
        3
 70
   128
 43
0.0
 10
6184.6046447754
 20
5736.0241217453
 10
6184.7827334067
 20
5735.9946649906
 10
6184.8394332126
 20
5735.9394831497
  0
LWPOLYLINE
  5
57C
330
1F
100
AcDbEntity
  8
0
  6
Continuous
 62
     7
100
AcDbPolyline
 90
        3
 70
   128
 43
0.0
 10
6184.3719482422
 20
5735.9394831497
 10
6184.4605436321
 20
5736.0056175432
 10
6184.6049783423
 20
5736.0241217453
  0
LWPOLYLINE
  5
57D
330
1F
100
AcDbEntity
  8
0
  6
Continuous
 62
     7
100
AcDbPolyline
 90
        3
 70
   128
 43
0.0
 10
6583.740234375
 20
4914.6538032133
 10
6583.3623236257
 20
4908.1937480692
 10
6583.7430492693
 20
4903.1942142088
  0
LWPOLYLINE
  5
57E
330
1F
100
AcDbEntity
  8
0
  6
Continuous
 62
     7
100
AcDbPolyline
 90
        3
 70
   128
 43
0.0
 10
6319.0307617188
 20
4463.9955684098
 10
6319.6171461384
 20
4463.65766104
 10
6320.07630371
 20
4463.3921235355
  0
LWPOLYLINE
  5
57F
330
1F
100
AcDbEntity
  8
0
  6
Continuous
 62
     7
100
AcDbPolyline
 90
        3
 70
   128
 43
0.0
 10
6319.0307617188
 20
4462.0417207034
 10
6319.6171461384
 20
4461.7038133337
 10
6320.07630371
 20
4461.4382758292
  0
LWPOLYLINE
  5
580
330
1F
100
AcDbEntity
  8
0
  6
Continuous
 62
     7
100
AcDbPolyline
 90
        3
 70
   128
 43
0.0
 10
6319.0307617188
 20
4460.0878729971
 10
6319.6171461384
 20
4459.7499656273
 10
6320.07630371
 20
4459.4844281228
  0
LWPOLYLINE
  5
581
330
1F
100
AcDbEntity
  8
0
  6
Continuous
 62
     7
100
AcDbPolyline
 90
        3
 70
   128
 43
0.0
 10
6574.8100280762
 20
4753.003819837
 10
6575.1494390381
 20
4753.5882278367
 10
6575.4149765426
 20
4754.0473854083
  0
LWPOLYLINE
  5
582
330
1F
100
AcDbEntity
  8
0
  6
Continuous
 62
     7
100
AcDbPolyline
 90
        3
 70
   128
 43
0.0
 10
6576.7631530762
 20
4753.003819837
 10
6577.1032867444
 20
4753.5882278367
 10
6577.3688242489
 20
4754.0473854083
  0
LWPOLYLINE
  5
583
330
1F
100
AcDbEntity
  8
0
  6
Continuous
 62
     7
100
AcDbPolyline
 90
        3
 70
   128
 43
0.0
 10
6578.7162780762
 20
4753.003819837
 10
6579.0571344508
 20
4753.5882278367
 10
6579.3226719553
 20
4754.0473854083
  0
LWPOLYLINE
  5
584
330
1F
100
AcDbEntity
  8
0
  6
Continuous
 62
     7
100
AcDbPolyline
 90
        3
 70
   128
 43
0.0
 10
6580.6694030762
 20
4753.003819837
 10
6581.0109801835
 20
4753.5882246696
 10
6581.276512211
 20
4754.0473854083
  0
LWPOLYLINE
  5
585
330
1F
100
AcDbEntity
  8
0
  6
Continuous
 62
     7
100
AcDbPolyline
 90
        3
 70
   128
 43
0.0
 10
6574.4438171387
 20
4771.9165934164
 10
6574.104096343
 20
4772.5097645777
 10
6573.8346115405
 20
4772.9758499104
  0
LWPOLYLINE
  5
586
330
1F
100
AcDbEntity
  8
0
  6
Continuous
 62
     7
100
AcDbPolyline
 90
        3
 70
   128
 43
0.0
 10
6576.4007568359
 20
4771.9165934164
 10
6576.0579426107
 20
4772.5097661583
 10
6575.7884517962
 20
4772.9758499104
  0
LWPOLYLINE
  5
587
330
1F
100
AcDbEntity
  8
0
  6
Continuous
 62
     7
100
AcDbPolyline
 90
        3
 70
   128
 43
0.0
 10
6578.3538818359
 20
4771.9165934164
 10
6578.0117897728
 20
4772.5097677394
 10
6577.7422995025
 20
4772.9758499104
  0
LWPOLYLINE
  5
588
330
1F
100
AcDbEntity
  8
0
  6
Continuous
 62
     7
100
AcDbPolyline
 90
        3
 70
   128
 43
0.0
 10
6580.3070068359
 20
4771.9165934164
 10
6579.9656320113
 20
4772.5097645777
 10
6579.6961472088
 20
4772.9758499104
  0
LWPOLYLINE
  5
589
330
1F
100
AcDbEntity
  8
0
  6
Continuous
 62
     7
100
AcDbPolyline
 90
        3
 70
   128
 43
0.0
 10
6572.8569030762
 20
4753.003819837
 10
6573.2006781747
 20
4753.5970118733
 10
6573.4702036435
 20
4754.0630763311
  0
LWPOLYLINE
  5
58A
330
1F
100
AcDbEntity
  8
0
  6
Continuous
 62
     7
100
AcDbPolyline
 90
        3
 70
   128
 43
0.0
 10
6575.8247375488
 20
4754.2619435031
 10
6576.1691107259
 20
4753.6809030603
 10
6576.4381200725
 20
4753.2241335053
  0
LWPOLYLINE
  5
58B
330
1F
100
AcDbEntity
  8
0
  6
Continuous
 62
     7
100
AcDbPolyline
 90
        3
 70
   128
 43
0.0
 10
6577.7778625488
 20
4754.2619435031
 10
6578.1229584323
 20
4753.6809030603
 10
6578.3919677788
 20
4753.2241335053
  0
LWPOLYLINE
  5
58C
330
1F
100
AcDbEntity
  8
0
  6
Continuous
 62
     7
100
AcDbPolyline
 90
        3
 70
   128
 43
0.0
 10
6579.7309875488
 20
4754.2619435031
 10
6580.0768061386
 20
4753.6809030603
 10
6580.3458154852
 20
4753.2241335053
  0
LWPOLYLINE
  5
58D
330
1F
100
AcDbEntity
  8
0
  6
Continuous
 62
     7
100
AcDbPolyline
 90
        3
 70
   128
 43
0.0
 10
6581.6879272461
 20
4754.2619435031
 10
6582.0306533012
 20
4753.680904611
 10
6582.2996631915
 20
4753.2241335053
  0
LWPOLYLINE
  5
58E
330
1F
100
AcDbEntity
  8
0
  6
Continuous
 62
     7
100
AcDbPolyline
 90
        3
 70
   128
 43
0.0
 10
6575.511932373
 20
4772.9761106807
 10
6575.1693427989
 20
4772.3829585356
 10
6574.8998359496
 20
4771.9169286925
  0
LWPOLYLINE
  5
58F
330
1F
100
AcDbEntity
  8
0
  6
Continuous
 62
     7
100
AcDbPolyline
 90
        3
 70
   128
 43
0.0
 10
6577.465057373
 20
4772.9761106807
 10
6577.1231905052
 20
4772.3829585356
 10
6576.8536836559
 20
4771.9169286925
  0
LWPOLYLINE
  5
590
330
1F
100
AcDbEntity
  8
0
  6
Continuous
 62
     7
100
AcDbPolyline
 90
        3
 70
   128
 43
0.0
 10
6579.418182373
 20
4772.9761106807
 10
6579.0770362288
 20
4772.3829553738
 10
6578.8075239116
 20
4771.9169286925
  0
LWPOLYLINE
  5
591
330
1F
100
AcDbEntity
  8
0
  6
Continuous
 62
     7
100
AcDbPolyline
 90
        3
 70
   128
 43
0.0
 10
6581.371307373
 20
4772.9761106807
 10
6581.0308839351
 20
4772.3829553738
 10
6580.7613716179
 20
4771.9169286925
  0
LWPOLYLINE
  5
592
330
1F
100
AcDbEntity
  8
0
  6
Continuous
 62
     7
100
AcDbPolyline
 90
        3
 70
   128
 43
0.0
 10
6573.5549926758
 20
4772.9761106807
 10
6573.2155005604
 20
4772.3829553738
 10
6572.9459882433
 20
4771.9169286925
  0
LWPOLYLINE
  5
593
330
1F
100
AcDbEntity
  8
0
  6
Continuous
 62
     7
100
AcDbPolyline
 90
        3
 70
   128
 43
0.0
 10
6573.8716125488
 20
4754.2619435031
 10
6574.2152630196
 20
4753.6809030603
 10
6574.4842723662
 20
4753.2241335053
  0
LWPOLYLINE
  5
594
330
1F
100
AcDbEntity
  8
0
  6
Continuous
 62
     7
100
AcDbPolyline
 90
        3
 70
   128
 43
0.0
 10
6677.0095825195
 20
5659.6888108093
 10
6676.861123605
 20
5659.4286668288
 10
6676.7430514747
 20
5659.2242522079
  0
LWPOLYLINE
  5
595
330
1F
100
AcDbEntity
  8
0
  6
Continuous
 62
     7
100
AcDbPolyline
 90
        3
 70
   128
 43
0.0
 10
6722.541809082
 20
4920.6358743745
 10
6721.3109088085
 20
4927.1748851713
 10
6719.5430532748
 20
4932.1983111936
  0
LWPOLYLINE
  5
596
330
1F
100
AcDbEntity
  8
0
  6
Continuous
 62
     7
100
AcDbPolyline
 90
        3
 70
   128
 43
0.0
 10
6719.539642334
 20
4932.1983111936
 10
6722.0999435517
 20
4925.7919739438
 10
6723.0430529172
 20
4920.491795047
  0
LWPOLYLINE
  5
597
330
1F
100
AcDbEntity
  8
0
  6
Continuous
 62
     7
100
AcDbPolyline
 90
       11
 70
   128
 43
0.0
 10
6709.7396850586
 20
4958.0898387271
 10
6714.7441249957
 20
4957.4581813801
 10
6719.3721788467
 20
4958.0009060983
 10
6719.6815607177
 20
4958.0746212514
 10
6719.7006580879
 20
4958.0793466419
 10
6719.7012766585
 20
4958.0795016655
 10
6719.7013449081
 20
4958.079519329
 10
6719.7013486494
 20
4958.0795205179
 10
6719.7013430604
 20
4958.0795194003
 10
6719.7012713564
 20
4958.0795024672
 10
6719.6764447445
 20
4958.0733878452
  0
LWPOLYLINE
  5
598
330
1F
100
AcDbEntity
  8
0
  6
Continuous
 62
     7
100
AcDbPolyline
 90
        3
 70
   128
 43
0.0
 10
6319.0307617188
 20
4458.1340327414
 10
6319.6171429713
 20
4457.7961198946
 10
6320.07630371
 20
4457.5305878671
  0
LWPOLYLINE
  5
599
330
1F
100
AcDbEntity
  8
0
  6
Continuous
 62
     7
100
AcDbPolyline
 90
        3
 70
   128
 43
0.0
 10
6337.9440307617
 20
4464.3599688562
 10
6338.5386828794
 20
4464.7030037351
 10
6339.0047682121
 20
4464.9724885376
  0
LWPOLYLINE
  5
59A
330
1F
100
AcDbEntity
  8
0
  6
Continuous
 62
     7
100
AcDbPolyline
 90
        3
 70
   128
 43
0.0
 10
6337.9440307617
 20
4462.4061211499
 10
6338.53868446
 20
4462.7491574674
 10
6339.0047682121
 20
4463.0186482819
  0
LWPOLYLINE
  5
59B
330
1F
100
AcDbEntity
  8
0
  6
Continuous
 62
     7
100
AcDbPolyline
 90
        3
 70
   128
 43
0.0
 10
6337.9440307617
 20
4460.4522808941
 10
6338.5386860411
 20
4460.7953103053
 10
6339.0047682121
 20
4461.0648005756
  0
LWPOLYLINE
  5
59C
330
1F
100
AcDbEntity
  8
0
  6
Continuous
 62
     7
100
AcDbPolyline
 90
        3
 70
   128
 43
0.0
 10
6337.9440307617
 20
4458.4984331878
 10
6338.5386828794
 20
4458.8414680668
 10
6339.0047682121
 20
4459.1109528693
  0
LWPOLYLINE
  5
59D
330
1F
100
AcDbEntity
  8
0
  6
Continuous
 62
     7
100
AcDbPolyline
 90
        3
 70
   128
 43
0.0
 10
6319.0307617188
 20
4465.9494161161
 10
6319.625930175
 20
4465.6064219034
 10
6320.0919946328
 20
4465.3368964346
  0
LWPOLYLINE
  5
59E
330
1F
100
AcDbEntity
  8
0
  6
Continuous
 62
     7
100
AcDbPolyline
 90
        3
 70
   128
 43
0.0
 10
6320.2896118164
 20
4462.9803746494
 10
6319.709821362
 20
4462.6379893522
 10
6319.253051807
 20
4462.3689800056
  0
LWPOLYLINE
  5
59F
330
1F
100
AcDbEntity
  8
0
  6
Continuous
 62
     7
100
AcDbPolyline
 90
        3
 70
   128
 43
0.0
 10
6320.2896118164
 20
4461.0265269431
 10
6319.709821362
 20
4460.6841416458
 10
6319.253051807
 20
4460.4151322993
  0
LWPOLYLINE
  5
5A0
330
1F
100
AcDbEntity
  8
0
  6
Continuous
 62
     7
100
AcDbPolyline
 90
        3
 70
   128
 43
0.0
 10
6320.2896118164
 20
4459.0726792367
 10
6319.709821362
 20
4458.7302939395
 10
6319.253051807
 20
4458.4612845929
  0
LWPOLYLINE
  5
5A1
330
1F
100
AcDbEntity
  8
0
  6
Continuous
 62
     7
100
AcDbPolyline
 90
        3
 70
   128
 43
0.0
 10
6320.2896118164
 20
4457.118838981
 10
6319.7098229127
 20
4456.7764467769
 10
6319.253051807
 20
4456.5074368866
  0
LWPOLYLINE
  5
5A2
330
1F
100
AcDbEntity
  8
0
  6
Continuous
 62
     7
100
AcDbPolyline
 90
        3
 70
   128
 43
0.0
 10
6339.0045166016
 20
4463.2947891506
 10
6338.4118768373
 20
4463.6377572792
 10
6337.9458469942
 20
4463.9072641285
  0
LWPOLYLINE
  5
5A3
330
1F
100
AcDbEntity
  8
0
  6
Continuous
 62
     7
100
AcDbPolyline
 90
        3
 70
   128
 43
0.0
 10
6339.0045166016
 20
4461.3409414442
 10
6338.4118768373
 20
4461.6839095729
 10
6337.9458469942
 20
4461.9534164222
  0
LWPOLYLINE
  5
5A4
330
1F
100
AcDbEntity
  8
0
  6
Continuous
 62
     7
100
AcDbPolyline
 90
        3
 70
   128
 43
0.0
 10
6339.0045166016
 20
4459.3871011885
 10
6338.4118736755
 20
4459.7300638493
 10
6337.9458469942
 20
4459.9995761665
  0
LWPOLYLINE
  5
5A5
330
1F
100
AcDbEntity
  8
0
  6
Continuous
 62
     7
100
AcDbPolyline
 90
        3
 70
   128
 43
0.0
 10
6339.0045166016
 20
4457.4332534822
 10
6338.4118736755
 20
4457.776216143
 10
6337.9458469942
 20
4458.0457284602
  0
LWPOLYLINE
  5
5A6
330
1F
100
AcDbEntity
  8
0
  6
Continuous
 62
     7
100
AcDbPolyline
 90
        3
 70
   128
 43
0.0
 10
6339.0045166016
 20
4465.2486368569
 10
6338.4118736755
 20
4465.5915995177
 10
6337.9458469942
 20
4465.8611118348
  0
LWPOLYLINE
  5
5A7
330
1F
100
AcDbEntity
  8
0
  6
Continuous
 62
     7
100
AcDbPolyline
 90
        3
 70
   128
 43
0.0
 10
6320.2896118164
 20
4464.9342223557
 10
6319.709821362
 20
4464.5918370585
 10
6319.253051807
 20
4464.3228277119
  0
LWPOLYLINE
  5
5A8
330
1F
100
AcDbEntity
  8
0
  6
Continuous
 62
     7
100
AcDbPolyline
 90
        8
 70
   128
 43
0.0
 10
6319.1261291504
 20
4465.9485443982
 10
6319.1173798139
 20
4465.9554191953
 10
6319.1144032653
 20
4465.9588647101
 10
6319.1141472611
 20
4465.9623199645
 10
6319.1196052718
 20
4465.966947732
 10
6319.822709035
 20
4466.0240885266
 10
6328.774576189
 20
4466.2530178927
 10
6338.3411897018
 20
4466.5677994045
  0
LWPOLYLINE
  5
5A9
330
1F
100
AcDbEntity
  8
0
  6
Continuous
 62
     7
100
AcDbPolyline
 90
        8
 70
   128
 43
0.0
 10
6337.8219604492
 20
4466.3133844288
 10
6337.8227970092
 20
4466.2986285719
 10
6337.8102318524
 20
4466.2838294888
 10
6337.1152442462
 20
4466.1932722417
 10
6328.751917956
 20
4465.8342017782
 10
6320.7080649734
 20
4465.4744133261
 10
6320.270280212
 20
4465.4143519522
 10
6320.1667835608
 20
4465.3550236972
  0
LWPOLYLINE
  5
5AA
330
1F
100
AcDbEntity
  8
0
  6
Continuous
 62
     7
100
AcDbPolyline
 90
        8
 70
   128
 43
0.0
 10
6337.8219604492
 20
4464.3595441731
 10
6337.8227970159
 20
4464.3447855402
 10
6337.8102318683
 20
4464.3299839354
 10
6337.1152443499
 20
4464.2394233485
 10
6328.7519178375
 20
4463.8803611459
 10
6320.7080649876
 20
4463.5205655653
 10
6320.2702802137
 20
4463.4605042595
 10
6320.1667835608
 20
4463.4011759909
  0
LWPOLYLINE
  5
5AB
330
1F
100
AcDbEntity
  8
0
  6
Continuous
 62
     7
100
AcDbPolyline
 90
        8
 70
   128
 43
0.0
 10
6337.8219604492
 20
4462.4056964668
 10
6337.8227970141
 20
4462.390937903
 10
6337.8102318664
 20
4462.3761363185
 10
6337.1152443888
 20
4462.2855747227
 10
6328.7519179342
 20
4461.9265144925
 10
6320.7080650866
 20
4461.566716397
 10
6320.2702802431
 20
4461.5066579244
 10
6320.1667835608
 20
4461.4473357352
  0
LWPOLYLINE
  5
5AC
330
1F
100
AcDbEntity
  8
0
  6
Continuous
 62
     7
100
AcDbPolyline
 90
        8
 70
   128
 43
0.0
 10
6337.8219604492
 20
4460.4518487604
 10
6337.8227970147
 20
4460.4370901781
 10
6337.8102318672
 20
4460.4222885881
 10
6337.1152443809
 20
4460.3317272648
 10
6328.7519179578
 20
4459.9726660617
 10
6320.7080650411
 20
4459.6128743147
 10
6320.2702801982
 20
4459.5528169596
 10
6320.1667835608
 20
4459.4934880288
  0
LWPOLYLINE
  5
5AD
330
1F
100
AcDbEntity
  8
0
  6
Continuous
 62
     7
100
AcDbPolyline
 90
        8
 70
   128
 43
0.0
 10
6337.8219604492
 20
4458.4980010541
 10
6337.8227970041
 20
4458.4832454564
 10
6337.8102318458
 20
4458.4684464492
 10
6337.1152443635
 20
4458.3778828102
 10
6328.7519179575
 20
4458.0188184552
 10
6320.7080649737
 20
4457.6590299503
 10
6320.270280212
 20
4457.5989685778
 10
6320.1667835608
 20
4457.5396403225
  0
LWPOLYLINE
  5
5AE
330
1F
100
AcDbEntity
  8
0
  6
Continuous
 62
     7
100
AcDbPolyline
 90
        8
 70
   128
 43
0.0
 10
6338.8862609863
 20
4464.9715497645
 10
6328.7484329971
 20
4464.4913516539
 10
6319.727561416
 20
4464.1318236913
 10
6319.1659918384
 20
4464.0635107454
 10
6319.1400329446
 20
4464.0523129395
 10
6319.130474604
 20
4464.0411768318
 10
6319.1355112211
 20
4464.0263955797
 10
6319.1511502161
 20
4464.0116542133
  0
LWPOLYLINE
  5
5AF
330
1F
100
AcDbEntity
  8
0
  6
Continuous
 62
     7
100
AcDbPolyline
 90
        8
 70
   128
 43
0.0
 10
6338.8862609863
 20
4463.0177020582
 10
6328.7484329961
 20
4462.5375039955
 10
6319.7275614159
 20
4462.1779759863
 10
6319.1659918384
 20
4462.109663039
 10
6319.1400329446
 20
4462.0984652331
 10
6319.130474604
 20
4462.0873291253
 10
6319.1355112211
 20
4462.0725478733
 10
6319.1511502161
 20
4462.057806507
  0
LWPOLYLINE
  5
5B0
330
1F
100
AcDbEntity
  8
0
  6
Continuous
 62
     7
100
AcDbPolyline
 90
        8
 70
   128
 43
0.0
 10
6338.8862609863
 20
4461.0638543518
 10
6328.7484327468
 20
4460.5836642241
 10
6319.7275613286
 20
4460.2241337154
 10
6319.16599184
 20
4460.1558152353
 10
6319.1400329509
 20
4460.1446171361
 10
6319.1304746114
 20
4460.1334809613
 10
6319.135511226
 20
4460.118699865
 10
6319.1511502161
 20
4460.1039588006
  0
LWPOLYLINE
  5
5B1
330
1F
100
AcDbEntity
  8
0
  6
Continuous
 62
     7
100
AcDbPolyline
 90
        8
 70
   128
 43
0.0
 10
6338.8862609863
 20
4459.1100066455
 10
6328.7484327494
 20
4458.6298165296
 10
6319.7275613126
 20
4458.2702898046
 10
6319.1659918155
 20
4458.2019748416
 10
6319.1400329318
 20
4458.1907758
 10
6319.1304745976
 20
4458.179638233
 10
6319.1355112192
 20
4458.1648547931
 10
6319.1511502161
 20
4458.1501110943
  0
LWPOLYLINE
  5
5B2
330
1F
100
AcDbEntity
  8
0
  6
Continuous
 62
     7
100
AcDbPolyline
 90
        8
 70
   128
 43
0.0
 10
6338.8862609863
 20
4465.2326032074
 10
6338.8939739868
 20
4465.2175817299
 10
6338.8902378668
 20
4465.2025315255
 10
6338.2858191087
 20
4465.1105843953
 10
6329.0183141987
 20
4464.7444178179
 10
6319.7544132072
 20
4464.3777799308
 10
6319.2409790421
 20
4464.3165494565
 10
6319.1201818779
 20
4464.2560779603
  0
LWPOLYLINE
  5
5B3
330
1F
100
AcDbEntity
  8
0
  6
Continuous
 62
     7
100
AcDbPolyline
 90
        8
 70
   128
 43
0.0
 10
6338.8862609863
 20
4463.2787629517
 10
6338.8939739833
 20
4463.2637417199
 10
6338.8902378608
 20
4463.2486916738
 10
6338.2858191548
 20
4463.156740352
 10
6329.0183143241
 20
4462.7905697923
 10
6319.7544131533
 20
4462.4239358124
 10
6319.240979056
 20
4462.3627010978
 10
6319.1201818779
 20
4462.302230254
  0
LWPOLYLINE
  5
5B4
330
1F
100
AcDbEntity
  8
0
  6
Continuous
 62
     7
100
AcDbPolyline
 90
        8
 70
   128
 43
0.0
 10
6338.8862609863
 20
4461.3249152454
 10
6338.8939739892
 20
4461.3098936696
 10
6338.8902378705
 20
4461.2948434016
 10
6338.2858190727
 20
4461.2028974515
 10
6329.0183143224
 20
4460.8367220597
 10
6319.7544131531
 20
4460.4700881072
 10
6319.240979056
 20
4460.4088533913
 10
6319.1201818779
 20
4460.3483825477
  0
LWPOLYLINE
  5
5B5
330
1F
100
AcDbEntity
  8
0
  6
Continuous
 62
     7
100
AcDbPolyline
 90
        8
 70
   128
 43
0.0
 10
6338.8862609863
 20
4459.3710675391
 10
6338.893973989
 20
4459.3560459699
 10
6338.8902378702
 20
4459.3409957063
 10
6338.2858190748
 20
4459.2490496761
 10
6329.0183140916
 20
4458.8828817254
 10
6319.754413155
 20
4458.5162403423
 10
6319.2409790556
 20
4458.4550056975
 10
6319.1201818779
 20
4458.3945348414
  0
LWPOLYLINE
  5
5B6
330
1F
100
AcDbEntity
  8
0
  6
Continuous
 62
     7
100
AcDbPolyline
 90
        8
 70
   128
 43
0.0
 10
6338.8862609863
 20
4457.4172198327
 10
6338.8939739868
 20
4457.4021983552
 10
6338.8902378668
 20
4457.3871481507
 10
6338.2858191086
 20
4457.295201021
 10
6329.018314197
 20
4456.9290344521
 10
6319.754413246
 20
4456.5623911467
 10
6319.2409790829
 20
4456.5011592618
 10
6319.1201818779
 20
4456.4406945856
  0
LWPOLYLINE
  5
5B7
330
1F
100
AcDbEntity
  8
0
  6
Continuous
 62
     7
100
AcDbPolyline
 90
        6
 70
   128
 43
0.0
 10
6337.8448486328
 20
4465.8432602437
 10
6337.84766832
 20
4465.8153007434
 10
6337.7392831449
 20
4465.7729565766
 10
6337.4001878618
 20
4465.72991662
 10
6330.0013491939
 20
4465.3890861093
 10
6320.3236927882
 20
4464.9345427307
  0
LWPOLYLINE
  5
5B8
330
1F
100
AcDbEntity
  8
0
  6
Continuous
 62
     7
100
AcDbPolyline
 90
        6
 70
   128
 43
0.0
 10
6337.8448486328
 20
4463.8894125374
 10
6337.8476683301
 20
4463.8614525004
 10
6337.7392831385
 20
4463.8191092076
 10
6337.4001877874
 20
4463.7760728479
 10
6330.0013489618
 20
4463.4352450262
 10
6320.3236927882
 20
4462.9806950243
  0
LWPOLYLINE
  5
5B9
330
1F
100
AcDbEntity
  8
0
  6
Continuous
 62
     7
100
AcDbPolyline
 90
        6
 70
   128
 43
0.0
 10
6337.8448486328
 20
4461.9355648311
 10
6337.8476683303
 20
4461.9076047942
 10
6337.7392831422
 20
4461.8652615021
 10
6337.4001877993
 20
4461.8222251437
 10
6330.001349091
 20
4461.4813972699
 10
6320.3236927882
 20
4461.0268547686
  0
LWPOLYLINE
  5
5BA
330
1F
100
AcDbEntity
  8
0
  6
Continuous
 62
     7
100
AcDbPolyline
 90
        6
 70
   128
 43
0.0
 10
6337.8448486328
 20
4459.9817245754
 10
6337.847668337
 20
4459.953760867
 10
6337.7392831868
 20
4459.9114133319
 10
6337.4001879017
 20
4459.8683754335
 10
6330.0013492605
 20
4459.5275483708
 10
6320.3236927882
 20
4459.0730070623
  0
LWPOLYLINE
  5
5BB
330
1F
100
AcDbEntity
  8
0
  6
Continuous
 62
     7
100
AcDbPolyline
 90
        6
 70
   128
 43
0.0
 10
6337.8448486328
 20
4458.027876869
 10
6337.8476683383
 20
4457.9999131215
 10
6337.7392831861
 20
4457.9575656501
 10
6337.4001878943
 20
4457.9145279586
 10
6330.0013491908
 20
4457.5737028483
 10
6320.3236927882
 20
4457.119159356
  0
LWPOLYLINE
  5
5BC
330
1F
100
AcDbEntity
  8
0
  6
Continuous
 62
     7
100
AcDbPolyline
 90
        3
 70
   128
 43
0.0
 10
6209.0301513672
 20
4463.9955684098
 10
6209.617154185
 20
4463.65766104
 10
6210.0763117566
 20
4463.3921235355
  0
LWPOLYLINE
  5
5BD
330
1F
100
AcDbEntity
  8
0
  6
Continuous
 62
     7
100
AcDbPolyline
 90
        3
 70
   128
 43
0.0
 10
6209.0301513672
 20
4462.0417207034
 10
6209.617154185
 20
4461.7038133337
 10
6210.0763117566
 20
4461.4382758292
  0
LWPOLYLINE
  5
5BE
330
1F
100
AcDbEntity
  8
0
  6
Continuous
 62
     7
100
AcDbPolyline
 90
        3
 70
   128
 43
0.0
 10
6209.0301513672
 20
4460.0878729971
 10
6209.617154185
 20
4459.7499656273
 10
6210.0763117566
 20
4459.4844281228
  0
LWPOLYLINE
  5
5BF
330
1F
100
AcDbEntity
  8
0
  6
Continuous
 62
     7
100
AcDbPolyline
 90
        3
 70
   128
 43
0.0
 10
6209.0301513672
 20
4458.1340327414
 10
6209.6171510179
 20
4457.7961198946
 10
6210.0763117566
 20
4457.5305878671
  0
LWPOLYLINE
  5
5C0
330
1F
100
AcDbEntity
  8
0
  6
Continuous
 62
     7
100
AcDbPolyline
 90
        3
 70
   128
 43
0.0
 10
6227.9434204102
 20
4464.3599688562
 10
6228.538690926
 20
4464.7030037351
 10
6229.0047762587
 20
4464.9724885376
  0
LWPOLYLINE
  5
5C1
330
1F
100
AcDbEntity
  8
0
  6
Continuous
 62
     7
100
AcDbPolyline
 90
        3
 70
   128
 43
0.0
 10
6227.9434204102
 20
4462.4061211499
 10
6228.5386925066
 20
4462.7491574674
 10
6229.0047762587
 20
4463.0186482819
  0
LWPOLYLINE
  5
5C2
330
1F
100
AcDbEntity
  8
0
  6
Continuous
 62
     7
100
AcDbPolyline
 90
        3
 70
   128
 43
0.0
 10
6227.9434204102
 20
4460.4522808941
 10
6228.5386940877
 20
4460.7953103053
 10
6229.0047762587
 20
4461.0648005756
  0
LWPOLYLINE
  5
5C3
330
1F
100
AcDbEntity
  8
0
  6
Continuous
 62
     7
100
AcDbPolyline
 90
        3
 70
   128
 43
0.0
 10
6227.9434204102
 20
4458.4984331878
 10
6228.538690926
 20
4458.8414680668
 10
6229.0047762587
 20
4459.1109528693
  0
LWPOLYLINE
  5
5C4
330
1F
100
AcDbEntity
  8
0
  6
Continuous
 62
     7
100
AcDbPolyline
 90
        3
 70
   128
 43
0.0
 10
6209.0301513672
 20
4465.9494161161
 10
6209.6259382216
 20
4465.6064219034
 10
6210.0920026794
 20
4465.3368964346
  0
LWPOLYLINE
  5
5C5
330
1F
100
AcDbEntity
  8
0
  6
Continuous
 62
     7
100
AcDbPolyline
 90
        3
 70
   128
 43
0.0
 10
6210.2890014648
 20
4462.9803746494
 10
6209.7098294086
 20
4462.6379893522
 10
6209.2530598536
 20
4462.3689800056
  0
LWPOLYLINE
  5
5C6
330
1F
100
AcDbEntity
  8
0
  6
Continuous
 62
     7
100
AcDbPolyline
 90
        3
 70
   128
 43
0.0
 10
6210.2890014648
 20
4461.0265269431
 10
6209.7098294086
 20
4460.6841416458
 10
6209.2530598536
 20
4460.4151322993
  0
LWPOLYLINE
  5
5C7
330
1F
100
AcDbEntity
  8
0
  6
Continuous
 62
     7
100
AcDbPolyline
 90
        3
 70
   128
 43
0.0
 10
6210.2890014648
 20
4459.0726792367
 10
6209.7098294086
 20
4458.7302939395
 10
6209.2530598536
 20
4458.4612845929
  0
LWPOLYLINE
  5
5C8
330
1F
100
AcDbEntity
  8
0
  6
Continuous
 62
     7
100
AcDbPolyline
 90
        3
 70
   128
 43
0.0
 10
6210.2890014648
 20
4457.118838981
 10
6209.7098309593
 20
4456.7764467769
 10
6209.2530598536
 20
4456.5074368866
  0
LWPOLYLINE
  5
5C9
330
1F
100
AcDbEntity
  8
0
  6
Continuous
 62
     7
100
AcDbPolyline
 90
        3
 70
   128
 43
0.0
 10
6229.00390625
 20
4463.2947891506
 10
6228.4118848839
 20
4463.6377572792
 10
6227.9458550408
 20
4463.9072641285
  0
LWPOLYLINE
  5
5CA
330
1F
100
AcDbEntity
  8
0
  6
Continuous
 62
     7
100
AcDbPolyline
 90
        3
 70
   128
 43
0.0
 10
6229.00390625
 20
4461.3409414442
 10
6228.4118848839
 20
4461.6839095729
 10
6227.9458550408
 20
4461.9534164222
  0
LWPOLYLINE
  5
5CB
330
1F
100
AcDbEntity
  8
0
  6
Continuous
 62
     7
100
AcDbPolyline
 90
        3
 70
   128
 43
0.0
 10
6229.00390625
 20
4459.3871011885
 10
6228.4118817221
 20
4459.7300638493
 10
6227.9458550408
 20
4459.9995761665
  0
LWPOLYLINE
  5
5CC
330
1F
100
AcDbEntity
  8
0
  6
Continuous
 62
     7
100
AcDbPolyline
 90
        3
 70
   128
 43
0.0
 10
6229.00390625
 20
4457.4332534822
 10
6228.4118817221
 20
4457.776216143
 10
6227.9458550408
 20
4458.0457284602
  0
LWPOLYLINE
  5
5CD
330
1F
100
AcDbEntity
  8
0
  6
Continuous
 62
     7
100
AcDbPolyline
 90
        3
 70
   128
 43
0.0
 10
6229.00390625
 20
4465.2486368569
 10
6228.4118817221
 20
4465.5915995177
 10
6227.9458550408
 20
4465.8611118348
  0
LWPOLYLINE
  5
5CE
330
1F
100
AcDbEntity
  8
0
  6
Continuous
 62
     7
100
AcDbPolyline
 90
        3
 70
   128
 43
0.0
 10
6210.2890014648
 20
4464.9342223557
 10
6209.7098294086
 20
4464.5918370585
 10
6209.2530598536
 20
4464.3228277119
  0
LWPOLYLINE
  5
5CF
330
1F
100
AcDbEntity
  8
0
  6
Continuous
 62
     7
100
AcDbPolyline
 90
        8
 70
   128
 43
0.0
 10
6209.1255187988
 20
4465.9485443982
 10
6209.1173878605
 20
4465.9554191953
 10
6209.1144113119
 20
4465.9588647101
 10
6209.1141553077
 20
4465.9623199645
 10
6209.1196133184
 20
4465.966947732
 10
6209.8227170816
 20
4466.0240885266
 10
6218.7745842356
 20
4466.2530178927
 10
6228.3411977484
 20
4466.5677994045
  0
LWPOLYLINE
  5
5D0
330
1F
100
AcDbEntity
  8
0
  6
Continuous
 62
     7
100
AcDbPolyline
 90
        8
 70
   128
 43
0.0
 10
6227.8213500977
 20
4466.3133844288
 10
6227.8228050558
 20
4466.2986285719
 10
6227.810239899
 20
4466.2838294888
 10
6227.1152522928
 20
4466.1932722417
 10
6218.7519260026
 20
4465.8342017782
 10
6210.70807302
 20
4465.4744133261
 10
6210.2702882586
 20
4465.4143519522
 10
6210.1667916074
 20
4465.3550236972
  0
LWPOLYLINE
  5
5D1
330
1F
100
AcDbEntity
  8
0
  6
Continuous
 62
     7
100
AcDbPolyline
 90
        8
 70
   128
 43
0.0
 10
6227.8213500977
 20
4464.3595441731
 10
6227.8228050625
 20
4464.3447855402
 10
6227.8102399149
 20
4464.3299839354
 10
6227.1152523965
 20
4464.2394233485
 10
6218.7519258841
 20
4463.8803611459
 10
6210.7080730342
 20
4463.5205655653
 10
6210.2702882603
 20
4463.4605042595
 10
6210.1667916074
 20
4463.4011759909
  0
LWPOLYLINE
  5
5D2
330
1F
100
AcDbEntity
  8
0
  6
Continuous
 62
     7
100
AcDbPolyline
 90
        8
 70
   128
 43
0.0
 10
6227.8213500977
 20
4462.4056964668
 10
6227.8228050607
 20
4462.390937903
 10
6227.810239913
 20
4462.3761363185
 10
6227.1152524354
 20
4462.2855747227
 10
6218.7519259808
 20
4461.9265144925
 10
6210.7080731332
 20
4461.566716397
 10
6210.2702882897
 20
4461.5066579244
 10
6210.1667916074
 20
4461.4473357352
  0
LWPOLYLINE
  5
5D3
330
1F
100
AcDbEntity
  8
0
  6
Continuous
 62
     7
100
AcDbPolyline
 90
        8
 70
   128
 43
0.0
 10
6227.8213500977
 20
4460.4518487604
 10
6227.8228050613
 20
4460.4370901781
 10
6227.8102399138
 20
4460.4222885881
 10
6227.1152524275
 20
4460.3317272648
 10
6218.7519260044
 20
4459.9726660617
 10
6210.7080730877
 20
4459.6128743147
 10
6210.2702882448
 20
4459.5528169596
 10
6210.1667916074
 20
4459.4934880288
  0
LWPOLYLINE
  5
5D4
330
1F
100
AcDbEntity
  8
0
  6
Continuous
 62
     7
100
AcDbPolyline
 90
        8
 70
   128
 43
0.0
 10
6227.8213500977
 20
4458.4980010541
 10
6227.8228050507
 20
4458.4832454564
 10
6227.8102398924
 20
4458.4684464492
 10
6227.1152524101
 20
4458.3778828102
 10
6218.7519260041
 20
4458.0188184552
 10
6210.7080730203
 20
4457.6590299503
 10
6210.2702882586
 20
4457.5989685778
 10
6210.1667916074
 20
4457.5396403225
  0
LWPOLYLINE
  5
5D5
330
1F
100
AcDbEntity
  8
0
  6
Continuous
 62
     7
100
AcDbPolyline
 90
        8
 70
   128
 43
0.0
 10
6228.8856506348
 20
4464.9715497645
 10
6218.7484410437
 20
4464.4913516539
 10
6209.7275694626
 20
4464.1318236913
 10
6209.165999885
 20
4464.0635107454
 10
6209.1400409912
 20
4464.0523129395
 10
6209.1304826506
 20
4464.0411768318
 10
6209.1355192677
 20
4464.0263955797
 10
6209.1511582627
 20
4464.0116542133
  0
LWPOLYLINE
  5
5D6
330
1F
100
AcDbEntity
  8
0
  6
Continuous
 62
     7
100
AcDbPolyline
 90
        8
 70
   128
 43
0.0
 10
6228.8856506348
 20
4463.0177020582
 10
6218.7484410427
 20
4462.5375039955
 10
6209.7275694625
 20
4462.1779759863
 10
6209.165999885
 20
4462.109663039
 10
6209.1400409912
 20
4462.0984652331
 10
6209.1304826506
 20
4462.0873291253
 10
6209.1355192677
 20
4462.0725478733
 10
6209.1511582627
 20
4462.057806507
  0
LWPOLYLINE
  5
5D7
330
1F
100
AcDbEntity
  8
0
  6
Continuous
 62
     7
100
AcDbPolyline
 90
        8
 70
   128
 43
0.0
 10
6228.8856506348
 20
4461.0638543518
 10
6218.7484407934
 20
4460.5836642241
 10
6209.7275693752
 20
4460.2241337154
 10
6209.1659998866
 20
4460.1558152353
 10
6209.1400409975
 20
4460.1446171361
 10
6209.130482658
 20
4460.1334809613
 10
6209.1355192726
 20
4460.118699865
 10
6209.1511582627
 20
4460.1039588006
  0
LWPOLYLINE
  5
5D8
330
1F
100
AcDbEntity
  8
0
  6
Continuous
 62
     7
100
AcDbPolyline
 90
        8
 70
   128
 43
0.0
 10
6228.8856506348
 20
4459.1100066455
 10
6218.748440796
 20
4458.6298165296
 10
6209.7275693592
 20
4458.2702898046
 10
6209.1659998621
 20
4458.2019748416
 10
6209.1400409784
 20
4458.1907758
 10
6209.1304826442
 20
4458.179638233
 10
6209.1355192658
 20
4458.1648547931
 10
6209.1511582627
 20
4458.1501110943
  0
LWPOLYLINE
  5
5D9
330
1F
100
AcDbEntity
  8
0
  6
Continuous
 62
     7
100
AcDbPolyline
 90
        8
 70
   128
 43
0.0
 10
6572.8569030762
 20
4753.0989488501
 10
6572.8516808828
 20
4753.0884615122
 10
6572.848235368
 20
4753.0854849636
 10
6572.8447801136
 20
4753.0852289594
 10
6572.8401523461
 20
4753.0906869701
 10
6572.7830115515
 20
4753.7937907333
 10
6572.5540821854
 20
4762.7456578873
 10
6572.2393006736
 20
4772.3122714001
  0
LWPOLYLINE
  5
5DA
330
1F
100
AcDbEntity
  8
0
  6
Continuous
 62
     7
100
AcDbPolyline
 90
        8
 70
   128
 43
0.0
 10
6572.4906921387
 20
4771.7944336969
 10
6572.5084715062
 20
4771.7938787075
 10
6572.5232705893
 20
4771.7813135507
 10
6572.6138278364
 20
4771.0863259445
 10
6572.9728982999
 20
4762.7229996543
 10
6573.332686752
 20
4754.6791466717
 10
6573.3927481259
 20
4754.2413619103
 10
6573.4520763809
 20
4754.1378652591
  0
LWPOLYLINE
  5
5DB
330
1F
100
AcDbEntity
  8
0
  6
Continuous
 62
     7
100
AcDbPolyline
 90
        8
 70
   128
 43
0.0
 10
6574.4438171387
 20
4771.7944336969
 10
6574.4623145379
 20
4771.7938787142
 10
6574.4771161427
 20
4771.7813135666
 10
6574.5676767296
 20
4771.0863260482
 10
6574.9267389322
 20
4762.7229995358
 10
6575.2865345128
 20
4754.6791466859
 10
6575.3465958186
 20
4754.241361912
 10
6575.4059240872
 20
4754.1378652591
  0
LWPOLYLINE
  5
5DC
330
1F
100
AcDbEntity
  8
0
  6
Continuous
 62
     7
100
AcDbPolyline
 90
        8
 70
   128
 43
0.0
 10
6576.4007568359
 20
4771.7944336969
 10
6576.4161621751
 20
4771.7938787124
 10
6576.4309637596
 20
4771.7813135647
 10
6576.5215253554
 20
4771.0863260871
 10
6576.8805855856
 20
4762.7229996325
 10
6577.2403836811
 20
4754.6791467849
 10
6577.3004421537
 20
4754.2413619414
 10
6577.3597643429
 20
4754.1378652591
  0
LWPOLYLINE
  5
5DD
330
1F
100
AcDbEntity
  8
0
  6
Continuous
 62
     7
100
AcDbPolyline
 90
        8
 70
   128
 43
0.0
 10
6578.3538818359
 20
4771.7944336969
 10
6578.3700099
 20
4771.793878713
 10
6578.38481149
 20
4771.7813135655
 10
6578.4753728133
 20
4771.0863260792
 10
6578.8344340164
 20
4762.7229996561
 10
6579.1942257634
 20
4754.6791467394
 10
6579.2542831186
 20
4754.2413618965
 10
6579.3136120493
 20
4754.1378652591
  0
LWPOLYLINE
  5
5DE
330
1F
100
AcDbEntity
  8
0
  6
Continuous
 62
     7
100
AcDbPolyline
 90
        8
 70
   128
 43
0.0
 10
6580.3070068359
 20
4771.7944336969
 10
6580.3238546217
 20
4771.7938787024
 10
6580.3386536289
 20
4771.7813135441
 10
6580.4292172679
 20
4771.0863260618
 10
6580.7882816229
 20
4762.7229996558
 10
6581.1480701278
 20
4754.679146672
 10
6581.2081315003
 20
4754.2413619103
 10
6581.2674597556
 20
4754.1378652591
  0
LWPOLYLINE
  5
5DF
330
1F
100
AcDbEntity
  8
0
  6
Continuous
 62
     7
100
AcDbPolyline
 90
        8
 70
   128
 43
0.0
 10
6573.8334655762
 20
4772.8601945478
 10
6574.3157484242
 20
4762.7195146954
 10
6574.6752763868
 20
4753.6986431143
 10
6574.7435893327
 20
4753.1370735367
 10
6574.7547871386
 20
4753.1111146429
 10
6574.7659232463
 20
4753.1015563023
 10
6574.7807044984
 20
4753.1065929194
 10
6574.7954458648
 20
4753.1222319144
  0
LWPOLYLINE
  5
5E0
330
1F
100
AcDbEntity
  8
0
  6
Continuous
 62
     7
100
AcDbPolyline
 90
        8
 70
   128
 43
0.0
 10
6575.7865905762
 20
4772.8601945478
 10
6576.2695960826
 20
4762.7195146944
 10
6576.6291240918
 20
4753.6986431142
 10
6576.6974370391
 20
4753.1370735367
 10
6576.708634845
 20
4753.1111146429
 10
6576.7197709528
 20
4753.1015563023
 10
6576.7345522048
 20
4753.1065929194
 10
6576.7492935711
 20
4753.1222319144
  0
LWPOLYLINE
  5
5E1
330
1F
100
AcDbEntity
  8
0
  6
Continuous
 62
     7
100
AcDbPolyline
 90
        8
 70
   128
 43
0.0
 10
6577.7397155762
 20
4772.8601945478
 10
6578.223435854
 20
4762.7195144451
 10
6578.5829663627
 20
4753.6986430269
 10
6578.6512848428
 20
4753.1370735383
 10
6578.662482942
 20
4753.1111146492
 10
6578.6736191168
 20
4753.1015563097
 10
6578.6884002131
 20
4753.1065929243
 10
6578.7031412775
 20
4753.1222319144
  0
LWPOLYLINE
  5
5E2
330
1F
100
AcDbEntity
  8
0
  6
Continuous
 62
     7
100
AcDbPolyline
 90
        8
 70
   128
 43
0.0
 10
6579.6966552734
 20
4772.8601945478
 10
6580.1772835485
 20
4762.7195144477
 10
6580.5368102735
 20
4753.6986430109
 10
6580.6051252365
 20
4753.1370735138
 10
6580.6163242781
 20
4753.1111146301
 10
6580.6274618451
 20
4753.1015562959
 10
6580.642245285
 20
4753.1065929175
 10
6580.6569889838
 20
4753.1222319144
  0
LWPOLYLINE
  5
5E3
330
1F
100
AcDbEntity
  8
0
  6
Continuous
 62
     7
100
AcDbPolyline
 90
        8
 70
   128
 43
0.0
 10
6573.5740661621
 20
4772.8598443705
 10
6573.5895183482
 20
4772.8650556851
 10
6573.6045685526
 20
4772.8613195651
 10
6573.6965156828
 20
4772.256900807
 10
6574.0626822602
 20
4762.989395897
 10
6574.4293201473
 20
4753.7254949055
 10
6574.4905506216
 20
4753.2120607404
 10
6574.5510221178
 20
4753.0912635762
  0
LWPOLYLINE
  5
5E4
330
1F
100
AcDbEntity
  8
0
  6
Continuous
 62
     7
100
AcDbPolyline
 90
        8
 70
   128
 43
0.0
 10
6575.5271911621
 20
4772.8598443705
 10
6575.5433583582
 20
4772.8650556816
 10
6575.5584084043
 20
4772.8613195591
 10
6575.6503597261
 20
4772.2569008531
 10
6576.0165302858
 20
4762.9893960224
 10
6576.3831642657
 20
4753.7254948516
 10
6576.4443989803
 20
4753.2120607543
 10
6576.5048698241
 20
4753.0912635762
  0
LWPOLYLINE
  5
5E5
330
1F
100
AcDbEntity
  8
0
  6
Continuous
 62
     7
100
AcDbPolyline
 90
        8
 70
   128
 43
0.0
 10
6577.4803161621
 20
4772.8598443705
 10
6577.4972064085
 20
4772.8650556875
 10
6577.5122566765
 20
4772.8613195688
 10
6577.6042026266
 20
4772.256900771
 10
6577.9703780184
 20
4762.9893960207
 10
6578.3370119709
 20
4753.7254948514
 10
6578.3982466868
 20
4753.2120607543
 10
6578.4587175304
 20
4753.0912635762
  0
LWPOLYLINE
  5
5E6
330
1F
100
AcDbEntity
  8
0
  6
Continuous
 62
     7
100
AcDbPolyline
 90
        8
 70
   128
 43
0.0
 10
6579.4334411621
 20
4772.8598443705
 10
6579.4510541082
 20
4772.8650556873
 10
6579.4661043718
 20
4772.8613195685
 10
6579.558050402
 20
4772.2569007731
 10
6579.9242183527
 20
4762.9893957899
 10
6580.2908597358
 20
4753.7254948533
 10
6580.3520943806
 20
4753.2120607539
 10
6580.4125652367
 20
4753.0912635762
  0
LWPOLYLINE
  5
5E7
330
1F
100
AcDbEntity
  8
0
  6
Continuous
 62
     7
100
AcDbPolyline
 90
        8
 70
   128
 43
0.0
 10
6581.3865661621
 20
4772.8598443705
 10
6581.4049017229
 20
4772.8650556851
 10
6581.4199519274
 20
4772.8613195651
 10
6581.5118990571
 20
4772.2569008069
 10
6581.878065626
 20
4762.9893958953
 10
6582.2447089314
 20
4753.7254949443
 10
6582.3059408163
 20
4753.2120607812
 10
6582.3664054925
 20
4753.0912635762
  0
LWPOLYLINE
  5
5E8
330
1F
100
AcDbEntity
  8
0
  6
Continuous
 62
     7
100
AcDbPolyline
 90
        6
 70
   128
 43
0.0
 10
6572.9637145996
 20
4771.8161372382
 10
6572.9917993347
 20
4771.8187500183
 10
6573.0341435015
 20
4771.7103648432
 10
6573.0771834581
 20
4771.3712695601
 10
6573.4180139688
 20
4763.9724308922
 10
6573.8725573474
 20
4754.2947744865
  0
LWPOLYLINE
  5
5E9
330
1F
100
AcDbEntity
  8
0
  6
Continuous
 62
     7
100
AcDbPolyline
 90
        6
 70
   128
 43
0.0
 10
6574.9168395996
 20
4771.8161372382
 10
6574.9456475777
 20
4771.8187500284
 10
6574.9879908705
 20
4771.7103648368
 10
6575.0310272302
 20
4771.3712694857
 10
6575.3718550519
 20
4763.9724306601
 10
6575.8264050538
 20
4754.2947744865
  0
LWPOLYLINE
  5
5EA
330
1F
100
AcDbEntity
  8
0
  6
Continuous
 62
     7
100
AcDbPolyline
 90
        6
 70
   128
 43
0.0
 10
6576.8699645996
 20
4771.8161372382
 10
6576.8994952839
 20
4771.8187500286
 10
6576.941838576
 20
4771.7103648405
 10
6576.9848749344
 20
4771.3712694976
 10
6577.3257028082
 20
4763.9724307893
 10
6577.7802453095
 20
4754.2947744865
  0
LWPOLYLINE
  5
5EB
330
1F
100
AcDbEntity
  8
0
  6
Continuous
 62
     7
100
AcDbPolyline
 90
        6
 70
   128
 43
0.0
 10
6578.8230895996
 20
4771.8161372382
 10
6578.8533392111
 20
4771.8187500353
 10
6578.8956867462
 20
4771.7103648851
 10
6578.9387246446
 20
4771.3712696
 10
6579.2795517073
 20
4763.9724309588
 10
6579.7340930158
 20
4754.2947744865
  0
LWPOLYLINE
  5
5EC
330
1F
100
AcDbEntity
  8
0
  6
Continuous
 62
     7
100
AcDbPolyline
 90
        6
 70
   128
 43
0.0
 10
6580.7762145996
 20
4771.8161372382
 10
6580.8071869566
 20
4771.8187500366
 10
6580.849534428
 20
4771.7103648844
 10
6580.8925721195
 20
4771.3712695926
 10
6581.2333972298
 20
4763.9724308891
 10
6581.6879407221
 20
4754.2947744865
  0
LWPOLYLINE
  5
5ED
330
1F
100
AcDbEntity
  8
0
  6
Continuous
 62
     7
100
AcDbPolyline
 90
        3
 70
   128
 43
0.0
 10
6675.7659912109
 20
4694.5898337204
 10
6675.2685854859
 20
4693.3570556645
 10
6674.6556362787
 20
4692.9898337608
  0
LWPOLYLINE
  5
5EE
330
1F
100
AcDbEntity
  8
0
  6
Continuous
 62
     7
100
AcDbPolyline
 90
        5
 70
   128
 43
0.0
 10
6585.6552124023
 20
4692.9898337608
 10
6585.7385202197
 20
4693.0206742129
 10
6585.8167322788
 20
4693.1116264683
 10
6585.941405735
 20
4693.4584628705
 10
6585.9682247693
 20
4694.5898337204
  0
LWPOLYLINE
  5
5EF
330
1F
100
AcDbEntity
  8
0
  6
Continuous
 62
     7
100
AcDbPolyline
 90
        4
 70
   128
 43
0.0
 10
6585.6552124023
 20
4693.7898337406
 10
6585.677485614
 20
4693.8056193675
 10
6585.6969938072
 20
4693.8514549737
 10
6585.6556363775
 20
4694.5898337204
  0
LWPOLYLINE
  5
5F0
330
1F
100
AcDbEntity
  8
0
  6
Continuous
 62
     7
100
AcDbPolyline
 90
        3
 70
   128
 43
0.0
 10
6675.1403808594
 20
4692.9898337608
 10
6676.3758295306
 20
4693.5699854498
 10
6676.7430514747
 20
4694.5898337204
  0
LWPOLYLINE
  5
5F1
330
1F
100
AcDbEntity
  8
0
  6
Continuous
 62
     7
100
AcDbPolyline
 90
        3
 70
   128
 43
0.0
 10
6675.5752563477
 20
4693.937367751
 10
6675.8707880751
 20
4694.2541660881
 10
6675.9430514949
 20
4694.5898337204
  0
LWPOLYLINE
  5
5F2
330
1F
100
AcDbEntity
  8
0
  6
Continuous
 62
     7
100
AcDbPolyline
 90
        8
 70
   128
 43
0.0
 10
6228.8856506348
 20
4465.2326032074
 10
6228.8939820334
 20
4465.2175817299
 10
6228.8902459134
 20
4465.2025315255
 10
6228.2858271553
 20
4465.1105843953
 10
6219.0183222453
 20
4464.7444178179
 10
6209.7544212538
 20
4464.3777799308
 10
6209.2409870887
 20
4464.3165494565
 10
6209.1201899245
 20
4464.2560779603
  0
LWPOLYLINE
  5
5F3
330
1F
100
AcDbEntity
  8
0
  6
Continuous
 62
     7
100
AcDbPolyline
 90
        8
 70
   128
 43
0.0
 10
6228.8856506348
 20
4463.2787629517
 10
6228.8939820299
 20
4463.2637417199
 10
6228.8902459074
 20
4463.2486916738
 10
6228.2858272014
 20
4463.156740352
 10
6219.0183223707
 20
4462.7905697923
 10
6209.7544211999
 20
4462.4239358124
 10
6209.2409871026
 20
4462.3627010978
 10
6209.1201899245
 20
4462.302230254
  0
LWPOLYLINE
  5
5F4
330
1F
100
AcDbEntity
  8
0
  6
Continuous
 62
     7
100
AcDbPolyline
 90
        8
 70
   128
 43
0.0
 10
6228.8856506348
 20
4461.3249152454
 10
6228.8939820358
 20
4461.3098936696
 10
6228.8902459171
 20
4461.2948434016
 10
6228.2858271193
 20
4461.2028974515
 10
6219.018322369
 20
4460.8367220597
 10
6209.7544211997
 20
4460.4700881072
 10
6209.2409871026
 20
4460.4088533913
 10
6209.1201899245
 20
4460.3483825477
  0
LWPOLYLINE
  5
5F5
330
1F
100
AcDbEntity
  8
0
  6
Continuous
 62
     7
100
AcDbPolyline
 90
        8
 70
   128
 43
0.0
 10
6228.8856506348
 20
4459.3710675391
 10
6228.8939820356
 20
4459.3560459699
 10
6228.8902459168
 20
4459.3409957063
 10
6228.2858271214
 20
4459.2490496761
 10
6219.0183221382
 20
4458.8828817254
 10
6209.7544212016
 20
4458.5162403423
 10
6209.2409871022
 20
4458.4550056975
 10
6209.1201899245
 20
4458.3945348414
  0
LWPOLYLINE
  5
5F6
330
1F
100
AcDbEntity
  8
0
  6
Continuous
 62
     7
100
AcDbPolyline
 90
        8
 70
   128
 43
0.0
 10
6228.8856506348
 20
4457.4172198327
 10
6228.8939820334
 20
4457.4021983552
 10
6228.8902459134
 20
4457.3871481507
 10
6228.2858271552
 20
4457.295201021
 10
6219.0183222436
 20
4456.9290344521
 10
6209.7544212926
 20
4456.5623911467
 10
6209.2409871295
 20
4456.5011592618
 10
6209.1201899245
 20
4456.4406945856
  0
LWPOLYLINE
  5
5F7
330
1F
100
AcDbEntity
  8
0
  6
Continuous
 62
     7
100
AcDbPolyline
 90
        6
 70
   128
 43
0.0
 10
6227.8442382812
 20
4465.8432602437
 10
6227.8476763666
 20
4465.8153007434
 10
6227.7392911915
 20
4465.7729565766
 10
6227.4001959084
 20
4465.72991662
 10
6220.0013572405
 20
4465.3890861093
 10
6210.3237008348
 20
4464.9345427307
  0
LWPOLYLINE
  5
5F8
330
1F
100
AcDbEntity
  8
0
  6
Continuous
 62
     7
100
AcDbPolyline
 90
        6
 70
   128
 43
0.0
 10
6227.8442382812
 20
4463.8894125374
 10
6227.8476763767
 20
4463.8614525004
 10
6227.7392911851
 20
4463.8191092076
 10
6227.400195834
 20
4463.7760728479
 10
6220.0013570084
 20
4463.4352450262
 10
6210.3237008348
 20
4462.9806950243
  0
LWPOLYLINE
  5
5F9
330
1F
100
AcDbEntity
  8
0
  6
Continuous
 62
     7
100
AcDbPolyline
 90
        6
 70
   128
 43
0.0
 10
6227.8442382812
 20
4461.9355648311
 10
6227.8476763769
 20
4461.9076047942
 10
6227.7392911888
 20
4461.8652615021
 10
6227.4001958459
 20
4461.8222251437
 10
6220.0013571376
 20
4461.4813972699
 10
6210.3237008348
 20
4461.0268547686
  0
LWPOLYLINE
  5
5FA
330
1F
100
AcDbEntity
  8
0
  6
Continuous
 62
     7
100
AcDbPolyline
 90
        6
 70
   128
 43
0.0
 10
6227.8442382812
 20
4459.9817245754
 10
6227.8476763836
 20
4459.953760867
 10
6227.7392912334
 20
4459.9114133319
 10
6227.4001959483
 20
4459.8683754335
 10
6220.0013573071
 20
4459.5275483708
 10
6210.3237008348
 20
4459.0730070623
  0
LWPOLYLINE
  5
5FB
330
1F
100
AcDbEntity
  8
0
  6
Continuous
 62
     7
100
AcDbPolyline
 90
        6
 70
   128
 43
0.0
 10
6227.8442382812
 20
4458.027876869
 10
6227.8476763849
 20
4457.9999131215
 10
6227.7392912327
 20
4457.9575656501
 10
6227.4001959409
 20
4457.9145279586
 10
6220.0013572374
 20
4457.5737028483
 10
6210.3237008348
 20
4457.119159356
  0
LINE
  5
5FC
330
1F
100
AcDbEntity
  8
0
  6
Continuous
 62
     7
100
AcDbLine
 10
6309.6923828125
 20
4361.9140485963
 30
0.0
 11
6313.5203143254
 21
4361.9140485963
 31
0.0
  0
LINE
  5
5FD
330
1F
100
AcDbEntity
  8
0
  6
Continuous
 62
     7
100
AcDbLine
 10
6315.860748291
 20
4361.9140485963
 30
0.0
 11
6318.1557302967
 21
4361.9140485963
 31
0.0
  0
LINE
  5
5FE
330
1F
100
AcDbEntity
  8
0
  6
Continuous
 62
     7
100
AcDbLine
 10
6325.1419067383
 20
4361.9140485963
 30
0.0
 11
6327.6429084733
 21
4361.9140485963
 31
0.0
  0
LINE
  5
5FF
330
1F
100
AcDbEntity
  8
0
  6
Continuous
 62
     7
100
AcDbLine
 10
6307.1937561035
 20
4361.9140485963
 30
0.0
 11
6309.6941915944
 21
4361.9140485963
 31
0.0
  0
LINE
  5
600
330
1F
100
AcDbEntity
  8
0
  6
Continuous
 62
     7
100
AcDbLine
 10
6327.6405334473
 20
4361.9140485963
 30
0.0
 11
6331.4690312043
 21
4361.9140485963
 31
0.0
  0
LINE
  5
601
330
1F
100
AcDbEntity
  8
0
  6
Continuous
 62
     7
100
AcDbLine
 10
6318.1533813477
 20
4361.9140485963
 30
0.0
 11
6320.4433900908
 21
4361.9140485963
 31
0.0
  0
LINE
  5
602
330
1F
100
AcDbEntity
  8
0
  6
Continuous
 62
     7
100
AcDbLine
 10
6314.8002624512
 20
4361.9140485963
 30
0.0
 11
6315.8620616093
 21
4361.9140485963
 31
0.0
  0
LINE
  5
603
330
1F
100
AcDbEntity
  8
0
  6
Continuous
 62
     7
100
AcDbLine
 10
6305.9539794922
 20
4361.9140485963
 30
0.0
 11
6307.1961944595
 21
4361.9140485963
 31
0.0
  0
LINE
  5
604
330
1F
100
AcDbEntity
  8
0
  6
Continuous
 62
     7
100
AcDbLine
 10
6323.902130127
 20
4361.9140485963
 30
0.0
 11
6325.1449113384
 21
4361.9140485963
 31
0.0
  0
LWPOLYLINE
  5
605
330
1F
100
AcDbEntity
  8
0
  6
Continuous
 62
     7
100
AcDbPolyline
 90
        3
 70
   128
 43
0.0
 10
6344.7303771973
 20
4363.9375206104
 10
6345.0244466719
 20
4363.5621385423
 10
6345.0565619066
 20
4363.351463645
  0
ARC
  5
606
330
1F
100
AcDbEntity
  8
0
  6
Continuous
 62
     7
100
AcDbCircle
 10
6382.7381971024
 20
4454.0655182769
 30
0.0
 40
1.011377628509417
100
AcDbArc
 50
244.6583693872
 51
295.341630609
  0
LWPOLYLINE
  5
607
330
1F
100
AcDbEntity
  8
0
  6
Continuous
 62
     7
100
AcDbPolyline
 90
        3
 70
   128
 43
0.0
 10
6202.9800415039
 20
4363.351463645
 10
6203.0565355291
 20
4363.6343285981
 10
6203.3066061929
 20
4363.9375206104
  0
ARC
  5
608
330
1F
100
AcDbEntity
  8
0
  6
Continuous
 62
     7
100
AcDbCircle
 10
6165.2963162068
 20
4454.08097701
 30
0.0
 40
1.025506149338623
100
AcDbArc
 50
245.0117818166
 51
294.9882181871
  0
LWPOLYLINE
  5
609
330
1F
100
AcDbEntity
  8
0
  6
Continuous
 62
     7
100
AcDbPolyline
 90
        3
 70
   128
 43
0.0
 10
6200.1838684082
 20
4443.4848501834
 10
6199.3679284351
 20
4443.8329991394
 10
6199.1266144112
 20
4444.4544761928
  0
LWPOLYLINE
  5
60A
330
1F
100
AcDbEntity
  8
0
  6
Continuous
 62
     7
100
AcDbPolyline
 90
        3
 70
   128
 43
0.0
 10
6201.244354248
 20
4444.4544761928
 10
6200.8629087198
 20
4443.700550205
 10
6200.1867053702
 20
4443.4848501834
  0
LWPOLYLINE
  5
60B
330
1F
100
AcDbEntity
  8
0
  6
Continuous
 62
     7
100
AcDbPolyline
 90
        3
 70
   128
 43
0.0
 10
6200.9620666504
 20
4445.1241269263
 10
6201.1911803539
 20
4444.7722747755
 10
6201.2445611551
 20
4444.4544761928
  0
LWPOLYLINE
  5
60C
330
1F
100
AcDbEntity
  8
0
  6
Continuous
 62
     7
100
AcDbPolyline
 90
        3
 70
   128
 43
0.0
 10
6200.1838684082
 20
4445.434428707
 10
6200.6608810478
 20
4445.3375160832
 10
6200.9641138509
 20
4445.1241269263
  0
LWPOLYLINE
  5
60D
330
1F
100
AcDbEntity
  8
0
  6
Continuous
 62
     7
100
AcDbPolyline
 90
        3
 70
   128
 43
0.0
 10
6199.405670166
 20
4445.1225772056
 10
6199.8091377003
 20
4445.3758608219
 10
6200.1867053702
 20
4445.434428707
  0
LWPOLYLINE
  5
60E
330
1F
100
AcDbEntity
  8
0
  6
Continuous
 62
     7
100
AcDbPolyline
 90
        3
 70
   128
 43
0.0
 10
6199.1233825684
 20
4444.4544761928
 10
6199.2149143428
 20
4444.8547395132
 10
6199.4070617154
 20
4445.1225772056
  0
LWPOLYLINE
  5
60F
330
1F
100
AcDbEntity
  8
0
  6
Continuous
 62
     7
100
AcDbPolyline
 90
        3
 70
   128
 43
0.0
 10
6186.3288879395
 20
4443.4848501834
 10
6185.5115174549
 20
4443.8329991394
 10
6185.2702034309
 20
4444.4544761928
  0
LWPOLYLINE
  5
610
330
1F
100
AcDbEntity
  8
0
  6
Continuous
 62
     7
100
AcDbPolyline
 90
        3
 70
   128
 43
0.0
 10
6187.385559082
 20
4444.4544761928
 10
6187.0064977396
 20
4443.700550205
 10
6186.33029439
 20
4443.4848501834
  0
LWPOLYLINE
  5
611
330
1F
100
AcDbEntity
  8
0
  6
Continuous
 62
     7
100
AcDbPolyline
 90
        3
 70
   128
 43
0.0
 10
6187.1070861816
 20
4445.1241269263
 10
6187.3347693736
 20
4444.7722747755
 10
6187.3881501749
 20
4444.4544761928
  0
LWPOLYLINE
  5
612
330
1F
100
AcDbEntity
  8
0
  6
Continuous
 62
     7
100
AcDbPolyline
 90
        3
 70
   128
 43
0.0
 10
6186.3288879395
 20
4445.434428707
 10
6186.8044700676
 20
4445.3375160832
 10
6187.1077028707
 20
4445.1241269263
  0
LWPOLYLINE
  5
613
330
1F
100
AcDbEntity
  8
0
  6
Continuous
 62
     7
100
AcDbPolyline
 90
        3
 70
   128
 43
0.0
 10
6185.546875
 20
4445.1225772056
 10
6185.9527267201
 20
4445.3758608219
 10
6186.33029439
 20
4445.434428707
  0
LWPOLYLINE
  5
614
330
1F
100
AcDbEntity
  8
0
  6
Continuous
 62
     7
100
AcDbPolyline
 90
        3
 70
   128
 43
0.0
 10
6185.2684020996
 20
4444.4544761928
 10
6185.3585033626
 20
4444.8547395132
 10
6185.5506507352
 20
4445.1225772056
  0
LWPOLYLINE
  5
615
330
1F
100
AcDbEntity
  8
0
  6
Continuous
 62
     7
100
AcDbPolyline
 90
        3
 70
   128
 43
0.0
 10
6179.6913146973
 20
4444.9811130318
 10
6180.1767639331
 20
4444.5834169036
 10
6180.3522539928
 20
4444.1493376645
  0
LWPOLYLINE
  5
616
330
1F
100
AcDbEntity
  8
0
  6
Continuous
 62
     7
100
AcDbPolyline
 90
        3
 70
   128
 43
0.0
 10
6179.313659668
 20
4445.2377184781
 10
6179.5248817513
 20
4445.0913392265
 10
6179.6926391914
 20
4444.9811130318
  0
LWPOLYLINE
  5
617
330
1F
100
AcDbEntity
  8
0
  6
Continuous
 62
     7
100
AcDbPolyline
 90
        3
 70
   128
 43
0.0
 10
6179.1305541992
 20
4445.570737079
 10
6179.19665415
 20
4445.366110495
 10
6179.3162731126
 20
4445.2377184781
  0
LWPOLYLINE
  5
618
330
1F
100
AcDbEntity
  8
0
  6
Continuous
 62
     7
100
AcDbPolyline
 90
        3
 70
   128
 43
0.0
 10
6179.5387268066
 20
4445.8970427069
 10
6179.2326104006
 20
4445.7905620655
 10
6179.1317371324
 20
4445.570737079
  0
LWPOLYLINE
  5
619
330
1F
100
AcDbEntity
  8
0
  6
Continuous
 62
     7
100
AcDbPolyline
 90
        3
 70
   128
 43
0.0
 10
6180.0880432129
 20
4445.5666094574
 10
6179.825538648
 20
4445.8183698924
 10
6179.5423162773
 20
4445.8970427069
  0
LWPOLYLINE
  5
61A
330
1F
100
AcDbEntity
  8
0
  6
Continuous
 62
     7
100
AcDbPolyline
 90
        3
 70
   128
 43
0.0
 10
6179.5692443848
 20
4446.161396757
 10
6180.0468686853
 20
4446.002600302
 10
6180.3163570955
 20
4445.725113109
  0
LWPOLYLINE
  5
61B
330
1F
100
AcDbEntity
  8
0
  6
Continuous
 62
     7
100
AcDbPolyline
 90
        3
 70
   128
 43
0.0
 10
6178.8787841797
 20
4445.5598964843
 10
6179.1347278016
 20
4446.0327274523
 10
6179.5703602627
 20
4446.161396757
  0
LWPOLYLINE
  5
61C
330
1F
100
AcDbEntity
  8
0
  6
Continuous
 62
     7
100
AcDbPolyline
 90
        3
 70
   128
 43
0.0
 10
6179.0351867676
 20
4445.167496756
 10
6178.9123907801
 20
4445.3755410594
 10
6178.8804588512
 20
4445.5598964843
  0
LWPOLYLINE
  5
61D
330
1F
100
AcDbEntity
  8
0
  6
Continuous
 62
     7
100
AcDbPolyline
 90
        3
 70
   128
 43
0.0
 10
6179.4929504395
 20
4444.8169245871
 10
6179.2286154414
 20
4445.0020490567
 10
6179.036950846
 20
4445.167496756
  0
LWPOLYLINE
  5
61E
330
1F
100
AcDbEntity
  8
0
  6
Continuous
 62
     7
100
AcDbPolyline
 90
        3
 70
   128
 43
0.0
 10
6180.0003051758
 20
4444.4059431108
 10
6179.7323231549
 20
4444.6513413221
 10
6179.4957650497
 20
4444.8169245871
  0
LWPOLYLINE
  5
61F
330
1F
100
AcDbEntity
  8
0
  6
Continuous
 62
     7
100
AcDbPolyline
 90
        3
 70
   128
 43
0.0
 10
6180.0994873047
 20
4444.1529511961
 10
6180.0664475989
 20
4444.3023435225
 10
6180.0005716875
 20
4444.4059431108
  0
LWPOLYLINE
  5
620
330
1F
100
AcDbEntity
  8
0
  6
Continuous
 62
     7
100
AcDbPolyline
 90
        3
 70
   128
 43
0.0
 10
6179.5501708984
 20
4443.716153458
 10
6179.9645169864
 20
4443.8604793436
 10
6180.1009682611
 20
4444.1529511961
  0
LWPOLYLINE
  5
621
330
1F
100
AcDbEntity
  8
0
  6
Continuous
 62
     7
100
AcDbPolyline
 90
        3
 70
   128
 43
0.0
 10
6178.9360046387
 20
4444.1457241329
 10
6179.2232147283
 20
4443.824290735
 10
6179.552411814
 20
4443.716153458
  0
LWPOLYLINE
  5
622
330
1F
100
AcDbEntity
  8
0
  6
Continuous
 62
     7
100
AcDbPolyline
 90
        3
 70
   128
 43
0.0
 10
6179.5501708984
 20
4443.4518068584
 10
6178.9874230198
 20
4443.654540375
 10
6178.700966914
 20
4444.0151005539
  0
LWPOLYLINE
  5
623
330
1F
100
AcDbEntity
  8
0
  6
Continuous
 62
     7
100
AcDbPolyline
 90
        3
 70
   128
 43
0.0
 10
6180.3512573242
 20
4444.1493376645
 10
6180.0522275264
 20
4443.6059433205
 10
6179.552411814
 20
4443.4518068584
  0
LWPOLYLINE
  5
624
330
1F
100
AcDbEntity
  8
0
  6
Continuous
 62
     7
100
AcDbPolyline
 90
        3
 70
   128
 43
0.0
 10
6182.6400756836
 20
4445.0637176188
 10
6182.824720163
 20
4444.7131994489
 10
6182.8650740579
 20
4444.4100707325
  0
LWPOLYLINE
  5
625
330
1F
100
AcDbEntity
  8
0
  6
Continuous
 62
     7
100
AcDbPolyline
 90
        3
 70
   128
 43
0.0
 10
6181.8161010742
 20
4445.434428707
 10
6182.3319135523
 20
4445.3180322154
 10
6182.6423985556
 20
4445.0637176188
  0
LWPOLYLINE
  5
626
330
1F
100
AcDbEntity
  8
0
  6
Continuous
 62
     7
100
AcDbPolyline
 90
        3
 70
   128
 43
0.0
 10
6181.0150146484
 20
4445.0833424481
 10
6181.4237519395
 20
4445.3689004338
 10
6181.8184388474
 20
4445.434428707
  0
LWPOLYLINE
  5
627
330
1F
100
AcDbEntity
  8
0
  6
Continuous
 62
     7
100
AcDbPolyline
 90
        3
 70
   128
 43
0.0
 10
6180.7823181152
 20
4444.4544761928
 10
6180.8571789699
 20
4444.8261984097
 10
6181.0185966685
 20
4445.0833424481
  0
LWPOLYLINE
  5
628
330
1F
100
AcDbEntity
  8
0
  6
Continuous
 62
     7
100
AcDbPolyline
 90
        3
 70
   128
 43
0.0
 10
6181.8084716797
 20
4443.4848501834
 10
6181.0096977949
 20
4443.8350205332
 10
6180.7830242112
 20
4444.4544761928
  0
LWPOLYLINE
  5
629
330
1F
100
AcDbEntity
  8
0
  6
Continuous
 62
     7
100
AcDbPolyline
 90
        3
 70
   128
 43
0.0
 10
6182.7545166016
 20
4444.0047740492
 10
6182.3091583397
 20
4443.5852423775
 10
6181.8122697666
 20
4443.4848501834
  0
LWPOLYLINE
  5
62A
330
1F
100
AcDbEntity
  8
0
  6
Continuous
 62
     7
100
AcDbPolyline
 90
        3
 70
   128
 43
0.0
 10
6181.7779541016
 20
4443.716153458
 10
6182.2642700505
 20
4443.8425708696
 10
6182.5341416195
 20
4444.112680808
  0
LWPOLYLINE
  5
62B
330
1F
100
AcDbEntity
  8
0
  6
Continuous
 62
     7
100
AcDbPolyline
 90
        3
 70
   128
 43
0.0
 10
6181.0340881348
 20
4444.4100707325
 10
6181.3007834659
 20
4443.8717530462
 10
6181.7808581188
 20
4443.716153458
  0
LWPOLYLINE
  5
62C
330
1F
100
AcDbEntity
  8
0
  6
Continuous
 62
     7
100
AcDbPolyline
 90
        3
 70
   128
 43
0.0
 10
6183.5899353027
 20
4444.7973072084
 10
6183.5518763316
 20
4444.4361051768
 10
6183.5471225575
 20
4444.1508873853
  0
LWPOLYLINE
  5
62D
330
1F
100
AcDbEntity
  8
0
  6
Continuous
 62
     7
100
AcDbPolyline
 90
        3
 70
   128
 43
0.0
 10
6183.9981079102
 20
4445.2031254324
 10
6183.70181688
 20
4445.0356144957
 10
6183.5919974044
 20
4444.7973072084
  0
LWPOLYLINE
  5
62E
330
1F
100
AcDbEntity
  8
0
  6
Continuous
 62
     7
100
AcDbPolyline
 90
        3
 70
   128
 43
0.0
 10
6184.1239929199
 20
4445.1695680174
 10
6184.0570588697
 20
4445.194843922
 10
6183.9986426428
 20
4445.2031254324
  0
LWPOLYLINE
  5
62F
330
1F
100
AcDbEntity
  8
0
  6
Continuous
 62
     7
100
AcDbPolyline
 90
        3
 70
   128
 43
0.0
 10
6184.0438842773
 20
4445.434428707
 10
6184.1737213063
 20
4445.4116117806
 10
6184.2650754049
 20
4445.3698917779
  0
LWPOLYLINE
  5
630
330
1F
100
AcDbEntity
  8
0
  6
Continuous
 62
     7
100
AcDbPolyline
 90
        3
 70
   128
 43
0.0
 10
6183.5441589355
 20
4445.1241269263
 10
6183.7852922305
 20
4445.3613369898
 10
6184.046318908
 20
4445.434428707
  0
LWPOLYLINE
  5
631
330
1F
100
AcDbEntity
  8
0
  6
Continuous
 62
     7
100
AcDbPolyline
 90
        3
 70
   128
 43
0.0
 10
6184.8373413086
 20
4445.9951445016
 10
6184.7496786969
 20
4445.8405237201
 10
6184.6049783423
 20
4445.797912732
  0
LWPOLYLINE
  5
632
330
1F
100
AcDbEntity
  8
0
  6
Continuous
 62
     7
100
AcDbPolyline
 90
        3
 70
   128
 43
0.0
 10
6184.6046447754
 20
4446.194440082
 10
6184.7827334067
 20
4446.1251585232
 10
6184.8394332126
 20
4445.9951445016
  0
LWPOLYLINE
  5
633
330
1F
100
AcDbEntity
  8
0
  6
Continuous
 62
     7
100
AcDbPolyline
 90
        3
 70
   128
 43
0.0
 10
6184.3719482422
 20
4445.9951445016
 10
6184.4605436321
 20
4446.1509085084
 10
6184.6049783423
 20
4446.194440082
  0
LWPOLYLINE
  5
634
330
1F
100
AcDbEntity
  8
0
  6
Continuous
 62
     7
100
AcDbPolyline
 90
        3
 70
   128
 43
0.0
 10
6184.6046447754
 20
4445.797912732
 10
6184.4294605252
 20
4445.8668929823
 10
6184.3727660969
 20
4445.9951445016
  0
LWPOLYLINE
  5
635
330
1F
100
AcDbEntity
  8
0
  6
Continuous
 62
     7
100
AcDbPolyline
 90
        3
 70
   128
 43
0.0
 10
6191.7953491211
 20
4445.0637176188
 10
6191.9785700376
 20
4444.7132011387
 10
6192.0189169839
 20
4444.4100707325
  0
LWPOLYLINE
  5
636
330
1F
100
AcDbEntity
  8
0
  6
Continuous
 62
     7
100
AcDbPolyline
 90
        3
 70
   128
 43
0.0
 10
6190.9713745117
 20
4445.434428707
 10
6191.4857585959
 20
4445.3180349821
 10
6191.7962414816
 20
4445.0637176188
  0
LWPOLYLINE
  5
637
330
1F
100
AcDbEntity
  8
0
  6
Continuous
 62
     7
100
AcDbPolyline
 90
        3
 70
   128
 43
0.0
 10
6190.1702880859
 20
4445.0833424481
 10
6190.5775972051
 20
4445.3689013161
 10
6190.9722817734
 20
4445.434428707
  0
LWPOLYLINE
  5
638
330
1F
100
AcDbEntity
  8
0
  6
Continuous
 62
     7
100
AcDbPolyline
 90
        3
 70
   128
 43
0.0
 10
6189.9337768555
 20
4444.4544761928
 10
6190.011029137
 20
4444.8261979096
 10
6190.1724470451
 20
4445.0833424481
  0
LWPOLYLINE
  5
639
330
1F
100
AcDbEntity
  8
0
  6
Continuous
 62
     7
100
AcDbPolyline
 90
        3
 70
   128
 43
0.0
 10
6190.9637451172
 20
4443.4848501834
 10
6190.1635453535
 20
4443.8350238741
 10
6189.9368671372
 20
4444.4544761928
  0
LWPOLYLINE
  5
63A
330
1F
100
AcDbEntity
  8
0
  6
Continuous
 62
     7
100
AcDbPolyline
 90
        3
 70
   128
 43
0.0
 10
6191.9097900391
 20
4444.0047740492
 10
6191.4630012657
 20
4443.5852423775
 10
6190.9661126926
 20
4443.4848501834
  0
LWPOLYLINE
  5
63B
330
1F
100
AcDbEntity
  8
0
  6
Continuous
 62
     7
100
AcDbPolyline
 90
        3
 70
   128
 43
0.0
 10
6190.9332275391
 20
4443.716153458
 10
6191.4181152816
 20
4443.8425723423
 10
6191.6879919961
 20
4444.112680808
  0
LWPOLYLINE
  5
63C
330
1F
100
AcDbEntity
  8
0
  6
Continuous
 62
     7
100
AcDbPolyline
 90
        3
 70
   128
 43
0.0
 10
6190.185546875
 20
4444.4100707325
 10
6190.4546269191
 20
4443.8717526386
 10
6190.9347010449
 20
4443.716153458
  0
LWPOLYLINE
  5
63D
330
1F
100
AcDbEntity
  8
0
  6
Continuous
 62
     7
100
AcDbPolyline
 90
        3
 70
   128
 43
0.0
 10
6194.6487426758
 20
4443.4848501834
 10
6193.7924352014
 20
4443.8141301011
 10
6193.5266090229
 20
4444.4441496881
  0
LWPOLYLINE
  5
63E
330
1F
100
AcDbEntity
  8
0
  6
Continuous
 62
     7
100
AcDbPolyline
 90
        3
 70
   128
 43
0.0
 10
6195.6062316895
 20
4443.9195841106
 10
6195.1314553757
 20
4443.5644485407
 10
6194.6512071088
 20
4443.4848501834
  0
LWPOLYLINE
  5
63F
330
1F
100
AcDbEntity
  8
0
  6
Continuous
 62
     7
100
AcDbPolyline
 90
        3
 70
   128
 43
0.0
 10
6194.652557373
 20
4443.716153458
 10
6195.1161435921
 20
4443.8215956328
 10
6195.3983289793
 20
4444.0465941581
  0
LWPOLYLINE
  5
640
330
1F
100
AcDbEntity
  8
0
  6
Continuous
 62
     7
100
AcDbPolyline
 90
        3
 70
   128
 43
0.0
 10
6193.775177002
 20
4444.4648026976
 10
6194.1050089056
 20
4443.8722006778
 10
6194.6551335648
 20
4443.716153458
  0
LWPOLYLINE
  5
641
330
1F
100
AcDbEntity
  8
0
  6
Continuous
 62
     7
100
AcDbPolyline
 90
        3
 70
   128
 43
0.0
 10
6194.652557373
 20
4445.2031254324
 10
6193.9868772706
 20
4444.9510782176
 10
6193.7778947547
 20
4444.4648026976
  0
LWPOLYLINE
  5
642
330
1F
100
AcDbEntity
  8
0
  6
Continuous
 62
     7
100
AcDbPolyline
 90
        3
 70
   128
 43
0.0
 10
6195.3964233398
 20
4444.8726847323
 10
6195.0221997811
 20
4445.1421892739
 10
6194.6534571841
 20
4445.2031254324
  0
LWPOLYLINE
  5
643
330
1F
100
AcDbEntity
  8
0
  6
Continuous
 62
     7
100
AcDbPolyline
 90
        3
 70
   128
 43
0.0
 10
6194.6716308594
 20
4445.434428707
 10
6195.2637687982
 20
4445.2990639799
 10
6195.6086588696
 20
4444.9929892572
  0
LWPOLYLINE
  5
644
330
1F
100
AcDbEntity
  8
0
  6
Continuous
 62
     7
100
AcDbPolyline
 90
        3
 70
   128
 43
0.0
 10
6193.5234069824
 20
4444.4441496881
 10
6193.9507736971
 20
4445.2254305561
 10
6194.6719644263
 20
4445.434428707
  0
LWPOLYLINE
  5
645
330
1F
100
AcDbEntity
  8
0
  6
Continuous
 62
     7
100
AcDbPolyline
 90
        3
 70
   128
 43
0.0
 10
6196.9223022461
 20
4444.6501582416
 10
6196.8466202161
 20
4444.8065533593
 10
6196.82917573
 20
4444.940321103
  0
LWPOLYLINE
  5
646
330
1F
100
AcDbEntity
  8
0
  6
Continuous
 62
     7
100
AcDbPolyline
 90
        3
 70
   128
 43
0.0
 10
6197.2732543945
 20
4444.3930387052
 10
6197.0622779106
 20
4444.5191794011
 10
6196.9228444293
 20
4444.6501582416
  0
LWPOLYLINE
  5
647
330
1F
100
AcDbEntity
  8
0
  6
Continuous
 62
     7
100
AcDbPolyline
 90
        3
 70
   128
 43
0.0
 10
6197.582244873
 20
4444.1989063772
 10
6197.4197858895
 20
4444.3182086024
 10
6197.2756517723
 20
4444.3930387052
  0
LWPOLYLINE
  5
648
330
1F
100
AcDbEntity
  8
0
  6
Continuous
 62
     7
100
AcDbPolyline
 90
        3
 70
   128
 43
0.0
 10
6197.6547241211
 20
4444.0192281755
 10
6197.6330028991
 20
4444.1256857626
 10
6197.5858268931
 20
4444.1989063772
  0
LWPOLYLINE
  5
649
330
1F
100
AcDbEntity
  8
0
  6
Continuous
 62
     7
100
AcDbPolyline
 90
        3
 70
   128
 43
0.0
 10
6197.2923278809
 20
4443.716153458
 10
6197.5658315574
 20
4443.8214214322
 10
6197.6548192695
 20
4444.0192281755
  0
LWPOLYLINE
  5
64A
330
1F
100
AcDbEntity
  8
0
  6
Continuous
 62
     7
100
AcDbPolyline
 90
        3
 70
   128
 43
0.0
 10
6196.8879699707
 20
4443.9144208583
 10
6197.0927924634
 20
4443.7619239936
 10
6197.293600221
 20
4443.716153458
  0
LWPOLYLINE
  5
64B
330
1F
100
AcDbEntity
  8
0
  6
Continuous
 62
     7
100
AcDbPolyline
 90
        3
 70
   128
 43
0.0
 10
6197.3037719727
 20
4443.4848501834
 10
6196.9459691438
 20
4443.5679322352
 10
6196.7214850381
 20
4443.739905909
  0
LWPOLYLINE
  5
64C
330
1F
100
AcDbEntity
  8
0
  6
Continuous
 62
     7
100
AcDbPolyline
 90
        3
 70
   128
 43
0.0
 10
6197.9026794434
 20
4444.0290405902
 10
6197.6892256068
 20
4443.6049663228
 10
6197.306497176
 20
4443.4848501834
  0
LWPOLYLINE
  5
64D
330
1F
100
AcDbEntity
  8
0
  6
Continuous
 62
     7
100
AcDbPolyline
 90
        3
 70
   128
 43
0.0
 10
6197.8073120117
 20
4444.3202390822
 10
6197.8884170447
 20
4444.1634228603
 10
6197.9060975507
 20
4444.0290405902
  0
LWPOLYLINE
  5
64E
330
1F
100
AcDbEntity
  8
0
  6
Continuous
 62
     7
100
AcDbPolyline
 90
        3
 70
   128
 43
0.0
 10
6197.4411010742
 20
4444.5845856818
 10
6197.664202155
 20
4444.4544701891
 10
6197.8107450202
 20
4444.3202390822
  0
LWPOLYLINE
  5
64F
330
1F
100
AcDbEntity
  8
0
  6
Continuous
 62
     7
100
AcDbPolyline
 90
        3
 70
   128
 43
0.0
 10
6197.1473693848
 20
4444.7787180098
 10
6197.3052985422
 20
4444.6591217632
 10
6197.4422393039
 20
4444.5845856818
  0
LWPOLYLINE
  5
650
330
1F
100
AcDbEntity
  8
0
  6
Continuous
 62
     7
100
AcDbPolyline
 90
        3
 70
   128
 43
0.0
 10
6197.078704834
 20
4444.9496194276
 10
6197.1040539956
 20
4444.8483002551
 10
6197.1500051811
 20
4444.7787180098
  0
LWPOLYLINE
  5
651
330
1F
100
AcDbEntity
  8
0
  6
Continuous
 62
     7
100
AcDbPolyline
 90
        3
 70
   128
 43
0.0
 10
6197.3457336426
 20
4445.2031254324
 10
6197.1410384752
 20
4445.1082964804
 10
6197.0804540113
 20
4444.9496194276
  0
LWPOLYLINE
  5
652
330
1F
100
AcDbEntity
  8
0
  6
Continuous
 62
     7
100
AcDbPolyline
 90
        3
 70
   128
 43
0.0
 10
6197.696685791
 20
4445.0048654827
 10
6197.5242298763
 20
4445.1519597316
 10
6197.3463205293
 20
4445.2031254324
  0
LWPOLYLINE
  5
653
330
1F
100
AcDbEntity
  8
0
  6
Continuous
 62
     7
100
AcDbPolyline
 90
        3
 70
   128
 43
0.0
 10
6197.3457336426
 20
4445.434428707
 10
6197.6683129749
 20
4445.332456319
 10
6197.8702006534
 20
4445.1664685759
  0
LWPOLYLINE
  5
654
330
1F
100
AcDbEntity
  8
0
  6
Continuous
 62
     7
100
AcDbPolyline
 90
        3
 70
   128
 43
0.0
 10
6196.8269348145
 20
4444.940321103
 10
6197.0090831123
 20
4445.3228662092
 10
6197.3463205293
 20
4445.434428707
  0
LWPOLYLINE
  5
655
330
1F
100
AcDbEntity
  8
0
  6
Continuous
 62
     7
100
AcDbPolyline
 90
        3
 70
   128
 43
0.0
 10
6184.8373413086
 20
4446.0146799239
 10
6184.7496978455
 20
4445.860079548
 10
6184.6049783423
 20
4445.8174481543
  0
LWPOLYLINE
  5
656
330
1F
100
AcDbEntity
  8
0
  6
Continuous
 62
     7
100
AcDbPolyline
 90
        3
 70
   128
 43
0.0
 10
6184.6046447754
 20
4445.8174481543
 10
6184.4294605252
 20
4445.8864284046
 10
6184.3727660969
 20
4446.0146799239
  0
LWPOLYLINE
  5
657
330
1F
100
AcDbEntity
  8
0
  6
Continuous
 62
     7
100
AcDbPolyline
 90
        3
 70
   128
 43
0.0
 10
6180.0994873047
 20
4444.1724866184
 10
6180.0664475989
 20
4444.3218789448
 10
6180.0005716875
 20
4444.4254785332
  0
LWPOLYLINE
  5
658
330
1F
100
AcDbEntity
  8
0
  6
Continuous
 62
     7
100
AcDbPolyline
 90
        3
 70
   128
 43
0.0
 10
6180.0003051758
 20
4444.4254785332
 10
6179.7323231549
 20
4444.6708767444
 10
6179.4957650497
 20
4444.8364600095
  0
LWPOLYLINE
  5
659
330
1F
100
AcDbEntity
  8
0
  6
Continuous
 62
     7
100
AcDbPolyline
 90
        3
 70
   128
 43
0.0
 10
6179.4929504395
 20
4444.8364600095
 10
6179.2286134425
 20
4445.0215860431
 10
6179.036950846
 20
4445.1870396289
  0
LWPOLYLINE
  5
65A
330
1F
100
AcDbEntity
  8
0
  6
Continuous
 62
     7
100
AcDbPolyline
 90
        3
 70
   128
 43
0.0
 10
6179.0351867676
 20
4445.1870396289
 10
6178.91239192
 20
4445.3950806555
 10
6178.8804588512
 20
4445.5794319066
  0
LWPOLYLINE
  5
65B
330
1F
100
AcDbEntity
  8
0
  6
Continuous
 62
     7
100
AcDbPolyline
 90
        3
 70
   128
 43
0.0
 10
6180.0880432129
 20
4445.5861448797
 10
6179.825538648
 20
4445.8379053148
 10
6179.5423162773
 20
4445.9165781292
  0
LWPOLYLINE
  5
65C
330
1F
100
AcDbEntity
  8
0
  6
Continuous
 62
     7
100
AcDbPolyline
 90
        3
 70
   128
 43
0.0
 10
6179.5387268066
 20
4445.9165781292
 10
6179.2326100024
 20
4445.8101045879
 10
6179.1317371324
 20
4445.5902725014
  0
LWPOLYLINE
  5
65D
330
1F
100
AcDbEntity
  8
0
  6
Continuous
 62
     7
100
AcDbPolyline
 90
        3
 70
   128
 43
0.0
 10
6180.3512573242
 20
4444.1688730868
 10
6180.0522275264
 20
4443.6254787428
 10
6179.552411814
 20
4443.4713422808
  0
LWPOLYLINE
  5
65E
330
1F
100
AcDbEntity
  8
0
  6
Continuous
 62
     7
100
AcDbPolyline
 90
        3
 70
   128
 43
0.0
 10
6179.5501708984
 20
4443.4713422808
 10
6178.9874264702
 20
4443.6740802708
 10
6178.700966914
 20
4444.0346359762
  0
LWPOLYLINE
  5
65F
330
1F
100
AcDbEntity
  8
0
  6
Continuous
 62
     7
100
AcDbPolyline
 90
        3
 70
   128
 43
0.0
 10
6195.3964233398
 20
4444.8922201547
 10
6195.0221997811
 20
4445.1617246963
 10
6194.6534571841
 20
4445.2226608547
  0
LWPOLYLINE
  5
660
330
1F
100
AcDbEntity
  8
0
  6
Continuous
 62
     7
100
AcDbPolyline
 90
        3
 70
   128
 43
0.0
 10
6194.652557373
 20
4445.2226608547
 10
6193.9868772706
 20
4444.9706136399
 10
6193.7778947547
 20
4444.4843381199
  0
LWPOLYLINE
  5
661
330
1F
100
AcDbEntity
  8
0
  6
Continuous
 62
     7
100
AcDbPolyline
 90
        3
 70
   128
 43
0.0
 10
6195.6062316895
 20
4443.939119533
 10
6195.1314553757
 20
4443.583983963
 10
6194.6512071088
 20
4443.5043856057
  0
LWPOLYLINE
  5
662
330
1F
100
AcDbEntity
  8
0
  6
Continuous
 62
     7
100
AcDbPolyline
 90
        3
 70
   128
 43
0.0
 10
6194.6487426758
 20
4443.5043856057
 10
6193.7924529598
 20
4443.8336478137
 10
6193.5266090229
 20
4444.4636851105
  0
LWPOLYLINE
  5
663
330
1F
100
AcDbEntity
  8
0
  6
Continuous
 62
     7
100
AcDbPolyline
 90
        3
 70
   128
 43
0.0
 10
6201.244354248
 20
4444.4740116152
 10
6200.86290974
 20
4443.7200864294
 10
6200.1867053702
 20
4443.5043856057
  0
LWPOLYLINE
  5
664
330
1F
100
AcDbEntity
  8
0
  6
Continuous
 62
     7
100
AcDbPolyline
 90
        3
 70
   128
 43
0.0
 10
6200.1838684082
 20
4443.5043856057
 10
6199.3679276075
 20
4443.8525354666
 10
6199.1266144112
 20
4444.4740116152
  0
LWPOLYLINE
  5
665
330
1F
100
AcDbEntity
  8
0
  6
Continuous
 62
     7
100
AcDbPolyline
 90
        3
 70
   128
 43
0.0
 10
6200.9925842285
 20
4444.4724618944
 10
6200.7005200734
 20
4445.0491615995
 10
6200.1855877832
 20
4445.2226608547
  0
LWPOLYLINE
  5
666
330
1F
100
AcDbEntity
  8
0
  6
Continuous
 62
     7
100
AcDbPolyline
 90
        3
 70
   128
 43
0.0
 10
6200.1838684082
 20
4445.2226608547
 10
6199.561532272
 20
4444.9484435228
 10
6199.3778926924
 20
4444.4724618944
  0
LWPOLYLINE
  5
667
330
1F
100
AcDbEntity
  8
0
  6
Continuous
 62
     7
100
AcDbPolyline
 90
        3
 70
   128
 43
0.0
 10
6191.9097900391
 20
4444.0243094715
 10
6191.4630012657
 20
4443.6047777998
 10
6190.9661126926
 20
4443.5043856057
  0
LWPOLYLINE
  5
668
330
1F
100
AcDbEntity
  8
0
  6
Continuous
 62
     7
100
AcDbPolyline
 90
        3
 70
   128
 43
0.0
 10
6190.9637451172
 20
4443.5043856057
 10
6190.1635453535
 20
4443.8545592965
 10
6189.9368671372
 20
4444.4740116152
  0
LWPOLYLINE
  5
669
330
1F
100
AcDbEntity
  8
0
  6
Continuous
 62
     7
100
AcDbPolyline
 90
        3
 70
   128
 43
0.0
 10
6191.764831543
 20
4444.66091688
 10
6191.435098859
 20
4445.1067499301
 10
6190.985186179
 20
4445.2226608547
  0
LWPOLYLINE
  5
66A
330
1F
100
AcDbEntity
  8
0
  6
Continuous
 62
     7
100
AcDbPolyline
 90
        3
 70
   128
 43
0.0
 10
6190.9828186035
 20
4445.2226608547
 10
6190.671112408
 20
4445.168241661
 10
6190.4579383925
 20
4445.0460820946
  0
LWPOLYLINE
  5
66B
330
1F
100
AcDbEntity
  8
0
  6
Continuous
 62
     7
100
AcDbPolyline
 90
        3
 70
   128
 43
0.0
 10
6190.4563903809
 20
4445.0460820946
 10
6190.2927484604
 20
4444.8452741165
 10
6190.2145130232
 20
4444.66091688
  0
LWPOLYLINE
  5
66C
330
1F
100
AcDbEntity
  8
0
  6
Continuous
 62
     7
100
AcDbPolyline
 90
        3
 70
   128
 43
0.0
 10
6184.1239929199
 20
4445.1891034397
 10
6184.0570661043
 20
4445.214377645
 10
6183.9986426428
 20
4445.2226608547
  0
LWPOLYLINE
  5
66D
330
1F
100
AcDbEntity
  8
0
  6
Continuous
 62
     7
100
AcDbPolyline
 90
        3
 70
   128
 43
0.0
 10
6183.9981079102
 20
4445.2226608547
 10
6183.70181688
 20
4445.055149918
 10
6183.5919974044
 20
4444.8168426308
  0
LWPOLYLINE
  5
66E
330
1F
100
AcDbEntity
  8
0
  6
Continuous
 62
     7
100
AcDbPolyline
 90
        3
 70
   128
 43
0.0
 10
6183.5899353027
 20
4444.8168426308
 10
6183.5518763316
 20
4444.4556405992
 10
6183.5471225575
 20
4444.1704228076
  0
LWPOLYLINE
  5
66F
330
1F
100
AcDbEntity
  8
0
  6
Continuous
 62
     7
100
AcDbPolyline
 90
        3
 70
   128
 43
0.0
 10
6182.7545166016
 20
4444.0243094715
 10
6182.3091583397
 20
4443.6047777998
 10
6181.8122697666
 20
4443.5043856057
  0
LWPOLYLINE
  5
670
330
1F
100
AcDbEntity
  8
0
  6
Continuous
 62
     7
100
AcDbPolyline
 90
        3
 70
   128
 43
0.0
 10
6181.8084716797
 20
4443.5043856057
 10
6181.0096977949
 20
4443.8545559555
 10
6180.7830242112
 20
4444.4740116152
  0
LWPOLYLINE
  5
671
330
1F
100
AcDbEntity
  8
0
  6
Continuous
 62
     7
100
AcDbPolyline
 90
        3
 70
   128
 43
0.0
 10
6182.6133728027
 20
4444.66091688
 10
6182.2812491621
 20
4445.1067495321
 10
6181.8313358024
 20
4445.2226608547
  0
LWPOLYLINE
  5
672
330
1F
100
AcDbEntity
  8
0
  6
Continuous
 62
     7
100
AcDbPolyline
 90
        3
 70
   128
 43
0.0
 10
6181.827545166
 20
4445.2226608547
 10
6181.5172652485
 20
4445.1682428892
 10
6181.3040954664
 20
4445.0460820946
  0
LWPOLYLINE
  5
673
330
1F
100
AcDbEntity
  8
0
  6
Continuous
 62
     7
100
AcDbPolyline
 90
        3
 70
   128
 43
0.0
 10
6181.3011169434
 20
4445.0460820946
 10
6181.1388990087
 20
4444.8452757097
 10
6181.0606626466
 20
4444.66091688
  0
LWPOLYLINE
  5
674
330
1F
100
AcDbEntity
  8
0
  6
Continuous
 62
     7
100
AcDbPolyline
 90
        3
 70
   128
 43
0.0
 10
6187.385559082
 20
4444.4740116152
 10
6187.0064987597
 20
4443.7200864294
 10
6186.33029439
 20
4443.5043856057
  0
LWPOLYLINE
  5
675
330
1F
100
AcDbEntity
  8
0
  6
Continuous
 62
     7
100
AcDbPolyline
 90
        3
 70
   128
 43
0.0
 10
6186.3288879395
 20
4443.5043856057
 10
6185.5115166273
 20
4443.8525354666
 10
6185.2702034309
 20
4444.4740116152
  0
LWPOLYLINE
  5
676
330
1F
100
AcDbEntity
  8
0
  6
Continuous
 62
     7
100
AcDbPolyline
 90
        3
 70
   128
 43
0.0
 10
6187.1337890625
 20
4444.4724618944
 10
6186.8441101246
 20
4445.0491607885
 10
6186.3291768029
 20
4445.2226608547
  0
LWPOLYLINE
  5
677
330
1F
100
AcDbEntity
  8
0
  6
Continuous
 62
     7
100
AcDbPolyline
 90
        3
 70
   128
 43
0.0
 10
6186.3288879395
 20
4445.2226608547
 10
6185.7051212918
 20
4444.9484435228
 10
6185.5214817122
 20
4444.4724618944
  0
LWPOLYLINE
  5
678
330
1F
100
AcDbEntity
  8
0
  6
Continuous
 62
     7
100
AcDbPolyline
 90
        3
 70
   128
 43
0.0
 10
6197.696685791
 20
4445.024400905
 10
6197.5242298763
 20
4445.171495154
 10
6197.3463205293
 20
4445.2226608547
  0
LWPOLYLINE
  5
679
330
1F
100
AcDbEntity
  8
0
  6
Continuous
 62
     7
100
AcDbPolyline
 90
        3
 70
   128
 43
0.0
 10
6197.3457336426
 20
4445.2226608547
 10
6197.1410389864
 20
4445.1278324927
 10
6197.0804540113
 20
4444.9691548499
  0
LWPOLYLINE
  5
67A
330
1F
100
AcDbEntity
  8
0
  6
Continuous
 62
     7
100
AcDbPolyline
 90
        3
 70
   128
 43
0.0
 10
6197.9026794434
 20
4444.0485760125
 10
6197.6892251512
 20
4443.624501397
 10
6197.306497176
 20
4443.5043856057
  0
LWPOLYLINE
  5
67B
330
1F
100
AcDbEntity
  8
0
  6
Continuous
 62
     7
100
AcDbPolyline
 90
        3
 70
   128
 43
0.0
 10
6197.3037719727
 20
4443.5043856057
 10
6196.9459691438
 20
4443.5874676575
 10
6196.7214850381
 20
4443.7594413313
  0
LWPOLYLINE
  5
67C
330
1F
100
AcDbEntity
  8
0
  6
Continuous
 62
     7
100
AcDbPolyline
 90
        3
 70
   128
 43
0.0
 10
6197.6547241211
 20
4444.0387635979
 10
6197.6330052001
 20
4444.1452233604
 10
6197.5858268931
 20
4444.2184417995
  0
LWPOLYLINE
  5
67D
330
1F
100
AcDbEntity
  8
0
  6
Continuous
 62
     7
100
AcDbPolyline
 90
        3
 70
   128
 43
0.0
 10
6197.582244873
 20
4444.2184417995
 10
6197.4197965781
 20
4444.3377375881
 10
6197.2756517723
 20
4444.4125741276
  0
LWPOLYLINE
  5
67E
330
1F
100
AcDbEntity
  8
0
  6
Continuous
 62
     7
100
AcDbPolyline
 90
        3
 70
   128
 43
0.0
 10
6197.2732543945
 20
4444.4125741276
 10
6197.062286338
 20
4444.5387083305
 10
6196.9228444293
 20
4444.669693664
  0
LWPOLYLINE
  5
67F
330
1F
100
AcDbEntity
  8
0
  6
Continuous
 62
     7
100
AcDbPolyline
 90
        3
 70
   128
 43
0.0
 10
6196.9223022461
 20
4444.669693664
 10
6196.8466202161
 20
4444.8260887816
 10
6196.82917573
 20
4444.9598565253
  0
LWPOLYLINE
  5
680
330
1F
100
AcDbEntity
  8
0
  6
Continuous
 62
     7
100
AcDbPolyline
 90
        3
 70
   128
 43
0.0
 10
6190.9828186035
 20
4445.2031254324
 10
6190.671112408
 20
4445.1487062387
 10
6190.4579383925
 20
4445.0265466722
  0
LWPOLYLINE
  5
681
330
1F
100
AcDbEntity
  8
0
  6
Continuous
 62
     7
100
AcDbPolyline
 90
        3
 70
   128
 43
0.0
 10
6191.764831543
 20
4444.6413814577
 10
6191.435098859
 20
4445.0872145077
 10
6190.985186179
 20
4445.2031254324
  0
LWPOLYLINE
  5
682
330
1F
100
AcDbEntity
  8
0
  6
Continuous
 62
     7
100
AcDbPolyline
 90
        3
 70
   128
 43
0.0
 10
6190.4563903809
 20
4445.0265466722
 10
6190.2927484604
 20
4444.8257386942
 10
6190.2145130232
 20
4444.6413814577
  0
LWPOLYLINE
  5
683
330
1F
100
AcDbEntity
  8
0
  6
Continuous
 62
     7
100
AcDbPolyline
 90
        3
 70
   128
 43
0.0
 10
6200.9925842285
 20
4444.4529264721
 10
6200.7005200734
 20
4445.0296261771
 10
6200.1855877832
 20
4445.2031254324
  0
LWPOLYLINE
  5
684
330
1F
100
AcDbEntity
  8
0
  6
Continuous
 62
     7
100
AcDbPolyline
 90
        3
 70
   128
 43
0.0
 10
6200.1838684082
 20
4445.2031254324
 10
6199.561530515
 20
4444.9289060668
 10
6199.3778926924
 20
4444.4529264721
  0
LWPOLYLINE
  5
685
330
1F
100
AcDbEntity
  8
0
  6
Continuous
 62
     7
100
AcDbPolyline
 90
        3
 70
   128
 43
0.0
 10
6181.827545166
 20
4445.2031254324
 10
6181.5172652485
 20
4445.1487074669
 10
6181.3040954664
 20
4445.0265466722
  0
LWPOLYLINE
  5
686
330
1F
100
AcDbEntity
  8
0
  6
Continuous
 62
     7
100
AcDbPolyline
 90
        3
 70
   128
 43
0.0
 10
6186.3288879395
 20
4445.2031254324
 10
6185.7051195348
 20
4444.9289060668
 10
6185.5214817122
 20
4444.4529264721
  0
LWPOLYLINE
  5
687
330
1F
100
AcDbEntity
  8
0
  6
Continuous
 62
     7
100
AcDbPolyline
 90
        3
 70
   128
 43
0.0
 10
6187.1337890625
 20
4444.4529264721
 10
6186.8441101246
 20
4445.0296253662
 10
6186.3291768029
 20
4445.2031254324
  0
LWPOLYLINE
  5
688
330
1F
100
AcDbEntity
  8
0
  6
Continuous
 62
     7
100
AcDbPolyline
 90
        3
 70
   128
 43
0.0
 10
6185.5201721191
 20
4444.4529264721
 10
6185.8127863707
 20
4443.8791530574
 10
6186.3291768029
 20
4443.716153458
  0
LWPOLYLINE
  5
689
330
1F
100
AcDbEntity
  8
0
  6
Continuous
 62
     7
100
AcDbPolyline
 90
        3
 70
   128
 43
0.0
 10
6186.3288879395
 20
4443.716153458
 10
6186.9543407928
 20
4443.9795740598
 10
6187.1368644431
 20
4444.4529264721
  0
LWPOLYLINE
  5
68A
330
1F
100
AcDbEntity
  8
0
  6
Continuous
 62
     7
100
AcDbPolyline
 90
        3
 70
   128
 43
0.0
 10
6182.6133728027
 20
4444.6413814577
 10
6182.2812491621
 20
4445.0872141098
 10
6181.8313358024
 20
4445.2031254324
  0
LWPOLYLINE
  5
68B
330
1F
100
AcDbEntity
  8
0
  6
Continuous
 62
     7
100
AcDbPolyline
 90
        3
 70
   128
 43
0.0
 10
6181.3011169434
 20
4445.0265466722
 10
6181.1388990087
 20
4444.8257402874
 10
6181.0606626466
 20
4444.6413814577
  0
LWPOLYLINE
  5
68C
330
1F
100
AcDbEntity
  8
0
  6
Continuous
 62
     7
100
AcDbPolyline
 90
        3
 70
   128
 43
0.0
 10
6199.3751525879
 20
4444.4529264721
 10
6199.669197351
 20
4443.8791530574
 10
6200.1855877832
 20
4443.716153458
  0
LWPOLYLINE
  5
68D
330
1F
100
AcDbEntity
  8
0
  6
Continuous
 62
     7
100
AcDbPolyline
 90
        3
 70
   128
 43
0.0
 10
6200.1838684082
 20
4443.716153458
 10
6200.810751773
 20
4443.9795740598
 10
6200.9932754233
 20
4444.4529264721
  0
POINT
  5
68E
330
1F
100
AcDbEntity
  8
0
  6
Continuous
 62
     7
100
AcDbPoint
 10
6229.2187569335
 20
4455.0640508088
 30
0.0
  0
POINT
  5
68F
330
1F
100
AcDbEntity
  8
0
  6
Continuous
 62
     7
100
AcDbPoint
 10
6318.8187537387
 20
4455.0640508088
 30
0.0
  0
ENDSEC
  0
SECTION
  2
OBJECTS
  0
DICTIONARY
  5
C
330
0
100
AcDbDictionary
281
     1
  3
ACAD_GROUP
350
D
  3
ACAD_LAYOUT
350
1A
  3
ACAD_MLINESTYLE
350
17
  3
ACAD_PLOTSETTINGS
350
19
  3
ACAD_PLOTSTYLENAME
350
E
  3
ACAD_SCALELIST
350
47
  3
DWGPROPS
350
690
  0
DICTIONARY
  5
D
102
{ACAD_REACTORS
330
C
102
}
330
C
100
AcDbDictionary
281
     1
  0
DICTIONARY
  5
1A
102
{ACAD_REACTORS
330
C
102
}
330
C
100
AcDbDictionary
281
     1
  3
Layout1
350
1E
  3
Layout2
350
26
  3
Model
350
22
  0
DICTIONARY
  5
17
102
{ACAD_REACTORS
330
C
102
}
330
C
100
AcDbDictionary
281
     1
  3
Standard
350
18
  0
DICTIONARY
  5
19
102
{ACAD_REACTORS
330
C
102
}
330
C
100
AcDbDictionary
281
     1
  0
ACDBDICTIONARYWDFLT
  5
E
102
{ACAD_REACTORS
330
C
102
}
330
C
100
AcDbDictionary
281
     1
  3
Normal
350
F
100
AcDbDictionaryWithDefault
340
F
  0
DICTIONARY
  5
47
102
{ACAD_REACTORS
330
C
102
}
330
C
100
AcDbDictionary
281
     1
  3
A0
350
48
  3
A1
350
49
  3
A2
350
4A
  3
A3
350
4B
  3
A4
350
4C
  3
A5
350
4D
  3
A6
350
4E
  3
A7
350
4F
  3
A8
350
50
  3
A9
350
51
  3
B0
350
52
  3
B1
350
53
  3
B2
350
54
  3
B3
350
55
  3
B4
350
56
  3
B5
350
57
  3
B6
350
58
  3
B7
350
59
  3
B8
350
5A
  3
B9
350
5B
  3
C0
350
5C
  3
C1
350
5D
  3
C2
350
5E
  3
C3
350
5F
  3
C4
350
60
  3
C5
350
61
  3
C6
350
62
  3
C7
350
63
  3
C8
350
64
  3
C9
350
65
  3
D0
350
66
  3
D1
350
67
  3
D2
350
68
  0
XRECORD
  5
690
102
{ACAD_REACTORS
330
C
102
}
330
C
100
AcDbXrecord
280
     1
  1
DWGPROPS COOKIE
  2

  3

  4

  6

  7

  8
radek.stransky
  9

300
=
301
=
302
=
303
=
304
=
305
=
306
=
307
=
308
=
309
=
 40
0.0
 41
2459103.429577176
 42
2459103.429613808
  1

 90
        0
  0
LAYOUT
  5
1E
102
{ACAD_REACTORS
330
1A
102
}
330
1A
100
AcDbPlotSettings
  1

  2
none_device
  4

  6

 40
0.0
 41
0.0
 42
0.0
 43
0.0
 44
0.0
 45
0.0
 46
0.0
 47
0.0
 48
0.0
 49
0.0
140
0.0
141
0.0
142
1.0
143
1.0
 70
   688
 72
     1
 73
     0
 74
     5
  7

 75
    16
147
1.0
148
0.0
149
0.0
100
AcDbLayout
  1
Layout1
 70
     1
 71
     1
 10
0.0
 20
0.0
 11
420.0
 21
297.0
 12
0.0
 22
0.0
 32
0.0
 14
1.0000000000E+20
 24
1.0000000000E+20
 34
1.0000000000E+20
 15
-1.0000000000E+20
 25
-1.0000000000E+20
 35
-1.0000000000E+20
146
0.0
 13
0.0
 23
0.0
 33
0.0
 16
1.0
 26
0.0
 36
0.0
 17
0.0
 27
1.0
 37
0.0
 76
     0
330
1B
  0
LAYOUT
  5
26
102
{ACAD_REACTORS
330
1A
102
}
330
1A
100
AcDbPlotSettings
  1

  2
none_device
  4

  6

 40
0.0
 41
0.0
 42
0.0
 43
0.0
 44
0.0
 45
0.0
 46
0.0
 47
0.0
 48
0.0
 49
0.0
140
0.0
141
0.0
142
1.0
143
1.0
 70
   688
 72
     1
 73
     0
 74
     5
  7

 75
    16
147
1.0
148
0.0
149
0.0
100
AcDbLayout
  1
Layout2
 70
     1
 71
     2
 10
0.0
 20
0.0
 11
0.0
 21
0.0
 12
0.0
 22
0.0
 32
0.0
 14
0.0
 24
0.0
 34
0.0
 15
0.0
 25
0.0
 35
0.0
146
0.0
 13
0.0
 23
0.0
 33
0.0
 16
1.0
 26
0.0
 36
0.0
 17
0.0
 27
1.0
 37
0.0
 76
     0
330
23
  0
LAYOUT
  5
22
102
{ACAD_REACTORS
330
1A
102
}
330
1A
100
AcDbPlotSettings
  1

  2
none_device
  4
ANSI_A_(11.00_x_8.50_Inches)
  6

 40
6.35
 41
19.05
 42
6.35000508
 43
19.05000254
 44
279.4
 45
215.9
 46
-825.0606935846
 47
-656.8037246537
 48
0.0
 49
0.0
140
0.0
141
0.0
142
0.0058488318
143
1.0
 70
  1696
 72
     0
 73
     0
 74
     0
  7

 75
     0
147
0.0179189148
148
-1300.4909072572
149
0.0
100
AcDbLayout
  1
Model
 70
     1
 71
     0
 10
0.0
 20
0.0
 11
420.0
 21
297.0
 12
0.0
 22
0.0
 32
0.0
 14
6163.9995110825
 24
4300.1602701398
 34
0.0
 15
6738.6468299383
 25
5738.9091057617
 35
0.0
146
0.0
 13
0.0
 23
0.0
 33
0.0
 16
1.0
 26
0.0
 36
0.0
 17
0.0
 27
1.0
 37
0.0
 76
     0
330
1F
331
29
  0
MLINESTYLE
  5
18
102
{ACAD_REACTORS
330
17
102
}
330
17
100
AcDbMlineStyle
  2
Standard
 70
     0
  3

 62
   256
 51
90.0
 52
90.0
 71
     2
 49
0.5
 62
   256
  6
BYLAYER
 49
-0.5
 62
   256
  6
BYLAYER
  0
ACDBPLACEHOLDER
  5
F
102
{ACAD_REACTORS
330
E
102
}
330
E
  0
SCALE
  5
48
102
{ACAD_REACTORS
330
47
102
}
330
47
100
AcDbScale
 70
     0
300
1:1
140
1.0
141
1.0
290
     1
  0
SCALE
  5
49
102
{ACAD_REACTORS
330
47
102
}
330
47
100
AcDbScale
 70
     0
300
1:2
140
1.0
141
2.0
290
     0
  0
SCALE
  5
4A
102
{ACAD_REACTORS
330
47
102
}
330
47
100
AcDbScale
 70
     0
300
1:4
140
1.0
141
4.0
290
     0
  0
SCALE
  5
4B
102
{ACAD_REACTORS
330
47
102
}
330
47
100
AcDbScale
 70
     0
300
1:5
140
1.0
141
5.0
290
     0
  0
SCALE
  5
4C
102
{ACAD_REACTORS
330
47
102
}
330
47
100
AcDbScale
 70
     0
300
1:8
140
1.0
141
8.0
290
     0
  0
SCALE
  5
4D
102
{ACAD_REACTORS
330
47
102
}
330
47
100
AcDbScale
 70
     0
300
1:10
140
1.0
141
10.0
290
     0
  0
SCALE
  5
4E
102
{ACAD_REACTORS
330
47
102
}
330
47
100
AcDbScale
 70
     0
300
1:16
140
1.0
141
16.0
290
     0
  0
SCALE
  5
4F
102
{ACAD_REACTORS
330
47
102
}
330
47
100
AcDbScale
 70
     0
300
1:20
140
1.0
141
20.0
290
     0
  0
SCALE
  5
50
102
{ACAD_REACTORS
330
47
102
}
330
47
100
AcDbScale
 70
     0
300
1:30
140
1.0
141
30.0
290
     0
  0
SCALE
  5
51
102
{ACAD_REACTORS
330
47
102
}
330
47
100
AcDbScale
 70
     0
300
1:40
140
1.0
141
40.0
290
     0
  0
SCALE
  5
52
102
{ACAD_REACTORS
330
47
102
}
330
47
100
AcDbScale
 70
     0
300
1:50
140
1.0
141
50.0
290
     0
  0
SCALE
  5
53
102
{ACAD_REACTORS
330
47
102
}
330
47
100
AcDbScale
 70
     0
300
1:100
140
1.0
141
100.0
290
     0
  0
SCALE
  5
54
102
{ACAD_REACTORS
330
47
102
}
330
47
100
AcDbScale
 70
     0
300
2:1
140
2.0
141
1.0
290
     0
  0
SCALE
  5
55
102
{ACAD_REACTORS
330
47
102
}
330
47
100
AcDbScale
 70
     0
300
4:1
140
4.0
141
1.0
290
     0
  0
SCALE
  5
56
102
{ACAD_REACTORS
330
47
102
}
330
47
100
AcDbScale
 70
     0
300
8:1
140
8.0
141
1.0
290
     0
  0
SCALE
  5
57
102
{ACAD_REACTORS
330
47
102
}
330
47
100
AcDbScale
 70
     0
300
10:1
140
10.0
141
1.0
290
     0
  0
SCALE
  5
58
102
{ACAD_REACTORS
330
47
102
}
330
47
100
AcDbScale
 70
     0
300
100:1
140
100.0
141
1.0
290
     0
  0
SCALE
  5
59
102
{ACAD_REACTORS
330
47
102
}
330
47
100
AcDbScale
 70
     0
300
1/128" = 1'-0"
140
0.0078125
141
12.0
290
     0
  0
SCALE
  5
5A
102
{ACAD_REACTORS
330
47
102
}
330
47
100
AcDbScale
 70
     0
300
1/64" = 1'-0"
140
0.015625
141
12.0
290
     0
  0
SCALE
  5
5B
102
{ACAD_REACTORS
330
47
102
}
330
47
100
AcDbScale
 70
     0
300
1/32" = 1'-0"
140
0.03125
141
12.0
290
     0
  0
SCALE
  5
5C
102
{ACAD_REACTORS
330
47
102
}
330
47
100
AcDbScale
 70
     0
300
1/16" = 1'-0"
140
0.0625
141
12.0
290
     0
  0
SCALE
  5
5D
102
{ACAD_REACTORS
330
47
102
}
330
47
100
AcDbScale
 70
     0
300
3/32" = 1'-0"
140
0.09375
141
12.0
290
     0
  0
SCALE
  5
5E
102
{ACAD_REACTORS
330
47
102
}
330
47
100
AcDbScale
 70
     0
300
1/8" = 1'-0"
140
0.125
141
12.0
290
     0
  0
SCALE
  5
5F
102
{ACAD_REACTORS
330
47
102
}
330
47
100
AcDbScale
 70
     0
300
3/16" = 1'-0"
140
0.1875
141
12.0
290
     0
  0
SCALE
  5
60
102
{ACAD_REACTORS
330
47
102
}
330
47
100
AcDbScale
 70
     0
300
1/4" = 1'-0"
140
0.25
141
12.0
290
     0
  0
SCALE
  5
61
102
{ACAD_REACTORS
330
47
102
}
330
47
100
AcDbScale
 70
     0
300
3/8" = 1'-0"
140
0.375
141
12.0
290
     0
  0
SCALE
  5
62
102
{ACAD_REACTORS
330
47
102
}
330
47
100
AcDbScale
 70
     0
300
1/2" = 1'-0"
140
0.5
141
12.0
290
     0
  0
SCALE
  5
63
102
{ACAD_REACTORS
330
47
102
}
330
47
100
AcDbScale
 70
     0
300
3/4" = 1'-0"
140
0.75
141
12.0
290
     0
  0
SCALE
  5
64
102
{ACAD_REACTORS
330
47
102
}
330
47
100
AcDbScale
 70
     0
300
1" = 1'-0"
140
1.0
141
12.0
290
     0
  0
SCALE
  5
65
102
{ACAD_REACTORS
330
47
102
}
330
47
100
AcDbScale
 70
     0
300
1-1/2" = 1'-0"
140
1.5
141
12.0
290
     0
  0
SCALE
  5
66
102
{ACAD_REACTORS
330
47
102
}
330
47
100
AcDbScale
 70
     0
300
3" = 1'-0"
140
3.0
141
12.0
290
     0
  0
SCALE
  5
67
102
{ACAD_REACTORS
330
47
102
}
330
47
100
AcDbScale
 70
     0
300
6" = 1'-0"
140
6.0
141
12.0
290
     0
  0
SCALE
  5
68
102
{ACAD_REACTORS
330
47
102
}
330
47
100
AcDbScale
 70
     0
300
1'-0" = 1'-0"
140
12.0
141
12.0
290
     0
  0
ENDSEC
  0
EOF
