  0
SECTION
  2
HEADER
  9
$ACADVER
  1
AC1015
  9
$ACADMAINTVER
 70
     6
  9
$DWGCODEPAGE
  3
ANSI_1250
  9
$INSBASE
 10
0.0
 20
0.0
 30
0.0
  9
$EXTMIN
 10
0.0
 20
0.0
 30
0.0
  9
$EXTMAX
 10
20000.0
 20
10000.0
 30
0.0
  9
$LIMMIN
 10
0.0
 20
0.0
  9
$LIMMAX
 10
20000.0
 20
10000.0
  9
$ORTHOMODE
 70
     0
  9
$REGENMODE
 70
     1
  9
$FILLMODE
 70
     1
  9
$QTEXTMODE
 70
     0
  9
$MIRRTEXT
 70
     1
  9
$LTSCALE
 40
1.0
  9
$ATTMODE
 70
     1
  9
$TEXTSIZE
 40
2.0
  9
$TRACEWID
 40
1.0
  9
$TEXTSTYLE
  7
Standard
  9
$CLAYER
  8
0
  9
$CELTYPE
  6
ByLayer
  9
$CECOLOR
 62
   256
  9
$CELTSCALE
 40
1.0
  9
$DISPSILH
 70
     0
  9
$DIMSCALE
 40
1.0
  9
$DIMASZ
 40
2.0
  9
$DIMEXO
 40
1.0
  9
$DIMDLI
 40
3.75
  9
$DIMRND
 40
0.0
  9
$DIMDLE
 40
0.0
  9
$DIMEXE
 40
1.0
  9
$DIMTP
 40
0.0
  9
$DIMTM
 40
0.0
  9
$DIMTXT
 40
2.0
  9
$DIMCEN
 40
2.5
  9
$DIMTSZ
 40
0.0
  9
$DIMTOL
 70
     0
  9
$DIMLIM
 70
     0
  9
$DIMTIH
 70
     1
  9
$DIMTOH
 70
     1
  9
$DIMSE1
 70
     0
  9
$DIMSE2
 70
     0
  9
$DIMTAD
 70
     1
  9
$DIMZIN
 70
     0
  9
$DIMBLK
  1

  9
$DIMASO
 70
     1
  9
$DIMSHO
 70
     1
  9
$DIMPOST
  1

  9
$DIMAPOST
  1

  9
$DIMALT
 70
     0
  9
$DIMALTD
 70
     3
  9
$DIMALTF
 40
0.0393700787
  9
$DIMLFAC
 40
1.0
  9
$DIMTOFL
 70
     1
  9
$DIMTVP
 40
0.0
  9
$DIMTIX
 70
     0
  9
$DIMSOXD
 70
     0
  9
$DIMSAH
 70
     0
  9
$DIMBLK1
  1

  9
$DIMBLK2
  1

  9
$DIMSTYLE
  2
ISO-25
  9
$DIMCLRD
 70
     0
  9
$DIMCLRE
 70
     0
  9
$DIMCLRT
 70
     0
  9
$DIMTFAC
 40
1.0
  9
$DIMGAP
 40
1.524
  9
$DIMJUST
 70
     0
  9
$DIMSD1
 70
     0
  9
$DIMSD2
 70
     0
  9
$DIMTOLJ
 70
     0
  9
$DIMTZIN
 70
     0
  9
$DIMALTZ
 70
     0
  9
$DIMALTTZ
 70
     0
  9
$DIMUPT
 70
     0
  9
$DIMDEC
 70
     2
  9
$DIMTDEC
 70
     0
  9
$DIMALTU
 70
     2
  9
$DIMALTTD
 70
     3
  9
$DIMTXSTY
  7
Standard
  9
$DIMAUNIT
 70
     0
  9
$DIMADEC
 70
     2
  9
$DIMALTRND
 40
0.0
  9
$DIMAZIN
 70
     0
  9
$DIMDSEP
 70
    44
  9
$DIMATFIT
 70
     3
  9
$DIMFRAC
 70
     0
  9
$DIMLDRBLK
  1

  9
$DIMLUNIT
 70
     2
  9
$DIMLWD
 70
    -2
  9
$DIMLWE
 70
    -2
  9
$DIMTMOVE
 70
     0
  9
$LUNITS
 70
     2
  9
$LUPREC
 70
     3
  9
$SKETCHINC
 40
1.0
  9
$FILLETRAD
 40
10.0
  9
$AUNITS
 70
     0
  9
$AUPREC
 70
     2
  9
$MENU
  1
.
  9
$ELEVATION
 40
0.0
  9
$PELEVATION
 40
0.0
  9
$THICKNESS
 40
0.0
  9
$LIMCHECK
 70
     0
  9
$CHAMFERA
 40
0.0
  9
$CHAMFERB
 40
0.0
  9
$CHAMFERC
 40
0.0
  9
$CHAMFERD
 40
0.0
  9
$SKPOLY
 70
     0
  9
$TDCREATE
 40
2458669.447032789
  9
$TDUCREATE
 40
2458669.363699456
  9
$TDUPDATE
 40
2458669.447034687
  9
$TDUUPDATE
 40
2458669.363701354
  9
$TDINDWG
 40
0.0000000116
  9
$TDUSRTIMER
 40
0.0000000116
  9
$USRTIMER
 70
     1
  9
$ANGBASE
 50
0.0
  9
$ANGDIR
 70
     0
  9
$PDMODE
 70
     0
  9
$PDSIZE
 40
-1.0
  9
$PLINEWID
 40
0.0
  9
$SPLFRAME
 70
     0
  9
$SPLINETYPE
 70
     6
  9
$SPLINESEGS
 70
     8
  9
$HANDSEED
  5
14D
  9
$SURFTAB1
 70
     6
  9
$SURFTAB2
 70
     6
  9
$SURFTYPE
 70
     6
  9
$SURFU
 70
     6
  9
$SURFV
 70
     6
  9
$UCSBASE
  2

  9
$UCSNAME
  2

  9
$UCSORG
 10
0.0
 20
0.0
 30
0.0
  9
$UCSXDIR
 10
1.0
 20
0.0
 30
0.0
  9
$UCSYDIR
 10
0.0
 20
1.0
 30
0.0
  9
$UCSORTHOREF
  2

  9
$UCSORTHOVIEW
 70
     0
  9
$UCSORGTOP
 10
0.0
 20
0.0
 30
0.0
  9
$UCSORGBOTTOM
 10
0.0
 20
0.0
 30
0.0
  9
$UCSORGLEFT
 10
0.0
 20
0.0
 30
0.0
  9
$UCSORGRIGHT
 10
0.0
 20
0.0
 30
0.0
  9
$UCSORGFRONT
 10
0.0
 20
0.0
 30
0.0
  9
$UCSORGBACK
 10
0.0
 20
0.0
 30
0.0
  9
$PUCSBASE
  2

  9
$PUCSNAME
  2

  9
$PUCSORG
 10
0.0
 20
0.0
 30
0.0
  9
$PUCSXDIR
 10
1.0
 20
0.0
 30
0.0
  9
$PUCSYDIR
 10
0.0
 20
1.0
 30
0.0
  9
$PUCSORTHOREF
  2

  9
$PUCSORTHOVIEW
 70
     0
  9
$PUCSORGTOP
 10
0.0
 20
0.0
 30
0.0
  9
$PUCSORGBOTTOM
 10
0.0
 20
0.0
 30
0.0
  9
$PUCSORGLEFT
 10
0.0
 20
0.0
 30
0.0
  9
$PUCSORGRIGHT
 10
0.0
 20
0.0
 30
0.0
  9
$PUCSORGFRONT
 10
0.0
 20
0.0
 30
0.0
  9
$PUCSORGBACK
 10
0.0
 20
0.0
 30
0.0
  9
$USERI1
 70
     0
  9
$USERI2
 70
     0
  9
$USERI3
 70
     0
  9
$USERI4
 70
     0
  9
$USERI5
 70
     0
  9
$USERR1
 40
0.0
  9
$USERR2
 40
0.0
  9
$USERR3
 40
0.0
  9
$USERR4
 40
0.0
  9
$USERR5
 40
0.0
  9
$WORLDVIEW
 70
     1
  9
$SHADEDGE
 70
     3
  9
$SHADEDIF
 70
    70
  9
$TILEMODE
 70
     1
  9
$MAXACTVP
 70
    64
  9
$PINSBASE
 10
0.0
 20
0.0
 30
0.0
  9
$PLIMCHECK
 70
     0
  9
$PEXTMIN
 10
1.0000000000E+20
 20
1.0000000000E+20
 30
1.0000000000E+20
  9
$PEXTMAX
 10
-1.0000000000E+20
 20
-1.0000000000E+20
 30
-1.0000000000E+20
  9
$PLIMMIN
 10
0.0
 20
0.0
  9
$PLIMMAX
 10
420.0
 20
297.0
  9
$UNITMODE
 70
     0
  9
$VISRETAIN
 70
     1
  9
$PLINEGEN
 70
     0
  9
$PSLTSCALE
 70
     1
  9
$TREEDEPTH
 70
  3020
  9
$CMLSTYLE
  2
Standard
  9
$CMLJUST
 70
     0
  9
$CMLSCALE
 40
20.0
  9
$PROXYGRAPHICS
 70
     1
  9
$MEASUREMENT
 70
     1
  9
$CELWEIGHT
370
    -1
  9
$ENDCAPS
280
     0
  9
$JOINSTYLE
280
     0
  9
$LWDISPLAY
290
     1
  9
$INSUNITS
 70
     4
  9
$HYPERLINKBASE
  1

  9
$STYLESHEET
  1

  9
$XEDIT
290
     1
  9
$CEPSNTYPE
380
     0
  9
$PSTYLEMODE
290
     1
  9
$FINGERPRINTGUID
  2
{F1D566EE-C3C1-419A-BDE6-7FFEE7CF5FDE}
  9
$VERSIONGUID
  2
{FAEB1C32-E019-11D5-929B-00C0DF256EC4}
  9
$EXTNAMES
290
     1
  9
$PSVPSCALE
 40
0.0
  9
$OLESTARTUP
290
     0
  0
ENDSEC
  0
SECTION
  2
CLASSES
  0
CLASS
  1
ACDBDICTIONARYWDFLT
  2
AcDbDictionaryWithDefault
  3
ObjectDBX Classes
 90
        0
280
     0
281
     0
  0
CLASS
  1
VISUALSTYLE
  2
AcDbVisualStyle
  3
ObjectDBX Classes
 90
     4095
280
     0
281
     0
  0
CLASS
  1
MATERIAL
  2
AcDbMaterial
  3
ObjectDBX Classes
 90
     1153
280
     0
281
     0
  0
CLASS
  1
SCALE
  2
AcDbScale
  3
ObjectDBX Classes
 90
     1153
280
     0
281
     0
  0
CLASS
  1
TABLESTYLE
  2
AcDbTableStyle
  3
ObjectDBX Classes
 90
     4095
280
     0
281
     0
  0
CLASS
  1
MLEADERSTYLE
  2
AcDbMLeaderStyle
  3
ACDB_MLEADERSTYLE_CLASS
 90
     4095
280
     0
281
     0
  0
CLASS
  1
SUN
  2
AcDbSun
  3
SCENEOE
 90
     1153
280
     0
281
     0
  0
CLASS
  1
ACDBPLACEHOLDER
  2
AcDbPlaceHolder
  3
ObjectDBX Classes
 90
        0
280
     0
281
     0
  0
CLASS
  1
LAYOUT
  2
AcDbLayout
  3
ObjectDBX Classes
 90
        0
280
     0
281
     0
  0
ENDSEC
  0
SECTION
  2
TABLES
  0
TABLE
  2
VPORT
  5
8
330
0
100
AcDbSymbolTable
 70
     1
  0
VPORT
  5
29
330
8
100
AcDbSymbolTableRecord
100
AcDbViewportTableRecord
  2
*Active
 70
     0
 10
0.0
 20
0.0
 11
1.0
 21
1.0
 12
10000.0
 22
5000.0
 13
0.0
 23
0.0
 14
10.0
 24
10.0
 15
10.0
 25
10.0
 16
0.0
 26
0.0
 36
1.0
 17
0.0
 27
0.0
 37
0.0
 40
10000.0
 41
2.0
 42
50.0
 43
0.0
 44
0.0
 50
0.0
 51
0.0
 71
     0
 72
  2000
 73
     1
 74
     3
 75
     0
 76
     0
 77
     0
 78
     0
281
     0
 65
     1
110
0.0
120
0.0
130
0.0
111
1.0
121
0.0
131
0.0
112
0.0
122
1.0
132
0.0
 79
     0
146
0.0
  0
ENDTAB
  0
TABLE
  2
LTYPE
  5
5
330
0
100
AcDbSymbolTable
 70
     6
  0
LTYPE
  5
14
330
5
100
AcDbSymbolTableRecord
100
AcDbLinetypeTableRecord
  2
ByBlock
 70
     0
  3

 72
    65
 73
     0
 40
0.0
  0
LTYPE
  5
15
330
5
100
AcDbSymbolTableRecord
100
AcDbLinetypeTableRecord
  2
ByLayer
 70
     0
  3

 72
    65
 73
     0
 40
0.0
  0
LTYPE
  5
16
330
5
100
AcDbSymbolTableRecord
100
AcDbLinetypeTableRecord
  2
Continuous
 70
     0
  3
Solid line
 72
    65
 73
     0
 40
0.0
  0
LTYPE
  5
6E
330
5
100
AcDbSymbolTableRecord
100
AcDbLinetypeTableRecord
  2
HIDDEN
 70
     0
  3
Hidden __ __ __ __ __ __ __ __ __ __ __ __ __ __
 72
    65
 73
     2
 40
1.905
 49
1.27
 74
     0
 49
-0.635
 74
     0
  0
LTYPE
  5
6F
330
5
100
AcDbSymbolTableRecord
100
AcDbLinetypeTableRecord
  2
PHANTOM
 70
     0
  3
Phantom ______  __  __  ______  __  __  ______
 72
    65
 73
     6
 40
12.7
 49
6.35
 74
     0
 49
-1.27
 74
     0
 49
1.27
 74
     0
 49
-1.27
 74
     0
 49
1.27
 74
     0
 49
-1.27
 74
     0
  0
LTYPE
  5
70
330
5
100
AcDbSymbolTableRecord
100
AcDbLinetypeTableRecord
  2
CENTER
 70
     0
  3
Center ____ _ ____ _ ____ _ ____ _ ____ _ ____
 72
    65
 73
     4
 40
10.16
 49
6.35
 74
     0
 49
-1.27
 74
     0
 49
1.27
 74
     0
 49
-1.27
 74
     0
  0
LTYPE
  5
71
330
5
100
AcDbSymbolTableRecord
100
AcDbLinetypeTableRecord
  2
CENTERX2
 70
     0
  3
Center (2x) ________  __  ________  __  _____
 72
    65
 73
     4
 40
20.32
 49
12.7
 74
     0
 49
-2.54
 74
     0
 49
2.54
 74
     0
 49
-2.54
 74
     0
  0
LTYPE
  5
72
330
5
100
AcDbSymbolTableRecord
100
AcDbLinetypeTableRecord
  2
DOT2
 70
     0
  3
Dot (.5x) ........................................
 72
    65
 73
     2
 40
0.635
 49
0.0
 74
     0
 49
-0.635
 74
     0
  0
ENDTAB
  0
TABLE
  2
LAYER
  5
2
330
0
100
AcDbSymbolTable
 70
    13
  0
LAYER
  5
10
330
2
100
AcDbSymbolTableRecord
100
AcDbLayerTableRecord
  2
0
 70
     0
 62
     7
  6
Continuous
370
    -3
390
F
  0
LAYER
  5
73
330
2
100
AcDbSymbolTableRecord
100
AcDbLayerTableRecord
  2
FORMAT
 70
     0
 62
     7
  6
Continuous
370
    -3
390
F
  0
LAYER
  5
74
330
2
100
AcDbSymbolTableRecord
100
AcDbLayerTableRecord
  2
OSA
 70
     0
 62
     7
  6
CENTER
370
    -3
390
F
  0
LAYER
  5
75
330
2
100
AcDbSymbolTableRecord
100
AcDbLayerTableRecord
  2
0_35
 70
     0
 62
     7
  6
Continuous
370
    35
390
F
  0
LAYER
  5
76
330
2
100
AcDbSymbolTableRecord
100
AcDbLayerTableRecord
  2
0_5
 70
     0
 62
     7
  6
Continuous
370
    50
390
F
  0
LAYER
  5
77
330
2
100
AcDbSymbolTableRecord
100
AcDbLayerTableRecord
  2
0_25
 70
     0
 62
     7
  6
Continuous
370
    25
390
F
  0
LAYER
  5
78
330
2
100
AcDbSymbolTableRecord
100
AcDbLayerTableRecord
  2
0_18
 70
     0
 62
     7
  6
Continuous
370
    -3
390
F
  0
LAYER
  5
79
330
2
100
AcDbSymbolTableRecord
100
AcDbLayerTableRecord
  2
SLD-0
 70
     0
 62
   179
  6
Continuous
370
    -3
390
F
  0
LAYER
  5
7A
330
2
100
AcDbSymbolTableRecord
100
AcDbLayerTableRecord
  2
KOTY
 70
     0
 62
     7
  6
Continuous
370
    -3
390
F
  0
LAYER
  5
7B
330
2
100
AcDbSymbolTableRecord
100
AcDbLayerTableRecord
  2
SILNA
 70
     0
 62
   179
  6
Continuous
370
    -3
390
F
  0
LAYER
  5
7C
330
2
100
AcDbSymbolTableRecord
100
AcDbLayerTableRecord
  2
0_18_1
 70
     0
 62
   179
  6
Continuous
370
    -3
390
F
  0
LAYER
  5
7D
330
2
100
AcDbSymbolTableRecord
100
AcDbLayerTableRecord
  2
0_35_1
 70
     0
 62
   179
  6
Continuous
370
    35
390
F
  0
LAYER
  5
7E
330
2
100
AcDbSymbolTableRecord
100
AcDbLayerTableRecord
  2
0_5_1
 70
     0
 62
   179
  6
Continuous
370
    50
390
F
  0
ENDTAB
  0
TABLE
  2
STYLE
  5
3
330
0
100
AcDbSymbolTable
 70
     1
  0
STYLE
  5
11
330
3
100
AcDbSymbolTableRecord
100
AcDbTextStyleTableRecord
  2
Standard
 70
     0
 40
0.0
 41
1.0
 50
0.0
 71
     0
 42
2.0
  3
txt
  4

  0
ENDTAB
  0
TABLE
  2
VIEW
  5
6
330
0
100
AcDbSymbolTable
 70
     0
  0
ENDTAB
  0
TABLE
  2
UCS
  5
7
330
0
100
AcDbSymbolTable
 70
     0
  0
ENDTAB
  0
TABLE
  2
APPID
  5
9
330
0
100
AcDbSymbolTable
 70
     1
  0
APPID
  5
12
330
9
100
AcDbSymbolTableRecord
100
AcDbRegAppTableRecord
  2
ACAD
 70
     0
  0
ENDTAB
  0
TABLE
  2
DIMSTYLE
  5
A
330
0
100
AcDbSymbolTable
 70
     1
100
AcDbDimStyleTable
  0
DIMSTYLE
105
27
330
A
100
AcDbSymbolTableRecord
100
AcDbDimStyleTableRecord
  2
ISO-25
 70
     0
 41
2.5
 42
0.625
 43
3.75
 44
1.25
 73
     0
 74
     0
 77
     1
 78
     8
140
2.5
141
2.5
143
0.0393700787
147
0.625
171
     3
172
     1
178
     0
271
     2
272
     2
274
     3
278
    44
283
     0
284
     8
340
11
  0
ENDTAB
  0
TABLE
  2
BLOCK_RECORD
  5
1
330
0
100
AcDbSymbolTable
 70
     1
  0
BLOCK_RECORD
  5
1F
330
1
100
AcDbSymbolTableRecord
100
AcDbBlockTableRecord
  2
*Model_Space
340
22
  0
BLOCK_RECORD
  5
1B
330
1
100
AcDbSymbolTableRecord
100
AcDbBlockTableRecord
  2
*Paper_Space
340
1E
  0
BLOCK_RECORD
  5
23
330
1
100
AcDbSymbolTableRecord
100
AcDbBlockTableRecord
  2
*Paper_Space0
340
26
  0
ENDTAB
  0
ENDSEC
  0
SECTION
  2
BLOCKS
  0
BLOCK
  5
20
330
1F
100
AcDbEntity
  8
0
100
AcDbBlockBegin
  2
*Model_Space
 70
     0
 10
0.0
 20
0.0
 30
0.0
  3
*Model_Space
  1

  0
ENDBLK
  5
21
330
1F
100
AcDbEntity
  8
0
100
AcDbBlockEnd
  0
BLOCK
  5
1C
330
1B
100
AcDbEntity
 67
     1
  8
0
100
AcDbBlockBegin
  2
*Paper_Space
 70
     0
 10
0.0
 20
0.0
 30
0.0
  3
*Paper_Space
  1

  0
ENDBLK
  5
1D
330
1B
100
AcDbEntity
 67
     1
  8
0
100
AcDbBlockEnd
  0
BLOCK
  5
24
330
23
100
AcDbEntity
  8
0
100
AcDbBlockBegin
  2
*Paper_Space0
 70
     0
 10
0.0
 20
0.0
 30
0.0
  3
*Paper_Space0
  1

  0
ENDBLK
  5
25
330
23
100
AcDbEntity
  8
0
100
AcDbBlockEnd
  0
ENDSEC
  0
SECTION
  2
ENTITIES
  0
LINE
  5
7F
330
1F
100
AcDbEntity
  8
0
  6
Continuous
 62
     7
370
    25
100
AcDbLine
 10
6710.0187553361
 20
5204.9414801102
 30
0.0
 11
6713.0187553361
 21
5201.9414801102
 31
0.0
  0
LINE
  5
80
330
1F
100
AcDbEntity
  8
0
  6
Continuous
 62
     7
370
    25
100
AcDbLine
 10
6778.0187553361
 20
5201.9414801102
 30
0.0
 11
6781.0187553361
 21
5204.9414801102
 31
0.0
  0
LINE
  5
81
330
1F
100
AcDbEntity
  8
0
  6
Continuous
 62
     7
370
    25
100
AcDbLine
 10
6781.0187553361
 20
5204.9414801103
 30
0.0
 11
6781.0187553361
 21
5206.3757222915
 31
0.0
  0
LINE
  5
82
330
1F
100
AcDbEntity
  8
0
  6
Continuous
 62
     7
370
    25
100
AcDbLine
 10
6710.0187553361
 20
5206.9414801103
 30
0.0
 11
6710.0187553361
 21
5204.9414801103
 31
0.0
  0
LINE
  5
83
330
1F
100
AcDbEntity
  8
0
  6
Continuous
 62
     7
370
    25
100
AcDbLine
 10
6778.0187553361
 20
5196.3414801103
 30
0.0
 11
6778.0187553361
 21
5201.9414801103
 31
0.0
  0
LINE
  5
84
330
1F
100
AcDbEntity
  8
0
  6
Continuous
 62
     7
370
    25
100
AcDbLine
 10
6713.0187553361
 20
5201.9414801103
 30
0.0
 11
6713.0187553361
 21
5196.3414801103
 31
0.0
  0
LINE
  5
85
330
1F
100
AcDbEntity
  8
0
  6
Continuous
 62
     7
370
    25
100
AcDbLine
 10
6715.5187553361
 20
5145.9414801102
 30
0.0
 11
6715.5187553361
 21
5127.9414801102
 31
0.0
  0
LINE
  5
86
330
1F
100
AcDbEntity
  8
0
  6
Continuous
 62
     7
370
    25
100
AcDbLine
 10
6775.5187553361
 20
5127.9414801102
 30
0.0
 11
6775.5187553361
 21
5145.9414801102
 31
0.0
  0
LINE
  5
87
330
1F
100
AcDbEntity
  8
0
  6
Continuous
 62
     7
370
    25
100
AcDbLine
 10
6771.5187553361
 20
5167.3414801102
 30
0.0
 11
6771.5187553361
 21
5196.3414801103
 31
0.0
  0
LINE
  5
88
330
1F
100
AcDbEntity
  8
0
  6
Continuous
 62
     7
370
    25
100
AcDbLine
 10
6719.5187553361
 20
5196.3414801103
 30
0.0
 11
6719.5187553361
 21
5167.3414801102
 31
0.0
  0
LINE
  5
89
330
1F
100
AcDbEntity
  8
0
  6
Continuous
 62
     7
370
    25
100
AcDbLine
 10
6719.5187553361
 20
5167.3414801102
 30
0.0
 11
6723.5187553361
 21
5156.3414801102
 31
0.0
  0
LINE
  5
8A
330
1F
100
AcDbEntity
  8
0
  6
Continuous
 62
     7
370
    25
100
AcDbLine
 10
6767.5187553361
 20
5156.3414801102
 30
0.0
 11
6771.5187553361
 21
5167.3414801102
 31
0.0
  0
LINE
  5
8B
330
1F
100
AcDbEntity
  8
0
  6
Continuous
 62
     7
370
    25
100
AcDbLine
 10
6770.5187553361
 20
5026.9414801102
 30
0.0
 11
6770.5187553361
 21
5127.9414801102
 31
0.0
  0
LINE
  5
8C
330
1F
100
AcDbEntity
  8
0
  6
Continuous
 62
     7
370
    25
100
AcDbLine
 10
6720.5187553361
 20
5127.9414801102
 30
0.0
 11
6720.5187553361
 21
5026.9414801102
 31
0.0
  0
ARC
  5
8D
330
1F
100
AcDbEntity
  8
0
  6
Continuous
 62
     7
370
    25
100
AcDbCircle
 10
6745.5187553361
 20
5026.9414801102
 30
0.0
 40
25.0
100
AcDbArc
 50
285.8544224346
 51
0.0
  0
ARC
  5
8E
330
1F
100
AcDbEntity
  8
0
  6
Continuous
 62
     7
370
    25
100
AcDbCircle
 10
6745.5187553361
 20
5026.9414801102
 30
0.0
 40
25.00000000000091
100
AcDbArc
 50
180.0
 51
254.1731402155
  0
LINE
  5
8F
330
1F
100
AcDbEntity
  8
0
  6
Continuous
 62
     7
370
    25
100
AcDbLine
 10
6767.5187553361
 20
5145.9414801103
 30
0.0
 11
6767.5187553361
 21
5156.3414801102
 31
0.0
  0
LINE
  5
90
330
1F
100
AcDbEntity
  8
0
  6
Continuous
 62
     7
370
    25
100
AcDbLine
 10
6723.5187553361
 20
5156.3414801102
 30
0.0
 11
6723.5187553361
 21
5145.9414801103
 31
0.0
  0
LINE
  5
91
330
1F
100
AcDbEntity
  8
0
  6
Continuous
 62
     7
370
    25
100
AcDbLine
 10
6778.0187553361
 20
4983.8564714891
 30
0.0
 11
6778.0187553361
 21
4998.8564714891
 31
0.0
  0
LINE
  5
92
330
1F
100
AcDbEntity
  8
0
  6
Continuous
 62
     7
370
    25
100
AcDbLine
 10
6713.0187553361
 20
4998.8564714891
 30
0.0
 11
6713.0187553361
 21
4983.8564714891
 31
0.0
  0
ARC
  5
93
330
1F
100
AcDbEntity
  8
0
  6
Continuous
 62
     7
370
    25
100
AcDbCircle
 10
6745.5187553361
 20
5056.9574290752
 30
0.0
 40
79.9999999999999
100
AcDbArc
 50
246.0305176822
 51
293.9694823178
  0
LINE
  5
94
330
1F
100
AcDbEntity
  8
0
  6
Continuous
 62
     7
370
    25
100
AcDbLine
 10
6773.5187553361
 20
4998.8564714891
 30
0.0
 11
6773.5187553361
 21
5112.9414801102
 31
0.0
  0
LINE
  5
95
330
1F
100
AcDbEntity
  8
0
  6
Continuous
 62
     7
370
    25
100
AcDbLine
 10
6717.5187553361
 20
5112.9414801102
 30
0.0
 11
6717.5187553361
 21
4998.8564714891
 31
0.0
  0
LINE
  5
96
330
1F
100
AcDbEntity
  8
0
  6
Continuous
 62
     7
370
    25
100
AcDbLine
 10
6745.5187553361
 20
5204.9414801102
 30
0.0
 11
6710.0187553361
 21
5204.9414801102
 31
0.0
  0
LINE
  5
97
330
1F
100
AcDbEntity
  8
0
  6
Continuous
 62
     7
370
    25
100
AcDbLine
 10
6781.0187553361
 20
5204.9414801102
 30
0.0
 11
6745.5187553361
 21
5204.9414801102
 31
0.0
  0
LINE
  5
98
330
1F
100
AcDbEntity
  8
0
  6
Continuous
 62
     7
370
    25
100
AcDbLine
 10
6745.5187553361
 20
5201.9414801102
 30
0.0
 11
6713.0187553361
 21
5201.9414801102
 31
0.0
  0
LINE
  5
99
330
1F
100
AcDbEntity
  8
0
  6
Continuous
 62
     7
370
    25
100
AcDbLine
 10
6778.0187553361
 20
5201.9414801102
 30
0.0
 11
6745.5187553361
 21
5201.9414801102
 31
0.0
  0
LINE
  5
9A
330
1F
100
AcDbEntity
  8
0
  6
Continuous
 62
     7
370
    25
100
AcDbLine
 10
6710.4687553361
 20
5206.9414801102
 30
0.0
 11
6710.0187553361
 21
5206.9414801102
 31
0.0
  0
LINE
  5
9B
330
1F
100
AcDbEntity
  8
0
  6
Continuous
 62
     7
370
    25
100
AcDbLine
 10
6745.5187553361
 20
5196.3414801102
 30
0.0
 11
6713.0187553361
 21
5196.3414801102
 31
0.0
  0
LINE
  5
9C
330
1F
100
AcDbEntity
  8
0
  6
Continuous
 62
     7
370
    25
100
AcDbLine
 10
6778.0187553361
 20
5196.3414801102
 30
0.0
 11
6745.5187553361
 21
5196.3414801102
 31
0.0
  0
LINE
  5
9D
330
1F
100
AcDbEntity
  8
0
  6
Continuous
 62
     7
370
    25
100
AcDbLine
 10
6715.5187553361
 20
5127.9414801102
 30
0.0
 11
6775.5187553361
 21
5127.9414801102
 31
0.0
  0
LINE
  5
9E
330
1F
100
AcDbEntity
  8
0
  6
Continuous
 62
     7
370
    25
100
AcDbLine
 10
6715.5187553361
 20
5145.9414801102
 30
0.0
 11
6775.5187553361
 21
5145.9414801102
 31
0.0
  0
LINE
  5
9F
330
1F
100
AcDbEntity
  8
0
  6
Continuous
 62
     7
370
    25
100
AcDbLine
 10
6745.5187553361
 20
5167.3414801102
 30
0.0
 11
6719.5187553361
 21
5167.3414801102
 31
0.0
  0
LINE
  5
A0
330
1F
100
AcDbEntity
  8
0
  6
Continuous
 62
     7
370
    25
100
AcDbLine
 10
6771.5187553361
 20
5167.3414801102
 30
0.0
 11
6745.5187553361
 21
5167.3414801102
 31
0.0
  0
LINE
  5
A1
330
1F
100
AcDbEntity
  8
0
  6
Continuous
 62
     7
370
    25
100
AcDbLine
 10
6745.5187553361
 20
5156.3414801102
 30
0.0
 11
6723.5187553361
 21
5156.3414801102
 31
0.0
  0
LINE
  5
A2
330
1F
100
AcDbEntity
  8
0
  6
Continuous
 62
     7
370
    25
100
AcDbLine
 10
6767.5187553361
 20
5156.3414801102
 30
0.0
 11
6745.5187553361
 21
5156.3414801102
 31
0.0
  0
SPLINE
  5
A3
330
1F
100
AcDbEntity
  8
0
  6
Continuous
 62
     7
370
    25
100
AcDbSpline
210
0.0
220
0.0
230
1.0
 70
     8
 71
     3
 72
    12
 73
     8
 74
     0
 42
0.000000001
 43
0.00000001
 40
0.0
 40
0.0
 40
0.0
 40
0.0
 40
0.1821415231939959
 40
0.4472471257084187
 40
0.6771288461121913
 40
0.9139212708163933
 40
1.0
 40
1.0
 40
1.0
 40
1.0
 10
6738.71192878205
 20
5002.940443252741
 30
0.0
 10
6739.507440304005
 20
5002.719477403385
 30
0.0
 10
6741.460812799327
 20
5002.176897439896
 30
0.0
 10
6744.627098041366
 20
5001.900142527937
 30
0.0
 10
6748.029057139998
 20
5002.023829462295
 30
0.0
 10
6750.583266741612
 20
5002.380488782183
 30
0.0
 10
6751.966955087381
 20
5002.82063678123
 30
0.0
 10
6752.335851884001
 20
5002.937981982108
 30
0.0
  0
LINE
  5
A4
330
1F
100
AcDbEntity
  8
0
  6
Continuous
 62
     7
370
    25
100
AcDbLine
 10
6745.5187553361
 20
4983.8564714891
 30
0.0
 11
6713.0187553361
 21
4983.8564714891
 31
0.0
  0
LINE
  5
A5
330
1F
100
AcDbEntity
  8
0
  6
Continuous
 62
     7
370
    25
100
AcDbLine
 10
6778.0187553361
 20
4983.8564714891
 30
0.0
 11
6745.5187553361
 21
4983.8564714891
 31
0.0
  0
LINE
  5
A6
330
1F
100
AcDbEntity
  8
0
  6
Continuous
 62
     7
370
    25
100
AcDbLine
 10
6745.5187553361
 20
4998.8564714891
 30
0.0
 11
6713.0187553361
 21
4998.8564714891
 31
0.0
  0
LINE
  5
A7
330
1F
100
AcDbEntity
  8
0
  6
Continuous
 62
     7
370
    25
100
AcDbLine
 10
6778.0187553361
 20
4998.8564714891
 30
0.0
 11
6745.5187553361
 21
4998.8564714891
 31
0.0
  0
ELLIPSE
  5
A8
330
1F
100
AcDbEntity
  8
0
  6
Continuous
 62
     7
370
    25
100
AcDbEllipse
 10
6745.5187553361
 20
5112.9414801102
 30
0.0
 11
28.0
 21
0.0
 31
0.0
210
0.0
220
0.0
230
1.0
 40
0.8928571429
 41
0.0
 42
0.0752180938701319
  0
ELLIPSE
  5
A9
330
1F
100
AcDbEntity
  8
0
  6
Continuous
 62
     7
370
    25
100
AcDbEllipse
 10
6745.5187553361
 20
5112.9414801102
 30
0.0
 11
28.0
 21
0.0
 31
0.0
210
0.0
220
0.0
230
1.0
 40
0.8928571429
 41
3.066374559719664
 42
3.141592653589793
  0
ELLIPSE
  5
AA
330
1F
100
AcDbEntity
  8
0
  6
Continuous
 62
     7
370
    25
100
AcDbEllipse
 10
6745.5187553361
 20
5116.6988394231
 30
0.0
 11
28.0
 21
0.0
 31
0.0
210
0.0
220
0.0
230
1.0
 40
0.8928571429
 41
3.216810747459977
 42
3.544057385154796
  0
ELLIPSE
  5
AB
330
1F
100
AcDbEntity
  8
0
  6
Continuous
 62
     7
370
    25
100
AcDbEllipse
 10
6745.5187553361
 20
5116.6988394231
 30
0.0
 11
28.0
 21
0.0
 31
0.0
210
0.0
220
0.0
230
1.0
 40
0.8928571429
 41
5.880720575614613
 42
6.207967213309431
  0
ARC
  5
AC
330
1F
100
AcDbEntity
  8
0
  6
Continuous
 62
     7
370
    25
100
AcDbCircle
 10
6719.0970509734
 20
5114.9328805461
 30
0.0
 40
1.503356138307117
100
AcDbArc
 50
175.6999598631
 51
184.300040137
  0
ARC
  5
AD
330
1F
100
AcDbEntity
  8
0
  6
Continuous
 62
     7
370
    25
100
AcDbCircle
 10
6771.9404596995
 20
5114.9328805461
 30
0.0
 40
1.503356137634172
100
AcDbArc
 50
355.6999598611
 51
4.3000401389
  0
ARC
  5
AE
330
1F
100
AcDbEntity
  8
0
  6
Continuous
 62
     7
370
    25
100
AcDbCircle
 10
6745.5187553361
 20
5112.9414801102
 30
0.0
 40
28.00000000000065
100
AcDbArc
 50
153.2344994232
 51
175.6903206782
  0
ARC
  5
AF
330
1F
100
AcDbEntity
  8
0
  6
Continuous
 62
     7
370
    25
100
AcDbCircle
 10
6745.5187553361
 20
5112.9414801102
 30
0.0
 40
27.99999999999984
100
AcDbArc
 50
4.3096793218
 51
26.7655005768
  0
ARC
  5
B0
330
1F
100
AcDbEntity
  8
0
  6
Continuous
 62
     7
370
    25
100
AcDbCircle
 10
6745.5187553361
 20
5112.9414801102
 30
0.0
 40
28.00000000000019
100
AcDbArc
 50
175.6903206782
 51
180.0
  0
ARC
  5
B1
330
1F
100
AcDbEntity
  8
0
  6
Continuous
 62
     7
370
    25
100
AcDbCircle
 10
6745.5187553361
 20
5112.9414801102
 30
0.0
 40
28.0
100
AcDbArc
 50
0.0
 51
4.3096793218
  0
ARC
  5
B2
330
1F
100
AcDbEntity
  8
0
  6
Continuous
 62
     7
370
    25
100
AcDbCircle
 10
6745.5187553361
 20
5112.9414801102
 30
0.0
 40
33.00000000000091
100
AcDbArc
 50
152.9643082106
 51
180.0
  0
ARC
  5
B3
330
1F
100
AcDbEntity
  8
0
  6
Continuous
 62
     7
370
    25
100
AcDbCircle
 10
6745.5187553361
 20
5112.9414801102
 30
0.0
 40
33.0000000000006
100
AcDbArc
 50
328.0472535997
 51
27.0356917894
  0
ARC
  5
B4
330
1F
100
AcDbEntity
  8
0
  6
Continuous
 62
     7
370
    25
100
AcDbCircle
 10
6745.5187553361
 20
5112.9414801102
 30
0.0
 40
33.00000000000091
100
AcDbArc
 50
180.0
 51
211.9527464003
  0
LINE
  5
B5
330
1F
100
AcDbEntity
  8
0
  6
Continuous
 62
     7
370
    25
100
AcDbLine
 10
6900.5187553361
 20
5410.4414801102
 30
0.0
 11
5647.5187553361
 21
5410.4414801102
 31
0.0
  0
LINE
  5
B6
330
1F
100
AcDbEntity
  8
0
  6
Continuous
 62
     7
370
    25
100
AcDbLine
 10
6900.5187553361
 20
5390.4414801102
 30
0.0
 11
6900.5187553361
 21
5410.4414801102
 31
0.0
  0
LINE
  5
B7
330
1F
100
AcDbEntity
  8
0
  6
Continuous
 62
     7
370
    25
100
AcDbLine
 10
6900.5187553361
 20
5390.4414801102
 30
0.0
 11
5647.5187553361
 21
5390.4414801102
 31
0.0
  0
LINE
  5
B8
330
1F
100
AcDbEntity
  8
0
  6
Continuous
 62
     7
370
    25
100
AcDbLine
 10
5647.5187553361
 20
5390.4414801102
 30
0.0
 11
5647.5187553361
 21
5410.4414801102
 31
0.0
  0
LINE
  5
B9
330
1F
100
AcDbEntity
  8
0
  6
Continuous
 62
     7
370
    25
100
AcDbLine
 10
6897.5187553361
 20
5390.4414801102
 30
0.0
 11
6897.5187553361
 21
5318.4414801102
 31
0.0
  0
LINE
  5
BA
330
1F
100
AcDbEntity
  8
0
  6
Continuous
 62
     7
370
    25
100
AcDbLine
 10
6897.5187553361
 20
5318.4414801102
 30
0.0
 11
6897.5187553361
 21
5205.4414801102
 31
0.0
  0
LINE
  5
BB
330
1F
100
AcDbEntity
  8
0
  6
Continuous
 62
     7
370
    25
100
AcDbLine
 10
6897.5187553361
 20
5205.4414801102
 30
0.0
 11
5650.5187553361
 21
5215.4414801102
 31
0.0
  0
LINE
  5
BC
330
1F
100
AcDbEntity
  8
0
  6
Continuous
 62
     7
370
    25
100
AcDbLine
 10
5650.5187553361
 20
5390.4414801102
 30
0.0
 11
5650.5187553361
 21
5318.4414801102
 31
0.0
  0
LINE
  5
BD
330
1F
100
AcDbEntity
  8
0
  6
Continuous
 62
     7
370
    25
100
AcDbLine
 10
6900.5187553361
 20
5318.4414801102
 30
0.0
 11
6897.5187553361
 21
5318.4414801102
 31
0.0
  0
LINE
  5
BE
330
1F
100
AcDbEntity
  8
0
  6
Continuous
 62
     7
370
    25
100
AcDbLine
 10
6900.5187553361
 20
5390.4414801102
 30
0.0
 11
6900.5187553361
 21
5318.4414801102
 31
0.0
  0
LINE
  5
BF
330
1F
100
AcDbEntity
  8
0
  6
Continuous
 62
     7
370
    25
100
AcDbLine
 10
5650.5187553361
 20
5318.4414801102
 30
0.0
 11
5647.5187553361
 21
5318.4414801102
 31
0.0
  0
LINE
  5
C0
330
1F
100
AcDbEntity
  8
0
  6
Continuous
 62
     7
370
    25
100
AcDbLine
 10
5647.5187553361
 20
5390.4414801102
 30
0.0
 11
5647.5187553361
 21
5318.4414801102
 31
0.0
  0
LINE
  5
C1
330
1F
100
AcDbEntity
  8
0
  6
Continuous
 62
     7
370
    25
100
AcDbLine
 10
5650.5187553361
 20
5205.4414801102
 30
0.0
 11
5647.5187553361
 21
5205.4414801102
 31
0.0
  0
LINE
  5
C2
330
1F
100
AcDbEntity
  8
0
  6
Continuous
 62
     7
370
    25
100
AcDbLine
 10
5650.5187553361
 20
5318.4414801102
 30
0.0
 11
5650.5187553361
 21
5205.4414801102
 31
0.0
  0
LINE
  5
C3
330
1F
100
AcDbEntity
  8
0
  6
Continuous
 62
     7
370
    25
100
AcDbLine
 10
5647.5187553361
 20
5318.4414801102
 30
0.0
 11
5647.5187553361
 21
5205.4414801102
 31
0.0
  0
LINE
  5
C4
330
1F
100
AcDbEntity
  8
0
  6
Continuous
 62
     7
370
    25
100
AcDbLine
 10
6900.5187553361
 20
5205.4414801102
 30
0.0
 11
6897.5187553361
 21
5205.4414801102
 31
0.0
  0
LINE
  5
C5
330
1F
100
AcDbEntity
  8
0
  6
Continuous
 62
     7
370
    25
100
AcDbLine
 10
6900.5187553361
 20
5318.4414801102
 30
0.0
 11
6900.5187553361
 21
5205.4414801102
 31
0.0
  0
LINE
  5
C6
330
1F
100
AcDbEntity
  8
0
  6
Continuous
 62
     7
370
    25
100
AcDbLine
 10
5677.5187553361
 20
5215.2249604631
 30
0.0
 11
5677.5187553361
 21
5205.4414801102
 31
0.0
  0
LINE
  5
C7
330
1F
100
AcDbEntity
  8
0
  6
Continuous
 62
     7
370
    25
100
AcDbLine
 10
5677.5187553361
 20
5205.4414801102
 30
0.0
 11
5650.5187553361
 21
5205.4414801102
 31
0.0
  0
LINE
  5
C8
330
1F
100
AcDbEntity
  8
0
  6
Continuous
 62
     7
370
    25
100
AcDbLine
 10
5647.5187553361
 20
5450.4414801102
 30
0.0
 11
6900.5187553361
 21
5450.4414801102
 31
0.0
  0
LINE
  5
C9
330
1F
100
AcDbEntity
  8
0
  6
Continuous
 62
     7
370
    25
100
AcDbLine
 10
6900.5187553361
 20
5450.4414801102
 30
0.0
 11
6900.5187553361
 21
5410.4414801102
 31
0.0
  0
LINE
  5
CA
330
1F
100
AcDbEntity
  8
0
  6
Continuous
 62
     7
370
    25
100
AcDbLine
 10
5647.5187553361
 20
5410.4414801102
 30
0.0
 11
5647.5187553361
 21
5450.4414801102
 31
0.0
  0
LINE
  5
CB
330
1F
100
AcDbEntity
  8
0
  6
Continuous
 62
     8
370
    25
100
AcDbLine
 10
6770.5187553361
 20
5026.9414801102
 30
0.0
 11
6720.5187553361
 21
5026.9414801102
 31
0.0
  0
SPLINE
  5
CC
330
1F
100
AcDbEntity
  8
0
  6
Continuous
 62
     8
370
    25
100
AcDbSpline
210
0.0
220
0.0
230
1.0
 70
     8
 71
     3
 72
    22
 73
    18
 74
     0
 42
0.000000001
 43
0.00000001
 40
0.0
 40
0.0
 40
0.0
 40
0.0
 40
0.0662074388415907
 40
0.1423970852044447
 40
0.2072674839359253
 40
0.2736193630048284
 40
0.3330229277733658
 40
0.3940133441540518
 40
0.4535035283567317
 40
0.5149681726561693
 40
0.5812632413564061
 40
0.6502913623957404
 40
0.7269344705863864
 40
0.8067774655418719
 40
0.886064574432787
 40
0.9676769643543897
 40
1.0
 40
1.0
 40
1.0
 40
1.0
 10
6765.676624369303
 20
5012.383663973352
 30
0.0
 10
6765.217223932363
 20
5011.37016956507
 30
0.0
 10
6764.229158477687
 20
5009.190374482594
 30
0.0
 10
6762.226636588117
 20
5006.415092037088
 30
0.0
 10
6759.822219699863
 20
5003.975026655294
 30
0.0
 10
6757.227223686856
 20
5002.093330858365
 30
0.0
 10
6754.361595669444
 20
5000.631574946899
 30
0.0
 10
6751.344028424482
 20
4999.616495282594
 30
0.0
 10
6748.1081993036
 20
4999.024139381226
 30
0.0
 10
6744.687018874904
 20
4998.887407943899
 30
0.0
 10
6741.119453055383
 20
4999.276083736464
 30
0.0
 10
6737.462711253537
 20
5000.280270882106
 30
0.0
 10
6733.931710745938
 20
5001.966468732059
 30
0.0
 10
6730.747000638261
 20
5004.328362704308
 30
0.0
 10
6728.105550488513
 20
5007.291121739367
 30
0.0
 10
6726.35768731605
 20
5009.972523769793
 30
0.0
 10
6725.650680370485
 20
5011.770695013557
 30
0.0
 10
6725.450105258842
 20
5012.280829178763
 30
0.0
  0
LINE
  5
CD
330
1F
100
AcDbEntity
  8
0
  6
Continuous
 62
     8
370
    25
100
AcDbLine
 10
6720.5187553361
 20
5105.7443936277
 30
0.0
 11
6719.7560005388
 21
5106.9066562912
 31
0.0
  0
LINE
  5
CE
330
1F
100
AcDbEntity
  8
0
  6
Continuous
 62
     8
370
    25
100
AcDbLine
 10
6771.2815101334
 20
5106.9066562912
 30
0.0
 11
6770.5187553361
 21
5105.8635071035
 31
0.0
  0
ARC
  5
CF
330
1F
100
AcDbEntity
  8
0
  6
Continuous
 62
     8
370
    25
100
AcDbCircle
 10
6768.5666064411
 20
5105.8372464074
 30
0.0
 40
2.917934125062452
100
AcDbArc
 50
21.4996506732
 51
48.0087224011
  0
ARC
  5
D0
330
1F
100
AcDbEntity
  8
0
  6
Continuous
 62
     8
370
    25
100
AcDbCircle
 10
6722.4709042311
 20
5105.8372464073
 30
0.0
 40
2.91793412509098
100
AcDbArc
 50
131.9912775991
 51
158.5003493267
  0
ARC
  5
D1
330
1F
100
AcDbEntity
  8
0
  6
Continuous
 62
     8
370
    25
100
AcDbCircle
 10
6720.3494741709
 20
5114.098710764
 30
0.0
 40
2.84455661983624
100
AcDbArc
 50
86.5882801223
 51
165.3079095604
  0
ARC
  5
D2
330
1F
100
AcDbEntity
  8
0
  6
Continuous
 62
     8
370
    25
100
AcDbCircle
 10
6770.6880365013
 20
5114.098710764
 30
0.0
 40
2.844556619832825
100
AcDbArc
 50
14.6920904395
 51
93.4117198778
  0
ARC
  5
D3
330
1F
100
AcDbEntity
  8
0
  6
Continuous
 62
     8
370
    25
100
AcDbCircle
 10
6720.1151186926
 20
5114.3682625588
 30
0.0
 40
2.606730429038448
100
AcDbArc
 50
81.0922494093
 51
164.9392964514
  0
ARC
  5
D4
330
1F
100
AcDbEntity
  8
0
  6
Continuous
 62
     8
370
    25
100
AcDbCircle
 10
6770.9223919796
 20
5114.3682625588
 30
0.0
 40
2.606730429036792
100
AcDbArc
 50
15.0607035486
 51
98.9077505907
  0
LINE
  5
D5
330
1F
100
AcDbEntity
  8
0
  6
Continuous
 62
     7
370
    25
100
AcDbLine
 10
7465.8765183096
 20
5204.9414801102
 30
0.0
 11
7468.8765183096
 21
5201.9414801102
 31
0.0
  0
LINE
  5
D6
330
1F
100
AcDbEntity
  8
0
  6
Continuous
 62
     7
370
    25
100
AcDbLine
 10
7533.8765183096
 20
5201.9414801102
 30
0.0
 11
7536.8765183096
 21
5204.9414801102
 31
0.0
  0
LINE
  5
D7
330
1F
100
AcDbEntity
  8
0
  6
Continuous
 62
     7
370
    25
100
AcDbLine
 10
7536.8765183096
 20
5204.9414801103
 30
0.0
 11
7536.8765183096
 21
5205.4414801102
 31
0.0
  0
LINE
  5
D8
330
1F
100
AcDbEntity
  8
0
  6
Continuous
 62
     7
370
    25
100
AcDbLine
 10
7465.8765183096
 20
5205.4414801102
 30
0.0
 11
7465.8765183096
 21
5204.9414801103
 31
0.0
  0
LINE
  5
D9
330
1F
100
AcDbEntity
  8
0
  6
Continuous
 62
     7
370
    25
100
AcDbLine
 10
7421.3765183096
 20
5079.9414801102
 30
0.0
 11
7441.3765183096
 21
5079.9414801102
 31
0.0
  0
LINE
  5
DA
330
1F
100
AcDbEntity
  8
0
  6
Continuous
 62
     7
370
    25
100
AcDbLine
 10
7441.3765183096
 20
5145.9414801102
 30
0.0
 11
7421.3765183096
 21
5145.9414801102
 31
0.0
  0
LINE
  5
DB
330
1F
100
AcDbEntity
  8
0
  6
Continuous
 62
     7
370
    25
100
AcDbLine
 10
7503.8765183096
 20
4983.8564714891
 30
0.0
 11
7503.8765183096
 21
4998.8564714891
 31
0.0
  0
LINE
  5
DC
330
1F
100
AcDbEntity
  8
0
  6
Continuous
 62
     7
370
    25
100
AcDbLine
 10
7438.8765183096
 20
4998.8564714891
 30
0.0
 11
7438.8765183096
 21
4983.8564714891
 31
0.0
  0
ARC
  5
DD
330
1F
100
AcDbEntity
  8
0
  6
Continuous
 62
     7
370
    25
100
AcDbCircle
 10
7471.3765183096
 20
5056.9574290752
 30
0.0
 40
80.00000000000074
100
AcDbArc
 50
246.0305176822
 51
293.9694823178
  0
LINE
  5
DE
330
1F
100
AcDbEntity
  8
0
  6
Continuous
 62
     7
370
    25
100
AcDbLine
 10
7533.8765183096
 20
5196.3414801103
 30
0.0
 11
7533.8765183096
 21
5201.9414801103
 31
0.0
  0
LINE
  5
DF
330
1F
100
AcDbEntity
  8
0
  6
Continuous
 62
     7
370
    25
100
AcDbLine
 10
7468.8765183096
 20
5201.9414801103
 30
0.0
 11
7468.8765183096
 21
5196.3414801103
 31
0.0
  0
LINE
  5
E0
330
1F
100
AcDbEntity
  8
0
  6
Continuous
 62
     7
370
    25
100
AcDbLine
 10
7471.3765183096
 20
5145.9414801102
 30
0.0
 11
7471.3765183096
 21
5127.9414801102
 31
0.0
  0
LINE
  5
E1
330
1F
100
AcDbEntity
  8
0
  6
Continuous
 62
     7
370
    25
100
AcDbLine
 10
7531.3765183096
 20
5127.9414801102
 30
0.0
 11
7531.3765183096
 21
5145.9414801102
 31
0.0
  0
LINE
  5
E2
330
1F
100
AcDbEntity
  8
0
  6
Continuous
 62
     7
370
    25
100
AcDbLine
 10
7450.1338776225
 20
5140.9414801102
 30
0.0
 11
7441.3765183096
 21
5140.9414801102
 31
0.0
  0
LINE
  5
E3
330
1F
100
AcDbEntity
  8
0
  6
Continuous
 62
     7
370
    25
100
AcDbLine
 10
7499.3765183096
 20
4998.8564714891
 30
0.0
 11
7499.3765183096
 21
4999.0003572619
 31
0.0
  0
LINE
  5
E4
330
1F
100
AcDbEntity
  8
0
  6
Continuous
 62
     7
370
    25
100
AcDbLine
 10
7443.3765183096
 20
5081.9414801102
 30
0.0
 11
7443.3765183096
 21
4998.8564714891
 31
0.0
  0
ARC
  5
E5
330
1F
100
AcDbEntity
  8
0
  6
Continuous
 62
     7
370
    25
100
AcDbCircle
 10
7440.3765183096
 20
5081.9414801102
 30
0.0
 40
2.999999999999913
100
AcDbArc
 50
1.9214190688
 51
70.7560218485
  0
ARC
  5
E6
330
1F
100
AcDbEntity
  8
0
  6
Continuous
 62
     7
370
    25
100
AcDbCircle
 10
7450.1338776225
 20
5137.9414801102
 30
0.0
 40
2.999999999999864
100
AcDbArc
 50
45.0
 51
88.5698539102
  0
LINE
  5
E7
330
1F
100
AcDbEntity
  8
0
  6
Continuous
 62
     7
370
    25
100
AcDbLine
 10
7475.3765183096
 20
5167.3414801102
 30
0.0
 11
7479.3765183096
 21
5156.3414801102
 31
0.0
  0
LINE
  5
E8
330
1F
100
AcDbEntity
  8
0
  6
Continuous
 62
     7
370
    25
100
AcDbLine
 10
7523.3765183096
 20
5156.3414801102
 30
0.0
 11
7527.3765183096
 21
5167.3414801102
 31
0.0
  0
LINE
  5
E9
330
1F
100
AcDbEntity
  8
0
  6
Continuous
 62
     7
370
    25
100
AcDbLine
 10
7527.3765183096
 20
5167.3414801103
 30
0.0
 11
7527.3765183096
 21
5196.3414801103
 31
0.0
  0
LINE
  5
EA
330
1F
100
AcDbEntity
  8
0
  6
Continuous
 62
     7
370
    25
100
AcDbLine
 10
7475.3765183096
 20
5196.3414801103
 30
0.0
 11
7475.3765183096
 21
5167.3414801103
 31
0.0
  0
LINE
  5
EB
330
1F
100
AcDbEntity
  8
0
  6
Continuous
 62
     7
370
    25
100
AcDbLine
 10
7526.3765183096
 20
5026.9414801102
 30
0.0
 11
7526.3765183096
 21
5127.9414801103
 31
0.0
  0
LINE
  5
EC
330
1F
100
AcDbEntity
  8
0
  6
Continuous
 62
     7
370
    25
100
AcDbLine
 10
7476.3765183096
 20
5127.9414801103
 30
0.0
 11
7476.3765183096
 21
5123.1841207974
 31
0.0
  0
ARC
  5
ED
330
1F
100
AcDbEntity
  8
0
  6
Continuous
 62
     7
370
    25
100
AcDbCircle
 10
7501.3765183096
 20
5026.9414801102
 30
0.0
 40
25.0000000000011
100
AcDbArc
 50
271.980862399
 51
0.0
  0
SPLINE
  5
EE
330
1F
100
AcDbEntity
  8
0
  6
Continuous
 62
     7
370
    25
100
AcDbSpline
210
0.0
220
0.0
230
1.0
 70
     8
 71
     3
 72
    13
 73
     9
 74
     0
 42
0.000000001
 43
0.00000001
 40
0.0
 40
0.0
 40
0.0
 40
0.0
 40
0.1834125473288205
 40
0.3798283381614042
 40
0.5844100304760813
 40
0.786216077141769
 40
0.9559617535887087
 40
1.0
 40
1.0
 40
1.0
 40
1.0
 10
7499.378318164095
 20
4998.994733911311
 30
0.0
 10
7499.403376807446
 20
4999.271862647838
 30
0.0
 10
7499.455270655492
 20
4999.845767481422
 30
0.0
 10
7499.849047888347
 20
5000.654203821886
 30
0.0
 10
7500.467796079496
 20
5001.338946005361
 30
0.0
 10
7501.23371780266
 20
5001.766208102666
 30
0.0
 10
7501.847735645715
 20
5001.948121237157
 30
0.0
 10
7502.17037770057
 20
5001.941785055658
 30
0.0
 10
7502.236840089905
 20
5001.940479839071
 30
0.0
  0
ARC
  5
EF
330
1F
100
AcDbEntity
  8
0
  6
Continuous
 62
     7
370
    25
100
AcDbCircle
 10
7473.3765183096
 20
5123.1841207974
 30
0.0
 40
3.000000000000218
100
AcDbArc
 50
225.0
 51
358.8104357084
  0
LINE
  5
F0
330
1F
100
AcDbEntity
  8
0
  6
Continuous
 62
     7
370
    25
100
AcDbLine
 10
7523.3765183096
 20
5145.9414801103
 30
0.0
 11
7523.3765183096
 21
5156.3414801103
 31
0.0
  0
LINE
  5
F1
330
1F
100
AcDbEntity
  8
0
  6
Continuous
 62
     7
370
    25
100
AcDbLine
 10
7479.3765183096
 20
5156.3414801103
 30
0.0
 11
7479.3765183096
 21
5145.9414801103
 31
0.0
  0
LINE
  5
F2
330
1F
100
AcDbEntity
  8
0
  6
Continuous
 62
     7
370
    25
100
AcDbLine
 10
7536.8765183096
 20
5204.9414801102
 30
0.0
 11
7465.8765183096
 21
5204.9414801102
 31
0.0
  0
LINE
  5
F3
330
1F
100
AcDbEntity
  8
0
  6
Continuous
 62
     7
370
    25
100
AcDbLine
 10
7533.8765183096
 20
5201.9414801102
 30
0.0
 11
7468.8765183096
 21
5201.9414801102
 31
0.0
  0
LINE
  5
F4
330
1F
100
AcDbEntity
  8
0
  6
Continuous
 62
     7
370
    25
100
AcDbLine
 10
7421.3765183096
 20
5112.9414801102
 30
0.0
 11
7421.3765183096
 21
5145.9414801102
 31
0.0
  0
LINE
  5
F5
330
1F
100
AcDbEntity
  8
0
  6
Continuous
 62
     7
370
    25
100
AcDbLine
 10
7421.3765183096
 20
5079.9414801102
 30
0.0
 11
7421.3765183096
 21
5112.9414801102
 31
0.0
  0
LINE
  5
F6
330
1F
100
AcDbEntity
  8
0
  6
Continuous
 62
     7
370
    25
100
AcDbLine
 10
7441.3765183096
 20
5112.9414801102
 30
0.0
 11
7441.3765183096
 21
5145.9414801102
 31
0.0
  0
LINE
  5
F7
330
1F
100
AcDbEntity
  8
0
  6
Continuous
 62
     7
370
    25
100
AcDbLine
 10
7441.3765183096
 20
5079.9414801102
 30
0.0
 11
7441.3765183096
 21
5112.9414801102
 31
0.0
  0
LINE
  5
F8
330
1F
100
AcDbEntity
  8
0
  6
Continuous
 62
     7
370
    25
100
AcDbLine
 10
7503.8765183096
 20
4983.8564714891
 30
0.0
 11
7438.8765183096
 21
4983.8564714891
 31
0.0
  0
LINE
  5
F9
330
1F
100
AcDbEntity
  8
0
  6
Continuous
 62
     7
370
    25
100
AcDbLine
 10
7503.8765183096
 20
4998.8564714891
 30
0.0
 11
7438.8765183096
 21
4998.8564714891
 31
0.0
  0
LINE
  5
FA
330
1F
100
AcDbEntity
  8
0
  6
Continuous
 62
     7
370
    25
100
AcDbLine
 10
7533.8765183096
 20
5196.3414801102
 30
0.0
 11
7468.8765183096
 21
5196.3414801102
 31
0.0
  0
LINE
  5
FB
330
1F
100
AcDbEntity
  8
0
  6
Continuous
 62
     7
370
    25
100
AcDbLine
 10
7471.3765183096
 20
5127.9414801102
 30
0.0
 11
7531.3765183096
 21
5127.9414801102
 31
0.0
  0
LINE
  5
FC
330
1F
100
AcDbEntity
  8
0
  6
Continuous
 62
     7
370
    25
100
AcDbLine
 10
7471.3765183096
 20
5145.9414801102
 30
0.0
 11
7531.3765183096
 21
5145.9414801102
 31
0.0
  0
LINE
  5
FD
330
1F
100
AcDbEntity
  8
0
  6
Continuous
 62
     7
370
    25
100
AcDbLine
 10
7471.3765183096
 20
5112.9414801102
 30
0.0
 11
7473.255197966
 21
5115.0456013255
 31
0.0
  0
LINE
  5
FE
330
1F
100
AcDbEntity
  8
0
  6
Continuous
 62
     7
370
    25
100
AcDbLine
 10
7441.3765183096
 20
5085.8447059167
 30
0.0
 11
7471.3765183096
 21
5112.9414801102
 31
0.0
  0
LINE
  5
FF
330
1F
100
AcDbEntity
  8
0
  6
Continuous
 62
     7
370
    25
100
AcDbLine
 10
7473.4806395248
 20
5114.8201597667
 30
0.0
 11
7471.3765183096
 21
5112.9414801102
 31
0.0
  0
LINE
  5
100
330
1F
100
AcDbEntity
  8
0
  6
Continuous
 62
     7
370
    25
100
AcDbLine
 10
7482.3437634173
 20
5106.9066562912
 30
0.0
 11
7473.4806395248
 21
5114.8201597667
 31
0.0
  0
SPLINE
  5
101
330
1F
100
AcDbEntity
  8
0
  6
Continuous
 62
     7
370
    25
100
AcDbSpline
210
0.0
220
0.0
230
1.0
 70
     8
 71
     3
 72
    10
 73
     6
 74
     0
 42
0.000000001
 43
0.00000001
 40
0.0
 40
0.0
 40
0.0
 40
0.0
 40
0.2767262145199648
 40
0.6090796950219497
 40
1.0
 40
1.0
 40
1.0
 40
1.0
 10
7487.589421535379
 20
5104.837263136137
 30
0.0
 10
7487.087483528207
 20
5104.797232532356
 30
0.0
 10
7485.98270836674
 20
5104.709124407203
 30
0.0
 10
7484.140352788892
 20
5105.479705496068
 30
0.0
 10
7482.974105357806
 20
5106.406003806329
 30
0.0
 10
7482.343763417324
 20
5106.906656291207
 30
0.0
  0
LINE
  5
102
330
1F
100
AcDbEntity
  8
0
  6
Continuous
 62
     7
370
    25
100
AcDbLine
 10
7487.5894215354
 20
5026.9414801102
 30
0.0
 11
7487.5894215354
 21
5104.8372631361
 31
0.0
  0
ARC
  5
103
330
1F
100
AcDbEntity
  8
0
  6
Continuous
 62
     7
370
    25
100
AcDbCircle
 10
7433.5355856181
 20
5075.1005474188
 30
0.0
 40
56.33165128659216
100
AcDbArc
 50
44.837860171
 51
45.162139829
  0
ARC
  5
104
330
1F
100
AcDbEntity
  8
0
  6
Continuous
 62
     7
370
    25
100
AcDbCircle
 10
7483.0827753541
 20
5106.1841372948
 30
0.0
 40
13.23279343469942
100
AcDbArc
 50
125.6167439692
 51
137.9592202317
  0
ARC
  5
105
330
1F
100
AcDbEntity
  8
0
  6
Continuous
 62
     7
370
    25
100
AcDbCircle
 10
7464.6191754946
 20
5124.6477371543
 30
0.0
 40
13.23279343400329
100
AcDbArc
 50
312.0407797681
 51
324.3832560313
  0
LINE
  5
106
330
1F
100
AcDbEntity
  8
0
  6
Continuous
 62
     7
370
    25
100
AcDbLine
 10
7452.2551979695
 20
5140.0628004503
 30
0.0
 11
7475.3765183096
 21
5116.9414801102
 31
0.0
  0
LINE
  5
107
330
1F
100
AcDbEntity
  8
0
  6
Continuous
 62
     7
370
    25
100
AcDbLine
 10
7475.3765183096
 20
5116.9414801102
 30
0.0
 11
7483.2900217851
 21
5109.0279766348
 31
0.0
  0
LWPOLYLINE
  5
108
330
1F
100
AcDbEntity
  8
0
  6
Continuous
 62
     7
370
    25
100
AcDbPolyline
 90
        9
 70
   128
 43
0.0
 10
7482.3437634173
 20
5106.9066562912
 10
7482.6286227508
 20
5107.261149012
 10
7482.8755945088
 20
5107.6064420111
 10
7483.0782693315
 20
5107.9335743162
 10
7483.2313874439
 20
5108.2340562574
 10
7483.3309751564
 20
5108.5000897896
 10
7483.3744479893
 20
5108.7247708657
 10
7483.3606777447
 20
5108.902268609
 10
7483.2900217851
 20
5109.0279766348
  0
SPLINE
  5
109
330
1F
100
AcDbEntity
  8
0
  6
Continuous
 62
     7
370
    25
100
AcDbSpline
210
0.0
220
0.0
230
1.0
 70
     8
 71
     3
 72
    11
 73
     7
 74
     0
 42
0.000000001
 43
0.00000001
 40
0.0
 40
0.0
 40
0.0
 40
0.0
 40
0.4418022567785225
 40
0.774290391758291
 40
0.9215398729471656
 40
1.0
 40
1.0
 40
1.0
 40
1.0
 10
7483.290021785054
 20
5109.027976634766
 30
0.0
 10
7483.745870291391
 20
5108.597945924799
 30
0.0
 10
7484.544777750868
 20
5107.844286019763
 30
0.0
 10
7485.640236251847
 20
5107.136629444485
 30
0.0
 10
7486.366194537094
 20
5106.873143075384
 30
0.0
 10
7486.654251595322
 20
5106.871351594626
 30
0.0
 10
7486.754384653736
 20
5106.870728848394
 30
0.0
  0
ARC
  5
10A
330
1F
100
AcDbEntity
  8
0
  6
Continuous
 62
     7
370
    25
100
AcDbCircle
 10
7482.7925371073
 20
5104.0556218689
 30
0.0
 40
4.860150541591441
100
AcDbArc
 50
9.2548756584
 51
35.3958533234
  0
LINE
  5
10B
330
1F
100
AcDbEntity
  8
0
  6
Continuous
 62
     7
370
    25
100
AcDbLine
 10
7527.3765183096
 20
5167.3414801102
 30
0.0
 11
7475.3765183096
 21
5167.3414801102
 31
0.0
  0
LINE
  5
10C
330
1F
100
AcDbEntity
  8
0
  6
Continuous
 62
     7
370
    25
100
AcDbLine
 10
7523.3765183096
 20
5156.3414801102
 30
0.0
 11
7479.3765183096
 21
5156.3414801102
 31
0.0
  0
LINE
  5
10D
330
1F
100
AcDbEntity
  8
0
  6
Continuous
 62
     7
370
    25
100
AcDbLine
 10
7490.6175897381
 20
5107.2341207974
 30
0.0
 11
7490.6175897381
 21
5026.9414801102
 31
0.0
  0
LINE
  5
10E
330
1F
100
AcDbEntity
  8
0
  6
Continuous
 62
     7
370
    25
100
AcDbLine
 10
7490.6175897381
 20
5026.9414801102
 30
0.0
 11
7487.5894215354
 21
5026.9414801102
 31
0.0
  0
SPLINE
  5
10F
330
1F
100
AcDbEntity
  8
0
  6
Continuous
 62
     7
370
    25
100
AcDbSpline
210
0.0
220
0.0
230
1.0
 70
     8
 71
     3
 72
    12
 73
     8
 74
     0
 42
0.000000001
 43
0.00000001
 40
0.0
 40
0.0
 40
0.0
 40
0.0
 40
0.2860841375525823
 40
0.5938173985192626
 40
0.9402661687057776
 40
0.9946780011584812
 40
1.0
 40
1.0
 40
1.0
 40
1.0
 10
7486.754384653736
 20
5106.870728848394
 30
0.0
 10
7487.113648768071
 20
5106.901584468956
 30
0.0
 10
7487.859363939768
 20
5106.96563067749
 30
0.0
 10
7489.136527490594
 20
5107.083823225385
 30
0.0
 10
7490.047002674551
 20
5107.173579641197
 30
0.0
 10
7490.539514225559
 20
5107.225749617842
 30
0.0
 10
7490.611202642835
 20
5107.233435979301
 30
0.0
 10
7490.617589738144
 20
5107.234120797367
 30
0.0
  0
SPLINE
  5
110
330
1F
100
AcDbEntity
  8
0
  6
Continuous
 62
     7
370
    25
100
AcDbSpline
210
0.0
220
0.0
230
1.0
 70
     8
 71
     3
 72
    12
 73
     8
 74
     0
 42
0.000000001
 43
0.00000001
 40
0.0
 40
0.0
 40
0.0
 40
0.0
 40
0.004073600879123
 40
0.0594267419899333
 40
0.4039567950184616
 40
0.7115404366576197
 40
1.0
 40
1.0
 40
1.0
 40
1.0
 10
7490.617589738144
 20
5107.234120797367
 30
0.0
 10
7490.613989664551
 20
5107.230443346638
 30
0.0
 10
7490.561470860943
 20
5107.176795745381
 30
0.0
 10
7490.199514381984
 20
5106.811906587179
 30
0.0
 10
7489.511267752311
 20
5106.176677318114
 30
0.0
 10
7488.512771023456
 20
5105.377922538708
 30
0.0
 10
7487.890550033425
 20
5105.013586354976
 30
0.0
 10
7487.589421535379
 20
5104.837263136137
 30
0.0
  0
LINE
  5
111
330
1F
100
AcDbEntity
  8
0
  6
Continuous
 62
     7
370
    25
100
AcDbLine
 10
7276.3765183096
 20
5205.4414801102
 30
0.0
 11
7561.3765183096
 21
5205.4414801102
 31
0.0
  0
LINE
  5
112
330
1F
100
AcDbEntity
  8
0
  6
Continuous
 62
     7
370
    25
100
AcDbLine
 10
7276.3765183096
 20
5450.4414801102
 30
0.0
 11
7276.3765183096
 21
5205.4414801102
 31
0.0
  0
LINE
  5
113
330
1F
100
AcDbEntity
  8
0
  6
Continuous
 62
     7
370
    25
100
AcDbLine
 10
7279.3765183096
 20
5450.4414801102
 30
0.0
 11
7276.3765183096
 21
5450.4414801102
 31
0.0
  0
LINE
  5
114
330
1F
100
AcDbEntity
  8
0
  6
Continuous
 62
     7
370
    25
100
AcDbLine
 10
7279.3765183096
 20
5410.4414801102
 30
0.0
 11
7279.3765183096
 21
5450.4414801102
 31
0.0
  0
LINE
  5
115
330
1F
100
AcDbEntity
  8
0
  6
Continuous
 62
     7
370
    25
100
AcDbLine
 10
7701.3765183096
 20
5410.4414801102
 30
0.0
 11
7279.3765183096
 21
5410.4414801102
 31
0.0
  0
LINE
  5
116
330
1F
100
AcDbEntity
  8
0
  6
Continuous
 62
     7
370
    25
100
AcDbLine
 10
7701.3765183096
 20
5390.4414801102
 30
0.0
 11
7701.3765183096
 21
5410.4414801102
 31
0.0
  0
LINE
  5
117
330
1F
100
AcDbEntity
  8
0
  6
Continuous
 62
     7
370
    25
100
AcDbLine
 10
7701.3765183096
 20
5390.4414801102
 30
0.0
 11
7664.3765183096
 21
5390.4414801102
 31
0.0
  0
LINE
  5
118
330
1F
100
AcDbEntity
  8
0
  6
Continuous
 62
     7
370
    25
100
AcDbLine
 10
7664.3765183096
 20
5390.4414801102
 30
0.0
 11
7664.3765183096
 21
5318.4414801102
 31
0.0
  0
ARC
  5
119
330
1F
100
AcDbEntity
  8
0
  6
Continuous
 62
     7
370
    25
100
AcDbCircle
 10
7550.8910814164
 20
5318.4414801102
 30
0.0
 40
113.4854368932048
100
AcDbArc
 50
275.3013793668
 51
0.0
  0
LINE
  5
11A
330
1F
100
AcDbEntity
  8
0
  6
Continuous
 62
     8
370
    25
100
AcDbLine
 10
7473.255197966
 20
5115.0456013255
 30
0.0
 11
7450.1338776225
 21
5140.9414801102
 31
0.0
  0
LINE
  5
11B
330
1F
100
AcDbEntity
  8
0
  6
Continuous
 62
     8
370
    25
100
AcDbLine
 10
7471.3765183096
 20
5112.9414801102
 30
0.0
 11
7443.3765183096
 21
5081.9414801102
 31
0.0
  0
SPLINE
  5
11C
330
1F
100
AcDbEntity
  8
0
  6
Continuous
 62
     8
370
    25
100
AcDbSpline
210
0.0
220
0.0
230
1.0
 70
     8
 71
     3
 72
    18
 73
    14
 74
     0
 42
0.000000001
 43
0.00000001
 40
0.0
 40
0.0
 40
0.0
 40
0.0
 40
0.017316443052085
 40
0.1020731770893537
 40
0.1903240562381124
 40
0.2883105228647168
 40
0.3903879717739283
 40
0.4917547330218466
 40
0.5960943130592143
 40
0.694813256144498
 40
0.7957827708096014
 40
0.8966057184902022
 40
1.0
 40
1.0
 40
1.0
 40
1.0
 10
7499.342036299251
 20
4999.000357261868
 30
0.0
 10
7499.35256710544
 20
4998.9878307957
 30
0.0
 10
7499.414641796051
 20
4998.913992525586
 30
0.0
 10
7499.085170111901
 20
4999.304607399758
 30
0.0
 10
7498.288676451392
 20
5000.271733863849
 30
0.0
 10
7496.956713659655
 20
5001.968180445502
 30
0.0
 10
7495.249919980279
 20
5004.330951613018
 30
0.0
 10
7493.358305798346
 20
5007.279036102525
 30
0.0
 10
7491.525713107957
 20
5010.641708141591
 30
0.0
 10
7489.896139422304
 20
5014.363499729988
 30
0.0
 10
7488.628779453522
 20
5018.32654500503
 30
0.0
 10
7487.758904460577
 20
5022.55994242496
 30
0.0
 10
7487.646388081394
 20
5025.468759080247
 30
0.0
 10
7487.589421535379
 20
5026.941480110248
 30
0.0
  0
LINE
  5
11D
330
1F
100
AcDbEntity
  8
0
  6
Continuous
 62
     8
370
    25
100
AcDbLine
 10
7476.3765183096
 20
5123.1841207974
 30
0.0
 11
7490.6175897381
 21
5107.2341207974
 31
0.0
  0
LINE
  5
11E
330
1F
100
AcDbEntity
  8
0
  6
Continuous
 62
     8
370
    25
100
AcDbLine
 10
7526.3765183096
 20
5026.9414801102
 30
0.0
 11
7490.6175897381
 21
5026.9414801102
 31
0.0
  0
SPLINE
  5
11F
330
1F
100
AcDbEntity
  8
0
  6
Continuous
 62
     8
370
    25
100
AcDbSpline
210
0.0
220
0.0
230
1.0
 70
     8
 71
     3
 72
    18
 73
    14
 74
     0
 42
0.000000001
 43
0.00000001
 40
0.0
 40
0.0
 40
0.0
 40
0.0
 40
0.0958594062342508
 40
0.1947451865789473
 40
0.2905476350793152
 40
0.3888375160307835
 40
0.4902312858400467
 40
0.5945328820629758
 40
0.6956023670953944
 40
0.800413577909996
 40
0.889481129268496
 40
0.9817626184328728
 40
1.0
 40
1.0
 40
1.0
 40
1.0
 10
7490.617589738144
 20
5026.941480110248
 30
0.0
 10
7490.671478432926
 20
5025.658398057753
 30
0.0
 10
7490.780957140672
 20
5023.051725812171
 30
0.0
 10
7491.634600060295
 20
5019.28329492166
 30
0.0
 10
7492.897980852285
 20
5015.709914728178
 30
0.0
 10
7494.499324902764
 20
5012.406048941367
 30
0.0
 10
7496.32087935895
 20
5009.384307759906
 30
0.0
 10
7498.171760629581
 20
5006.77874313591
 30
0.0
 10
7499.870077182527
 20
5004.652166277092
 30
0.0
 10
7501.174981574322
 20
5003.150764018606
 30
0.0
 10
7501.97736399682
 20
5002.269877394334
 30
0.0
 10
7502.306467245662
 20
5001.91758942069
 30
0.0
 10
7502.246543214406
 20
5001.981954462085
 30
0.0
 10
7502.236654790684
 20
5001.99257572352
 30
0.0
  0
LINE
  5
120
330
1F
100
AcDbEntity
  8
0
  6
Continuous
 62
     7
370
    25
100
AcDbLine
 10
6746.4772070225
 20
4375.9997419456
 30
0.0
 11
6744.8085579066
 21
4375.9437359239
 31
0.0
  0
SPLINE
  5
121
330
1F
100
AcDbEntity
  8
0
  6
Continuous
 62
     7
370
    25
100
AcDbSpline
210
0.0
220
0.0
230
1.0
 70
     8
 71
     3
 72
    11
 73
     7
 74
     0
 42
0.000000001
 43
0.00000001
 40
0.0
 40
0.0
 40
0.0
 40
0.0
 40
0.0789901880539656
 40
0.7751932228180278
 40
0.9039077949206673
 40
1.0
 40
1.0
 40
1.0
 40
1.0
 10
6735.110227565591
 20
4378.04515521853
 30
0.0
 10
6734.984316341905
 20
4378.089973212724
 30
0.0
 10
6733.748649866336
 20
4378.529807655656
 30
0.0
 10
6732.580464297723
 20
4379.22969787974
 30
0.0
 10
6731.391664817744
 20
4379.914399477302
 30
0.0
 10
6731.149414149694
 20
4380.089352510803
 30
0.0
 10
6731.045865666119
 20
4380.164135055106
 30
0.0
  0
CIRCLE
  5
122
330
1F
100
AcDbEntity
  8
0
  6
Continuous
 62
     7
370
    25
100
AcDbCircle
 10
6745.9113038416
 20
4372.9090433381
 30
0.0
 40
36.49923460792251
  0
CIRCLE
  5
123
330
1F
100
AcDbEntity
  8
0
  6
Continuous
 62
     7
370
    25
100
AcDbCircle
 10
6745.9034334669
 20
4372.909047484
 30
0.0
 40
36.6917479931202
  0
CIRCLE
  5
124
330
1F
100
AcDbEntity
  8
0
  6
Continuous
 62
     7
370
    25
100
AcDbCircle
 10
6745.8950368874
 20
4372.9088496753
 30
0.0
 40
26.11438827999819
  0
CIRCLE
  5
125
330
1F
100
AcDbEntity
  8
0
  6
Continuous
 62
     7
370
    25
100
AcDbCircle
 10
6745.8793033958
 20
4372.9087842291
 30
0.0
 40
24.49948830908288
  0
LWPOLYLINE
  5
126
330
1F
100
AcDbEntity
  8
0
  6
Continuous
 62
     7
370
    25
100
AcDbPolyline
 90
        3
 70
   128
 43
0.0
 10
6748.7937364387
 20
4397.2245643098
 10
6745.8409909578
 20
4397.4082218309
 10
6745.7993021252
 20
4397.4082573017
  0
ARC
  5
127
330
1F
100
AcDbEntity
  8
0
  6
Continuous
 62
     7
370
    25
100
AcDbCircle
 10
6745.7986245765
 20
4372.908292957
 30
0.0
 40
24.50003566467523
100
AcDbArc
 50
270.0015845152
 51
82.9780669059
  0
CIRCLE
  5
128
330
1F
100
AcDbEntity
  8
0
  6
Continuous
 62
     7
370
    25
100
AcDbCircle
 10
6745.7911159187
 20
4372.9087745493
 30
0.0
 40
23.55704022893079
  0
CIRCLE
  5
129
330
1F
100
AcDbEntity
  8
0
  6
Continuous
 62
     7
370
    25
100
AcDbCircle
 10
6745.783205312
 20
4372.9084031669
 30
0.0
 40
6.179096598232542
  0
SPLINE
  5
12A
330
1F
100
AcDbEntity
  8
0
  6
Continuous
 62
     7
370
    25
100
AcDbSpline
210
0.0
220
0.0
230
1.0
 70
    11
 71
     3
 72
    26
 73
    22
 74
     0
 42
0.000000001
 43
0.00000001
 40
0.0
 40
0.0
 40
0.0
 40
0.0
 40
0.0536472078844557
 40
0.1072997174133988
 40
0.1608187184991403
 40
0.2142538036104046
 40
0.2678237548995751
 40
0.3215618845136297
 40
0.3753758631179775
 40
0.4291877588806243
 40
0.4829562180736912
 40
0.536666402225124
 40
0.590321397029987
 40
0.643936419521567
 40
0.6975341018215038
 40
0.7511400393424815
 40
0.8047783884574349
 40
0.8584674889465285
 40
0.9122153836824787
 40
0.9660146554639997
 40
1.0
 40
1.0
 40
1.0
 40
1.0
 10
6735.228178619212
 20
4378.133581939555
 30
0.0
 10
6735.561173989478
 20
4377.60989190287
 30
0.0
 10
6736.227197638026
 20
4376.562460076229
 30
0.0
 10
6736.496470334724
 20
4374.683722239032
 30
0.0
 10
6736.171228728957
 20
4372.840901012802
 30
0.0
 10
6735.246633609348
 20
4371.206068502909
 30
0.0
 10
6733.836945303183
 20
4369.968354903877
 30
0.0
 10
6732.093131176119
 20
4369.264623056428
 30
0.0
 10
6730.211883022901
 20
4369.178462302213
 30
0.0
 10
6728.407393555787
 20
4369.721422247845
 30
0.0
 10
6726.885185287981
 20
4370.831969958747
 30
0.0
 10
6725.81744530049
 20
4372.383543216177
 30
0.0
 10
6725.3239256055
 20
4374.200114028969
 30
0.0
 10
6725.459147120992
 20
4376.07663275816
 30
0.0
 10
6726.206941095027
 20
4377.802082134204
 30
0.0
 10
6727.483053845429
 20
4379.182985070605
 30
0.0
 10
6729.143528673976
 20
4380.063825741138
 30
0.0
 10
6731.004713510837
 20
4380.346900699203
 30
0.0
 10
6732.847555819749
 20
4379.992896413581
 30
0.0
 10
6734.297424974461
 20
4379.178815424563
 30
0.0
 10
6734.968410257021
 20
4378.425301012631
 30
0.0
 10
6735.228178619212
 20
4378.133581939555
 30
0.0
  0
SPLINE
  5
12B
330
1F
100
AcDbEntity
  8
0
  6
Continuous
 62
     7
370
    25
100
AcDbSpline
210
0.0
220
0.0
230
1.0
 70
    11
 71
     3
 72
    26
 73
    22
 74
     0
 42
0.000000001
 43
0.00000001
 40
0.0
 40
0.0
 40
0.0
 40
0.0
 40
0.0537906528572848
 40
0.1075800343267974
 40
0.1613964711451199
 40
0.2152044423048464
 40
0.2689187362134139
 40
0.3224537086462869
 40
0.3758867226899655
 40
0.429440352459522
 40
0.4831672320451311
 40
0.5369784271022001
 40
0.5907927854588674
 40
0.6445661075254902
 40
0.6982816371630735
 40
0.7519411518723733
 40
0.8055590047808329
 40
0.8591573592726135
 40
0.9127617279340797
 40
0.9663965674840382
 40
1.0
 40
1.0
 40
1.0
 40
1.0
 10
6744.271742920944
 20
4390.097328887217
 30
0.0
 10
6744.60390152832
 20
4389.571204083205
 30
0.0
 10
6745.26821089222
 20
4388.518966910586
 30
0.0
 10
6745.529801948915
 20
4386.635108481068
 30
0.0
 10
6745.193933174305
 20
4384.787692752595
 30
0.0
 10
6744.253512576935
 20
4383.151088829779
 30
0.0
 10
6742.828323846633
 20
4381.920861432963
 30
0.0
 10
6741.079439588966
 20
4381.232587020893
 30
0.0
 10
6739.205202213323
 20
4381.160401416419
 30
0.0
 10
6737.411532714447
 20
4381.710768217829
 30
0.0
 10
6735.897591409517
 20
4382.825481927955
 30
0.0
 10
6734.836476792719
 20
4384.381619252988
 30
0.0
 10
6734.350887340812
 20
4386.202957537241
 30
0.0
 10
6734.496478337058
 20
4388.082250476453
 30
0.0
 10
6735.256020062182
 20
4389.806344580974
 30
0.0
 10
6736.542808042792
 20
4391.180904329693
 30
0.0
 10
6738.210223844808
 20
4392.051320159941
 30
0.0
 10
6740.072887068332
 20
4392.322221702198
 30
0.0
 10
6741.911726986144
 20
4391.957350136655
 30
0.0
 10
6743.35147322547
 20
4391.138177737225
 30
0.0
 10
6744.015836065647
 20
4390.38676616561
 30
0.0
 10
6744.271742920944
 20
4390.097328887217
 30
0.0
  0
SPLINE
  5
12C
330
1F
100
AcDbEntity
  8
0
  6
Continuous
 62
     7
370
    25
100
AcDbSpline
210
0.0
220
0.0
230
1.0
 70
    11
 71
     3
 72
    26
 73
    22
 74
     0
 42
0.000000001
 43
0.00000001
 40
0.0
 40
0.0
 40
0.0
 40
0.0
 40
0.0536289995832236
 40
0.1072568460891543
 40
0.1609153676640698
 40
0.2146296343374471
 40
0.2684017600027291
 40
0.3222156390340084
 40
0.3760279458847744
 40
0.4297575347761703
 40
0.4833128803450994
 40
0.5367459192403633
 40
0.5902793785161317
 40
0.6439908597765018
 40
0.6977974594700109
 40
0.7516141994956284
 40
0.8053931961398426
 40
0.8591152006898487
 40
0.9127802927048689
 40
0.966401694669201
 40
1.0
 40
1.0
 40
1.0
 40
1.0
 10
6759.15829337728
 20
4388.266434175957
 30
0.0
 10
6759.490420408652
 20
4387.741526369471
 30
0.0
 10
6760.154667330333
 20
4386.691722042542
 30
0.0
 10
6760.418970287586
 20
4384.811736432576
 30
0.0
 10
6760.087792998962
 20
4382.967122144317
 30
0.0
 10
6759.153195355952
 20
4381.33037956485
 30
0.0
 10
6757.731311819635
 20
4380.095543263962
 30
0.0
 10
6755.978678351445
 20
4379.400507634269
 30
0.0
 10
6754.094650614858
 20
4379.325568930196
 30
0.0
 10
6752.293879944455
 20
4379.878740455066
 30
0.0
 10
6750.781119802824
 20
4380.994599044001
 30
0.0
 10
6749.723970992787
 20
4382.544531364648
 30
0.0
 10
6749.237327938713
 20
4384.356814147951
 30
0.0
 10
6749.377156776745
 20
4386.232019876583
 30
0.0
 10
6750.131361240893
 20
4387.958516282717
 30
0.0
 10
6751.416293873026
 20
4389.338755334697
 30
0.0
 10
6753.085318758635
 20
4390.214754583106
 30
0.0
 10
6754.951414407729
 20
4390.489371573908
 30
0.0
 10
6756.79360442219
 20
4390.12627050435
 30
0.0
 10
6758.236123303841
 20
4389.307605523524
 30
0.0
 10
6758.901846916849
 20
4388.555973724548
 30
0.0
 10
6759.15829337728
 20
4388.266434175957
 30
0.0
  0
SPLINE
  5
12D
330
1F
100
AcDbEntity
  8
0
  6
Continuous
 62
     7
370
    25
100
AcDbSpline
210
0.0
220
0.0
230
1.0
 70
    11
 71
     3
 72
    26
 73
    22
 74
     0
 42
0.000000001
 43
0.00000001
 40
0.0
 40
0.0
 40
0.0
 40
0.0
 40
0.0536294452053457
 40
0.107259974413782
 40
0.1608668897040882
 40
0.2144644609330705
 40
0.2680783002312034
 40
0.3217311957135067
 40
0.3754387257267492
 40
0.4292046595899062
 40
0.483015315719826
 40
0.5368310212310287
 40
0.5905750139479814
 40
0.6441518335193995
 40
0.6975881575669435
 40
0.7511016540581468
 40
0.8047959610465113
 40
0.858596683574734
 40
0.9124152413408284
 40
0.966199807595808
 40
1.0
 40
1.0
 40
1.0
 40
1.0
 10
6765.006625051229
 20
4374.465702578328
 30
0.0
 10
6765.339989868349
 20
4373.941646876572
 30
0.0
 10
6766.006726240837
 20
4372.89352488041
 30
0.0
 10
6766.275792213436
 20
4371.013804189198
 30
0.0
 10
6765.94897231424
 20
4369.168682816625
 30
0.0
 10
6765.019216370157
 20
4367.531252449599
 30
0.0
 10
6763.603083779314
 20
4366.294649052061
 30
0.0
 10
6761.856214771989
 20
4365.595366706508
 30
0.0
 10
6759.975443805261
 20
4365.513315127975
 30
0.0
 10
6758.172169523528
 20
4366.058656038451
 30
0.0
 10
6756.650360257233
 20
4367.171073964978
 30
0.0
 10
6755.583078359051
 20
4368.725206671422
 30
0.0
 10
6755.091876483646
 20
4370.543876343185
 30
0.0
 10
6755.230752747489
 20
4372.41902085423
 30
0.0
 10
6755.980067973013
 20
4374.139695612402
 30
0.0
 10
6757.255223197246
 20
4375.517063106641
 30
0.0
 10
6758.916369925994
 20
4376.397499265836
 30
0.0
 10
6760.781096255223
 20
4376.680395391231
 30
0.0
 10
6762.627559402515
 20
4376.324583816646
 30
0.0
 10
6764.077604101275
 20
4375.508995246249
 30
0.0
 10
6764.747934937002
 20
4374.75621217281
 30
0.0
 10
6765.006625051229
 20
4374.465702578328
 30
0.0
  0
SPLINE
  5
12E
330
1F
100
AcDbEntity
  8
0
  6
Continuous
 62
     7
370
    25
100
AcDbSpline
210
0.0
220
0.0
230
1.0
 70
    11
 71
     3
 72
    26
 73
    22
 74
     0
 42
0.000000001
 43
0.00000001
 40
0.0
 40
0.0
 40
0.0
 40
0.0
 40
0.0537910058901658
 40
0.1075833788204238
 40
0.1613394743992287
 40
0.2150366708393116
 40
0.2686811950588097
 40
0.3222903099119
 40
0.375887691261738
 40
0.4294989939798872
 40
0.4831474565139209
 40
0.536849520860204
 40
0.5906102754171653
 40
0.6444179729707831
 40
0.698235854963108
 40
0.7519908798806307
 40
0.8055857705448023
 40
0.8590274220890473
 40
0.9125254071038431
 40
0.9662046361283435
 40
1.0
 40
1.0
 40
1.0
 40
1.0
 10
6755.978686286474
 20
4362.482414591573
 30
0.0
 10
6756.311854097456
 20
4361.95681058342
 30
0.0
 10
6756.978198186519
 20
4360.905589209457
 30
0.0
 10
6757.243565848932
 20
4359.021713599268
 30
0.0
 10
6756.910978484763
 20
4357.174227925641
 30
0.0
 10
6755.974283690315
 20
4355.537712332243
 30
0.0
 10
6754.552297953855
 20
4354.305875580045
 30
0.0
 10
6752.802775632356
 20
4353.614134410962
 30
0.0
 10
6750.923567436068
 20
4353.540153104581
 30
0.0
 10
6749.125467839004
 20
4354.091691177557
 30
0.0
 10
6747.610424558632
 20
4355.207030505955
 30
0.0
 10
6746.549001696625
 20
4356.761394019592
 30
0.0
 10
6746.06150998695
 20
4358.580459381385
 30
0.0
 10
6746.204163866707
 20
4360.459276419991
 30
0.0
 10
6746.961748783819
 20
4362.18485231816
 30
0.0
 10
6748.248220694257
 20
4363.560786714072
 30
0.0
 10
6749.914695885523
 20
4364.43096898675
 30
0.0
 10
6751.773946827518
 20
4364.702389999453
 30
0.0
 10
6753.610333932149
 20
4364.341189470937
 30
0.0
 10
6755.053081774635
 20
4363.525157313869
 30
0.0
 10
6755.7207399483
 20
4362.773004863589
 30
0.0
 10
6755.978686286474
 20
4362.482414591573
 30
0.0
  0
SPLINE
  5
12F
330
1F
100
AcDbEntity
  8
0
  6
Continuous
 62
     7
370
    25
100
AcDbSpline
210
0.0
220
0.0
230
1.0
 70
    11
 71
     3
 72
    26
 73
    22
 74
     0
 42
0.000000001
 43
0.00000001
 40
0.0
 40
0.0
 40
0.0
 40
0.0
 40
0.0536305645324963
 40
0.1072560498675294
 40
0.1610088640350795
 40
0.2148261845036098
 40
0.2686346360175445
 40
0.3223966550720511
 40
0.3760999521588391
 40
0.4297493535284198
 40
0.4833612139276647
 40
0.5369587588087759
 40
0.5905676430638473
 40
0.644211552420892
 40
0.6979078253393773
 40
0.7516629348136866
 40
0.8054671625818987
 40
0.8592868023527388
 40
0.913052888872796
 40
0.9666674660934808
 40
1.0
 40
1.0
 40
1.0
 40
1.0
 10
6741.093069601297
 20
4364.311116482041
 30
0.0
 10
6741.424981922919
 20
4363.786173308739
 30
0.0
 10
6742.088775131698
 20
4362.736336678005
 30
0.0
 10
6742.353511582177
 20
4360.857024207316
 30
0.0
 10
6742.0231547085
 20
4359.011683959969
 30
0.0
 10
6741.087826167105
 20
4357.373558967572
 30
0.0
 10
6739.664653994622
 20
4356.13918279744
 30
0.0
 10
6737.912316089353
 20
4355.44653371336
 30
0.0
 10
6736.030644084453
 20
4355.374013190795
 30
0.0
 10
6734.232080726837
 20
4355.928453365626
 30
0.0
 10
6732.719021343778
 20
4357.046324213059
 30
0.0
 10
6731.661070123117
 20
4358.601214315661
 30
0.0
 10
6731.176676665247
 20
4360.418269603885
 30
0.0
 10
6731.320309800022
 20
4362.293534799901
 30
0.0
 10
6732.076373697633
 20
4364.016269958028
 30
0.0
 10
6733.360907250259
 20
4365.392339389133
 30
0.0
 10
6735.029186255014
 20
4366.265195938483
 30
0.0
 10
6736.895386993379
 20
4366.536759044517
 30
0.0
 10
6738.737377425064
 20
4366.169651272553
 30
0.0
 10
6740.176028372843
 20
4365.348503058098
 30
0.0
 10
6740.838934266655
 20
4364.598602558433
 30
0.0
 10
6741.093069601297
 20
4364.311116482041
 30
0.0
  0
SPLINE
  5
130
330
1F
100
AcDbEntity
  8
0
  6
Continuous
 62
     7
370
    25
100
AcDbSpline
210
0.0
220
0.0
230
1.0
 70
     8
 71
     3
 72
    10
 73
     6
 74
     0
 42
0.000000001
 43
0.00000001
 40
0.0
 40
0.0
 40
0.0
 40
0.0
 40
0.3727501304293647
 40
0.7454944332705563
 40
1.0
 40
1.0
 40
1.0
 40
1.0
 10
6735.220038672617
 20
4378.133719437248
 30
0.0
 10
6734.790223613337
 20
4378.57916759755
 30
0.0
 10
6733.930600214519
 20
4379.470056953999
 30
0.0
 10
6732.354142238361
 20
4380.166179045515
 30
0.0
 10
6731.311752106627
 20
4380.17160567042
 30
0.0
 10
6730.888804085272
 20
4380.173807514238
 30
0.0
  0
SPLINE
  5
131
330
1F
100
AcDbEntity
  8
0
  6
Continuous
 62
     7
370
    25
100
AcDbSpline
210
0.0
220
0.0
230
1.0
 70
     8
 71
     3
 72
    15
 73
    11
 74
     0
 42
0.000000001
 43
0.00000001
 40
0.0
 40
0.0
 40
0.0
 40
0.0
 40
0.0009096914749869
 40
0.1520553633738508
 40
0.303296441011572
 40
0.4544868551770962
 40
0.6053737825089239
 40
0.755747141734776
 40
0.905916633004655
 40
1.0
 40
1.0
 40
1.0
 40
1.0
 10
6730.892718404784
 20
4369.243501000493
 30
0.0
 10
6730.896374464442
 20
4369.242882238834
 30
0.0
 10
6731.507486577681
 20
4369.139455932878
 30
0.0
 10
6732.76509825333
 20
4369.504129462493
 30
0.0
 10
6734.40376904806
 20
4370.361826836383
 30
0.0
 10
6735.653138493244
 20
4371.789311463583
 30
0.0
 10
6736.363199362642
 20
4373.530243465633
 30
0.0
 10
6736.450403868133
 20
4375.402903135352
 30
0.0
 10
6736.003639697923
 20
4376.992898501759
 30
0.0
 10
6735.437939734747
 20
4377.816483898349
 30
0.0
 10
6735.220038672617
 20
4378.133719437248
 30
0.0
  0
SPLINE
  5
132
330
1F
100
AcDbEntity
  8
0
  6
Continuous
 62
     7
370
    25
100
AcDbSpline
210
0.0
220
0.0
230
1.0
 70
     8
 71
     3
 72
    10
 73
     6
 74
     0
 42
0.000000001
 43
0.00000001
 40
0.0
 40
0.0
 40
0.0
 40
0.0
 40
0.3694406328067432
 40
0.73887888047984
 40
1.0
 40
1.0
 40
1.0
 40
1.0
 10
6741.085084526712
 20
4364.311055853537
 30
0.0
 10
6740.658819791534
 20
4364.755853466664
 30
0.0
 10
6739.806293073171
 20
4365.645445821274
 30
0.0
 10
6738.227368327891
 20
4366.350019433809
 30
0.0
 10
6737.176880060357
 20
4366.362557892468
 30
0.0
 10
6736.741862064061
 20
4366.367750197163
 30
0.0
  0
SPLINE
  5
133
330
1F
100
AcDbEntity
  8
0
  6
Continuous
 62
     7
370
    25
100
AcDbSpline
210
0.0
220
0.0
230
1.0
 70
     8
 71
     3
 72
    14
 73
    10
 74
     0
 42
0.000000001
 43
0.00000001
 40
0.0
 40
0.0
 40
0.0
 40
0.0
 40
0.1485208609554882
 40
0.2994887251977573
 40
0.4506162726004712
 40
0.6019041976169796
 40
0.7532994367516077
 40
0.9046684467542518
 40
0.9999999999999999
 40
0.9999999999999999
 40
0.9999999999999999
 40
0.9999999999999999
 10
6736.749457086315
 20
4355.436664110546
 30
0.0
 10
6737.357901910676
 20
4355.49355453652
 30
0.0
 10
6738.584816188096
 20
4355.608272705006
 30
0.0
 10
6740.225943124908
 20
4356.543283320088
 30
0.0
 10
6741.484247673969
 20
4357.931655051094
 30
0.0
 10
6742.210602686124
 20
4359.673698559355
 30
0.0
 10
6742.313227502052
 20
4361.549371219714
 30
0.0
 10
6741.873633941966
 20
4363.154895695235
 30
0.0
 10
6741.30486985371
 20
4363.988809671449
 30
0.0
 10
6741.085084526712
 20
4364.311055853537
 30
0.0
  0
SPLINE
  5
134
330
1F
100
AcDbEntity
  8
0
  6
Continuous
 62
     7
370
    25
100
AcDbSpline
210
0.0
220
0.0
230
1.0
 70
     8
 71
     3
 72
    10
 73
     6
 74
     0
 42
0.000000001
 43
0.00000001
 40
0.0
 40
0.0
 40
0.0
 40
0.0
 40
0.3712068091218614
 40
0.7424255978933241
 40
1.0
 40
1.0
 40
1.0
 40
1.0
 10
6744.263613530316
 20
4390.097453638885
 30
0.0
 10
6743.835755044755
 20
4390.543677883552
 30
0.0
 10
6742.980024265709
 20
4391.436140773512
 30
0.0
 10
6741.400109282113
 20
4392.138971282543
 30
0.0
 10
6740.351196809897
 20
4392.148007270627
 30
0.0
 10
6739.921527712312
 20
4392.151708708973
 30
0.0
  0
SPLINE
  5
135
330
1F
100
AcDbEntity
  8
0
  6
Continuous
 62
     7
370
    25
100
AcDbSpline
210
0.0
220
0.0
230
1.0
 70
     8
 71
     3
 72
    14
 73
    10
 74
     0
 42
0.000000001
 43
0.00000001
 40
0.0
 40
0.0
 40
0.0
 40
0.0
 40
0.1503787068351177
 40
0.3008917533718412
 40
0.4512573546642242
 40
0.6020563209690627
 40
0.7532999067894354
 40
0.904719523620491
 40
1.0
 40
1.0
 40
1.0
 40
1.0
 10
6739.921030874832
 20
4381.219261309884
 30
0.0
 10
6740.536977584973
 20
4381.278999939658
 30
0.0
 10
6741.76942125668
 20
4381.398530566269
 30
0.0
 10
6743.411897139109
 20
4382.340959763353
 30
0.0
 10
6744.663386165565
 20
4383.72857495171
 30
0.0
 10
6745.386542875253
 20
4385.466304491955
 30
0.0
 10
6745.48925856785
 20
4387.339184261587
 30
0.0
 10
6745.050594743096
 20
4388.942821326636
 30
0.0
 10
6744.482877288328
 20
4389.77575724284
 30
0.0
 10
6744.263613530316
 20
4390.097453638885
 30
0.0
  0
SPLINE
  5
136
330
1F
100
AcDbEntity
  8
0
  6
Continuous
 62
     7
370
    25
100
AcDbSpline
210
0.0
220
0.0
230
1.0
 70
     8
 71
     3
 72
    10
 73
     6
 74
     0
 42
0.000000001
 43
0.00000001
 40
0.0
 40
0.0
 40
0.0
 40
0.0
 40
0.3720493008173748
 40
0.7441065570847056
 40
0.9999999999999999
 40
0.9999999999999999
 40
0.9999999999999999
 40
0.9999999999999999
 10
6755.970770109546
 20
4362.482265901943
 30
0.0
 10
6755.541353165984
 20
4362.928525500299
 30
0.0
 10
6754.682510096731
 20
4363.821054239281
 30
0.0
 10
6753.102465561427
 20
4364.521294436408
 30
0.0
 10
6752.055366603308
 20
4364.528496271527
 30
0.0
 10
6751.628667886649
 20
4364.531431059858
 30
0.0
  0
SPLINE
  5
137
330
1F
100
AcDbEntity
  8
0
  6
Continuous
 62
     7
370
    25
100
AcDbSpline
210
0.0
220
0.0
230
1.0
 70
     8
 71
     3
 72
    14
 73
    10
 74
     0
 42
0.000000001
 43
0.00000001
 40
0.0
 40
0.0
 40
0.0
 40
0.0
 40
0.1505329908916091
 40
0.3013391494305404
 40
0.4521292540385221
 40
0.6029749892450038
 40
0.7539383415419858
 40
0.9050592445015189
 40
1.0
 40
1.0
 40
1.0
 40
1.0
 10
6751.637397773597
 20
4353.59931492478
 30
0.0
 10
6752.254313801112
 20
4353.659485635437
 30
0.0
 10
6753.489265354925
 20
4353.779936246712
 30
0.0
 10
6755.134075097963
 20
4354.725339677925
 30
0.0
 10
6756.385505050725
 20
4356.118314916641
 30
0.0
 10
6757.104182693497
 20
4357.860370841669
 30
0.0
 10
6757.200558187036
 20
4359.732902387759
 30
0.0
 10
6756.75784400304
 20
4361.332249251778
 30
0.0
 10
6756.189904599577
 20
4362.162082099325
 30
0.0
 10
6755.970770109546
 20
4362.482265901943
 30
0.0
  0
SPLINE
  5
138
330
1F
100
AcDbEntity
  8
0
  6
Continuous
 62
     7
370
    25
100
AcDbSpline
210
0.0
220
0.0
230
1.0
 70
     8
 71
     3
 72
    10
 73
     6
 74
     0
 42
0.000000001
 43
0.00000001
 40
0.0
 40
0.0
 40
0.0
 40
0.0
 40
0.3708695782722661
 40
0.7417388577589764
 40
1.0
 40
1.0
 40
1.0
 40
1.0
 10
6759.150239067342
 20
4388.266462412302
 30
0.0
 10
6758.722399244353
 20
4388.712070695929
 30
0.0
 10
6757.866719943058
 20
4389.603286904184
 30
0.0
 10
6756.28720983168
 20
4390.305240106432
 30
0.0
 10
6755.238741416641
 20
4390.314801660551
 30
0.0
 10
6754.808339959137
 20
4390.318726725694
 30
0.0
  0
SPLINE
  5
139
330
1F
100
AcDbEntity
  8
0
  6
Continuous
 62
     7
370
    25
100
AcDbSpline
210
0.0
220
0.0
230
1.0
 70
     8
 71
     3
 72
    14
 73
    10
 74
     0
 42
0.000000001
 43
0.00000001
 40
0.0
 40
0.0
 40
0.0
 40
0.0
 40
0.1490986185285443
 40
0.3003211311002403
 40
0.4516932802240987
 40
0.6030223613866152
 40
0.7542132214416727
 40
0.905238352428257
 40
1.0
 40
1.0
 40
1.0
 40
1.0
 10
6754.808176323326
 20
4379.387999113284
 30
0.0
 10
6755.418916367258
 20
4379.445796951909
 30
0.0
 10
6756.649096382421
 20
4379.562215953255
 30
0.0
 10
6758.293762836564
 20
4380.50062420234
 30
0.0
 10
6759.552963074939
 20
4381.892978482016
 30
0.0
 10
6760.27787668937
 20
4383.638113795876
 30
0.0
 10
6760.377646587051
 20
4385.514031305706
 30
0.0
 10
6759.936408777208
 20
4387.115588115988
 30
0.0
 10
6759.369000134086
 20
4387.946217959241
 30
0.0
 10
6759.150239067342
 20
4388.266462412302
 30
0.0
  0
SPLINE
  5
13A
330
1F
100
AcDbEntity
  8
0
  6
Continuous
 62
     7
370
    25
100
AcDbSpline
210
0.0
220
0.0
230
1.0
 70
     8
 71
     3
 72
    10
 73
     6
 74
     0
 42
0.000000001
 43
0.00000001
 40
0.0
 40
0.0
 40
0.0
 40
0.0
 40
0.3720845598320336
 40
0.7441570156151867
 40
0.9999999999999999
 40
0.9999999999999999
 40
0.9999999999999999
 40
0.9999999999999999
 10
6764.998656490598
 20
4374.465621210097
 30
0.0
 10
6764.569018107019
 20
4374.910831875256
 30
0.0
 10
6763.709755316159
 20
4375.801238722703
 30
0.0
 10
6762.131723662167
 20
4376.498286835525
 30
0.0
 10
6761.087678484598
 20
4376.505007674117
 30
0.0
 10
6760.662284208594
 20
4376.507746067367
 30
0.0
  0
SPLINE
  5
13B
330
1F
100
AcDbEntity
  8
0
  6
Continuous
 62
     7
370
    25
100
AcDbSpline
210
0.0
220
0.0
230
1.0
 70
     8
 71
     3
 72
    14
 73
    10
 74
     0
 42
0.000000001
 43
0.00000001
 40
0.0
 40
0.0
 40
0.0
 40
0.0
 40
0.1512553317323141
 40
0.3023899119672928
 40
0.4533589063516013
 40
0.6041849228544315
 40
0.7549197265219605
 40
0.9056313907024617
 40
1.0
 40
1.0
 40
1.0
 40
1.0
 10
6760.667094324523
 20
4365.574919582853
 30
0.0
 10
6761.286727344416
 20
4365.635870872041
 30
0.0
 10
6762.525498713277
 20
4365.757724791245
 30
0.0
 10
6764.173707106275
 20
4366.708213680088
 30
0.0
 10
6765.424445219612
 20
4368.106185772133
 30
0.0
 10
6766.139680545472
 20
4369.851610975888
 30
0.0
 10
6766.23135164821
 20
4371.724439641643
 30
0.0
 10
6765.785319972052
 20
4373.32042233845
 30
0.0
 10
6765.217353155977
 20
4374.14724978403
 30
0.0
 10
6764.998656490598
 20
4374.465621210097
 30
0.0
  0
CIRCLE
  5
13C
330
1F
100
AcDbEntity
  8
0
  6
Continuous
 62
     7
370
    25
100
AcDbCircle
 10
6745.7794270331
 20
4372.908367856
 30
0.0
 40
4.999894267083559
  0
CIRCLE
  5
13D
330
1F
100
AcDbEntity
  8
0
  6
Continuous
 62
     7
370
    25
100
AcDbCircle
 10
6745.7671905277
 20
4372.9083346397
 30
0.0
 40
3.199926061595749
  0
LINE
  5
13E
330
1F
100
AcDbEntity
  8
0
  6
Continuous
 62
     7
370
    25
100
AcDbLine
 10
6900.5187553361
 20
4594.9342326438
 30
0.0
 11
6900.5187553361
 21
4597.9342326438
 31
0.0
  0
LINE
  5
13F
330
1F
100
AcDbEntity
  8
0
  6
Continuous
 62
     7
370
    25
100
AcDbLine
 10
5647.5187553361
 20
4594.9342326438
 30
0.0
 11
5647.5187553361
 21
4597.9342326438
 31
0.0
  0
LINE
  5
140
330
1F
100
AcDbEntity
  8
0
  6
Continuous
 62
     7
370
    25
100
AcDbLine
 10
5647.5187553361
 20
4597.9342326438
 30
0.0
 11
6900.5187553361
 21
4597.9342326438
 31
0.0
  0
LINE
  5
141
330
1F
100
AcDbEntity
  8
0
  6
Continuous
 62
     7
370
    25
100
AcDbLine
 10
5647.5187553361
 20
4594.9342326438
 30
0.0
 11
6900.5187553361
 21
4594.9342326438
 31
0.0
  0
LINE
  5
142
330
1F
100
AcDbEntity
  8
0
  6
Continuous
 62
     7
370
    25
100
AcDbLine
 10
6900.5187553361
 20
4172.9342326438
 30
0.0
 11
5647.5187553361
 21
4172.9342326438
 31
0.0
  0
LINE
  5
143
330
1F
100
AcDbEntity
  8
0
  6
Continuous
 62
     7
370
    25
100
AcDbLine
 10
5653.5187553361
 20
4532.9342326438
 30
0.0
 11
5653.5187553361
 21
4212.9342326438
 31
0.0
  0
LINE
  5
144
330
1F
100
AcDbEntity
  8
0
  6
Continuous
 62
     7
370
    25
100
AcDbLine
 10
6894.5187553361
 20
4212.9342326438
 30
0.0
 11
5653.5187553361
 21
4212.9342326438
 31
0.0
  0
LINE
  5
145
330
1F
100
AcDbEntity
  8
0
  6
Continuous
 62
     7
370
    25
100
AcDbLine
 10
6894.5187553361
 20
4532.9342326438
 30
0.0
 11
6894.5187553361
 21
4212.9342326438
 31
0.0
  0
LINE
  5
146
330
1F
100
AcDbEntity
  8
0
  6
Continuous
 62
     7
370
    25
100
AcDbLine
 10
5653.5187553361
 20
4532.9342326438
 30
0.0
 11
6894.5187553361
 21
4532.9342326438
 31
0.0
  0
LINE
  5
147
330
1F
100
AcDbEntity
  8
0
  6
Continuous
 62
     7
370
    25
100
AcDbLine
 10
6900.5187553361
 20
4172.9342326438
 30
0.0
 11
6900.5187553361
 21
4594.9342326438
 31
0.0
  0
LINE
  5
148
330
1F
100
AcDbEntity
  8
0
  6
Continuous
 62
     7
370
    25
100
AcDbLine
 10
5647.5187553361
 20
4172.9342326438
 30
0.0
 11
5647.5187553361
 21
4594.9342326438
 31
0.0
  0
LWPOLYLINE
  5
149
330
1F
100
AcDbEntity
  8
0
  6
Continuous
 62
     7
370
    25
100
AcDbPolyline
 90
        6
 70
   128
 43
0.0
 10
6894.5187553361
 20
4313.0737209416
 10
6694.6240224358
 20
4313.0517460365
 10
6294.834556693
 20
4313.007273522
 10
6094.9398238497
 20
4312.9847866283
 10
5658.7719483562
 20
4312.9351755274
 10
5653.5187553361
 20
4312.9345736519
  0
CIRCLE
  5
14A
330
1F
100
AcDbEntity
  8
0
  6
Continuous
 62
     7
370
    25
100
AcDbCircle
 10
6745.9044044116
 20
4372.9083312395
 30
0.0
 40
32.99964439529419
  0
SPLINE
  5
14B
330
1F
100
AcDbEntity
  8
0
  6
Continuous
 62
     8
370
    25
100
AcDbSpline
210
0.0
220
0.0
230
1.0
 70
     8
 71
     3
 72
    11
 73
     7
 74
     0
 42
0.000000001
 43
0.00000001
 40
0.0
 40
0.0
 40
0.0
 40
0.0
 40
0.2293574190027149
 40
0.5419970891862755
 40
0.8449486413238056
 40
1.0
 40
1.0
 40
1.0
 40
1.0
 10
6727.553666205275
 20
4379.103029178264
 30
0.0
 10
6728.026128089753
 20
4378.670823678325
 30
0.0
 10
6729.142608067823
 20
4377.649474014051
 30
0.0
 10
6731.501763591856
 20
4376.022230910671
 30
0.0
 10
6733.950057945754
 20
4374.620107115931
 30
0.0
 10
6735.685103317119
 20
4374.013377312641
 30
0.0
 10
6736.27248199058
 20
4373.807976259223
 30
0.0
  0
SPLINE
  5
14C
330
1F
100
AcDbEntity
  8
0
  6
Continuous
 62
     8
370
    25
100
AcDbSpline
210
0.0
220
0.0
230
1.0
 70
     8
 71
     3
 72
    10
 73
     6
 74
     0
 42
0.000000001
 43
0.00000001
 40
0.0
 40
0.0
 40
0.0
 40
0.0
 40
0.3468402702478449
 40
0.8424048561110338
 40
1.0
 40
1.0
 40
1.0
 40
1.0
 10
6742.680942838416
 20
4372.285551503507
 30
0.0
 10
6743.39023017244
 20
4372.205750568204
 30
0.0
 10
6745.112945629133
 20
4372.011930238823
 30
0.0
 10
6747.216606262906
 20
4372.063388976686
 30
0.0
 10
6748.533620145081
 20
4372.275497732033
 30
0.0
 10
6748.851390795676
 20
4372.326675580722
 30
0.0
  0
ENDSEC
  0
SECTION
  2
OBJECTS
  0
DICTIONARY
  5
C
330
0
100
AcDbDictionary
281
     1
  3
ACAD_GROUP
350
D
  3
ACAD_LAYOUT
350
1A
  3
ACAD_MLINESTYLE
350
17
  3
ACAD_PLOTSETTINGS
350
19
  3
ACAD_PLOTSTYLENAME
350
E
  3
ACAD_SCALELIST
350
47
  0
DICTIONARY
  5
D
102
{ACAD_REACTORS
330
C
102
}
330
C
100
AcDbDictionary
281
     1
  0
DICTIONARY
  5
1A
102
{ACAD_REACTORS
330
C
102
}
330
C
100
AcDbDictionary
281
     1
  3
Layout1
350
1E
  3
Layout2
350
26
  3
Model
350
22
  0
DICTIONARY
  5
17
102
{ACAD_REACTORS
330
C
102
}
330
C
100
AcDbDictionary
281
     1
  3
Standard
350
18
  0
DICTIONARY
  5
19
102
{ACAD_REACTORS
330
C
102
}
330
C
100
AcDbDictionary
281
     1
  0
ACDBDICTIONARYWDFLT
  5
E
102
{ACAD_REACTORS
330
C
102
}
330
C
100
AcDbDictionary
281
     1
  3
Normal
350
F
100
AcDbDictionaryWithDefault
340
F
  0
DICTIONARY
  5
47
102
{ACAD_REACTORS
330
C
102
}
330
C
100
AcDbDictionary
281
     1
  3
A0
350
48
  3
A1
350
49
  3
A2
350
4A
  3
A3
350
4B
  3
A4
350
4C
  3
A5
350
4D
  3
A6
350
4E
  3
A7
350
4F
  3
A8
350
50
  3
A9
350
51
  3
B0
350
52
  3
B1
350
53
  3
B2
350
54
  3
B3
350
55
  3
B4
350
56
  3
B5
350
57
  3
B6
350
58
  3
B7
350
59
  3
B8
350
5A
  3
B9
350
5B
  3
C0
350
5C
  3
C1
350
5D
  3
C2
350
5E
  3
C3
350
5F
  3
C4
350
60
  3
C5
350
61
  3
C6
350
62
  3
C7
350
63
  3
C8
350
64
  3
C9
350
65
  3
D0
350
66
  3
D1
350
67
  3
D2
350
68
  0
LAYOUT
  5
1E
102
{ACAD_REACTORS
330
1A
102
}
330
1A
100
AcDbPlotSettings
  1

  2
none_device
  4

  6

 40
0.0
 41
0.0
 42
0.0
 43
0.0
 44
0.0
 45
0.0
 46
0.0
 47
0.0
 48
0.0
 49
0.0
140
0.0
141
0.0
142
1.0
143
1.0
 70
   688
 72
     1
 73
     0
 74
     5
  7

 75
    16
147
1.0
148
0.0
149
0.0
100
AcDbLayout
  1
Layout1
 70
     1
 71
     1
 10
0.0
 20
0.0
 11
420.0
 21
297.0
 12
0.0
 22
0.0
 32
0.0
 14
1.0000000000E+20
 24
1.0000000000E+20
 34
1.0000000000E+20
 15
-1.0000000000E+20
 25
-1.0000000000E+20
 35
-1.0000000000E+20
146
0.0
 13
0.0
 23
0.0
 33
0.0
 16
1.0
 26
0.0
 36
0.0
 17
0.0
 27
1.0
 37
0.0
 76
     0
330
1B
  0
LAYOUT
  5
26
102
{ACAD_REACTORS
330
1A
102
}
330
1A
100
AcDbPlotSettings
  1

  2
none_device
  4

  6

 40
0.0
 41
0.0
 42
0.0
 43
0.0
 44
0.0
 45
0.0
 46
0.0
 47
0.0
 48
0.0
 49
0.0
140
0.0
141
0.0
142
1.0
143
1.0
 70
   688
 72
     1
 73
     0
 74
     5
  7

 75
    16
147
1.0
148
0.0
149
0.0
100
AcDbLayout
  1
Layout2
 70
     1
 71
     2
 10
0.0
 20
0.0
 11
0.0
 21
0.0
 12
0.0
 22
0.0
 32
0.0
 14
0.0
 24
0.0
 34
0.0
 15
0.0
 25
0.0
 35
0.0
146
0.0
 13
0.0
 23
0.0
 33
0.0
 16
1.0
 26
0.0
 36
0.0
 17
0.0
 27
1.0
 37
0.0
 76
     0
330
23
  0
LAYOUT
  5
22
102
{ACAD_REACTORS
330
1A
102
}
330
1A
100
AcDbPlotSettings
  1

  2
none_device
  4
Letter_(8.50_x_11.00_Inches)
  6

 40
6.35
 41
6.35
 42
6.35000508
 43
6.35000508
 44
215.9
 45
279.4
 46
0.0
 47
0.0
 48
0.0
 49
0.0
140
0.0
141
0.0
142
1.0
143
1.0
 70
  1712
 72
     1
 73
     0
 74
     0
  7

 75
     0
147
1.0
148
0.0
149
0.0
100
AcDbLayout
  1
Model
 70
     1
 71
     0
 10
0.0
 20
0.0
 11
20000.0
 21
10000.0
 12
0.0
 22
0.0
 32
0.0
 14
0.0
 24
0.0
 34
0.0
 15
20000.0
 25
10000.0
 35
0.0
146
0.0
 13
0.0
 23
0.0
 33
0.0
 16
1.0
 26
0.0
 36
0.0
 17
0.0
 27
1.0
 37
0.0
 76
     0
330
1F
331
29
  0
MLINESTYLE
  5
18
102
{ACAD_REACTORS
330
17
102
}
330
17
100
AcDbMlineStyle
  2
Standard
 70
     0
  3

 62
   256
 51
90.0
 52
90.0
 71
     2
 49
0.5
 62
   256
  6
BYLAYER
 49
-0.5
 62
   256
  6
BYLAYER
  0
ACDBPLACEHOLDER
  5
F
102
{ACAD_REACTORS
330
E
102
}
330
E
  0
SCALE
  5
48
102
{ACAD_REACTORS
330
47
102
}
330
47
100
AcDbScale
 70
     0
300
1:1
140
1.0
141
1.0
290
     1
  0
SCALE
  5
49
102
{ACAD_REACTORS
330
47
102
}
330
47
100
AcDbScale
 70
     0
300
1:2
140
1.0
141
2.0
290
     0
  0
SCALE
  5
4A
102
{ACAD_REACTORS
330
47
102
}
330
47
100
AcDbScale
 70
     0
300
1:4
140
1.0
141
4.0
290
     0
  0
SCALE
  5
4B
102
{ACAD_REACTORS
330
47
102
}
330
47
100
AcDbScale
 70
     0
300
1:5
140
1.0
141
5.0
290
     0
  0
SCALE
  5
4C
102
{ACAD_REACTORS
330
47
102
}
330
47
100
AcDbScale
 70
     0
300
1:8
140
1.0
141
8.0
290
     0
  0
SCALE
  5
4D
102
{ACAD_REACTORS
330
47
102
}
330
47
100
AcDbScale
 70
     0
300
1:10
140
1.0
141
10.0
290
     0
  0
SCALE
  5
4E
102
{ACAD_REACTORS
330
47
102
}
330
47
100
AcDbScale
 70
     0
300
1:16
140
1.0
141
16.0
290
     0
  0
SCALE
  5
4F
102
{ACAD_REACTORS
330
47
102
}
330
47
100
AcDbScale
 70
     0
300
1:20
140
1.0
141
20.0
290
     0
  0
SCALE
  5
50
102
{ACAD_REACTORS
330
47
102
}
330
47
100
AcDbScale
 70
     0
300
1:30
140
1.0
141
30.0
290
     0
  0
SCALE
  5
51
102
{ACAD_REACTORS
330
47
102
}
330
47
100
AcDbScale
 70
     0
300
1:40
140
1.0
141
40.0
290
     0
  0
SCALE
  5
52
102
{ACAD_REACTORS
330
47
102
}
330
47
100
AcDbScale
 70
     0
300
1:50
140
1.0
141
50.0
290
     0
  0
SCALE
  5
53
102
{ACAD_REACTORS
330
47
102
}
330
47
100
AcDbScale
 70
     0
300
1:100
140
1.0
141
100.0
290
     0
  0
SCALE
  5
54
102
{ACAD_REACTORS
330
47
102
}
330
47
100
AcDbScale
 70
     0
300
2:1
140
2.0
141
1.0
290
     0
  0
SCALE
  5
55
102
{ACAD_REACTORS
330
47
102
}
330
47
100
AcDbScale
 70
     0
300
4:1
140
4.0
141
1.0
290
     0
  0
SCALE
  5
56
102
{ACAD_REACTORS
330
47
102
}
330
47
100
AcDbScale
 70
     0
300
8:1
140
8.0
141
1.0
290
     0
  0
SCALE
  5
57
102
{ACAD_REACTORS
330
47
102
}
330
47
100
AcDbScale
 70
     0
300
10:1
140
10.0
141
1.0
290
     0
  0
SCALE
  5
58
102
{ACAD_REACTORS
330
47
102
}
330
47
100
AcDbScale
 70
     0
300
100:1
140
100.0
141
1.0
290
     0
  0
SCALE
  5
59
102
{ACAD_REACTORS
330
47
102
}
330
47
100
AcDbScale
 70
     0
300
1/128" = 1'-0"
140
0.0078125
141
12.0
290
     0
  0
SCALE
  5
5A
102
{ACAD_REACTORS
330
47
102
}
330
47
100
AcDbScale
 70
     0
300
1/64" = 1'-0"
140
0.015625
141
12.0
290
     0
  0
SCALE
  5
5B
102
{ACAD_REACTORS
330
47
102
}
330
47
100
AcDbScale
 70
     0
300
1/32" = 1'-0"
140
0.03125
141
12.0
290
     0
  0
SCALE
  5
5C
102
{ACAD_REACTORS
330
47
102
}
330
47
100
AcDbScale
 70
     0
300
1/16" = 1'-0"
140
0.0625
141
12.0
290
     0
  0
SCALE
  5
5D
102
{ACAD_REACTORS
330
47
102
}
330
47
100
AcDbScale
 70
     0
300
3/32" = 1'-0"
140
0.09375
141
12.0
290
     0
  0
SCALE
  5
5E
102
{ACAD_REACTORS
330
47
102
}
330
47
100
AcDbScale
 70
     0
300
1/8" = 1'-0"
140
0.125
141
12.0
290
     0
  0
SCALE
  5
5F
102
{ACAD_REACTORS
330
47
102
}
330
47
100
AcDbScale
 70
     0
300
3/16" = 1'-0"
140
0.1875
141
12.0
290
     0
  0
SCALE
  5
60
102
{ACAD_REACTORS
330
47
102
}
330
47
100
AcDbScale
 70
     0
300
1/4" = 1'-0"
140
0.25
141
12.0
290
     0
  0
SCALE
  5
61
102
{ACAD_REACTORS
330
47
102
}
330
47
100
AcDbScale
 70
     0
300
3/8" = 1'-0"
140
0.375
141
12.0
290
     0
  0
SCALE
  5
62
102
{ACAD_REACTORS
330
47
102
}
330
47
100
AcDbScale
 70
     0
300
1/2" = 1'-0"
140
0.5
141
12.0
290
     0
  0
SCALE
  5
63
102
{ACAD_REACTORS
330
47
102
}
330
47
100
AcDbScale
 70
     0
300
3/4" = 1'-0"
140
0.75
141
12.0
290
     0
  0
SCALE
  5
64
102
{ACAD_REACTORS
330
47
102
}
330
47
100
AcDbScale
 70
     0
300
1" = 1'-0"
140
1.0
141
12.0
290
     0
  0
SCALE
  5
65
102
{ACAD_REACTORS
330
47
102
}
330
47
100
AcDbScale
 70
     0
300
1-1/2" = 1'-0"
140
1.5
141
12.0
290
     0
  0
SCALE
  5
66
102
{ACAD_REACTORS
330
47
102
}
330
47
100
AcDbScale
 70
     0
300
3" = 1'-0"
140
3.0
141
12.0
290
     0
  0
SCALE
  5
67
102
{ACAD_REACTORS
330
47
102
}
330
47
100
AcDbScale
 70
     0
300
6" = 1'-0"
140
6.0
141
12.0
290
     0
  0
SCALE
  5
68
102
{ACAD_REACTORS
330
47
102
}
330
47
100
AcDbScale
 70
     0
300
1'-0" = 1'-0"
140
12.0
141
12.0
290
     0
  0
ENDSEC
  0
EOF
