  0
SECTION
  2
HEADER
  9
$ACADVER
  1
AC1015
  9
$ACADMAINTVER
 70
     6
  9
$DWGCODEPAGE
  3
ANSI_1250
  9
$INSBASE
 10
0.0
 20
0.0
 30
0.0
  9
$EXTMIN
 10
0.0
 20
0.0
 30
0.0
  9
$EXTMAX
 10
20000.0
 20
10000.0
 30
0.0
  9
$LIMMIN
 10
0.0
 20
0.0
  9
$LIMMAX
 10
20000.0
 20
10000.0
  9
$ORTHOMODE
 70
     0
  9
$REGENMODE
 70
     1
  9
$FILLMODE
 70
     1
  9
$QTEXTMODE
 70
     0
  9
$MIRRTEXT
 70
     1
  9
$LTSCALE
 40
1.0
  9
$ATTMODE
 70
     1
  9
$TEXTSIZE
 40
2.0
  9
$TRACEWID
 40
1.0
  9
$TEXTSTYLE
  7
Standard
  9
$CLAYER
  8
0
  9
$CELTYPE
  6
ByLayer
  9
$CECOLOR
 62
   256
  9
$CELTSCALE
 40
1.0
  9
$DISPSILH
 70
     0
  9
$DIMSCALE
 40
1.0
  9
$DIMASZ
 40
2.0
  9
$DIMEXO
 40
1.0
  9
$DIMDLI
 40
3.75
  9
$DIMRND
 40
0.0
  9
$DIMDLE
 40
0.0
  9
$DIMEXE
 40
1.0
  9
$DIMTP
 40
0.0
  9
$DIMTM
 40
0.0
  9
$DIMTXT
 40
2.0
  9
$DIMCEN
 40
2.5
  9
$DIMTSZ
 40
0.0
  9
$DIMTOL
 70
     0
  9
$DIMLIM
 70
     0
  9
$DIMTIH
 70
     1
  9
$DIMTOH
 70
     1
  9
$DIMSE1
 70
     0
  9
$DIMSE2
 70
     0
  9
$DIMTAD
 70
     1
  9
$DIMZIN
 70
     0
  9
$DIMBLK
  1

  9
$DIMASO
 70
     1
  9
$DIMSHO
 70
     1
  9
$DIMPOST
  1

  9
$DIMAPOST
  1

  9
$DIMALT
 70
     0
  9
$DIMALTD
 70
     3
  9
$DIMALTF
 40
0.0393700787
  9
$DIMLFAC
 40
1.0
  9
$DIMTOFL
 70
     1
  9
$DIMTVP
 40
0.0
  9
$DIMTIX
 70
     0
  9
$DIMSOXD
 70
     0
  9
$DIMSAH
 70
     0
  9
$DIMBLK1
  1

  9
$DIMBLK2
  1

  9
$DIMSTYLE
  2
ISO-25
  9
$DIMCLRD
 70
     0
  9
$DIMCLRE
 70
     0
  9
$DIMCLRT
 70
     0
  9
$DIMTFAC
 40
1.0
  9
$DIMGAP
 40
1.524
  9
$DIMJUST
 70
     0
  9
$DIMSD1
 70
     0
  9
$DIMSD2
 70
     0
  9
$DIMTOLJ
 70
     0
  9
$DIMTZIN
 70
     0
  9
$DIMALTZ
 70
     0
  9
$DIMALTTZ
 70
     0
  9
$DIMUPT
 70
     0
  9
$DIMDEC
 70
     2
  9
$DIMTDEC
 70
     0
  9
$DIMALTU
 70
     2
  9
$DIMALTTD
 70
     3
  9
$DIMTXSTY
  7
Standard
  9
$DIMAUNIT
 70
     0
  9
$DIMADEC
 70
     2
  9
$DIMALTRND
 40
0.0
  9
$DIMAZIN
 70
     0
  9
$DIMDSEP
 70
    44
  9
$DIMATFIT
 70
     3
  9
$DIMFRAC
 70
     0
  9
$DIMLDRBLK
  1

  9
$DIMLUNIT
 70
     2
  9
$DIMLWD
 70
    -2
  9
$DIMLWE
 70
    -2
  9
$DIMTMOVE
 70
     0
  9
$LUNITS
 70
     2
  9
$LUPREC
 70
     3
  9
$SKETCHINC
 40
1.0
  9
$FILLETRAD
 40
10.0
  9
$AUNITS
 70
     0
  9
$AUPREC
 70
     2
  9
$MENU
  1
.
  9
$ELEVATION
 40
0.0
  9
$PELEVATION
 40
0.0
  9
$THICKNESS
 40
0.0
  9
$LIMCHECK
 70
     0
  9
$CHAMFERA
 40
0.0
  9
$CHAMFERB
 40
0.0
  9
$CHAMFERC
 40
0.0
  9
$CHAMFERD
 40
0.0
  9
$SKPOLY
 70
     0
  9
$TDCREATE
 40
2458676.607726713
  9
$TDUCREATE
 40
2458676.52439338
  9
$TDUPDATE
 40
2458676.607726886
  9
$TDUUPDATE
 40
2458676.524393553
  9
$TDINDWG
 40
0.0000000116
  9
$TDUSRTIMER
 40
0.0000000116
  9
$USRTIMER
 70
     1
  9
$ANGBASE
 50
0.0
  9
$ANGDIR
 70
     0
  9
$PDMODE
 70
     0
  9
$PDSIZE
 40
-1.0
  9
$PLINEWID
 40
0.0
  9
$SPLFRAME
 70
     0
  9
$SPLINETYPE
 70
     6
  9
$SPLINESEGS
 70
     8
  9
$HANDSEED
  5
1CC
  9
$SURFTAB1
 70
     6
  9
$SURFTAB2
 70
     6
  9
$SURFTYPE
 70
     6
  9
$SURFU
 70
     6
  9
$SURFV
 70
     6
  9
$UCSBASE
  2

  9
$UCSNAME
  2

  9
$UCSORG
 10
0.0
 20
0.0
 30
0.0
  9
$UCSXDIR
 10
1.0
 20
0.0
 30
0.0
  9
$UCSYDIR
 10
0.0
 20
1.0
 30
0.0
  9
$UCSORTHOREF
  2

  9
$UCSORTHOVIEW
 70
     0
  9
$UCSORGTOP
 10
0.0
 20
0.0
 30
0.0
  9
$UCSORGBOTTOM
 10
0.0
 20
0.0
 30
0.0
  9
$UCSORGLEFT
 10
0.0
 20
0.0
 30
0.0
  9
$UCSORGRIGHT
 10
0.0
 20
0.0
 30
0.0
  9
$UCSORGFRONT
 10
0.0
 20
0.0
 30
0.0
  9
$UCSORGBACK
 10
0.0
 20
0.0
 30
0.0
  9
$PUCSBASE
  2

  9
$PUCSNAME
  2

  9
$PUCSORG
 10
0.0
 20
0.0
 30
0.0
  9
$PUCSXDIR
 10
1.0
 20
0.0
 30
0.0
  9
$PUCSYDIR
 10
0.0
 20
1.0
 30
0.0
  9
$PUCSORTHOREF
  2

  9
$PUCSORTHOVIEW
 70
     0
  9
$PUCSORGTOP
 10
0.0
 20
0.0
 30
0.0
  9
$PUCSORGBOTTOM
 10
0.0
 20
0.0
 30
0.0
  9
$PUCSORGLEFT
 10
0.0
 20
0.0
 30
0.0
  9
$PUCSORGRIGHT
 10
0.0
 20
0.0
 30
0.0
  9
$PUCSORGFRONT
 10
0.0
 20
0.0
 30
0.0
  9
$PUCSORGBACK
 10
0.0
 20
0.0
 30
0.0
  9
$USERI1
 70
     0
  9
$USERI2
 70
     0
  9
$USERI3
 70
     0
  9
$USERI4
 70
     0
  9
$USERI5
 70
     0
  9
$USERR1
 40
0.0
  9
$USERR2
 40
0.0
  9
$USERR3
 40
0.0
  9
$USERR4
 40
0.0
  9
$USERR5
 40
0.0
  9
$WORLDVIEW
 70
     1
  9
$SHADEDGE
 70
     3
  9
$SHADEDIF
 70
    70
  9
$TILEMODE
 70
     1
  9
$MAXACTVP
 70
    64
  9
$PINSBASE
 10
0.0
 20
0.0
 30
0.0
  9
$PLIMCHECK
 70
     0
  9
$PEXTMIN
 10
1.0000000000E+20
 20
1.0000000000E+20
 30
1.0000000000E+20
  9
$PEXTMAX
 10
-1.0000000000E+20
 20
-1.0000000000E+20
 30
-1.0000000000E+20
  9
$PLIMMIN
 10
0.0
 20
0.0
  9
$PLIMMAX
 10
420.0
 20
297.0
  9
$UNITMODE
 70
     0
  9
$VISRETAIN
 70
     1
  9
$PLINEGEN
 70
     0
  9
$PSLTSCALE
 70
     1
  9
$TREEDEPTH
 70
  3020
  9
$CMLSTYLE
  2
Standard
  9
$CMLJUST
 70
     0
  9
$CMLSCALE
 40
20.0
  9
$PROXYGRAPHICS
 70
     1
  9
$MEASUREMENT
 70
     1
  9
$CELWEIGHT
370
    -1
  9
$ENDCAPS
280
     0
  9
$JOINSTYLE
280
     0
  9
$LWDISPLAY
290
     1
  9
$INSUNITS
 70
     4
  9
$HYPERLINKBASE
  1

  9
$STYLESHEET
  1

  9
$XEDIT
290
     1
  9
$CEPSNTYPE
380
     0
  9
$PSTYLEMODE
290
     1
  9
$FINGERPRINTGUID
  2
{AA30B033-C899-47EE-99ED-7D9DDE215977}
  9
$VERSIONGUID
  2
{FAEB1C32-E019-11D5-929B-00C0DF256EC4}
  9
$EXTNAMES
290
     1
  9
$PSVPSCALE
 40
0.0
  9
$OLESTARTUP
290
     0
  0
ENDSEC
  0
SECTION
  2
CLASSES
  0
CLASS
  1
ACDBDICTIONARYWDFLT
  2
AcDbDictionaryWithDefault
  3
ObjectDBX Classes
 90
        0
280
     0
281
     0
  0
CLASS
  1
VISUALSTYLE
  2
AcDbVisualStyle
  3
ObjectDBX Classes
 90
     4095
280
     0
281
     0
  0
CLASS
  1
MATERIAL
  2
AcDbMaterial
  3
ObjectDBX Classes
 90
     1153
280
     0
281
     0
  0
CLASS
  1
SCALE
  2
AcDbScale
  3
ObjectDBX Classes
 90
     1153
280
     0
281
     0
  0
CLASS
  1
TABLESTYLE
  2
AcDbTableStyle
  3
ObjectDBX Classes
 90
     4095
280
     0
281
     0
  0
CLASS
  1
MLEADERSTYLE
  2
AcDbMLeaderStyle
  3
ACDB_MLEADERSTYLE_CLASS
 90
     4095
280
     0
281
     0
  0
CLASS
  1
SUN
  2
AcDbSun
  3
SCENEOE
 90
     1153
280
     0
281
     0
  0
CLASS
  1
ACDBPLACEHOLDER
  2
AcDbPlaceHolder
  3
ObjectDBX Classes
 90
        0
280
     0
281
     0
  0
CLASS
  1
LAYOUT
  2
AcDbLayout
  3
ObjectDBX Classes
 90
        0
280
     0
281
     0
  0
ENDSEC
  0
SECTION
  2
TABLES
  0
TABLE
  2
VPORT
  5
8
330
0
100
AcDbSymbolTable
 70
     1
  0
VPORT
  5
29
330
8
100
AcDbSymbolTableRecord
100
AcDbViewportTableRecord
  2
*Active
 70
     0
 10
0.0
 20
0.0
 11
1.0
 21
1.0
 12
10000.0
 22
5000.0
 13
0.0
 23
0.0
 14
10.0
 24
10.0
 15
10.0
 25
10.0
 16
0.0
 26
0.0
 36
1.0
 17
0.0
 27
0.0
 37
0.0
 40
10000.0
 41
2.0
 42
50.0
 43
0.0
 44
0.0
 50
0.0
 51
0.0
 71
     0
 72
  2000
 73
     1
 74
     3
 75
     0
 76
     0
 77
     0
 78
     0
281
     0
 65
     1
110
0.0
120
0.0
130
0.0
111
1.0
121
0.0
131
0.0
112
0.0
122
1.0
132
0.0
 79
     0
146
0.0
  0
ENDTAB
  0
TABLE
  2
LTYPE
  5
5
330
0
100
AcDbSymbolTable
 70
     6
  0
LTYPE
  5
14
330
5
100
AcDbSymbolTableRecord
100
AcDbLinetypeTableRecord
  2
ByBlock
 70
     0
  3

 72
    65
 73
     0
 40
0.0
  0
LTYPE
  5
15
330
5
100
AcDbSymbolTableRecord
100
AcDbLinetypeTableRecord
  2
ByLayer
 70
     0
  3

 72
    65
 73
     0
 40
0.0
  0
LTYPE
  5
16
330
5
100
AcDbSymbolTableRecord
100
AcDbLinetypeTableRecord
  2
Continuous
 70
     0
  3
Solid line
 72
    65
 73
     0
 40
0.0
  0
LTYPE
  5
6E
330
5
100
AcDbSymbolTableRecord
100
AcDbLinetypeTableRecord
  2
HIDDEN
 70
     0
  3
Hidden __ __ __ __ __ __ __ __ __ __ __ __ __ __
 72
    65
 73
     2
 40
1.905
 49
1.27
 74
     0
 49
-0.635
 74
     0
  0
LTYPE
  5
6F
330
5
100
AcDbSymbolTableRecord
100
AcDbLinetypeTableRecord
  2
PHANTOM
 70
     0
  3
Phantom ______  __  __  ______  __  __  ______
 72
    65
 73
     6
 40
12.7
 49
6.35
 74
     0
 49
-1.27
 74
     0
 49
1.27
 74
     0
 49
-1.27
 74
     0
 49
1.27
 74
     0
 49
-1.27
 74
     0
  0
LTYPE
  5
70
330
5
100
AcDbSymbolTableRecord
100
AcDbLinetypeTableRecord
  2
CENTER
 70
     0
  3
Center ____ _ ____ _ ____ _ ____ _ ____ _ ____
 72
    65
 73
     4
 40
10.16
 49
6.35
 74
     0
 49
-1.27
 74
     0
 49
1.27
 74
     0
 49
-1.27
 74
     0
  0
LTYPE
  5
71
330
5
100
AcDbSymbolTableRecord
100
AcDbLinetypeTableRecord
  2
CENTERX2
 70
     0
  3
Center (2x) ________  __  ________  __  _____
 72
    65
 73
     4
 40
20.32
 49
12.7
 74
     0
 49
-2.54
 74
     0
 49
2.54
 74
     0
 49
-2.54
 74
     0
  0
LTYPE
  5
72
330
5
100
AcDbSymbolTableRecord
100
AcDbLinetypeTableRecord
  2
DOT2
 70
     0
  3
Dot (.5x) ........................................
 72
    65
 73
     2
 40
0.635
 49
0.0
 74
     0
 49
-0.635
 74
     0
  0
ENDTAB
  0
TABLE
  2
LAYER
  5
2
330
0
100
AcDbSymbolTable
 70
    13
  0
LAYER
  5
10
330
2
100
AcDbSymbolTableRecord
100
AcDbLayerTableRecord
  2
0
 70
     0
 62
     7
  6
Continuous
370
    -3
390
F
  0
LAYER
  5
73
330
2
100
AcDbSymbolTableRecord
100
AcDbLayerTableRecord
  2
FORMAT
 70
     0
 62
     7
  6
Continuous
370
    -3
390
F
  0
LAYER
  5
74
330
2
100
AcDbSymbolTableRecord
100
AcDbLayerTableRecord
  2
OSA
 70
     0
 62
     7
  6
CENTER
370
    -3
390
F
  0
LAYER
  5
75
330
2
100
AcDbSymbolTableRecord
100
AcDbLayerTableRecord
  2
0_35
 70
     0
 62
     7
  6
Continuous
370
    35
390
F
  0
LAYER
  5
76
330
2
100
AcDbSymbolTableRecord
100
AcDbLayerTableRecord
  2
0_5
 70
     0
 62
     7
  6
Continuous
370
    50
390
F
  0
LAYER
  5
77
330
2
100
AcDbSymbolTableRecord
100
AcDbLayerTableRecord
  2
0_25
 70
     0
 62
     7
  6
Continuous
370
    25
390
F
  0
LAYER
  5
78
330
2
100
AcDbSymbolTableRecord
100
AcDbLayerTableRecord
  2
0_18
 70
     0
 62
     7
  6
Continuous
370
    -3
390
F
  0
LAYER
  5
79
330
2
100
AcDbSymbolTableRecord
100
AcDbLayerTableRecord
  2
SLD-0
 70
     0
 62
   179
  6
Continuous
370
    -3
390
F
  0
LAYER
  5
7A
330
2
100
AcDbSymbolTableRecord
100
AcDbLayerTableRecord
  2
KOTY
 70
     0
 62
     7
  6
Continuous
370
    -3
390
F
  0
LAYER
  5
7B
330
2
100
AcDbSymbolTableRecord
100
AcDbLayerTableRecord
  2
SILNA
 70
     0
 62
   179
  6
Continuous
370
    -3
390
F
  0
LAYER
  5
7C
330
2
100
AcDbSymbolTableRecord
100
AcDbLayerTableRecord
  2
0_18_1
 70
     0
 62
   179
  6
Continuous
370
    -3
390
F
  0
LAYER
  5
7D
330
2
100
AcDbSymbolTableRecord
100
AcDbLayerTableRecord
  2
0_35_1
 70
     0
 62
   179
  6
Continuous
370
    35
390
F
  0
LAYER
  5
7E
330
2
100
AcDbSymbolTableRecord
100
AcDbLayerTableRecord
  2
0_5_1
 70
     0
 62
   179
  6
Continuous
370
    50
390
F
  0
ENDTAB
  0
TABLE
  2
STYLE
  5
3
330
0
100
AcDbSymbolTable
 70
     1
  0
STYLE
  5
11
330
3
100
AcDbSymbolTableRecord
100
AcDbTextStyleTableRecord
  2
Standard
 70
     0
 40
0.0
 41
1.0
 50
0.0
 71
     0
 42
2.0
  3
txt
  4

  0
ENDTAB
  0
TABLE
  2
VIEW
  5
6
330
0
100
AcDbSymbolTable
 70
     0
  0
ENDTAB
  0
TABLE
  2
UCS
  5
7
330
0
100
AcDbSymbolTable
 70
     0
  0
ENDTAB
  0
TABLE
  2
APPID
  5
9
330
0
100
AcDbSymbolTable
 70
     1
  0
APPID
  5
12
330
9
100
AcDbSymbolTableRecord
100
AcDbRegAppTableRecord
  2
ACAD
 70
     0
  0
ENDTAB
  0
TABLE
  2
DIMSTYLE
  5
A
330
0
100
AcDbSymbolTable
 70
     1
100
AcDbDimStyleTable
  0
DIMSTYLE
105
27
330
A
100
AcDbSymbolTableRecord
100
AcDbDimStyleTableRecord
  2
ISO-25
 70
     0
 41
2.5
 42
0.625
 43
3.75
 44
1.25
 73
     0
 74
     0
 77
     1
 78
     8
140
2.5
141
2.5
143
0.0393700787
147
0.625
171
     3
172
     1
178
     0
271
     2
272
     2
274
     3
278
    44
283
     0
284
     8
340
11
  0
ENDTAB
  0
TABLE
  2
BLOCK_RECORD
  5
1
330
0
100
AcDbSymbolTable
 70
     1
  0
BLOCK_RECORD
  5
1F
330
1
100
AcDbSymbolTableRecord
100
AcDbBlockTableRecord
  2
*Model_Space
340
22
  0
BLOCK_RECORD
  5
1B
330
1
100
AcDbSymbolTableRecord
100
AcDbBlockTableRecord
  2
*Paper_Space
340
1E
  0
BLOCK_RECORD
  5
23
330
1
100
AcDbSymbolTableRecord
100
AcDbBlockTableRecord
  2
*Paper_Space0
340
26
  0
ENDTAB
  0
ENDSEC
  0
SECTION
  2
BLOCKS
  0
BLOCK
  5
20
330
1F
100
AcDbEntity
  8
0
100
AcDbBlockBegin
  2
*Model_Space
 70
     0
 10
0.0
 20
0.0
 30
0.0
  3
*Model_Space
  1

  0
ENDBLK
  5
21
330
1F
100
AcDbEntity
  8
0
100
AcDbBlockEnd
  0
BLOCK
  5
1C
330
1B
100
AcDbEntity
 67
     1
  8
0
100
AcDbBlockBegin
  2
*Paper_Space
 70
     0
 10
0.0
 20
0.0
 30
0.0
  3
*Paper_Space
  1

  0
ENDBLK
  5
1D
330
1B
100
AcDbEntity
 67
     1
  8
0
100
AcDbBlockEnd
  0
BLOCK
  5
24
330
23
100
AcDbEntity
  8
0
100
AcDbBlockBegin
  2
*Paper_Space0
 70
     0
 10
0.0
 20
0.0
 30
0.0
  3
*Paper_Space0
  1

  0
ENDBLK
  5
25
330
23
100
AcDbEntity
  8
0
100
AcDbBlockEnd
  0
ENDSEC
  0
SECTION
  2
ENTITIES
  0
SPLINE
  5
7F
330
1F
100
AcDbEntity
  8
0
  6
Continuous
 62
     7
370
    25
100
AcDbSpline
210
0.0
220
0.0
230
1.0
 70
     8
 71
     3
 72
    33
 73
    29
 74
     0
 42
0.000000001
 43
0.00000001
 40
0.0
 40
0.0
 40
0.0
 40
0.0
 40
0.0073928016835008
 40
0.0469618341402497
 40
0.084383317127325
 40
0.1144935855457974
 40
0.1375437653063726
 40
0.1591900244302933
 40
0.1934364743329099
 40
0.2340973611027327
 40
0.2770469841322726
 40
0.3129389381062729
 40
0.3412713993130215
 40
0.3699582533603308
 40
0.4065088437730212
 40
0.4505033618591492
 40
0.4920898534169274
 40
0.5454432278602958
 40
0.5917094848015916
 40
0.6157433398916679
 40
0.6457062011240293
 40
0.6822101617811391
 40
0.7260347360661281
 40
0.7670419565937402
 40
0.814043445748853
 40
0.8678527796207506
 40
0.929445811377949
 40
1.0
 40
1.0
 40
1.0
 40
1.0
 10
6187.348840911681
 20
5299.219588557175
 30
0.0
 10
6187.369865587773
 20
5298.981596228221
 30
0.0
 10
6187.503422173463
 20
5297.469780172891
 30
0.0
 10
6187.953197553648
 20
5294.752664268158
 30
0.0
 10
6188.66725105327
 20
5291.345082210748
 30
0.0
 10
6189.471120417596
 20
5288.516882152009
 30
0.0
 10
6190.258593439979
 20
5286.234432181472
 30
0.0
 10
6191.211429006627
 20
5283.874690806731
 30
0.0
 10
6192.57200423331
 20
5281.074458602921
 30
0.0
 10
6194.552430302982
 20
5277.854199198686
 30
0.0
 10
6196.899583183668
 20
5274.876839695115
 30
0.0
 10
6199.252870910566
 20
5272.502179746517
 30
0.0
 10
6201.446059258685
 20
5270.653900364931
 30
0.0
 10
6203.789497980344
 20
5268.981365039091
 30
0.0
 10
6206.654026349207
 20
5267.293021152458
 30
0.0
 10
6209.995238993683
 20
5265.763822368689
 30
0.0
 10
6213.677221781018
 20
5264.470227873228
 30
0.0
 10
6217.471570502098
 20
5263.480881659405
 30
0.0
 10
6220.6900422999
 20
5262.872381725594
 30
0.0
 10
6223.189587715355
 20
5262.495734489242
 30
0.0
 10
6225.39360409967
 20
5262.22210747207
 30
0.0
 10
6227.996194055235
 20
5261.97046641784
 30
0.0
 10
6230.74966685045
 20
5261.778681524596
 30
0.0
 10
6233.612426450872
 20
5261.646083059206
 30
0.0
 10
6236.549506594682
 20
5261.56789890181
 30
0.0
 10
6239.723973662534
 20
5261.53889712988
 30
0.0
 10
6243.139475749324
 20
5261.558161654162
 30
0.0
 10
6245.332274996152
 20
5261.600446058876
 30
0.0
 10
6246.503023584181
 20
5261.623021954588
 30
0.0
  0
SPLINE
  5
80
330
1F
100
AcDbEntity
  8
0
  6
Continuous
 62
     7
370
    25
100
AcDbSpline
210
0.0
220
0.0
230
1.0
 70
     8
 71
     3
 72
    26
 73
    22
 74
     0
 42
0.000000001
 43
0.00000001
 40
0.0
 40
0.0
 40
0.0
 40
0.0
 40
0.1171160393993031
 40
0.2188533415611496
 40
0.3070921347574784
 40
0.3834344175832954
 40
0.449251756871444
 40
0.5057523947962692
 40
0.5753108143022321
 40
0.6293596795679363
 40
0.6803778662326558
 40
0.7371767222144792
 40
0.7896459915567414
 40
0.8286288581251571
 40
0.8591492572208073
 40
0.8871375722041634
 40
0.9041764587568125
 40
0.9257495419883621
 40
0.9536555127747686
 40
0.9905292102316311
 40
1.0
 40
1.0
 40
1.0
 40
1.0
 10
6245.994858597213
 20
5286.617855349473
 30
0.0
 10
6244.892818397717
 20
5286.596027359878
 30
0.0
 10
6242.833449062554
 20
5286.555237656888
 30
0.0
 10
6239.599806605506
 20
5286.533728433136
 30
0.0
 10
6236.597641204891
 20
5286.562755769833
 30
0.0
 10
6233.833303039553
 20
5286.64702410507
 30
0.0
 10
6231.330349982762
 20
5286.782968407982
 30
0.0
 10
6228.815689967969
 20
5286.989380435537
 30
0.0
 10
6226.373712289403
 20
5287.278174550138
 30
0.0
 10
6223.93860681913
 20
5287.688693177658
 30
0.0
 10
6221.70897581341
 20
5288.192089434067
 30
0.0
 10
6219.389553717118
 20
5288.934093851889
 30
0.0
 10
6217.765922211393
 20
5289.723775150531
 30
0.0
 10
6216.515029230015
 20
5290.602567421077
 30
0.0
 10
6215.53717173963
 20
5291.582745566925
 30
0.0
 10
6214.776978116784
 20
5292.652941440018
 30
0.0
 10
6214.18236066925
 20
5293.765992093721
 30
0.0
 10
6213.666291021495
 20
5294.965362333748
 30
0.0
 10
6213.13075438476
 20
5296.617514472273
 30
0.0
 10
6212.77644124111
 20
5298.093087402482
 30
0.0
 10
6212.616380062646
 20
5299.028442760099
 30
0.0
 10
6212.583670546109
 20
5299.219588557175
 30
0.0
  0
LINE
  5
81
330
1F
100
AcDbEntity
  8
0
  6
Continuous
 62
     7
370
    25
100
AcDbLine
 10
6238.0187568858
 20
5299.2195885572
 30
0.0
 11
6238.0187568858
 21
5298.6195895764
 31
0.0
  0
LINE
  5
82
330
1F
100
AcDbEntity
  8
0
  6
Continuous
 62
     7
370
    25
100
AcDbLine
 10
6310.0187537864
 20
5298.6195895764
 30
0.0
 11
6310.0187537864
 21
5299.2195885572
 31
0.0
  0
LINE
  5
83
330
1F
100
AcDbEntity
  8
0
  6
Continuous
 62
     7
370
    25
100
AcDbLine
 10
6311.5187568262
 20
5294.6195889208
 30
0.0
 11
6311.5187568262
 21
5298.6195895764
 31
0.0
  0
LINE
  5
84
330
1F
100
AcDbEntity
  8
0
  6
Continuous
 62
     7
370
    25
100
AcDbLine
 10
6236.518753846
 20
5298.6195895764
 30
0.0
 11
6236.518753846
 21
5294.6195889208
 31
0.0
  0
ARC
  5
85
330
1F
100
AcDbEntity
  8
0
  6
Continuous
 62
     7
370
    25
100
AcDbCircle
 10
6309.0187553361
 20
5294.6195892128
 30
0.0
 40
2.500000000000677
100
AcDbArc
 50
284.3939865587
 51
0.0
  0
ARC
  5
86
330
1F
100
AcDbEntity
  8
0
  6
Continuous
 62
     7
370
    25
100
AcDbCircle
 10
6239.0187553361
 20
5294.6195892128
 30
0.0
 40
2.500000000000677
100
AcDbArc
 50
180.0
 51
255.6060134413
  0
LINE
  5
87
330
1F
100
AcDbEntity
  8
0
  6
Continuous
 62
     7
370
    25
100
AcDbLine
 10
6238.397283633
 20
5292.1980645451
 30
0.0
 11
6247.0187546357
 21
5289.9854134712
 31
0.0
  0
LINE
  5
88
330
1F
100
AcDbEntity
  8
0
  6
Continuous
 62
     7
370
    25
100
AcDbLine
 10
6301.0187560365
 20
5289.9854134712
 30
0.0
 11
6309.6402270392
 21
5292.1980645451
 31
0.0
  0
LINE
  5
89
330
1F
100
AcDbEntity
  8
0
  6
Continuous
 62
     7
370
    25
100
AcDbLine
 10
6301.0187560365
 20
5279.985411832
 30
0.0
 11
6301.0187560365
 21
5289.9854134712
 31
0.0
  0
LINE
  5
8A
330
1F
100
AcDbEntity
  8
0
  6
Continuous
 62
     7
370
    25
100
AcDbLine
 10
6247.0187546357
 20
5289.9854134712
 30
0.0
 11
6247.0187546357
 21
5279.985411832
 31
0.0
  0
LINE
  5
8B
330
1F
100
AcDbEntity
  8
0
  6
Continuous
 62
     7
370
    25
100
AcDbLine
 10
6247.0187546357
 20
5279.985411832
 30
0.0
 11
6251.0187552914
 21
5260.985412443
 31
0.0
  0
LINE
  5
8C
330
1F
100
AcDbEntity
  8
0
  6
Continuous
 62
     7
370
    25
100
AcDbLine
 10
6297.0187553808
 20
5260.985412443
 30
0.0
 11
6301.0187560365
 21
5279.985411832
 31
0.0
  0
LINE
  5
8D
330
1F
100
AcDbEntity
  8
0
  6
Continuous
 62
     7
370
    25
100
AcDbLine
 10
6297.0187553808
 20
5250.9854135978
 30
0.0
 11
6297.0187553808
 21
5260.985412443
 31
0.0
  0
LINE
  5
8E
330
1F
100
AcDbEntity
  8
0
  6
Continuous
 62
     7
370
    25
100
AcDbLine
 10
6251.0187552914
 20
5260.985412443
 30
0.0
 11
6251.0187552914
 21
5250.9854135978
 31
0.0
  0
LINE
  5
8F
330
1F
100
AcDbEntity
  8
0
  6
Continuous
 62
     7
370
    25
100
AcDbLine
 10
6246.7172240511
 20
5263.4354129377
 30
0.0
 11
6247.2413425937
 21
5263.4354129377
 31
0.0
  0
LINE
  5
90
330
1F
100
AcDbEntity
  8
0
  6
Continuous
 62
     7
370
    25
100
AcDbLine
 10
6247.0187546357
 20
5285.9354119691
 30
0.0
 11
6246.6162612334
 21
5285.9354119691
 31
0.0
  0
LINE
  5
91
330
1F
100
AcDbEntity
  8
0
  6
Continuous
 62
     7
370
    25
100
AcDbLine
 10
6240.0187534884
 20
5096.679317573
 30
0.0
 11
6246.9125410214
 21
5029.3736483845
 31
0.0
  0
LINE
  5
92
330
1F
100
AcDbEntity
  8
0
  6
Continuous
 62
     7
370
    25
100
AcDbLine
 10
6301.1249696508
 20
5029.3736483845
 30
0.0
 11
6308.0187571838
 21
5096.679317573
 31
0.0
  0
LINE
  5
93
330
1F
100
AcDbEntity
  8
0
  6
Continuous
 62
     7
370
    25
100
AcDbLine
 10
6308.0187571838
 20
5096.679317573
 30
0.0
 11
6301.3281972751
 21
5154.0269654187
 31
0.0
  0
LINE
  5
94
330
1F
100
AcDbEntity
  8
0
  6
Continuous
 62
     7
370
    25
100
AcDbLine
 10
6246.7093133971
 20
5154.0269654187
 30
0.0
 11
6240.0187534884
 21
5096.679317573
 31
0.0
  0
ARC
  5
95
330
1F
100
AcDbEntity
  8
0
  6
Continuous
 62
     7
370
    25
100
AcDbCircle
 10
6249.6891029982
 20
5153.6793199726
 30
0.0
 40
2.999999999999798
100
AcDbArc
 50
90.0
 51
173.345574954
  0
ARC
  5
96
330
1F
100
AcDbEntity
  8
0
  6
Continuous
 62
     7
370
    25
100
AcDbCircle
 10
6298.348407674
 20
5153.6793199726
 30
0.0
 40
2.999999999999798
100
AcDbArc
 50
6.654425046
 51
90.0
  0
ARC
  5
97
330
1F
100
AcDbEntity
  8
0
  6
Continuous
 62
     7
370
    25
100
AcDbCircle
 10
6249.8969274699
 20
5029.6793199726
 30
0.0
 40
3.000000000000424
100
AcDbArc
 50
185.8481280262
 51
270.0
  0
ARC
  5
98
330
1F
100
AcDbEntity
  8
0
  6
Continuous
 62
     7
370
    25
100
AcDbCircle
 10
6298.1405832023
 20
5029.6793199726
 30
0.0
 40
3.000000000000424
100
AcDbArc
 50
270.0
 51
354.1518719738
  0
LINE
  5
99
330
1F
100
AcDbEntity
  8
0
  6
Continuous
 62
     7
370
    25
100
AcDbLine
 10
6299.0187557086
 20
5159.179317573
 30
0.0
 11
6297.0187553808
 21
5163.1793182287
 31
0.0
  0
LINE
  5
9A
330
1F
100
AcDbEntity
  8
0
  6
Continuous
 62
     7
370
    25
100
AcDbLine
 10
6251.0187552914
 20
5163.1793182287
 30
0.0
 11
6249.0187549636
 21
5159.179317573
 31
0.0
  0
LINE
  5
9B
330
1F
100
AcDbEntity
  8
0
  6
Continuous
 62
     7
370
    25
100
AcDbLine
 10
6251.0187552914
 20
5170.1793175134
 30
0.0
 11
6251.0187552914
 21
5163.1793182287
 31
0.0
  0
LINE
  5
9C
330
1F
100
AcDbEntity
  8
0
  6
Continuous
 62
     7
370
    25
100
AcDbLine
 10
6297.0187553808
 20
5163.1793182287
 30
0.0
 11
6297.0187553808
 21
5170.1793175134
 31
0.0
  0
ARC
  5
9D
330
1F
100
AcDbEntity
  8
0
  6
Continuous
 62
     7
370
    25
100
AcDbCircle
 10
6254.0187553361
 20
5170.1793199726
 30
0.0
 40
3.000000000000909
100
AcDbArc
 50
90.0
 51
180.0
  0
ARC
  5
9E
330
1F
100
AcDbEntity
  8
0
  6
Continuous
 62
     7
370
    25
100
AcDbCircle
 10
6294.0187553361
 20
5170.1793199726
 30
0.0
 40
3.000000000000909
100
AcDbArc
 50
0.0
 51
90.0
  0
LINE
  5
9F
330
1F
100
AcDbEntity
  8
0
  6
Continuous
 62
     7
370
    25
100
AcDbLine
 10
6258.0187545761
 20
5159.179317573
 30
0.0
 11
6258.0187545761
 21
5156.6793199572
 31
0.0
  0
LINE
  5
A0
330
1F
100
AcDbEntity
  8
0
  6
Continuous
 62
     7
370
    25
100
AcDbLine
 10
6290.0187560961
 20
5156.6793199572
 30
0.0
 11
6290.0187560961
 21
5159.179317573
 31
0.0
  0
LINE
  5
A1
330
1F
100
AcDbEntity
  8
0
  6
Continuous
 62
     7
370
    25
100
AcDbLine
 10
6244.0187560067
 20
5250.9854135978
 30
0.0
 11
6246.0187544718
 21
5246.9854129422
 31
0.0
  0
LINE
  5
A2
330
1F
100
AcDbEntity
  8
0
  6
Continuous
 62
     7
370
    25
100
AcDbLine
 10
6302.0187562004
 20
5246.9854129422
 30
0.0
 11
6304.0187546655
 21
5250.9854135978
 31
0.0
  0
ARC
  5
A3
330
1F
100
AcDbEntity
  8
0
  6
Continuous
 62
     7
370
    25
100
AcDbCircle
 10
6249.0187553361
 20
5239.9854131523
 30
0.0
 40
3.0
100
AcDbArc
 50
180.0
 51
270.0
  0
ARC
  5
A4
330
1F
100
AcDbEntity
  8
0
  6
Continuous
 62
     7
370
    25
100
AcDbCircle
 10
6299.0187553361
 20
5239.9854131523
 30
0.0
 40
3.000000000000909
100
AcDbArc
 50
270.0
 51
0.0
  0
LINE
  5
A5
330
1F
100
AcDbEntity
  8
0
  6
Continuous
 62
     7
370
    25
100
AcDbLine
 10
6246.0187544718
 20
5246.9854129422
 30
0.0
 11
6246.0187544718
 21
5239.9854131335
 31
0.0
  0
LINE
  5
A6
330
1F
100
AcDbEntity
  8
0
  6
Continuous
 62
     7
370
    25
100
AcDbLine
 10
6302.0187562004
 20
5239.9854131335
 30
0.0
 11
6302.0187562004
 21
5246.9854129422
 31
0.0
  0
LINE
  5
A7
330
1F
100
AcDbEntity
  8
0
  6
Continuous
 62
     7
370
    25
100
AcDbLine
 10
6258.0187545761
 20
5236.9854131657
 30
0.0
 11
6258.0187545761
 21
5173.1793235931
 31
0.0
  0
LINE
  5
A8
330
1F
100
AcDbEntity
  8
0
  6
Continuous
 62
     7
370
    25
100
AcDbLine
 10
6258.0187545761
 20
5159.179317573
 30
0.0
 11
6258.0187545761
 21
5156.6793199572
 31
0.0
  0
LINE
  5
A9
330
1F
100
AcDbEntity
  8
0
  6
Continuous
 62
     7
370
    25
100
AcDbLine
 10
6290.0187560961
 20
5156.6793199572
 30
0.0
 11
6290.0187560961
 21
5159.179317573
 31
0.0
  0
LINE
  5
AA
330
1F
100
AcDbEntity
  8
0
  6
Continuous
 62
     7
370
    25
100
AcDbLine
 10
6290.0187560961
 20
5173.1793235931
 30
0.0
 11
6290.0187560961
 21
5236.9854131657
 31
0.0
  0
ARC
  5
AB
330
1F
100
AcDbEntity
  8
0
  6
Continuous
 62
     7
370
    25
100
AcDbCircle
 10
6104.0187553361
 20
5350.7195892128
 30
0.0
 40
51.50000000000004
100
AcDbArc
 50
180.5425490589
 51
270.0
  0
ARC
  5
AC
330
1F
100
AcDbEntity
  8
0
  6
Continuous
 62
     7
370
    25
100
AcDbCircle
 10
6444.0187553361
 20
5350.7195892128
 30
0.0
 40
51.50000000000005
100
AcDbArc
 50
270.0
 51
359.4574509411
  0
ARC
  5
AD
330
1F
100
AcDbEntity
  8
0
  6
Continuous
 62
     7
370
    25
100
AcDbCircle
 10
6274.0187553361
 20
5134.6793199726
 30
0.0
 40
40.0
100
AcDbArc
 50
0.0
 51
54.9003678045
  0
ARC
  5
AE
330
1F
100
AcDbEntity
  8
0
  6
Continuous
 62
     7
370
    25
100
AcDbCircle
 10
6274.0187553361
 20
5134.6793199726
 30
0.0
 40
40.00000000000058
100
AcDbArc
 50
125.0996321953
 51
216.1070114059
  0
ARC
  5
AF
330
1F
100
AcDbEntity
  8
0
  6
Continuous
 62
     7
370
    25
100
AcDbCircle
 10
6274.0187553361
 20
5134.6793199726
 30
0.0
 40
40.00000000000068
100
AcDbArc
 50
323.8929885943
 51
0.0
  0
LWPOLYLINE
  5
B0
330
1F
100
AcDbEntity
  8
0
  6
Continuous
 62
     7
370
    25
100
AcDbPolyline
 90
       23
 70
   128
 43
0.0
 10
6247.0187546357
 20
5286.5846071336
 10
6246.6292345568
 20
5286.6099391076
 10
6244.7585390553
 20
5286.5142363998
 10
6242.9307179198
 20
5286.0619861576
 10
6241.1983592108
 20
5285.2662008199
 10
6239.6112924114
 20
5284.1497722956
 10
6238.2151802674
 20
5282.7448200378
 10
6237.0501851335
 20
5281.0917559954
 10
6236.1498234466
 20
5279.2381446752
 10
6235.5399934247
 20
5277.2373024318
 10
6235.23823746
 20
5275.1467961761
 10
6235.2532429293
 20
5273.0267595443
 10
6235.5845739737
 20
5270.938188577
 10
6236.2227013007
 20
5268.9411666188
 10
6237.1492629543
 20
5267.0931413713
 10
6238.3376044825
 20
5265.4472783151
 10
6239.7535426214
 20
5264.0509258899
 10
6241.3563413218
 20
5262.9442557636
 10
6243.0998908028
 20
5262.1591042671
 10
6244.9340318933
 20
5261.7180578354
 10
6246.8060014442
 20
5261.63380667
 10
6248.6619466588
 20
5261.9087722096
 10
6249.0971592858
 20
5262.0269998851
  0
LINE
  5
B1
330
1F
100
AcDbEntity
  8
0
  6
Continuous
 62
     7
370
    25
100
AcDbLine
 10
6290.8255776063
 20
5298.6195895764
 30
0.0
 11
6236.518753846
 21
5298.6195895764
 31
0.0
  0
LINE
  5
B2
330
1F
100
AcDbEntity
  8
0
  6
Continuous
 62
     7
370
    25
100
AcDbLine
 10
6311.5187568262
 20
5298.6195895764
 30
0.0
 11
6290.8255776063
 21
5298.6195895764
 31
0.0
  0
LINE
  5
B3
330
1F
100
AcDbEntity
  8
0
  6
Continuous
 62
     7
370
    25
100
AcDbLine
 10
6286.1196670353
 20
5289.9854134712
 30
0.0
 11
6247.0187546357
 21
5289.9854134712
 31
0.0
  0
LINE
  5
B4
330
1F
100
AcDbEntity
  8
0
  6
Continuous
 62
     7
370
    25
100
AcDbLine
 10
6301.0187560365
 20
5289.9854134712
 30
0.0
 11
6286.1196670353
 21
5289.9854134712
 31
0.0
  0
LINE
  5
B5
330
1F
100
AcDbEntity
  8
0
  6
Continuous
 62
     7
370
    25
100
AcDbLine
 10
6301.0187560365
 20
5279.985411832
 30
0.0
 11
6247.0187546357
 21
5279.985411832
 31
0.0
  0
LINE
  5
B6
330
1F
100
AcDbEntity
  8
0
  6
Continuous
 62
     7
370
    25
100
AcDbLine
 10
6297.0187553808
 20
5260.985412443
 30
0.0
 11
6251.0187552914
 21
5260.985412443
 31
0.0
  0
ARC
  5
B7
330
1F
100
AcDbEntity
  8
0
  6
Continuous
 62
     7
370
    25
100
AcDbCircle
 10
6256.9302435728
 20
5274.2635661784
 30
0.0
 40
14.47934828651506
100
AcDbArc
 50
178.3304926509
 51
245.8427834112
  0
ARC
  5
B8
330
1F
100
AcDbEntity
  8
0
  6
Continuous
 62
     7
370
    25
100
AcDbCircle
 10
6257.6462497441
 20
5274.8745163452
 30
0.0
 40
15.19038520058599
100
AcDbArc
 50
134.3965129553
 51
180.7132925194
  0
LINE
  5
B9
330
1F
100
AcDbEntity
  8
0
  6
Continuous
 62
     7
370
    25
100
AcDbLine
 10
6240.0187534884
 20
5096.679317573
 30
0.0
 11
6308.0187571838
 21
5096.679317573
 31
0.0
  0
LINE
  5
BA
330
1F
100
AcDbEntity
  8
0
  6
Continuous
 62
     7
370
    25
100
AcDbLine
 10
6249.6891023263
 20
5156.6793199572
 30
0.0
 11
6298.3484083459
 21
5156.6793199572
 31
0.0
  0
LINE
  5
BB
330
1F
100
AcDbEntity
  8
0
  6
Continuous
 62
     7
370
    25
100
AcDbLine
 10
6249.8969269589
 20
5026.6793247256
 30
0.0
 11
6298.1405837133
 21
5026.6793247256
 31
0.0
  0
LINE
  5
BC
330
1F
100
AcDbEntity
  8
0
  6
Continuous
 62
     7
370
    25
100
AcDbLine
 10
6251.0187552914
 20
5163.1793182287
 30
0.0
 11
6297.0187553808
 21
5163.1793182287
 31
0.0
  0
LINE
  5
BD
330
1F
100
AcDbEntity
  8
0
  6
Continuous
 62
     7
370
    25
100
AcDbLine
 10
6249.0187549636
 20
5159.179317573
 30
0.0
 11
6299.0187557086
 21
5159.179317573
 31
0.0
  0
LINE
  5
BE
330
1F
100
AcDbEntity
  8
0
  6
Continuous
 62
     7
370
    25
100
AcDbLine
 10
6254.0187557831
 20
5173.1793235931
 30
0.0
 11
6294.0187548891
 21
5173.1793235931
 31
0.0
  0
LINE
  5
BF
330
1F
100
AcDbEntity
  8
0
  6
Continuous
 62
     7
370
    25
100
AcDbLine
 10
6290.5187552467
 20
5156.6793199572
 30
0.0
 11
6290.0187560961
 21
5157.0455904993
 31
0.0
  0
LINE
  5
C0
330
1F
100
AcDbEntity
  8
0
  6
Continuous
 62
     7
370
    25
100
AcDbLine
 10
6258.0187545761
 20
5157.0455904993
 30
0.0
 11
6257.5187554255
 21
5156.6793199572
 31
0.0
  0
LINE
  5
C1
330
1F
100
AcDbEntity
  8
0
  6
Continuous
 62
     7
370
    25
100
AcDbLine
 10
6274.0187553361
 20
5246.9854129422
 30
0.0
 11
6302.0187562004
 21
5246.9854129422
 31
0.0
  0
LINE
  5
C2
330
1F
100
AcDbEntity
  8
0
  6
Continuous
 62
     7
370
    25
100
AcDbLine
 10
6246.0187544718
 20
5246.9854129422
 30
0.0
 11
6274.0187553361
 21
5246.9854129422
 31
0.0
  0
LINE
  5
C3
330
1F
100
AcDbEntity
  8
0
  6
Continuous
 62
     7
370
    25
100
AcDbLine
 10
6274.0187553361
 20
5250.9854135978
 30
0.0
 11
6304.0187546655
 21
5250.9854135978
 31
0.0
  0
LINE
  5
C4
330
1F
100
AcDbEntity
  8
0
  6
Continuous
 62
     7
370
    25
100
AcDbLine
 10
6244.0187560067
 20
5250.9854135978
 30
0.0
 11
6274.0187553361
 21
5250.9854135978
 31
0.0
  0
LINE
  5
C5
330
1F
100
AcDbEntity
  8
0
  6
Continuous
 62
     7
370
    25
100
AcDbLine
 10
6274.0187553361
 20
5236.9854131657
 30
0.0
 11
6299.0187557086
 21
5236.9854131657
 31
0.0
  0
LINE
  5
C6
330
1F
100
AcDbEntity
  8
0
  6
Continuous
 62
     7
370
    25
100
AcDbLine
 10
6249.0187549636
 20
5236.9854131657
 30
0.0
 11
6274.0187553361
 21
5236.9854131657
 31
0.0
  0
LINE
  5
C7
330
1F
100
AcDbEntity
  8
0
  6
Continuous
 62
     7
370
    25
100
AcDbLine
 10
5999.0187493756
 20
5240.7195892128
 30
0.0
 11
5999.0187493756
 21
5335.0053008589
 31
0.0
  0
ELLIPSE
  5
C8
330
1F
100
AcDbEntity
  8
0
  6
Continuous
 62
     7
370
    25
100
AcDbEllipse
 10
6059.0187553361
 20
5335.0053034985
 30
0.0
 11
60.0
 21
0.0
 31
0.0
210
0.0
220
0.0
230
1.0
 40
0.2619047619
 41
1.570796326794897
 42
3.141592653589793
  0
LINE
  5
C9
330
1F
100
AcDbEntity
  8
0
  6
Continuous
 62
     7
370
    25
100
AcDbLine
 10
6059.0187517598
 20
5350.7195886168
 30
0.0
 11
6489.0187589124
 21
5350.7195886168
 31
0.0
  0
ELLIPSE
  5
CA
330
1F
100
AcDbEntity
  8
0
  6
Continuous
 62
     7
370
    25
100
AcDbEllipse
 10
6489.0187553361
 20
5335.0053034985
 30
0.0
 11
60.0
 21
0.0
 31
0.0
210
0.0
220
0.0
230
1.0
 40
0.2619047619
 41
0.0
 42
1.570796326794897
  0
LINE
  5
CB
330
1F
100
AcDbEntity
  8
0
  6
Continuous
 62
     7
370
    25
100
AcDbLine
 10
6549.0187612966
 20
5240.7195892128
 30
0.0
 11
6549.0187612966
 21
5335.0053008589
 31
0.0
  0
LINE
  5
CC
330
1F
100
AcDbEntity
  8
0
  6
Continuous
 62
     7
370
    25
100
AcDbLine
 10
6549.0187612966
 20
5240.7195892128
 30
0.0
 11
6509.0187547401
 21
5240.7195892128
 31
0.0
  0
LINE
  5
CD
330
1F
100
AcDbEntity
  8
0
  6
Continuous
 62
     7
370
    25
100
AcDbLine
 10
6509.0187547401
 20
5240.7195892128
 30
0.0
 11
6509.0187547401
 21
5242.2195892259
 31
0.0
  0
LINE
  5
CE
330
1F
100
AcDbEntity
  8
0
  6
Continuous
 62
     7
370
    25
100
AcDbLine
 10
6547.5187508061
 20
5242.2195892259
 30
0.0
 11
6509.0187547401
 21
5242.2195892259
 31
0.0
  0
LINE
  5
CF
330
1F
100
AcDbEntity
  8
0
  6
Continuous
 62
     7
370
    25
100
AcDbLine
 10
6547.5187508061
 20
5335.0053008589
 30
0.0
 11
6547.5187508061
 21
5242.2195892259
 31
0.0
  0
ELLIPSE
  5
D0
330
1F
100
AcDbEntity
  8
0
  6
Continuous
 62
     7
370
    25
100
AcDbEllipse
 10
6489.0187553361
 20
5335.0053034985
 30
0.0
 11
58.5
 21
0.0
 31
0.0
210
0.0
220
0.0
230
1.0
 40
0.2619047619
 41
0.0
 42
1.570796326794897
  0
LINE
  5
D1
330
1F
100
AcDbEntity
  8
0
  6
Continuous
 62
     7
370
    25
100
AcDbLine
 10
6059.0187517598
 20
5350.3267344031
 30
0.0
 11
6489.0187589124
 21
5350.3267344031
 31
0.0
  0
ELLIPSE
  5
D2
330
1F
100
AcDbEntity
  8
0
  6
Continuous
 62
     7
370
    25
100
AcDbEllipse
 10
6059.0187553361
 20
5335.0053034985
 30
0.0
 11
58.5
 21
0.0
 31
0.0
210
0.0
220
0.0
230
1.0
 40
0.2619047619
 41
1.570796326794897
 42
3.141592653589793
  0
LINE
  5
D3
330
1F
100
AcDbEntity
  8
0
  6
Continuous
 62
     7
370
    25
100
AcDbLine
 10
6000.5187598661
 20
5335.0053008589
 30
0.0
 11
6000.5187598661
 21
5242.2195892259
 31
0.0
  0
LINE
  5
D4
330
1F
100
AcDbEntity
  8
0
  6
Continuous
 62
     7
370
    25
100
AcDbLine
 10
6039.0187559321
 20
5242.2195892259
 30
0.0
 11
6000.5187598661
 21
5242.2195892259
 31
0.0
  0
LINE
  5
D5
330
1F
100
AcDbEntity
  8
0
  6
Continuous
 62
     7
370
    25
100
AcDbLine
 10
6039.0187559321
 20
5242.2195892259
 30
0.0
 11
6039.0187559321
 21
5240.7195892128
 31
0.0
  0
LINE
  5
D6
330
1F
100
AcDbEntity
  8
0
  6
Continuous
 62
     7
370
    25
100
AcDbLine
 10
6039.0187559321
 20
5240.7195892128
 30
0.0
 11
5999.0187493756
 21
5240.7195892128
 31
0.0
  0
LINE
  5
D7
330
1F
100
AcDbEntity
  8
0
  6
Continuous
 62
     7
370
    25
100
AcDbLine
 10
6059.0187517598
 20
5395.7195904049
 30
0.0
 11
6059.0187517598
 21
5350.7195886168
 31
0.0
  0
LINE
  5
D8
330
1F
100
AcDbEntity
  8
0
  6
Continuous
 62
     7
370
    25
100
AcDbLine
 10
6489.0187589124
 20
5395.7195904049
 30
0.0
 11
6059.0187517598
 21
5395.7195904049
 31
0.0
  0
LINE
  5
D9
330
1F
100
AcDbEntity
  8
0
  6
Continuous
 62
     7
370
    25
100
AcDbLine
 10
6489.0187589124
 20
5395.7195904049
 30
0.0
 11
6489.0187589124
 21
5350.7195886168
 31
0.0
  0
LINE
  5
DA
330
1F
100
AcDbEntity
  8
0
  6
Continuous
 62
     7
370
    25
100
AcDbLine
 10
5999.0187493756
 20
5395.7195904049
 30
0.0
 11
5999.0187493756
 21
5335.0053008589
 31
0.0
  0
LINE
  5
DB
330
1F
100
AcDbEntity
  8
0
  6
Continuous
 62
     7
370
    25
100
AcDbLine
 10
6059.0187517598
 20
5395.7195904049
 30
0.0
 11
5999.0187493756
 21
5395.7195904049
 31
0.0
  0
LINE
  5
DC
330
1F
100
AcDbEntity
  8
0
  6
Continuous
 62
     7
370
    25
100
AcDbLine
 10
6004.0187446073
 20
5400.7195856365
 30
0.0
 11
6059.0187517598
 21
5400.7195856365
 31
0.0
  0
LINE
  5
DD
330
1F
100
AcDbEntity
  8
0
  6
Continuous
 62
     7
370
    25
100
AcDbLine
 10
6059.0187517598
 20
5400.7195856365
 30
0.0
 11
6059.0187517598
 21
5395.7195904049
 31
0.0
  0
ARC
  5
DE
330
1F
100
AcDbEntity
  8
0
  6
Continuous
 62
     7
370
    25
100
AcDbCircle
 10
6004.0187553361
 20
5395.7195892128
 30
0.0
 40
5.0
100
AcDbArc
 50
90.0
 51
180.0
  0
LINE
  5
DF
330
1F
100
AcDbEntity
  8
0
  6
Continuous
 62
     7
370
    25
100
AcDbLine
 10
6059.0187517598
 20
5400.7195856365
 30
0.0
 11
6489.0187589124
 21
5400.7195856365
 31
0.0
  0
LINE
  5
E0
330
1F
100
AcDbEntity
  8
0
  6
Continuous
 62
     7
370
    25
100
AcDbLine
 10
6489.0187589124
 20
5400.7195856365
 30
0.0
 11
6489.0187589124
 21
5395.7195904049
 31
0.0
  0
LINE
  5
E1
330
1F
100
AcDbEntity
  8
0
  6
Continuous
 62
     7
370
    25
100
AcDbLine
 10
6549.0187612966
 20
5395.7195904049
 30
0.0
 11
6489.0187589124
 21
5395.7195904049
 31
0.0
  0
LINE
  5
E2
330
1F
100
AcDbEntity
  8
0
  6
Continuous
 62
     7
370
    25
100
AcDbLine
 10
6549.0187612966
 20
5395.7195904049
 30
0.0
 11
6549.0187612966
 21
5335.0053008589
 31
0.0
  0
LINE
  5
E3
330
1F
100
AcDbEntity
  8
0
  6
Continuous
 62
     7
370
    25
100
AcDbLine
 10
6489.0187589124
 20
5400.7195856365
 30
0.0
 11
6544.0187660649
 21
5400.7195856365
 31
0.0
  0
ARC
  5
E4
330
1F
100
AcDbEntity
  8
0
  6
Continuous
 62
     7
370
    25
100
AcDbCircle
 10
6544.0187553361
 20
5395.7195892128
 30
0.0
 40
5.0
100
AcDbArc
 50
0.0
 51
90.0
  0
LINE
  5
E5
330
1F
100
AcDbEntity
  8
0
  6
Continuous
 62
     7
370
    25
100
AcDbLine
 10
6114.0187589124
 20
5299.2195885572
 30
0.0
 11
6434.0187517598
 21
5299.2195885572
 31
0.0
  0
LINE
  5
E6
330
1F
100
AcDbEntity
  8
0
  6
Continuous
 62
     7
370
    25
100
AcDbLine
 10
6104.018753548
 20
5299.2195885572
 30
0.0
 11
6114.0187589124
 21
5299.2195885572
 31
0.0
  0
LINE
  5
E7
330
1F
100
AcDbEntity
  8
0
  6
Continuous
 62
     7
370
    25
100
AcDbLine
 10
6434.0187517598
 20
5299.2195885572
 30
0.0
 11
6444.0187571242
 21
5299.2195885572
 31
0.0
  0
CIRCLE
  5
E8
330
1F
100
AcDbEntity
  8
0
  6
Continuous
 62
     7
370
    25
100
AcDbCircle
 10
6524.0187553361
 20
5335.7195892128
 30
0.0
 40
4.000000000000909
  0
CIRCLE
  5
E9
330
1F
100
AcDbEntity
  8
0
  6
Continuous
 62
     7
370
    25
100
AcDbCircle
 10
6524.0187553361
 20
5275.7195892128
 30
0.0
 40
4.000000000000909
  0
CIRCLE
  5
EA
330
1F
100
AcDbEntity
  8
0
  6
Continuous
 62
     7
370
    25
100
AcDbCircle
 10
6024.0187553361
 20
5275.7195892128
 30
0.0
 40
4.000000000000909
  0
CIRCLE
  5
EB
330
1F
100
AcDbEntity
  8
0
  6
Continuous
 62
     7
370
    25
100
AcDbCircle
 10
6024.0187553361
 20
5335.7195892128
 30
0.0
 40
4.000000000000909
  0
LINE
  5
EC
330
1F
100
AcDbEntity
  8
0
  6
Continuous
 62
     7
370
    25
100
AcDbLine
 10
6039.0187559321
 20
5242.2195892259
 30
0.0
 11
6039.0187559321
 21
5349.4035180601
 31
0.0
  0
LINE
  5
ED
330
1F
100
AcDbEntity
  8
0
  6
Continuous
 62
     7
370
    25
100
AcDbLine
 10
6509.0187547401
 20
5349.4035180601
 30
0.0
 11
6509.0187547401
 21
5242.2195892259
 31
0.0
  0
LINE
  5
EE
330
1F
100
AcDbEntity
  8
0
  6
Continuous
 62
     8
370
    25
100
AcDbLine
 10
6290.8255776063
 20
5294.6195889208
 30
0.0
 11
6236.518753846
 21
5294.6195889208
 31
0.0
  0
LINE
  5
EF
330
1F
100
AcDbEntity
  8
0
  6
Continuous
 62
     8
370
    25
100
AcDbLine
 10
6311.5187568262
 20
5294.6195889208
 30
0.0
 11
6290.8255776063
 21
5294.6195889208
 31
0.0
  0
LINE
  5
F0
330
1F
100
AcDbEntity
  8
0
  6
Continuous
 62
     8
370
    25
100
AcDbLine
 10
6289.9836545482
 20
5292.1980645451
 30
0.0
 11
6238.397283633
 21
5292.1980645451
 31
0.0
  0
LINE
  5
F1
330
1F
100
AcDbEntity
  8
0
  6
Continuous
 62
     8
370
    25
100
AcDbLine
 10
6309.6402270392
 20
5292.1980645451
 30
0.0
 11
6289.9836545482
 21
5292.1980645451
 31
0.0
  0
LINE
  5
F2
330
1F
100
AcDbEntity
  8
0
  6
Continuous
 62
     8
370
    25
100
AcDbLine
 10
6246.9125410214
 20
5029.3736483845
 30
0.0
 11
6301.1249696508
 21
5029.3736483845
 31
0.0
  0
LINE
  5
F3
330
1F
100
AcDbEntity
  8
0
  6
Continuous
 62
     8
370
    25
100
AcDbLine
 10
6301.3281972751
 20
5154.0269654187
 30
0.0
 11
6246.7093133971
 21
5154.0269654187
 31
0.0
  0
LINE
  5
F4
330
1F
100
AcDbEntity
  8
0
  6
Continuous
 62
     8
370
    25
100
AcDbLine
 10
6251.0187552914
 20
5170.1793175134
 30
0.0
 11
6297.0187553808
 21
5170.1793175134
 31
0.0
  0
LINE
  5
F5
330
1F
100
AcDbEntity
  8
0
  6
Continuous
 62
     8
370
    25
100
AcDbLine
 10
6274.0187553361
 20
5239.9854131335
 30
0.0
 11
6302.0187562004
 21
5239.9854131335
 31
0.0
  0
LINE
  5
F6
330
1F
100
AcDbEntity
  8
0
  6
Continuous
 62
     8
370
    25
100
AcDbLine
 10
6246.0187544718
 20
5239.9854131335
 30
0.0
 11
6274.0187553361
 21
5239.9854131335
 31
0.0
  0
LINE
  5
F7
330
1F
100
AcDbEntity
  8
0
  6
Continuous
 62
     8
370
    25
100
AcDbLine
 10
6434.0187517598
 20
5299.2195885572
 30
0.0
 11
6434.0187517598
 21
5350.3267344031
 31
0.0
  0
LINE
  5
F8
330
1F
100
AcDbEntity
  8
0
  6
Continuous
 62
     8
370
    25
100
AcDbLine
 10
6114.0187589124
 20
5299.2195885572
 30
0.0
 11
6114.0187589124
 21
5350.3267344031
 31
0.0
  0
LINE
  5
F9
330
1F
100
AcDbEntity
  8
0
  6
Continuous
 62
     7
370
    25
100
AcDbLine
 10
6773.8509990227
 20
5174.6793191823
 30
0.0
 11
6758.8509984267
 21
5174.6793191823
 31
0.0
  0
LINE
  5
FA
330
1F
100
AcDbEntity
  8
0
  6
Continuous
 62
     7
370
    25
100
AcDbLine
 10
6758.8509984267
 20
5094.6793135199
 30
0.0
 11
6773.8509990227
 21
5094.6793135199
 31
0.0
  0
ARC
  5
FB
330
1F
100
AcDbEntity
  8
0
  6
Continuous
 62
     7
370
    25
100
AcDbCircle
 10
6773.8510018735
 20
5154.6793199726
 30
0.0
 40
20.00000000000091
100
AcDbArc
 50
0.0
 51
90.0
  0
ARC
  5
FC
330
1F
100
AcDbEntity
  8
0
  6
Continuous
 62
     7
370
    25
100
AcDbCircle
 10
6773.8510018735
 20
5114.6793199726
 30
0.0
 40
20.0
100
AcDbArc
 50
270.0
 51
0.0
  0
LINE
  5
FD
330
1F
100
AcDbEntity
  8
0
  6
Continuous
 62
     7
370
    25
100
AcDbLine
 10
6758.8509984267
 20
5154.6793233547
 30
0.0
 11
6748.8510079634
 21
5154.6793233547
 31
0.0
  0
LINE
  5
FE
330
1F
100
AcDbEntity
  8
0
  6
Continuous
 62
     7
370
    25
100
AcDbLine
 10
6748.8510079634
 20
5114.6793242487
 30
0.0
 11
6758.8509984267
 21
5114.6793242487
 31
0.0
  0
LINE
  5
FF
330
1F
100
AcDbEntity
  8
0
  6
Continuous
 62
     7
370
    25
100
AcDbLine
 10
6859.0266510796
 20
5154.6793233547
 30
0.0
 11
6793.8509948504
 21
5154.6793233547
 31
0.0
  0
LINE
  5
100
330
1F
100
AcDbEntity
  8
0
  6
Continuous
 62
     7
370
    25
100
AcDbLine
 10
6793.8509948504
 20
5114.6793242487
 30
0.0
 11
6859.0266510796
 21
5114.6793242487
 31
0.0
  0
SPLINE
  5
101
330
1F
100
AcDbEntity
  8
0
  6
Continuous
 62
     7
370
    25
100
AcDbSpline
210
0.0
220
0.0
230
1.0
 70
     8
 71
     3
 72
    13
 73
     9
 74
     0
 42
0.000000001
 43
0.00000001
 40
0.0
 40
0.0
 40
0.0
 40
0.0
 40
0.0608170761224217
 40
0.2044531139092814
 40
0.3672824436843816
 40
0.5519301541804783
 40
0.7615609554026298
 40
0.9999999999999999
 40
0.9999999999999999
 40
0.9999999999999999
 40
0.9999999999999999
 10
6839.984662080997
 20
5261.922878021292
 30
0.0
 10
6840.450006068773
 20
5261.888156705246
 30
0.0
 10
6842.014386229841
 20
5261.77143157413
 30
0.0
 10
6844.917348927535
 20
5261.664664077231
 30
0.0
 10
6848.87238162829
 20
5261.570153491128
 30
0.0
 10
6853.484032522345
 20
5261.539010753105
 30
0.0
 10
6858.848054910521
 20
5261.557003166268
 30
0.0
 10
6862.768492050763
 20
5261.599063744406
 30
0.0
 10
6864.854741091722
 20
5261.621446156792
 30
0.0
  0
LINE
  5
102
330
1F
100
AcDbEntity
  8
0
  6
Continuous
 62
     7
370
    25
100
AcDbLine
 10
6867.8316838992
 20
5263.4354129377
 30
0.0
 11
6884.6183448982
 21
5263.4354129377
 31
0.0
  0
LINE
  5
103
330
1F
100
AcDbEntity
  8
0
  6
Continuous
 62
     7
370
    25
100
AcDbLine
 10
6946.0266504389
 20
5279.985411832
 30
0.0
 11
6946.0266504389
 21
5289.695779601
 31
0.0
  0
LINE
  5
104
330
1F
100
AcDbEntity
  8
0
  6
Continuous
 62
     7
370
    25
100
AcDbLine
 10
6942.0266497832
 20
5260.985412443
 30
0.0
 11
6946.0266504389
 21
5279.985411832
 31
0.0
  0
LINE
  5
105
330
1F
100
AcDbEntity
  8
0
  6
Continuous
 62
     7
370
    25
100
AcDbLine
 10
6878.1097225797
 20
5262.6845974418
 30
0.0
 11
6878.4499756944
 21
5262.2284337822
 31
0.0
  0
LINE
  5
106
330
1F
100
AcDbEntity
  8
0
  6
Continuous
 62
     7
370
    25
100
AcDbLine
 10
6881.9280408275
 20
5260.185413802
 30
0.0
 11
6898.4839312684
 21
5260.185413802
 31
0.0
  0
LINE
  5
107
330
1F
100
AcDbEntity
  8
0
  6
Continuous
 62
     7
370
    25
100
AcDbLine
 10
6942.0266497832
 20
5250.9854135978
 30
0.0
 11
6942.0266497832
 21
5260.985412443
 31
0.0
  0
LINE
  5
108
330
1F
100
AcDbEntity
  8
0
  6
Continuous
 62
     7
370
    25
100
AcDbLine
 10
6896.0266496938
 20
5260.185413802
 30
0.0
 11
6896.0266496938
 21
5250.9854135978
 31
0.0
  0
LINE
  5
109
330
1F
100
AcDbEntity
  8
0
  6
Continuous
 62
     7
370
    25
100
AcDbLine
 10
6953.0266515863
 20
5096.679317573
 30
0.0
 11
6946.3360916775
 21
5154.0269654187
 31
0.0
  0
LINE
  5
10A
330
1F
100
AcDbEntity
  8
0
  6
Continuous
 62
     7
370
    25
100
AcDbLine
 10
6886.8977531743
 20
5112.7173330578
 30
0.0
 11
6885.0266478908
 21
5096.679317573
 31
0.0
  0
LINE
  5
10B
330
1F
100
AcDbEntity
  8
0
  6
Continuous
 62
     7
370
    25
100
AcDbLine
 10
6885.0266478908
 20
5096.679317573
 30
0.0
 11
6891.9204354238
 21
5029.3736483845
 31
0.0
  0
LINE
  5
10C
330
1F
100
AcDbEntity
  8
0
  6
Continuous
 62
     7
370
    25
100
AcDbLine
 10
6946.1328640532
 20
5029.3736483845
 30
0.0
 11
6953.0266515863
 21
5096.679317573
 31
0.0
  0
LINE
  5
10D
330
1F
100
AcDbEntity
  8
0
  6
Continuous
 62
     7
370
    25
100
AcDbLine
 10
6875.026649977
 20
5162.1793236527
 30
0.0
 11
6871.0266493213
 21
5160.6793206128
 31
0.0
  0
LINE
  5
10E
330
1F
100
AcDbEntity
  8
0
  6
Continuous
 62
     7
370
    25
100
AcDbLine
 10
6871.0266493213
 20
5108.6793269905
 30
0.0
 11
6875.026649977
 21
5107.1793165001
 31
0.0
  0
ARC
  5
10F
330
1F
100
AcDbEntity
  8
0
  6
Continuous
 62
     7
370
    25
100
AcDbCircle
 10
6943.3563020764
 20
5153.6793199726
 30
0.0
 40
2.999999999999798
100
AcDbArc
 50
6.654425046
 51
90.0
  0
ARC
  5
110
330
1F
100
AcDbEntity
  8
0
  6
Continuous
 62
     7
370
    25
100
AcDbCircle
 10
6894.9048218724
 20
5029.6793199726
 30
0.0
 40
3.000000000000424
100
AcDbArc
 50
185.8481280262
 51
270.0
  0
ARC
  5
111
330
1F
100
AcDbEntity
  8
0
  6
Continuous
 62
     7
370
    25
100
AcDbCircle
 10
6943.1484776047
 20
5029.6793199726
 30
0.0
 40
3.000000000000424
100
AcDbArc
 50
270.0
 51
354.1518719738
  0
ARC
  5
112
330
1F
100
AcDbEntity
  8
0
  6
Continuous
 62
     7
370
    25
100
AcDbCircle
 10
6862.0266497385
 20
5157.6793199726
 30
0.0
 40
3.0
100
AcDbArc
 50
90.0
 51
180.0
  0
ARC
  5
113
330
1F
100
AcDbEntity
  8
0
  6
Continuous
 62
     7
370
    25
100
AcDbCircle
 10
6862.0266497385
 20
5111.6793199726
 30
0.0
 40
3.0
100
AcDbArc
 50
180.0
 51
270.0
  0
LINE
  5
114
330
1F
100
AcDbEntity
  8
0
  6
Continuous
 62
     7
370
    25
100
AcDbLine
 10
6871.0266493213
 20
5160.6793206128
 30
0.0
 11
6862.0266497087
 21
5160.6793206128
 31
0.0
  0
LINE
  5
115
330
1F
100
AcDbEntity
  8
0
  6
Continuous
 62
     7
370
    25
100
AcDbLine
 10
6862.0266497087
 20
5108.6793269905
 30
0.0
 11
6871.0266493213
 21
5108.6793269905
 31
0.0
  0
LINE
  5
116
330
1F
100
AcDbEntity
  8
0
  6
Continuous
 62
     7
370
    25
100
AcDbLine
 10
6944.0266501111
 20
5159.179317573
 30
0.0
 11
6942.0266497832
 21
5163.1793182287
 31
0.0
  0
LINE
  5
117
330
1F
100
AcDbEntity
  8
0
  6
Continuous
 62
     7
370
    25
100
AcDbLine
 10
6896.0266496938
 20
5163.1793182287
 30
0.0
 11
6894.026649366
 21
5159.179317573
 31
0.0
  0
ARC
  5
118
330
1F
100
AcDbEntity
  8
0
  6
Continuous
 62
     7
370
    25
100
AcDbCircle
 10
6899.0266497385
 20
5170.1793199726
 30
0.0
 40
3.000000000000909
100
AcDbArc
 50
90.0
 51
180.0
  0
ARC
  5
119
330
1F
100
AcDbEntity
  8
0
  6
Continuous
 62
     7
370
    25
100
AcDbCircle
 10
6939.0266497385
 20
5170.1793199726
 30
0.0
 40
3.000000000000909
100
AcDbArc
 50
0.0
 51
90.0
  0
LINE
  5
11A
330
1F
100
AcDbEntity
  8
0
  6
Continuous
 62
     7
370
    25
100
AcDbLine
 10
6896.0266496938
 20
5170.1793175134
 30
0.0
 11
6896.0266496938
 21
5163.1793182287
 31
0.0
  0
LINE
  5
11B
330
1F
100
AcDbEntity
  8
0
  6
Continuous
 62
     7
370
    25
100
AcDbLine
 10
6942.0266497832
 20
5163.1793182287
 30
0.0
 11
6942.0266497832
 21
5170.1793175134
 31
0.0
  0
LINE
  5
11C
330
1F
100
AcDbEntity
  8
0
  6
Continuous
 62
     7
370
    25
100
AcDbLine
 10
6875.026649977
 20
5112.6793201956
 30
0.0
 11
6886.9214944494
 21
5112.6793201956
 31
0.0
  0
LINE
  5
11D
330
1F
100
AcDbEntity
  8
0
  6
Continuous
 62
     7
370
    25
100
AcDbLine
 10
6892.0266490382
 20
5156.6793199572
 30
0.0
 11
6875.026649977
 21
5156.6793199572
 31
0.0
  0
LINE
  5
11E
330
1F
100
AcDbEntity
  8
0
  6
Continuous
 62
     7
370
    25
100
AcDbLine
 10
6903.0266489786
 20
5159.179317573
 30
0.0
 11
6903.0266489786
 21
5156.6793199572
 31
0.0
  0
LINE
  5
11F
330
1F
100
AcDbEntity
  8
0
  6
Continuous
 62
     7
370
    25
100
AcDbLine
 10
6935.0266504985
 20
5156.6793199572
 30
0.0
 11
6935.0266504985
 21
5159.179317573
 31
0.0
  0
LINE
  5
120
330
1F
100
AcDbEntity
  8
0
  6
Continuous
 62
     7
370
    25
100
AcDbLine
 10
6889.0266504091
 20
5250.9854135978
 30
0.0
 11
6891.0266488743
 21
5246.9854129422
 31
0.0
  0
LINE
  5
121
330
1F
100
AcDbEntity
  8
0
  6
Continuous
 62
     7
370
    25
100
AcDbLine
 10
6947.0266506028
 20
5246.9854129422
 30
0.0
 11
6949.026649068
 21
5250.9854135978
 31
0.0
  0
LINE
  5
122
330
1F
100
AcDbEntity
  8
0
  6
Continuous
 62
     7
370
    25
100
AcDbLine
 10
6891.0266488743
 20
5246.9854129422
 30
0.0
 11
6891.0266488743
 21
5239.9854131335
 31
0.0
  0
LINE
  5
123
330
1F
100
AcDbEntity
  8
0
  6
Continuous
 62
     7
370
    25
100
AcDbLine
 10
6947.0266506028
 20
5239.9854131335
 30
0.0
 11
6947.0266506028
 21
5246.9854129422
 31
0.0
  0
ARC
  5
124
330
1F
100
AcDbEntity
  8
0
  6
Continuous
 62
     7
370
    25
100
AcDbCircle
 10
6894.0266497385
 20
5239.9854131523
 30
0.0
 40
3.0
100
AcDbArc
 50
180.0
 51
270.0
  0
ARC
  5
125
330
1F
100
AcDbEntity
  8
0
  6
Continuous
 62
     7
370
    25
100
AcDbCircle
 10
6944.0266497385
 20
5239.9854131523
 30
0.0
 40
3.0
100
AcDbArc
 50
270.0
 51
0.0
  0
LINE
  5
126
330
1F
100
AcDbEntity
  8
0
  6
Continuous
 62
     7
370
    25
100
AcDbLine
 10
6903.0266489786
 20
5236.9854131657
 30
0.0
 11
6903.0266489786
 21
5173.1793235931
 31
0.0
  0
LINE
  5
127
330
1F
100
AcDbEntity
  8
0
  6
Continuous
 62
     7
370
    25
100
AcDbLine
 10
6903.0266489786
 20
5159.179317573
 30
0.0
 11
6903.0266489786
 21
5156.6793199572
 31
0.0
  0
LINE
  5
128
330
1F
100
AcDbEntity
  8
0
  6
Continuous
 62
     7
370
    25
100
AcDbLine
 10
6935.0266504985
 20
5156.6793199572
 30
0.0
 11
6935.0266504985
 21
5159.179317573
 31
0.0
  0
LINE
  5
129
330
1F
100
AcDbEntity
  8
0
  6
Continuous
 62
     7
370
    25
100
AcDbLine
 10
6935.0266504985
 20
5173.1793235931
 30
0.0
 11
6935.0266504985
 21
5236.9854131657
 31
0.0
  0
LINE
  5
12A
330
1F
100
AcDbEntity
  8
0
  6
Continuous
 62
     7
370
    25
100
AcDbLine
 10
6758.8509984267
 20
5174.6793191823
 30
0.0
 11
6758.8509984267
 21
5094.6793135199
 31
0.0
  0
LINE
  5
12B
330
1F
100
AcDbEntity
  8
0
  6
Continuous
 62
     7
370
    25
100
AcDbLine
 10
6793.8509948504
 20
5154.6793233547
 30
0.0
 11
6793.8509948504
 21
5114.6793242487
 31
0.0
  0
LINE
  5
12C
330
1F
100
AcDbEntity
  8
0
  6
Continuous
 62
     7
370
    25
100
AcDbLine
 10
6748.8510079634
 20
5154.6793233547
 30
0.0
 11
6748.8510079634
 21
5114.6793242487
 31
0.0
  0
LWPOLYLINE
  5
12D
330
1F
100
AcDbEntity
  8
0
  6
Continuous
 62
     7
370
    25
100
AcDbPolyline
 90
        9
 70
   128
 43
0.0
 10
6870.2396817458
 20
5269.8468107673
 10
6870.0742118013
 20
5268.9411666188
 10
6869.6037709665
 20
5267.0931413713
 10
6868.99221241
 20
5265.4472783151
 10
6868.2571269524
 20
5264.0509258899
 10
6867.4196630669
 20
5262.9442557636
 10
6866.5039122057
 20
5262.1591042671
 10
6865.5362196219
 20
5261.7180578354
 10
6864.8543685627
 20
5261.6214405689
  0
LINE
  5
12E
330
1F
100
AcDbEntity
  8
0
  6
Continuous
 62
     7
370
    25
100
AcDbLine
 10
6946.0266504389
 20
5279.985411832
 30
0.0
 11
6908.9507043314
 21
5279.985411832
 31
0.0
  0
LINE
  5
12F
330
1F
100
AcDbEntity
  8
0
  6
Continuous
 62
     7
370
    25
100
AcDbLine
 10
6942.0266497832
 20
5260.985412443
 30
0.0
 11
6901.0379176539
 21
5260.985412443
 31
0.0
  0
SPLINE
  5
130
330
1F
100
AcDbEntity
  8
0
  6
Continuous
 62
     7
370
    25
100
AcDbSpline
210
0.0
220
0.0
230
1.0
 70
     8
 71
     3
 72
    16
 73
    12
 74
     0
 42
0.000000001
 43
0.00000001
 40
0.0
 40
0.0
 40
0.0
 40
0.0
 40
0.1101767203282102
 40
0.2203889665309259
 40
0.3305970651392529
 40
0.4407410669457714
 40
0.5489288235271876
 40
0.6570354435530343
 40
0.7498632447559392
 40
0.8427452538030525
 40
1.0
 40
1.0
 40
1.0
 40
1.0
 10
6901.037917653912
 20
5260.985412442974
 30
0.0
 10
6901.486974119141
 20
5261.294077620407
 30
0.0
 10
6902.385231845372
 20
5261.911507502652
 30
0.0
 10
6903.711040059212
 20
5263.298571382387
 30
0.0
 10
6904.910922388538
 20
5264.987911162944
 30
0.0
 10
6905.890821767177
 20
5266.958792348918
 30
0.0
 10
6906.53315574724
 20
5269.159281693904
 30
0.0
 10
6906.774875946603
 20
5271.396025939059
 30
0.0
 10
6906.610010144067
 20
5273.570008313356
 30
0.0
 10
6906.080223075717
 20
5276.102148423686
 30
0.0
 10
6905.246558983989
 20
5277.806518442648
 30
0.0
 10
6904.722455139154
 20
5278.878013411454
 30
0.0
  0
LINE
  5
131
330
1F
100
AcDbEntity
  8
0
  6
Continuous
 62
     7
370
    25
100
AcDbLine
 10
6877.7464061928
 20
5263.4354129377
 30
0.0
 11
6877.9764912975
 21
5263.0727186742
 31
0.0
  0
LWPOLYLINE
  5
132
330
1F
100
AcDbEntity
  8
0
  6
Continuous
 62
     7
370
    25
100
AcDbPolyline
 90
        9
 70
   128
 43
0.0
 10
6884.0352438343
 20
5261.8978477958
 10
6884.1709226322
 20
5262.0371065977
 10
6885.0454196286
 20
5263.1636381093
 10
6885.8276002061
 20
5264.5885784122
 10
6886.4972099614
 20
5266.2750210556
 10
6887.0369039428
 20
5268.1792888734
 10
6887.4327048612
 20
5270.2520608845
 10
6887.6743644428
 20
5272.4396537933
 10
6887.7546071958
 20
5274.4340550098
  0
ARC
  5
133
330
1F
100
AcDbEntity
  8
0
  6
Continuous
 62
     7
370
    25
100
AcDbCircle
 10
6881.930217045
 20
5264.044481472
 30
0.0
 40
3.765064650561804
100
AcDbArc
 50
211.6514092159
 51
328.7871954792
  0
SPLINE
  5
134
330
1F
100
AcDbEntity
  8
0
  6
Continuous
 62
     7
370
    25
100
AcDbSpline
210
0.0
220
0.0
230
1.0
 70
     8
 71
     3
 72
    10
 73
     6
 74
     0
 42
0.000000001
 43
0.00000001
 40
0.0
 40
0.0
 40
0.0
 40
0.0
 40
0.2972156050098287
 40
0.7385077860651671
 40
1.0
 40
1.0
 40
1.0
 40
1.0
 10
6898.48353452503
 20
5260.21731160014
 30
0.0
 10
6898.700946438348
 20
5260.219051486912
 30
0.0
 10
6899.241161649333
 20
5260.223374678245
 30
0.0
 10
6900.127062190848
 20
5260.522396633395
 30
0.0
 10
6900.790912168756
 20
5260.859851967884
 30
0.0
 10
6901.037917653912
 20
5260.985412442974
 30
0.0
  0
LWPOLYLINE
  5
135
330
1F
100
AcDbEntity
  8
0
  6
Continuous
 62
     7
370
    25
100
AcDbPolyline
 90
       14
 70
   128
 43
0.0
 10
6878.3437974703
 20
5263.4354129377
 10
6879.0956392837
 20
5262.551416451
 10
6880.0232775462
 20
5261.8408601674
 10
6880.9906795573
 20
5261.4806692991
 10
6881.9714590859
 20
5261.4806692991
 10
6882.9388648224
 20
5261.8408601674
 10
6883.8665030849
 20
5262.551416451
 10
6884.7290717018
 20
5263.5929573271
 10
6885.5030454647
 20
5264.9370718691
 10
6886.1673094284
 20
5266.5470939073
 10
6886.7037475061
 20
5268.3791097197
 10
6887.0977193069
 20
5270.3831445369
 10
6887.3384885442
 20
5272.5045334491
 10
6887.4175280285
 20
5274.3457730803
  0
SPLINE
  5
136
330
1F
100
AcDbEntity
  8
0
  6
Continuous
 62
     7
370
    25
100
AcDbSpline
210
0.0
220
0.0
230
1.0
 70
     8
 71
     3
 72
    26
 73
    22
 74
     0
 42
0.000000001
 43
0.00000001
 40
0.0
 40
0.0
 40
0.0
 40
0.0
 40
0.0518150449023556
 40
0.111380848547639
 40
0.1722817321571407
 40
0.2246888356403766
 40
0.2783592249294595
 40
0.3194180799936136
 40
0.3616215196147864
 40
0.4027069479917413
 40
0.4449491664351725
 40
0.5015057103160364
 40
0.5596412749842382
 40
0.6344161317432164
 40
0.7113476867296121
 40
0.7733911307440584
 40
0.8370630711891193
 40
0.8877153293913808
 40
0.93974790117735
 40
0.9904520438049931
 40
1.0
 40
1.0
 40
1.0
 40
1.0
 10
6893.804895873063
 20
5154.026965418748
 30
0.0
 10
6894.132009305124
 20
5153.508944553654
 30
0.0
 10
6894.835167465131
 20
5152.395414619864
 30
0.0
 10
6896.094745662052
 20
5150.201317150612
 30
0.0
 10
6897.356647834831
 20
5147.665516652729
 30
0.0
 10
6898.456071842096
 20
5144.892849658221
 30
0.0
 10
6899.19829399618
 20
5142.195016288743
 30
0.0
 10
6899.574311415145
 20
5139.508122718843
 30
0.0
 10
6899.598053243412
 20
5136.977465152553
 30
0.0
 10
6899.27810494612
 20
5134.412274581213
 30
0.0
 10
6898.578700493599
 20
5131.624087493231
 30
0.0
 10
6897.442956995784
 20
5128.655253881048
 30
0.0
 10
6895.782066268813
 20
5125.341229622716
 30
0.0
 10
6893.768715556892
 20
5122.011693911218
 30
0.0
 10
6891.728520247159
 20
5119.030265495139
 30
0.0
 10
6889.955985398808
 20
5116.611259008828
 30
0.0
 10
6888.639727952745
 20
5114.890250037418
 30
0.0
 10
6887.673150591638
 20
5113.657411725238
 30
0.0
 10
6887.108774994293
 20
5112.948058961632
 30
0.0
 10
6886.85635548042
 20
5112.633143279877
 30
0.0
 10
6886.912613024951
 20
5112.703424243678
 30
0.0
 10
6886.921527976983
 20
5112.71456144183
 30
0.0
  0
LINE
  5
137
330
1F
100
AcDbEntity
  8
0
  6
Continuous
 62
     7
370
    25
100
AcDbLine
 10
6885.0266478908
 20
5096.679317573
 30
0.0
 11
6953.0266515863
 21
5096.679317573
 31
0.0
  0
LINE
  5
138
330
1F
100
AcDbEntity
  8
0
  6
Continuous
 62
     7
370
    25
100
AcDbLine
 10
6875.026649977
 20
5162.1793236527
 30
0.0
 11
6875.026649977
 21
5107.1793165001
 31
0.0
  0
LINE
  5
139
330
1F
100
AcDbEntity
  8
0
  6
Continuous
 62
     7
370
    25
100
AcDbLine
 10
6871.0266493213
 20
5160.6793206128
 30
0.0
 11
6871.0266493213
 21
5108.6793269905
 31
0.0
  0
ARC
  5
13A
330
1F
100
AcDbEntity
  8
0
  6
Continuous
 62
     7
370
    25
100
AcDbCircle
 10
6896.6579110213
 20
5153.8206381529
 30
0.0
 40
2.860466111774659
100
AcDbArc
 50
92.0238422506
 51
175.8636263549
  0
LINE
  5
13B
330
1F
100
AcDbEntity
  8
0
  6
Continuous
 62
     7
370
    25
100
AcDbLine
 10
6896.5568926138
 20
5156.6793199572
 30
0.0
 11
6943.3563027483
 21
5156.6793199572
 31
0.0
  0
LINE
  5
13C
330
1F
100
AcDbEntity
  8
0
  6
Continuous
 62
     7
370
    25
100
AcDbLine
 10
6894.9048213613
 20
5026.6793247256
 30
0.0
 11
6943.1484781158
 21
5026.6793247256
 31
0.0
  0
LINE
  5
13D
330
1F
100
AcDbEntity
  8
0
  6
Continuous
 62
     7
370
    25
100
AcDbLine
 10
6859.0266510796
 20
5157.6793219837
 30
0.0
 11
6859.0266510796
 21
5111.679318169
 31
0.0
  0
LINE
  5
13E
330
1F
100
AcDbEntity
  8
0
  6
Continuous
 62
     7
370
    25
100
AcDbLine
 10
6896.0266496938
 20
5163.1793182287
 30
0.0
 11
6942.0266497832
 21
5163.1793182287
 31
0.0
  0
LINE
  5
13F
330
1F
100
AcDbEntity
  8
0
  6
Continuous
 62
     7
370
    25
100
AcDbLine
 10
6894.026649366
 20
5159.179317573
 30
0.0
 11
6944.0266501111
 21
5159.179317573
 31
0.0
  0
LINE
  5
140
330
1F
100
AcDbEntity
  8
0
  6
Continuous
 62
     7
370
    25
100
AcDbLine
 10
6899.0266501856
 20
5173.1793235931
 30
0.0
 11
6939.0266492915
 21
5173.1793235931
 31
0.0
  0
SPLINE
  5
141
330
1F
100
AcDbEntity
  8
0
  6
Continuous
 62
     7
370
    25
100
AcDbSpline
210
0.0
220
0.0
230
1.0
 70
     8
 71
     3
 72
    11
 73
     7
 74
     0
 42
0.000000001
 43
0.00000001
 40
0.0
 40
0.0
 40
0.0
 40
0.0
 40
0.1561474281089062
 40
0.4307961678037858
 40
0.7130080670618477
 40
0.9999999999999999
 40
0.9999999999999999
 40
0.9999999999999999
 40
0.9999999999999999
 10
6892.026649038189
 20
5156.679319957188
 30
0.0
 10
6892.036116240461
 20
5156.665803796576
 30
0.0
 10
6892.06223536716
 20
5156.628513972047
 30
0.0
 10
6892.346055116476
 20
5156.21972711727
 30
0.0
 10
6892.929303815567
 20
5155.371227169544
 30
0.0
 10
6893.511402413647
 20
5154.477554283989
 30
0.0
 10
6893.804895873063
 20
5154.026965418748
 30
0.0
  0
SPLINE
  5
142
330
1F
100
AcDbEntity
  8
0
  6
Continuous
 62
     7
370
    25
100
AcDbSpline
210
0.0
220
0.0
230
1.0
 70
    24
 71
     3
 72
    12
 73
     8
 74
     0
 42
0.000000001
 43
0.00000001
 40
0.0
 40
0.0
 40
0.0
 40
0.0
 40
0.0026572796358878
 40
0.0516699981300113
 40
0.3670805964931068
 40
0.7311421571812301
 40
1.0
 40
1.0
 40
1.0
 40
1.0
 10
6892.026649038189
 20
5156.679319957188
 30
0.0
 10
6892.030045112832
 20
5156.679319957188
 30
0.0
 10
6892.096080756251
 20
5156.679319957188
 30
0.0
 10
6892.576421595528
 20
5156.679319957188
 30
0.0
 10
6893.663809551607
 20
5156.679319957188
 30
0.0
 10
6895.257035139538
 20
5156.679319957188
 30
0.0
 10
6896.169350260132
 20
5156.679319957188
 30
0.0
 10
6896.556892613762
 20
5156.679319957188
 30
0.0
  0
LINE
  5
143
330
1F
100
AcDbEntity
  8
0
  6
Continuous
 62
     7
370
    25
100
AcDbLine
 10
6891.0266488743
 20
5246.9854129422
 30
0.0
 11
6947.0266506028
 21
5246.9854129422
 31
0.0
  0
LINE
  5
144
330
1F
100
AcDbEntity
  8
0
  6
Continuous
 62
     7
370
    25
100
AcDbLine
 10
6889.0266504091
 20
5250.9854135978
 30
0.0
 11
6949.026649068
 21
5250.9854135978
 31
0.0
  0
LINE
  5
145
330
1F
100
AcDbEntity
  8
0
  6
Continuous
 62
     7
370
    25
100
AcDbLine
 10
6894.026649366
 20
5236.9854131657
 30
0.0
 11
6944.0266501111
 21
5236.9854131657
 31
0.0
  0
LINE
  5
146
330
1F
100
AcDbEntity
  8
0
  6
Continuous
 62
     7
370
    25
100
AcDbLine
 10
6759.0266533148
 20
5395.7195904049
 30
0.0
 11
6759.0266533148
 21
5240.7195892128
 31
0.0
  0
LINE
  5
147
330
1F
100
AcDbEntity
  8
0
  6
Continuous
 62
     7
370
    25
100
AcDbLine
 10
7119.0266527188
 20
5395.7195904049
 30
0.0
 11
6759.0266533148
 21
5395.7195904049
 31
0.0
  0
LINE
  5
148
330
1F
100
AcDbEntity
  8
0
  6
Continuous
 62
     7
370
    25
100
AcDbLine
 10
7119.0266527188
 20
5395.7195904049
 30
0.0
 11
7119.0266527188
 21
5335.0053008589
 31
0.0
  0
LINE
  5
149
330
1F
100
AcDbEntity
  8
0
  6
Continuous
 62
     7
370
    25
100
AcDbLine
 10
6759.0266533148
 20
5240.7195892128
 30
0.0
 11
7119.0266527188
 21
5335.0053008589
 31
0.0
  0
LINE
  5
14A
330
1F
100
AcDbEntity
  8
0
  6
Continuous
 62
     7
370
    25
100
AcDbLine
 10
6759.0266533148
 20
5400.7195856365
 30
0.0
 11
7119.0266527188
 21
5400.7195856365
 31
0.0
  0
LINE
  5
14B
330
1F
100
AcDbEntity
  8
0
  6
Continuous
 62
     7
370
    25
100
AcDbLine
 10
7119.0266527188
 20
5400.7195856365
 30
0.0
 11
7119.0266527188
 21
5395.7195904049
 31
0.0
  0
LINE
  5
14C
330
1F
100
AcDbEntity
  8
0
  6
Continuous
 62
     7
370
    25
100
AcDbLine
 10
6759.0266533148
 20
5395.7195904049
 30
0.0
 11
6759.0266533148
 21
5400.7195856365
 31
0.0
  0
LINE
  5
14D
330
1F
100
AcDbEntity
  8
0
  6
Continuous
 62
     7
370
    25
100
AcDbLine
 10
7179.0266402018
 20
5395.7195904049
 30
0.0
 11
7119.0266527188
 21
5395.7195904049
 31
0.0
  0
LINE
  5
14E
330
1F
100
AcDbEntity
  8
0
  6
Continuous
 62
     7
370
    25
100
AcDbLine
 10
7179.0266402018
 20
5395.7195904049
 30
0.0
 11
7179.0266402018
 21
5350.7195886168
 31
0.0
  0
LWPOLYLINE
  5
14F
330
1F
100
AcDbEntity
  8
0
  6
Continuous
 62
     7
370
    25
100
AcDbPolyline
 90
       21
 70
   128
 43
0.0
 10
7179.0266402018
 20
5350.7195886168
 10
7178.8416869891
 20
5350.6711449417
 10
7178.2879598391
 20
5350.5261193904
 10
7177.3688562167
 20
5350.2853985819
 10
7176.090038563
 20
5349.9504800829
 10
7174.4594342959
 20
5349.5234128031
 10
7172.4870271933
 20
5349.006834248
 10
7170.1850660098
 20
5348.4039332661
 10
7167.5676621449
 20
5347.7184276971
 10
7164.6510131609
 20
5346.9545420203
 10
7161.453060056
 20
5346.1169850024
 10
7157.9935319674
 20
5345.2109124455
 10
7154.2937673581
 20
5344.2419271859
 10
7150.3765650046
 20
5343.2159971389
 10
7146.2660796893
 20
5342.1394403967
 10
7141.9876582873
 20
5341.0189028773
 10
7137.567675854
 20
5339.8612838182
 10
7133.033371712
 20
5338.6737283263
 10
7128.4127153408
 20
5337.4635603222
 10
7123.7341977608
 20
5336.2382303867
 10
7119.0266527188
 20
5335.0053008589
  0
LINE
  5
150
330
1F
100
AcDbEntity
  8
0
  6
Continuous
 62
     7
370
    25
100
AcDbLine
 10
7119.0266527188
 20
5400.7195856365
 30
0.0
 11
7174.0266449702
 21
5400.7195856365
 31
0.0
  0
ARC
  5
151
330
1F
100
AcDbEntity
  8
0
  6
Continuous
 62
     7
370
    25
100
AcDbCircle
 10
7174.0266497385
 20
5395.7195892128
 30
0.0
 40
5.0
100
AcDbArc
 50
0.0
 51
90.0
  0
ARC
  5
152
330
1F
100
AcDbEntity
  8
0
  6
Continuous
 62
     7
370
    25
100
AcDbCircle
 10
7089.0266497385
 20
5350.7195892128
 30
0.0
 40
51.5
100
AcDbArc
 50
270.0
 51
348.3960254091
  0
LINE
  5
153
330
1F
100
AcDbEntity
  8
0
  6
Continuous
 62
     7
370
    25
100
AcDbLine
 10
7076.7654396546
 20
5299.2195885572
 30
0.0
 11
7089.0266515267
 21
5299.2195885572
 31
0.0
  0
LINE
  5
154
330
1F
100
AcDbEntity
  8
0
  6
Continuous
 62
     7
370
    25
100
AcDbLine
 10
6982.3902837884
 20
5299.2195885572
 30
0.0
 11
7076.7654396546
 21
5299.2195885572
 31
0.0
  0
LINE
  5
155
330
1F
100
AcDbEntity
  8
0
  6
Continuous
 62
     8
370
    25
100
AcDbLine
 10
6773.8509990227
 20
5174.6793191823
 30
0.0
 11
6773.8509990227
 21
5094.6793135199
 31
0.0
  0
LWPOLYLINE
  5
156
330
1F
100
AcDbEntity
  8
0
  6
Continuous
 62
     8
370
    25
100
AcDbPolyline
 90
        8
 70
   128
 43
0.0
 10
6877.9764912975
 20
5263.0727186742
 10
6878.3437974703
 20
5262.5610575023
 10
6879.2560838115
 20
5261.5951865855
 10
6880.2260003936
 20
5260.9683431628
 10
6881.2284201336
 20
5260.6967676374
 10
6882.2373814833
 20
5260.7874896321
 10
6883.2267589819
 20
5261.2381603512
 10
6884.0352438343
 20
5261.8978477958
  0
LWPOLYLINE
  5
157
330
1F
100
AcDbEntity
  8
0
  6
Continuous
 62
     8
370
    25
100
AcDbPolyline
 90
        8
 70
   128
 43
0.0
 10
6888.426679368
 20
5274.6854115221
 10
6888.3466694456
 20
5272.4171120617
 10
6888.1086140823
 20
5270.2046658787
 10
6887.7183712971
 20
5268.1025516185
 10
6887.1855504763
 20
5266.1625266018
 10
6886.5232720923
 20
5264.4323639515
 10
6885.7478454661
 20
5262.9546660873
 10
6885.1502828252
 20
5262.0933566186
  0
LINE
  5
158
330
1F
100
AcDbEntity
  8
0
  6
Continuous
 62
     8
370
    25
100
AcDbLine
 10
6946.3360916775
 20
5154.0269654187
 30
0.0
 11
6893.8048958731
 21
5154.0269654187
 31
0.0
  0
LINE
  5
159
330
1F
100
AcDbEntity
  8
0
  6
Continuous
 62
     8
370
    25
100
AcDbLine
 10
6891.9204354238
 20
5029.3736483845
 30
0.0
 11
6946.1328640532
 21
5029.3736483845
 31
0.0
  0
LINE
  5
15A
330
1F
100
AcDbEntity
  8
0
  6
Continuous
 62
     8
370
    25
100
AcDbLine
 10
6862.0266497087
 20
5160.6793206128
 30
0.0
 11
6862.0266497087
 21
5108.6793269905
 31
0.0
  0
LINE
  5
15B
330
1F
100
AcDbEntity
  8
0
  6
Continuous
 62
     8
370
    25
100
AcDbLine
 10
6896.0266496938
 20
5170.1793175134
 30
0.0
 11
6942.0266497832
 21
5170.1793175134
 31
0.0
  0
LINE
  5
15C
330
1F
100
AcDbEntity
  8
0
  6
Continuous
 62
     8
370
    25
100
AcDbLine
 10
6891.0266488743
 20
5239.9854131335
 30
0.0
 11
6947.0266506028
 21
5239.9854131335
 31
0.0
  0
LWPOLYLINE
  5
15D
330
1F
100
AcDbEntity
  8
0
  6
Continuous
 62
     8
370
    25
100
AcDbPolyline
 90
       13
 70
   128
 43
0.0
 10
7067.1872414601
 20
5321.4283164534
 10
7067.5757445347
 20
5319.0876346025
 10
7068.1977935088
 20
5315.8395912442
 10
7068.8783593428
 20
5312.8298100027
 10
7069.6128226769
 20
5310.0788544807
 10
7070.3961320174
 20
5307.6055150422
 10
7071.2229378474
 20
5305.4266896042
 10
7072.0876224291
 20
5303.5572644266
 10
7072.9842551005
 20
5302.0100023541
 10
7073.9067114842
 20
5300.7954757604
 10
7074.8487032902
 20
5299.9219808671
 10
7075.8037932169
 20
5299.3954893145
 10
7076.7654396546
 20
5299.2195885572
  0
LINE
  5
15E
330
1F
100
AcDbEntity
  8
0
  6
Continuous
 62
     7
370
    25
100
AcDbLine
 10
6314.018754442
 20
4819.3665804963
 30
0.0
 11
6314.018754442
 21
4819.5422353845
 31
0.0
  0
LINE
  5
15F
330
1F
100
AcDbEntity
  8
0
  6
Continuous
 62
     7
370
    25
100
AcDbLine
 10
6234.0187562302
 20
4819.5422353845
 30
0.0
 11
6234.0187562302
 21
4819.3665804963
 31
0.0
  0
LINE
  5
160
330
1F
100
AcDbEntity
  8
0
  6
Continuous
 62
     7
370
    25
100
AcDbLine
 10
6294.0187548891
 20
4819.5422353845
 30
0.0
 11
6294.0187548891
 21
4829.5422258477
 31
0.0
  0
LINE
  5
161
330
1F
100
AcDbEntity
  8
0
  6
Continuous
 62
     7
370
    25
100
AcDbLine
 10
6254.0187557831
 20
4829.5422258477
 30
0.0
 11
6254.0187557831
 21
4819.5422353845
 31
0.0
  0
ARC
  5
162
330
1F
100
AcDbEntity
  8
0
  6
Continuous
 62
     7
370
    25
100
AcDbCircle
 10
6181.3687553361
 20
4743.5580305474
 30
0.0
 40
0.5000000000006567
100
AcDbArc
 50
180.0
 51
259.3868018431
  0
ARC
  5
163
330
1F
100
AcDbEntity
  8
0
  6
Continuous
 62
     7
370
    25
100
AcDbCircle
 10
6216.6687553361
 20
4743.5580305474
 30
0.0
 40
0.5000000000003216
100
AcDbArc
 50
280.6131981567
 51
0.0
  0
LINE
  5
164
330
1F
100
AcDbEntity
  8
0
  6
Continuous
 62
     7
370
    25
100
AcDbLine
 10
6180.8687580422
 20
4744.3665849667
 30
0.0
 11
6180.8687580422
 21
4743.5580330591
 31
0.0
  0
LINE
  5
165
330
1F
100
AcDbEntity
  8
0
  6
Continuous
 62
     7
370
    25
100
AcDbLine
 10
6217.1687541202
 20
4743.5580330591
 30
0.0
 11
6217.1687541202
 21
4744.3665849667
 31
0.0
  0
ARC
  5
166
330
1F
100
AcDbEntity
  8
0
  6
Continuous
 62
     7
370
    25
100
AcDbCircle
 10
6198.3430676034
 20
4841.3558790366
 30
0.0
 40
99.99999999999996
100
AcDbArc
 50
277.3190185024
 51
280.6131981568
  0
ARC
  5
167
330
1F
100
AcDbEntity
  8
0
  6
Continuous
 62
     7
370
    25
100
AcDbCircle
 10
6199.6944430688
 20
4841.3558790366
 30
0.0
 40
100.0000000000003
100
AcDbArc
 50
259.3868018432
 51
262.6809814976
  0
ARC
  5
168
330
1F
100
AcDbEntity
  8
0
  6
Continuous
 62
     7
370
    25
100
AcDbCircle
 10
6187.0187553361
 20
4742.6665840726
 30
0.0
 40
0.4999999999992515
100
AcDbArc
 50
262.6809814976
 51
270.0
  0
ARC
  5
169
330
1F
100
AcDbEntity
  8
0
  6
Continuous
 62
     7
370
    25
100
AcDbCircle
 10
6211.0187553361
 20
4742.6665840726
 30
0.0
 40
0.4999999999992515
100
AcDbArc
 50
270.0
 51
277.3190185024
  0
LINE
  5
16A
330
1F
100
AcDbEntity
  8
0
  6
Continuous
 62
     7
370
    25
100
AcDbLine
 10
6187.0187578395
 20
4742.1665849786
 30
0.0
 11
6211.0187543228
 21
4742.1665849786
 31
0.0
  0
LINE
  5
16B
330
1F
100
AcDbEntity
  8
0
  6
Continuous
 62
     7
370
    25
100
AcDbLine
 10
6314.018754442
 20
4819.5422353845
 30
0.0
 11
6234.0187562302
 21
4819.5422353845
 31
0.0
  0
LINE
  5
16C
330
1F
100
AcDbEntity
  8
0
  6
Continuous
 62
     7
370
    25
100
AcDbLine
 10
6291.5178743795
 20
4784.5422389607
 30
0.0
 11
6256.5196362927
 21
4784.5422389607
 31
0.0
  0
LINE
  5
16D
330
1F
100
AcDbEntity
  8
0
  6
Continuous
 62
     7
370
    25
100
AcDbLine
 10
6294.0187548891
 20
4829.5422258477
 30
0.0
 11
6254.0187557831
 21
4829.5422258477
 31
0.0
  0
ARC
  5
16E
330
1F
100
AcDbEntity
  8
0
  6
Continuous
 62
     7
370
    25
100
AcDbCircle
 10
6274.0187553361
 20
4659.3665840726
 30
0.0
 40
5.249999999999845
100
AcDbArc
 50
101.0739140286
 51
264.6474926252
  0
LWPOLYLINE
  5
16F
330
1F
100
AcDbEntity
  8
0
  6
Continuous
 62
     7
370
    25
100
AcDbPolyline
 90
        9
 70
   128
 43
0.0
 10
6273.0103606962
 20
4664.5188300561
 10
6273.0688485105
 20
4663.3483764406
 10
6273.1327249573
 20
4662.070085217
 10
6273.2002762866
 20
4660.7182542018
 10
6273.26968997
 20
4659.3291531087
 10
6273.3391036534
 20
4657.9400520229
 10
6273.4066549826
 20
4656.5882208913
 10
6273.4705314294
 20
4655.3099301334
 10
6273.529019302
 20
4654.1394760522
  0
ARC
  5
170
330
1F
100
AcDbEntity
  8
0
  6
Continuous
 62
     7
370
    25
100
AcDbCircle
 10
6274.0187553361
 20
4659.3665840726
 30
0.0
 40
5.250000000000528
100
AcDbArc
 50
281.0739140286
 51
84.6474926252
  0
LWPOLYLINE
  5
171
330
1F
100
AcDbEntity
  8
0
  6
Continuous
 62
     7
370
    25
100
AcDbPolyline
 90
        9
 70
   128
 43
0.0
 10
6275.027149976
 20
4654.2143380891
 10
6274.9686621617
 20
4655.3847917046
 10
6274.9047857149
 20
4656.6630829282
 10
6274.8372343856
 20
4658.0149139434
 10
6274.7678207022
 20
4659.4040150364
 10
6274.6984070188
 20
4660.7931161222
 10
6274.6308556896
 20
4662.1449472539
 10
6274.5669792428
 20
4663.4232380118
 10
6274.5084913702
 20
4664.5936920929
  0
ARC
  5
172
330
1F
100
AcDbEntity
  8
0
  6
Continuous
 62
     7
370
    25
100
AcDbCircle
 10
6274.0187553361
 20
4659.3665840726
 30
0.0
 40
5.250000000000528
100
AcDbArc
 50
84.6474926252
 51
101.0739140286
  0
ARC
  5
173
330
1F
100
AcDbEntity
  8
0
  6
Continuous
 62
     7
370
    25
100
AcDbCircle
 10
6274.0187553361
 20
4659.3665840726
 30
0.0
 40
5.249999999999845
100
AcDbArc
 50
264.6474926252
 51
281.0739140286
  0
CIRCLE
  5
174
330
1F
100
AcDbEntity
  8
0
  6
Continuous
 62
     7
370
    25
100
AcDbCircle
 10
6274.0187553361
 20
4659.3665840726
 30
0.0
 40
35.00000000000028
  0
CIRCLE
  5
175
330
1F
100
AcDbEntity
  8
0
  6
Continuous
 62
     7
370
    25
100
AcDbCircle
 10
6274.0187553361
 20
4659.3665840726
 30
0.0
 40
35.16921944985862
  0
CIRCLE
  5
176
330
1F
100
AcDbEntity
  8
0
  6
Continuous
 62
     7
370
    25
100
AcDbCircle
 10
6274.0187553361
 20
4659.3665840726
 30
0.0
 40
24.96512544439508
  0
CIRCLE
  5
177
330
1F
100
AcDbEntity
  8
0
  6
Continuous
 62
     7
370
    25
100
AcDbCircle
 10
6274.0187553361
 20
4659.3665840726
 30
0.0
 40
21.99999999999981
  0
CIRCLE
  5
178
330
1F
100
AcDbEntity
  8
0
  6
Continuous
 62
     7
370
    25
100
AcDbCircle
 10
6274.0187553361
 20
4659.3665840726
 30
0.0
 40
20.49999999999996
  0
CIRCLE
  5
179
330
1F
100
AcDbEntity
  8
0
  6
Continuous
 62
     7
370
    25
100
AcDbCircle
 10
6274.0187553361
 20
4659.3665840726
 30
0.0
 40
19.48700763430443
  0
CIRCLE
  5
17A
330
1F
100
AcDbEntity
  8
0
  6
Continuous
 62
     7
370
    25
100
AcDbCircle
 10
6274.0187553361
 20
4659.3665840726
 30
0.0
 40
5.700000000000032
  0
CIRCLE
  5
17B
330
1F
100
AcDbEntity
  8
0
  6
Continuous
 62
     7
370
    25
100
AcDbCircle
 10
6272.8293547503
 20
4673.3159685123
 30
0.0
 40
5.000000000000343
  0
CIRCLE
  5
17C
330
1F
100
AcDbEntity
  8
0
  6
Continuous
 62
     7
370
    25
100
AcDbCircle
 10
6285.5045763351
 20
4667.371327415
 30
0.0
 40
5.000000000000266
  0
CIRCLE
  5
17D
330
1F
100
AcDbEntity
  8
0
  6
Continuous
 62
     7
370
    25
100
AcDbCircle
 10
6286.6939769209
 20
4653.4219429753
 30
0.0
 40
5.000000000001172
  0
CIRCLE
  5
17E
330
1F
100
AcDbEntity
  8
0
  6
Continuous
 62
     7
370
    25
100
AcDbCircle
 10
6275.2081559219
 20
4645.4171996329
 30
0.0
 40
5.000000000001249
  0
CIRCLE
  5
17F
330
1F
100
AcDbEntity
  8
0
  6
Continuous
 62
     7
370
    25
100
AcDbCircle
 10
6262.5329343371
 20
4651.3618407302
 30
0.0
 40
5.000000000001172
  0
CIRCLE
  5
180
330
1F
100
AcDbEntity
  8
0
  6
Continuous
 62
     7
370
    25
100
AcDbCircle
 10
6261.3435337513
 20
4665.3112251699
 30
0.0
 40
4.999999999999437
  0
CIRCLE
  5
181
330
1F
100
AcDbEntity
  8
0
  6
Continuous
 62
     7
370
    25
100
AcDbCircle
 10
6274.0187553361
 20
4659.3665840726
 30
0.0
 40
26.5
  0
LINE
  5
182
330
1F
100
AcDbEntity
  8
0
  6
Continuous
 62
     7
370
    25
100
AcDbLine
 10
6283.7401779041
 20
4671.9436009105
 30
0.0
 11
6280.5997991607
 21
4667.1760619308
 31
0.0
  0
LINE
  5
183
330
1F
100
AcDbEntity
  8
0
  6
Continuous
 62
     7
370
    25
100
AcDbLine
 10
6258.2229023471
 20
4661.4996163796
 30
0.0
 11
6264.0065924868
 21
4661.1587466129
 31
0.0
  0
LINE
  5
184
330
1F
100
AcDbEntity
  8
0
  6
Continuous
 62
     7
370
    25
100
AcDbLine
 10
6280.0601862043
 20
4644.6388789143
 30
0.0
 11
6277.4960132454
 21
4649.7533709432
 31
0.0
  0
ARC
  5
185
330
1F
100
AcDbEntity
  8
0
  6
Continuous
 62
     7
370
    25
100
AcDbCircle
 10
6274.0187553361
 20
4659.3665840726
 30
0.0
 40
15.00000000000049
100
AcDbArc
 50
270.0
 51
292.0227519767
  0
ARC
  5
186
330
1F
100
AcDbEntity
  8
0
  6
Continuous
 62
     7
370
    25
100
AcDbCircle
 10
6274.0187553361
 20
4659.3665840726
 30
0.0
 40
15.0
100
AcDbArc
 50
315.4106118815
 51
354.3365137742
  0
ARC
  5
187
330
1F
100
AcDbEntity
  8
0
  6
Continuous
 62
     7
370
    25
100
AcDbCircle
 10
6274.0187553361
 20
4659.3665840726
 30
0.0
 40
15.00000000000029
100
AcDbArc
 50
15.4106118815
 51
52.0385510327
  0
ARC
  5
188
330
1F
100
AcDbEntity
  8
0
  6
Continuous
 62
     7
370
    25
100
AcDbCircle
 10
6274.0187553361
 20
4659.3665840726
 30
0.0
 40
15.00000000000003
100
AcDbArc
 50
75.4106118815
 51
114.3365137742
  0
ARC
  5
189
330
1F
100
AcDbEntity
  8
0
  6
Continuous
 62
     7
370
    25
100
AcDbCircle
 10
6274.0187553361
 20
4659.3665840726
 30
0.0
 40
15.00000000000004
100
AcDbArc
 50
135.4106118815
 51
172.0184242328
  0
ARC
  5
18A
330
1F
100
AcDbEntity
  8
0
  6
Continuous
 62
     7
370
    25
100
AcDbCircle
 10
6274.0187553361
 20
4659.3665840726
 30
0.0
 40
15.00000000000011
100
AcDbArc
 50
195.4106118815
 51
234.3365137742
  0
LWPOLYLINE
  5
18B
330
1F
100
AcDbEntity
  8
0
  6
Continuous
 62
     7
370
    25
100
AcDbPolyline
 90
        3
 70
   128
 43
0.0
 10
6270.2404033996
 20
4644.8502462979
 10
6271.7290161315
 20
4644.5423780631
 10
6274.0187553361
 20
4644.3665844079
  0
LINE
  5
18C
330
1F
100
AcDbEntity
  8
0
  6
Continuous
 62
     7
370
    25
100
AcDbLine
 10
6544.0187660649
 20
4459.3665810923
 30
0.0
 11
6544.0187660649
 21
4819.3665804963
 31
0.0
  0
LINE
  5
18D
330
1F
100
AcDbEntity
  8
0
  6
Continuous
 62
     7
370
    25
100
AcDbLine
 10
6544.0187660649
 20
4819.3665804963
 30
0.0
 11
6549.0187612966
 21
4819.3665804963
 31
0.0
  0
LINE
  5
18E
330
1F
100
AcDbEntity
  8
0
  6
Continuous
 62
     7
370
    25
100
AcDbLine
 10
6549.0187612966
 20
4819.3665804963
 30
0.0
 11
6549.0187612966
 21
4459.3665810923
 31
0.0
  0
LINE
  5
18F
330
1F
100
AcDbEntity
  8
0
  6
Continuous
 62
     7
370
    25
100
AcDbLine
 10
6544.0187660649
 20
4459.3665810923
 30
0.0
 11
6549.0187612966
 21
4459.3665810923
 31
0.0
  0
LINE
  5
190
330
1F
100
AcDbEntity
  8
0
  6
Continuous
 62
     7
370
    25
100
AcDbLine
 10
6059.0187517598
 20
4404.366588841
 30
0.0
 11
6489.0187589124
 21
4404.366588841
 31
0.0
  0
ARC
  5
191
330
1F
100
AcDbEntity
  8
0
  6
Continuous
 62
     7
370
    25
100
AcDbCircle
 10
6059.0187553361
 20
4459.3665840726
 30
0.0
 40
55.0
100
AcDbArc
 50
180.0
 51
270.0
  0
LINE
  5
192
330
1F
100
AcDbEntity
  8
0
  6
Continuous
 62
     7
370
    25
100
AcDbLine
 10
6004.0187446073
 20
4819.3665804963
 30
0.0
 11
6004.0187446073
 21
4459.3665810923
 31
0.0
  0
LINE
  5
193
330
1F
100
AcDbEntity
  8
0
  6
Continuous
 62
     7
370
    25
100
AcDbLine
 10
6544.0187660649
 20
4819.3665804963
 30
0.0
 11
6004.0187446073
 21
4819.3665804963
 31
0.0
  0
ARC
  5
194
330
1F
100
AcDbEntity
  8
0
  6
Continuous
 62
     7
370
    25
100
AcDbCircle
 10
6489.0187553361
 20
4459.3665840726
 30
0.0
 40
55.00000000000091
100
AcDbArc
 50
270.0
 51
0.0
  0
LINE
  5
195
330
1F
100
AcDbEntity
  8
0
  6
Continuous
 62
     7
370
    25
100
AcDbLine
 10
6050.7022944882
 20
4514.0644075971
 30
0.0
 11
6095.4432842925
 21
4706.8032051127
 31
0.0
  0
ARC
  5
196
330
1F
100
AcDbEntity
  8
0
  6
Continuous
 62
     7
370
    25
100
AcDbCircle
 10
6114.0187553361
 20
4499.3665840726
 30
0.0
 40
65.00000000000024
100
AcDbArc
 50
166.9312296544
 51
270.0
  0
LINE
  5
197
330
1F
100
AcDbEntity
  8
0
  6
Continuous
 62
     7
370
    25
100
AcDbLine
 10
6434.0187517598
 20
4434.366590033
 30
0.0
 11
6114.0187589124
 21
4434.366590033
 31
0.0
  0
ARC
  5
198
330
1F
100
AcDbEntity
  8
0
  6
Continuous
 62
     7
370
    25
100
AcDbCircle
 10
6434.0187553361
 20
4499.3665840726
 30
0.0
 40
65.00000000000024
100
AcDbArc
 50
270.0
 51
13.0687703456
  0
LINE
  5
199
330
1F
100
AcDbEntity
  8
0
  6
Continuous
 62
     7
370
    25
100
AcDbLine
 10
6452.5942263797
 20
4706.8032051127
 30
0.0
 11
6497.335216184
 21
4514.0644075971
 31
0.0
  0
ARC
  5
19A
330
1F
100
AcDbEntity
  8
0
  6
Continuous
 62
     7
370
    25
100
AcDbCircle
 10
6399.0187553361
 20
4694.3665840726
 30
0.0
 40
55.00000000000043
100
AcDbArc
 50
13.0687703456
 51
90.0
  0
LINE
  5
19B
330
1F
100
AcDbEntity
  8
0
  6
Continuous
 62
     7
370
    25
100
AcDbLine
 10
6149.0187553361
 20
4749.3665876489
 30
0.0
 11
6399.0187553361
 21
4749.3665876489
 31
0.0
  0
ARC
  5
19C
330
1F
100
AcDbEntity
  8
0
  6
Continuous
 62
     7
370
    25
100
AcDbCircle
 10
6149.0187553361
 20
4694.3665840726
 30
0.0
 40
55.0
100
AcDbArc
 50
90.0
 51
166.9312296544
  0
CIRCLE
  5
19D
330
1F
100
AcDbEntity
  8
0
  6
Continuous
 62
     7
370
    25
100
AcDbCircle
 10
6274.0187553361
 20
4784.3665840726
 30
0.0
 40
17.5
  0
LINE
  5
19E
330
1F
100
AcDbEntity
  8
0
  6
Continuous
 62
     7
370
    25
100
AcDbLine
 10
6004.0187446073
 20
4459.3665810923
 30
0.0
 11
5999.0187493756
 21
4459.3665810923
 31
0.0
  0
LINE
  5
19F
330
1F
100
AcDbEntity
  8
0
  6
Continuous
 62
     7
370
    25
100
AcDbLine
 10
5999.0187493756
 20
4459.3665810923
 30
0.0
 11
5999.0187493756
 21
4819.3665804963
 31
0.0
  0
LINE
  5
1A0
330
1F
100
AcDbEntity
  8
0
  6
Continuous
 62
     7
370
    25
100
AcDbLine
 10
5999.0187493756
 20
4819.3665804963
 30
0.0
 11
6004.0187446073
 21
4819.3665804963
 31
0.0
  0
LINE
  5
1A1
330
1F
100
AcDbEntity
  8
0
  6
Continuous
 62
     7
370
    25
100
AcDbLine
 10
6399.0187553361
 20
4744.3665849667
 30
0.0
 11
6149.0187553361
 21
4744.3665849667
 31
0.0
  0
LINE
  5
1A2
330
1F
100
AcDbEntity
  8
0
  6
Continuous
 62
     7
370
    25
100
AcDbLine
 10
6149.0187553361
 20
4749.3665876489
 30
0.0
 11
6149.0187553361
 21
4744.3665849667
 31
0.0
  0
LINE
  5
1A3
330
1F
100
AcDbEntity
  8
0
  6
Continuous
 62
     7
370
    25
100
AcDbLine
 10
6399.0187553361
 20
4744.3665849667
 30
0.0
 11
6399.0187553361
 21
4749.3665876489
 31
0.0
  0
ARC
  5
1A4
330
1F
100
AcDbEntity
  8
0
  6
Continuous
 62
     7
370
    25
100
AcDbCircle
 10
6149.0187553361
 20
4694.3665840726
 30
0.0
 40
50.0
100
AcDbArc
 50
90.0
 51
166.9312296544
  0
LWPOLYLINE
  5
1A5
330
1F
100
AcDbEntity
  8
0
  6
Continuous
 62
     7
370
    25
100
AcDbPolyline
 90
        9
 70
   128
 43
0.0
 10
6095.4432842925
 20
4706.8032051127
 10
6096.3934717372
 20
4706.5826381247
 10
6097.307151337
 20
4706.3705424468
 10
6098.1491861537
 20
4706.1750764649
 10
6098.8872555688
 20
4706.0037503641
 10
6099.492957969
 20
4705.863143007
 10
6099.9430475429
 20
4705.7586672406
 10
6100.2202091411
 20
4705.6943277519
 10
6100.3137884334
 20
4705.6726055841
  0
ARC
  5
1A6
330
1F
100
AcDbEntity
  8
0
  6
Continuous
 62
     7
370
    25
100
AcDbCircle
 10
6399.0187553361
 20
4694.3665840726
 30
0.0
 40
50.00000000000019
100
AcDbArc
 50
13.0687703456
 51
90.0
  0
LWPOLYLINE
  5
1A7
330
1F
100
AcDbEntity
  8
0
  6
Continuous
 62
     7
370
    25
100
AcDbPolyline
 90
        9
 70
   128
 43
0.0
 10
6447.7237222388
 20
4705.6726055841
 10
6447.8173015311
 20
4705.6943277519
 10
6448.0944631293
 20
4705.7586672406
 10
6448.5445527032
 20
4705.863143007
 10
6449.1502551034
 20
4706.0037503641
 10
6449.8883245185
 20
4706.1750764649
 10
6450.7303593352
 20
4706.3705424468
 10
6451.644038935
 20
4706.5826381247
 10
6452.5942263797
 20
4706.8032051127
  0
LINE
  5
1A8
330
1F
100
AcDbEntity
  8
0
  6
Continuous
 62
     7
370
    25
100
AcDbLine
 10
6492.4647120431
 20
4512.9338117938
 30
0.0
 11
6447.7237222388
 21
4705.6726055841
 31
0.0
  0
LWPOLYLINE
  5
1A9
330
1F
100
AcDbEntity
  8
0
  6
Continuous
 62
     7
370
    25
100
AcDbPolyline
 90
        9
 70
   128
 43
0.0
 10
6492.4647120431
 20
4512.9338117938
 10
6492.5583062366
 20
4512.9555376868
 10
6492.8354678348
 20
4513.0198659997
 10
6493.2855425075
 20
4513.124352942
 10
6493.8912598088
 20
4513.264960299
 10
6494.6293143228
 20
4513.4362789493
 10
6495.4713491395
 20
4513.6317523818
 10
6496.3850287393
 20
4513.8438406091
 10
6497.335216184
 20
4514.0644075971
  0
LINE
  5
1AA
330
1F
100
AcDbEntity
  8
0
  6
Continuous
 62
     7
370
    25
100
AcDbLine
 10
6100.3137884334
 20
4705.6726055841
 30
0.0
 11
6055.5727986291
 21
4512.9338117938
 31
0.0
  0
LWPOLYLINE
  5
1AB
330
1F
100
AcDbEntity
  8
0
  6
Continuous
 62
     7
370
    25
100
AcDbPolyline
 90
        9
 70
   128
 43
0.0
 10
6050.7022944882
 20
4514.0644075971
 10
6051.6524819329
 20
4513.8438406091
 10
6052.5661615327
 20
4513.6317523818
 10
6053.4081963494
 20
4513.4362789493
 10
6054.1462508634
 20
4513.264960299
 10
6054.7519681647
 20
4513.124352942
 10
6055.2020428374
 20
4513.0198659997
 10
6055.4792044356
 20
4512.9555376868
 10
6055.5727986291
 20
4512.9338117938
  0
ARC
  5
1AC
330
1F
100
AcDbEntity
  8
0
  6
Continuous
 62
     7
370
    25
100
AcDbCircle
 10
6434.0187553361
 20
4499.3665840726
 30
0.0
 40
60.00000000000091
100
AcDbArc
 50
270.0
 51
13.0687703456
  0
LINE
  5
1AD
330
1F
100
AcDbEntity
  8
0
  6
Continuous
 62
     7
370
    25
100
AcDbLine
 10
6434.0187517598
 20
4439.3665852647
 30
0.0
 11
6434.0187517598
 21
4434.366590033
 31
0.0
  0
ARC
  5
1AE
330
1F
100
AcDbEntity
  8
0
  6
Continuous
 62
     7
370
    25
100
AcDbCircle
 10
6114.0187553361
 20
4499.3665840726
 30
0.0
 40
60.00000000000091
100
AcDbArc
 50
166.9312296544
 51
270.0
  0
LINE
  5
1AF
330
1F
100
AcDbEntity
  8
0
  6
Continuous
 62
     7
370
    25
100
AcDbLine
 10
6114.0187589124
 20
4434.366590033
 30
0.0
 11
6114.0187589124
 21
4439.3665852647
 31
0.0
  0
ARC
  5
1B0
330
1F
100
AcDbEntity
  8
0
  6
Continuous
 62
     7
370
    25
100
AcDbCircle
 10
6489.0187553361
 20
4459.3665840726
 30
0.0
 40
60.0
100
AcDbArc
 50
270.0
 51
0.0
  0
LINE
  5
1B1
330
1F
100
AcDbEntity
  8
0
  6
Continuous
 62
     7
370
    25
100
AcDbLine
 10
6489.0187589124
 20
4404.366588841
 30
0.0
 11
6489.0187589124
 21
4399.3665936093
 31
0.0
  0
LINE
  5
1B2
330
1F
100
AcDbEntity
  8
0
  6
Continuous
 62
     7
370
    25
100
AcDbLine
 10
6059.0187517598
 20
4404.366588841
 30
0.0
 11
6059.0187517598
 21
4399.3665936093
 31
0.0
  0
ARC
  5
1B3
330
1F
100
AcDbEntity
  8
0
  6
Continuous
 62
     7
370
    25
100
AcDbCircle
 10
6059.0187553361
 20
4459.3665840726
 30
0.0
 40
60.0
100
AcDbArc
 50
180.0
 51
270.0
  0
LINE
  5
1B4
330
1F
100
AcDbEntity
  8
0
  6
Continuous
 62
     7
370
    25
100
AcDbLine
 10
6114.0187589124
 20
4439.3665852647
 30
0.0
 11
6434.0187517598
 21
4439.3665852647
 31
0.0
  0
LINE
  5
1B5
330
1F
100
AcDbEntity
  8
0
  6
Continuous
 62
     7
370
    25
100
AcDbLine
 10
6489.0187589124
 20
4399.3665936093
 30
0.0
 11
6059.0187517598
 21
4399.3665936093
 31
0.0
  0
LINE
  5
1B6
330
1F
100
AcDbEntity
  8
0
  6
Continuous
 62
     7
370
    25
100
AcDbLine
 10
6399.0187553361
 20
4744.3665849667
 30
0.0
 11
6399.0187553361
 21
4694.3665842216
 31
0.0
  0
LINE
  5
1B7
330
1F
100
AcDbEntity
  8
0
  6
Continuous
 62
     7
370
    25
100
AcDbLine
 10
6149.0187553361
 20
4744.3665849667
 30
0.0
 11
6149.0187553361
 21
4694.3665842216
 31
0.0
  0
LWPOLYLINE
  5
1B8
330
1F
100
AcDbEntity
  8
0
  6
Continuous
 62
     7
370
    25
100
AcDbPolyline
 90
       19
 70
   128
 43
0.0
 10
6100.3137884334
 20
4705.6726055841
 10
6100.4991290763
 20
4705.6295822065
 10
6101.0537204936
 20
4705.5008398991
 10
6101.973375459
 20
4705.2873621385
 10
6103.2510606244
 20
4704.9907657008
 10
6104.8770604327
 20
4704.6133192878
 10
6106.8390218213
 20
4704.1578839223
 10
6109.1219840243
 20
4703.6279315751
 10
6111.708587189
 20
4703.0274967353
 10
6114.5791468814
 20
4702.3611466091
 10
6117.711803098
 20
4701.6339550416
 10
6121.0827288821
 20
4700.8514503639
 10
6124.6662644342
 20
4700.0195930402
 10
6128.4351406291
 20
4699.1447160642
 10
6132.3606727317
 20
4698.233469079
 10
6136.4129839137
 20
4697.2927960257
 10
6140.5612287715
 20
4696.3298531871
 10
6144.7738317445
 20
4695.351968209
 10
6149.0187553361
 20
4694.3665842216
  0
LWPOLYLINE
  5
1B9
330
1F
100
AcDbEntity
  8
0
  6
Continuous
 62
     7
370
    25
100
AcDbPolyline
 90
       19
 70
   128
 43
0.0
 10
6399.0187553361
 20
4694.3665842216
 10
6403.2636789277
 20
4695.351968209
 10
6407.4762819007
 20
4696.3298531871
 10
6411.6245267585
 20
4697.2927960257
 10
6415.6768379405
 20
4698.233469079
 10
6419.6023700431
 20
4699.1447160642
 10
6423.371246238
 20
4700.0195930402
 10
6426.9547817901
 20
4700.8514503639
 10
6430.3257075742
 20
4701.6339550416
 10
6433.4583637908
 20
4702.3611466091
 10
6436.3289234832
 20
4703.0274967353
 10
6438.9155266479
 20
4703.6279315751
 10
6441.1984888509
 20
4704.1578839223
 10
6443.1604502395
 20
4704.6133192878
 10
6444.7864500478
 20
4704.9907657008
 10
6446.0641352132
 20
4705.2873621385
 10
6446.9837901786
 20
4705.5008398991
 10
6447.5383815959
 20
4705.6295822065
 10
6447.7237222388
 20
4705.6726055841
  0
LINE
  5
1BA
330
1F
100
AcDbEntity
  8
0
  6
Continuous
 62
     7
370
    25
100
AcDbLine
 10
6443.7597451404
 20
4501.6277941565
 30
0.0
 11
6399.0187553361
 21
4694.3665842216
 31
0.0
  0
LWPOLYLINE
  5
1BB
330
1F
100
AcDbEntity
  8
0
  6
Continuous
 62
     7
370
    25
100
AcDbPolyline
 90
       19
 70
   128
 43
0.0
 10
6443.7597451404
 20
4501.6277941565
 10
6448.004668732
 20
4502.613178144
 10
6452.217271705
 20
4503.5910519462
 10
6456.3655165628
 20
4504.5539947848
 10
6460.4178277448
 20
4505.4946752887
 10
6464.3433598474
 20
4506.405911098
 10
6468.1122360423
 20
4507.2808029752
 10
6471.6957715943
 20
4508.1126602988
 10
6475.0666973785
 20
4508.8951649766
 10
6478.1993684962
 20
4509.622356544
 10
6481.0699132875
 20
4510.2887066703
 10
6483.6565164521
 20
4510.8891340594
 10
6485.9394935563
 20
4511.4190938573
 10
6487.9014400437
 20
4511.8745180468
 10
6489.5274547532
 20
4512.2519644599
 10
6490.8051399186
 20
4512.5485720735
 10
6491.7247799829
 20
4512.7620461087
 10
6492.2793863013
 20
4512.8907921414
 10
6492.4647120431
 20
4512.9338117938
  0
LINE
  5
1BC
330
1F
100
AcDbEntity
  8
0
  6
Continuous
 62
     7
370
    25
100
AcDbLine
 10
6149.0187553361
 20
4694.3665842216
 30
0.0
 11
6104.2777655318
 21
4501.6277941565
 31
0.0
  0
LWPOLYLINE
  5
1BD
330
1F
100
AcDbEntity
  8
0
  6
Continuous
 62
     7
370
    25
100
AcDbPolyline
 90
       19
 70
   128
 43
0.0
 10
6055.5727986291
 20
4512.9338117938
 10
6055.7581243709
 20
4512.8907921414
 10
6056.3127306893
 20
4512.7620461087
 10
6057.2323707536
 20
4512.5485720735
 10
6058.510055919
 20
4512.2519644599
 10
6060.1360706285
 20
4511.8745180468
 10
6062.0980171159
 20
4511.4190938573
 10
6064.3809942201
 20
4510.8891340594
 10
6066.9675973847
 20
4510.2887066703
 10
6069.838142176
 20
4509.622356544
 10
6072.9708132937
 20
4508.8951649766
 10
6076.3417390779
 20
4508.1126602988
 10
6079.9252746299
 20
4507.2808029752
 10
6083.6941508248
 20
4506.405911098
 10
6087.6196829274
 20
4505.4946752887
 10
6091.6719941094
 20
4504.5539947848
 10
6095.8202389672
 20
4503.5910519462
 10
6100.0328419402
 20
4502.613178144
 10
6104.2777655318
 20
4501.6277941565
  0
ARC
  5
1BE
330
1F
100
AcDbEntity
  8
0
  6
Continuous
 62
     7
370
    25
100
AcDbCircle
 10
6114.0187553361
 20
4499.3665840726
 30
0.0
 40
10.00000000000049
100
AcDbArc
 50
166.9312296544
 51
270.0
  0
LINE
  5
1BF
330
1F
100
AcDbEntity
  8
0
  6
Continuous
 62
     7
370
    25
100
AcDbLine
 10
6114.0187589124
 20
4489.3665822844
 30
0.0
 11
6114.0187589124
 21
4439.3665852647
 31
0.0
  0
ARC
  5
1C0
330
1F
100
AcDbEntity
  8
0
  6
Continuous
 62
     7
370
    25
100
AcDbCircle
 10
6434.0187553361
 20
4499.3665840726
 30
0.0
 40
10.00000000000049
100
AcDbArc
 50
270.0
 51
13.0687703456
  0
LINE
  5
1C1
330
1F
100
AcDbEntity
  8
0
  6
Continuous
 62
     7
370
    25
100
AcDbLine
 10
6434.0187517598
 20
4489.3665822844
 30
0.0
 11
6434.0187517598
 21
4439.3665852647
 31
0.0
  0
LINE
  5
1C2
330
1F
100
AcDbEntity
  8
0
  6
Continuous
 62
     7
370
    25
100
AcDbLine
 10
6114.0187589124
 20
4489.3665822844
 30
0.0
 11
6434.0187517598
 21
4489.3665822844
 31
0.0
  0
CIRCLE
  5
1C3
330
1F
100
AcDbEntity
  8
0
  6
Continuous
 62
     7
370
    25
100
AcDbCircle
 10
6274.0187553361
 20
4659.3665840726
 30
0.0
 40
33.5
  0
LINE
  5
1C4
330
1F
100
AcDbEntity
  8
0
  6
Continuous
 62
     8
370
    25
100
AcDbLine
 10
6197.5648758605
 20
4743.0665853124
 30
0.0
 11
6216.7608460084
 21
4743.0665853124
 31
0.0
  0
LINE
  5
1C5
330
1F
100
AcDbEntity
  8
0
  6
Continuous
 62
     8
370
    25
100
AcDbLine
 10
6181.2766698793
 20
4743.0665853124
 30
0.0
 11
6197.5648758605
 21
4743.0665853124
 31
0.0
  0
LINE
  5
1C6
330
1F
100
AcDbEntity
  8
0
  6
Continuous
 62
     8
370
    25
100
AcDbLine
 10
6197.5314525559
 20
4743.5580330591
 30
0.0
 11
6217.1687541202
 21
4743.5580330591
 31
0.0
  0
LINE
  5
1C7
330
1F
100
AcDbEntity
  8
0
  6
Continuous
 62
     8
370
    25
100
AcDbLine
 10
6180.8687580422
 20
4743.5580330591
 30
0.0
 11
6197.5314525559
 21
4743.5580330591
 31
0.0
  0
LINE
  5
1C8
330
1F
100
AcDbEntity
  8
0
  6
Continuous
 62
     8
370
    25
100
AcDbLine
 10
6198.0301944211
 20
4742.1706604462
 30
0.0
 11
6211.0824493363
 21
4742.1706604462
 31
0.0
  0
LINE
  5
1C9
330
1F
100
AcDbEntity
  8
0
  6
Continuous
 62
     8
370
    25
100
AcDbLine
 10
6186.9550553754
 20
4742.1706604462
 30
0.0
 11
6198.0301944211
 21
4742.1706604462
 31
0.0
  0
LINE
  5
1CA
330
1F
100
AcDbEntity
  8
0
  6
Continuous
 62
     8
370
    25
100
AcDbLine
 10
6399.0187553361
 20
4694.3665842216
 30
0.0
 11
6277.4143190261
 21
4694.3665842216
 31
0.0
  0
LINE
  5
1CB
330
1F
100
AcDbEntity
  8
0
  6
Continuous
 62
     8
370
    25
100
AcDbLine
 10
6270.6231916461
 20
4694.3665842216
 30
0.0
 11
6149.0187553361
 21
4694.3665842216
 31
0.0
  0
ENDSEC
  0
SECTION
  2
OBJECTS
  0
DICTIONARY
  5
C
330
0
100
AcDbDictionary
281
     1
  3
ACAD_GROUP
350
D
  3
ACAD_LAYOUT
350
1A
  3
ACAD_MLINESTYLE
350
17
  3
ACAD_PLOTSETTINGS
350
19
  3
ACAD_PLOTSTYLENAME
350
E
  3
ACAD_SCALELIST
350
47
  0
DICTIONARY
  5
D
102
{ACAD_REACTORS
330
C
102
}
330
C
100
AcDbDictionary
281
     1
  0
DICTIONARY
  5
1A
102
{ACAD_REACTORS
330
C
102
}
330
C
100
AcDbDictionary
281
     1
  3
Layout1
350
1E
  3
Layout2
350
26
  3
Model
350
22
  0
DICTIONARY
  5
17
102
{ACAD_REACTORS
330
C
102
}
330
C
100
AcDbDictionary
281
     1
  3
Standard
350
18
  0
DICTIONARY
  5
19
102
{ACAD_REACTORS
330
C
102
}
330
C
100
AcDbDictionary
281
     1
  0
ACDBDICTIONARYWDFLT
  5
E
102
{ACAD_REACTORS
330
C
102
}
330
C
100
AcDbDictionary
281
     1
  3
Normal
350
F
100
AcDbDictionaryWithDefault
340
F
  0
DICTIONARY
  5
47
102
{ACAD_REACTORS
330
C
102
}
330
C
100
AcDbDictionary
281
     1
  3
A0
350
48
  3
A1
350
49
  3
A2
350
4A
  3
A3
350
4B
  3
A4
350
4C
  3
A5
350
4D
  3
A6
350
4E
  3
A7
350
4F
  3
A8
350
50
  3
A9
350
51
  3
B0
350
52
  3
B1
350
53
  3
B2
350
54
  3
B3
350
55
  3
B4
350
56
  3
B5
350
57
  3
B6
350
58
  3
B7
350
59
  3
B8
350
5A
  3
B9
350
5B
  3
C0
350
5C
  3
C1
350
5D
  3
C2
350
5E
  3
C3
350
5F
  3
C4
350
60
  3
C5
350
61
  3
C6
350
62
  3
C7
350
63
  3
C8
350
64
  3
C9
350
65
  3
D0
350
66
  3
D1
350
67
  3
D2
350
68
  0
LAYOUT
  5
1E
102
{ACAD_REACTORS
330
1A
102
}
330
1A
100
AcDbPlotSettings
  1

  2
none_device
  4

  6

 40
0.0
 41
0.0
 42
0.0
 43
0.0
 44
0.0
 45
0.0
 46
0.0
 47
0.0
 48
0.0
 49
0.0
140
0.0
141
0.0
142
1.0
143
1.0
 70
   688
 72
     1
 73
     0
 74
     5
  7

 75
    16
147
1.0
148
0.0
149
0.0
100
AcDbLayout
  1
Layout1
 70
     1
 71
     1
 10
0.0
 20
0.0
 11
420.0
 21
297.0
 12
0.0
 22
0.0
 32
0.0
 14
1.0000000000E+20
 24
1.0000000000E+20
 34
1.0000000000E+20
 15
-1.0000000000E+20
 25
-1.0000000000E+20
 35
-1.0000000000E+20
146
0.0
 13
0.0
 23
0.0
 33
0.0
 16
1.0
 26
0.0
 36
0.0
 17
0.0
 27
1.0
 37
0.0
 76
     0
330
1B
  0
LAYOUT
  5
26
102
{ACAD_REACTORS
330
1A
102
}
330
1A
100
AcDbPlotSettings
  1

  2
none_device
  4

  6

 40
0.0
 41
0.0
 42
0.0
 43
0.0
 44
0.0
 45
0.0
 46
0.0
 47
0.0
 48
0.0
 49
0.0
140
0.0
141
0.0
142
1.0
143
1.0
 70
   688
 72
     1
 73
     0
 74
     5
  7

 75
    16
147
1.0
148
0.0
149
0.0
100
AcDbLayout
  1
Layout2
 70
     1
 71
     2
 10
0.0
 20
0.0
 11
0.0
 21
0.0
 12
0.0
 22
0.0
 32
0.0
 14
0.0
 24
0.0
 34
0.0
 15
0.0
 25
0.0
 35
0.0
146
0.0
 13
0.0
 23
0.0
 33
0.0
 16
1.0
 26
0.0
 36
0.0
 17
0.0
 27
1.0
 37
0.0
 76
     0
330
23
  0
LAYOUT
  5
22
102
{ACAD_REACTORS
330
1A
102
}
330
1A
100
AcDbPlotSettings
  1

  2
none_device
  4
Letter_(8.50_x_11.00_Inches)
  6

 40
6.35
 41
6.35
 42
6.35000508
 43
6.35000508
 44
215.9
 45
279.4
 46
0.0
 47
0.0
 48
0.0
 49
0.0
140
0.0
141
0.0
142
1.0
143
1.0
 70
  1712
 72
     1
 73
     0
 74
     0
  7

 75
     0
147
1.0
148
0.0
149
0.0
100
AcDbLayout
  1
Model
 70
     1
 71
     0
 10
0.0
 20
0.0
 11
20000.0
 21
10000.0
 12
0.0
 22
0.0
 32
0.0
 14
0.0
 24
0.0
 34
0.0
 15
20000.0
 25
10000.0
 35
0.0
146
0.0
 13
0.0
 23
0.0
 33
0.0
 16
1.0
 26
0.0
 36
0.0
 17
0.0
 27
1.0
 37
0.0
 76
     0
330
1F
331
29
  0
MLINESTYLE
  5
18
102
{ACAD_REACTORS
330
17
102
}
330
17
100
AcDbMlineStyle
  2
Standard
 70
     0
  3

 62
   256
 51
90.0
 52
90.0
 71
     2
 49
0.5
 62
   256
  6
BYLAYER
 49
-0.5
 62
   256
  6
BYLAYER
  0
ACDBPLACEHOLDER
  5
F
102
{ACAD_REACTORS
330
E
102
}
330
E
  0
SCALE
  5
48
102
{ACAD_REACTORS
330
47
102
}
330
47
100
AcDbScale
 70
     0
300
1:1
140
1.0
141
1.0
290
     1
  0
SCALE
  5
49
102
{ACAD_REACTORS
330
47
102
}
330
47
100
AcDbScale
 70
     0
300
1:2
140
1.0
141
2.0
290
     0
  0
SCALE
  5
4A
102
{ACAD_REACTORS
330
47
102
}
330
47
100
AcDbScale
 70
     0
300
1:4
140
1.0
141
4.0
290
     0
  0
SCALE
  5
4B
102
{ACAD_REACTORS
330
47
102
}
330
47
100
AcDbScale
 70
     0
300
1:5
140
1.0
141
5.0
290
     0
  0
SCALE
  5
4C
102
{ACAD_REACTORS
330
47
102
}
330
47
100
AcDbScale
 70
     0
300
1:8
140
1.0
141
8.0
290
     0
  0
SCALE
  5
4D
102
{ACAD_REACTORS
330
47
102
}
330
47
100
AcDbScale
 70
     0
300
1:10
140
1.0
141
10.0
290
     0
  0
SCALE
  5
4E
102
{ACAD_REACTORS
330
47
102
}
330
47
100
AcDbScale
 70
     0
300
1:16
140
1.0
141
16.0
290
     0
  0
SCALE
  5
4F
102
{ACAD_REACTORS
330
47
102
}
330
47
100
AcDbScale
 70
     0
300
1:20
140
1.0
141
20.0
290
     0
  0
SCALE
  5
50
102
{ACAD_REACTORS
330
47
102
}
330
47
100
AcDbScale
 70
     0
300
1:30
140
1.0
141
30.0
290
     0
  0
SCALE
  5
51
102
{ACAD_REACTORS
330
47
102
}
330
47
100
AcDbScale
 70
     0
300
1:40
140
1.0
141
40.0
290
     0
  0
SCALE
  5
52
102
{ACAD_REACTORS
330
47
102
}
330
47
100
AcDbScale
 70
     0
300
1:50
140
1.0
141
50.0
290
     0
  0
SCALE
  5
53
102
{ACAD_REACTORS
330
47
102
}
330
47
100
AcDbScale
 70
     0
300
1:100
140
1.0
141
100.0
290
     0
  0
SCALE
  5
54
102
{ACAD_REACTORS
330
47
102
}
330
47
100
AcDbScale
 70
     0
300
2:1
140
2.0
141
1.0
290
     0
  0
SCALE
  5
55
102
{ACAD_REACTORS
330
47
102
}
330
47
100
AcDbScale
 70
     0
300
4:1
140
4.0
141
1.0
290
     0
  0
SCALE
  5
56
102
{ACAD_REACTORS
330
47
102
}
330
47
100
AcDbScale
 70
     0
300
8:1
140
8.0
141
1.0
290
     0
  0
SCALE
  5
57
102
{ACAD_REACTORS
330
47
102
}
330
47
100
AcDbScale
 70
     0
300
10:1
140
10.0
141
1.0
290
     0
  0
SCALE
  5
58
102
{ACAD_REACTORS
330
47
102
}
330
47
100
AcDbScale
 70
     0
300
100:1
140
100.0
141
1.0
290
     0
  0
SCALE
  5
59
102
{ACAD_REACTORS
330
47
102
}
330
47
100
AcDbScale
 70
     0
300
1/128" = 1'-0"
140
0.0078125
141
12.0
290
     0
  0
SCALE
  5
5A
102
{ACAD_REACTORS
330
47
102
}
330
47
100
AcDbScale
 70
     0
300
1/64" = 1'-0"
140
0.015625
141
12.0
290
     0
  0
SCALE
  5
5B
102
{ACAD_REACTORS
330
47
102
}
330
47
100
AcDbScale
 70
     0
300
1/32" = 1'-0"
140
0.03125
141
12.0
290
     0
  0
SCALE
  5
5C
102
{ACAD_REACTORS
330
47
102
}
330
47
100
AcDbScale
 70
     0
300
1/16" = 1'-0"
140
0.0625
141
12.0
290
     0
  0
SCALE
  5
5D
102
{ACAD_REACTORS
330
47
102
}
330
47
100
AcDbScale
 70
     0
300
3/32" = 1'-0"
140
0.09375
141
12.0
290
     0
  0
SCALE
  5
5E
102
{ACAD_REACTORS
330
47
102
}
330
47
100
AcDbScale
 70
     0
300
1/8" = 1'-0"
140
0.125
141
12.0
290
     0
  0
SCALE
  5
5F
102
{ACAD_REACTORS
330
47
102
}
330
47
100
AcDbScale
 70
     0
300
3/16" = 1'-0"
140
0.1875
141
12.0
290
     0
  0
SCALE
  5
60
102
{ACAD_REACTORS
330
47
102
}
330
47
100
AcDbScale
 70
     0
300
1/4" = 1'-0"
140
0.25
141
12.0
290
     0
  0
SCALE
  5
61
102
{ACAD_REACTORS
330
47
102
}
330
47
100
AcDbScale
 70
     0
300
3/8" = 1'-0"
140
0.375
141
12.0
290
     0
  0
SCALE
  5
62
102
{ACAD_REACTORS
330
47
102
}
330
47
100
AcDbScale
 70
     0
300
1/2" = 1'-0"
140
0.5
141
12.0
290
     0
  0
SCALE
  5
63
102
{ACAD_REACTORS
330
47
102
}
330
47
100
AcDbScale
 70
     0
300
3/4" = 1'-0"
140
0.75
141
12.0
290
     0
  0
SCALE
  5
64
102
{ACAD_REACTORS
330
47
102
}
330
47
100
AcDbScale
 70
     0
300
1" = 1'-0"
140
1.0
141
12.0
290
     0
  0
SCALE
  5
65
102
{ACAD_REACTORS
330
47
102
}
330
47
100
AcDbScale
 70
     0
300
1-1/2" = 1'-0"
140
1.5
141
12.0
290
     0
  0
SCALE
  5
66
102
{ACAD_REACTORS
330
47
102
}
330
47
100
AcDbScale
 70
     0
300
3" = 1'-0"
140
3.0
141
12.0
290
     0
  0
SCALE
  5
67
102
{ACAD_REACTORS
330
47
102
}
330
47
100
AcDbScale
 70
     0
300
6" = 1'-0"
140
6.0
141
12.0
290
     0
  0
SCALE
  5
68
102
{ACAD_REACTORS
330
47
102
}
330
47
100
AcDbScale
 70
     0
300
1'-0" = 1'-0"
140
12.0
141
12.0
290
     0
  0
ENDSEC
  0
EOF
