  0
SECTION
  2
HEADER
  9
$ACADVER
  1
AC1015
  9
$ACADMAINTVER
 70
     6
  9
$DWGCODEPAGE
  3
ANSI_1250
  9
$INSBASE
 10
0.0
 20
0.0
 30
0.0
  9
$EXTMIN
 10
4774.0187553361
 20
3700.0332099677
 30
0.0
  9
$EXTMAX
 10
8650.9167521482
 20
5848.4410560817
 30
0.0
  9
$LIMMIN
 10
0.0
 20
0.0
  9
$LIMMAX
 10
420.0
 20
297.0
  9
$ORTHOMODE
 70
     0
  9
$REGENMODE
 70
     1
  9
$FILLMODE
 70
     1
  9
$QTEXTMODE
 70
     0
  9
$MIRRTEXT
 70
     1
  9
$LTSCALE
 40
1.0
  9
$ATTMODE
 70
     1
  9
$TEXTSIZE
 40
3.5
  9
$TRACEWID
 40
1.0
  9
$TEXTSTYLE
  7
Standard
  9
$CLAYER
  8
0
  9
$CELTYPE
  6
ByLayer
  9
$CECOLOR
 62
   256
  9
$CELTSCALE
 40
1.0
  9
$DISPSILH
 70
     0
  9
$DIMSCALE
 40
1.0
  9
$DIMASZ
 40
3.302
  9
$DIMEXO
 40
0.0
  9
$DIMDLI
 40
3.75
  9
$DIMRND
 40
0.0
  9
$DIMDLE
 40
0.0
  9
$DIMEXE
 40
1.0
  9
$DIMTP
 40
0.0
  9
$DIMTM
 40
0.0
  9
$DIMTXT
 40
3.5
  9
$DIMCEN
 40
2.5
  9
$DIMTSZ
 40
0.0
  9
$DIMTOL
 70
     0
  9
$DIMLIM
 70
     0
  9
$DIMTIH
 70
     1
  9
$DIMTOH
 70
     1
  9
$DIMSE1
 70
     0
  9
$DIMSE2
 70
     0
  9
$DIMTAD
 70
     1
  9
$DIMZIN
 70
     0
  9
$DIMBLK
  1

  9
$DIMASO
 70
     1
  9
$DIMSHO
 70
     1
  9
$DIMPOST
  1

  9
$DIMAPOST
  1

  9
$DIMALT
 70
     0
  9
$DIMALTD
 70
     3
  9
$DIMALTF
 40
0.0393700787
  9
$DIMLFAC
 40
1.0
  9
$DIMTOFL
 70
     1
  9
$DIMTVP
 40
0.0
  9
$DIMTIX
 70
     0
  9
$DIMSOXD
 70
     0
  9
$DIMSAH
 70
     0
  9
$DIMBLK1
  1

  9
$DIMBLK2
  1

  9
$DIMSTYLE
  2
ISO-25
  9
$DIMCLRD
 70
     0
  9
$DIMCLRE
 70
     0
  9
$DIMCLRT
 70
     0
  9
$DIMTFAC
 40
1.0
  9
$DIMGAP
 40
1.524
  9
$DIMJUST
 70
     0
  9
$DIMSD1
 70
     0
  9
$DIMSD2
 70
     0
  9
$DIMTOLJ
 70
     0
  9
$DIMTZIN
 70
     0
  9
$DIMALTZ
 70
     0
  9
$DIMALTTZ
 70
     0
  9
$DIMUPT
 70
     0
  9
$DIMDEC
 70
     2
  9
$DIMTDEC
 70
     2
  9
$DIMALTU
 70
     2
  9
$DIMALTTD
 70
     3
  9
$DIMTXSTY
  7
Standard
  9
$DIMAUNIT
 70
     0
  9
$DIMADEC
 70
     2
  9
$DIMALTRND
 40
0.0
  9
$DIMAZIN
 70
     0
  9
$DIMDSEP
 70
    44
  9
$DIMATFIT
 70
     3
  9
$DIMFRAC
 70
     0
  9
$DIMLDRBLK
  1

  9
$DIMLUNIT
 70
     2
  9
$DIMLWD
 70
    -2
  9
$DIMLWE
 70
    -2
  9
$DIMTMOVE
 70
     0
  9
$LUNITS
 70
     2
  9
$LUPREC
 70
     2
  9
$SKETCHINC
 40
1.0
  9
$FILLETRAD
 40
10.0
  9
$AUNITS
 70
     0
  9
$AUPREC
 70
     2
  9
$MENU
  1
.
  9
$ELEVATION
 40
0.0
  9
$PELEVATION
 40
0.0
  9
$THICKNESS
 40
0.0
  9
$LIMCHECK
 70
     0
  9
$CHAMFERA
 40
0.0
  9
$CHAMFERB
 40
0.0
  9
$CHAMFERC
 40
0.0
  9
$CHAMFERD
 40
0.0
  9
$SKPOLY
 70
     0
  9
$TDCREATE
 40
2459096.469356597
  9
$TDUCREATE
 40
2459096.386023264
  9
$TDUPDATE
 40
2459096.469470474
  9
$TDUUPDATE
 40
2459096.386137141
  9
$TDINDWG
 40
0.0000000116
  9
$TDUSRTIMER
 40
0.0000000116
  9
$USRTIMER
 70
     1
  9
$ANGBASE
 50
0.0
  9
$ANGDIR
 70
     0
  9
$PDMODE
 70
     0
  9
$PDSIZE
 40
-1.0
  9
$PLINEWID
 40
0.0
  9
$SPLFRAME
 70
     0
  9
$SPLINETYPE
 70
     6
  9
$SPLINESEGS
 70
     8
  9
$HANDSEED
  5
68A
  9
$SURFTAB1
 70
     6
  9
$SURFTAB2
 70
     6
  9
$SURFTYPE
 70
     6
  9
$SURFU
 70
     6
  9
$SURFV
 70
     6
  9
$UCSBASE
  2

  9
$UCSNAME
  2

  9
$UCSORG
 10
0.0
 20
0.0
 30
0.0
  9
$UCSXDIR
 10
1.0
 20
0.0
 30
0.0
  9
$UCSYDIR
 10
0.0
 20
1.0
 30
0.0
  9
$UCSORTHOREF
  2

  9
$UCSORTHOVIEW
 70
     0
  9
$UCSORGTOP
 10
0.0
 20
0.0
 30
0.0
  9
$UCSORGBOTTOM
 10
0.0
 20
0.0
 30
0.0
  9
$UCSORGLEFT
 10
0.0
 20
0.0
 30
0.0
  9
$UCSORGRIGHT
 10
0.0
 20
0.0
 30
0.0
  9
$UCSORGFRONT
 10
0.0
 20
0.0
 30
0.0
  9
$UCSORGBACK
 10
0.0
 20
0.0
 30
0.0
  9
$PUCSBASE
  2

  9
$PUCSNAME
  2

  9
$PUCSORG
 10
0.0
 20
0.0
 30
0.0
  9
$PUCSXDIR
 10
1.0
 20
0.0
 30
0.0
  9
$PUCSYDIR
 10
0.0
 20
1.0
 30
0.0
  9
$PUCSORTHOREF
  2

  9
$PUCSORTHOVIEW
 70
     0
  9
$PUCSORGTOP
 10
0.0
 20
0.0
 30
0.0
  9
$PUCSORGBOTTOM
 10
0.0
 20
0.0
 30
0.0
  9
$PUCSORGLEFT
 10
0.0
 20
0.0
 30
0.0
  9
$PUCSORGRIGHT
 10
0.0
 20
0.0
 30
0.0
  9
$PUCSORGFRONT
 10
0.0
 20
0.0
 30
0.0
  9
$PUCSORGBACK
 10
0.0
 20
0.0
 30
0.0
  9
$USERI1
 70
     0
  9
$USERI2
 70
     0
  9
$USERI3
 70
     0
  9
$USERI4
 70
     0
  9
$USERI5
 70
     0
  9
$USERR1
 40
0.0
  9
$USERR2
 40
0.0
  9
$USERR3
 40
0.0
  9
$USERR4
 40
0.0
  9
$USERR5
 40
0.0
  9
$WORLDVIEW
 70
     1
  9
$SHADEDGE
 70
     3
  9
$SHADEDIF
 70
    70
  9
$TILEMODE
 70
     1
  9
$MAXACTVP
 70
    64
  9
$PINSBASE
 10
0.0
 20
0.0
 30
0.0
  9
$PLIMCHECK
 70
     0
  9
$PEXTMIN
 10
1.0000000000E+20
 20
1.0000000000E+20
 30
1.0000000000E+20
  9
$PEXTMAX
 10
-1.0000000000E+20
 20
-1.0000000000E+20
 30
-1.0000000000E+20
  9
$PLIMMIN
 10
0.0
 20
0.0
  9
$PLIMMAX
 10
420.0
 20
297.0
  9
$UNITMODE
 70
     0
  9
$VISRETAIN
 70
     1
  9
$PLINEGEN
 70
     0
  9
$PSLTSCALE
 70
     1
  9
$TREEDEPTH
 70
  3020
  9
$CMLSTYLE
  2
Standard
  9
$CMLJUST
 70
     0
  9
$CMLSCALE
 40
20.0
  9
$PROXYGRAPHICS
 70
     1
  9
$MEASUREMENT
 70
     1
  9
$CELWEIGHT
370
    -1
  9
$ENDCAPS
280
     0
  9
$JOINSTYLE
280
     0
  9
$LWDISPLAY
290
     1
  9
$INSUNITS
 70
     4
  9
$HYPERLINKBASE
  1

  9
$STYLESHEET
  1

  9
$XEDIT
290
     1
  9
$CEPSNTYPE
380
     0
  9
$PSTYLEMODE
290
     1
  9
$FINGERPRINTGUID
  2
{5d4a4267-dbee-433c-a7f0-981e94069d5f}
  9
$VERSIONGUID
  2
{FAEB1C32-E019-11D5-929B-00C0DF256EC4}
  9
$EXTNAMES
290
     1
  9
$PSVPSCALE
 40
0.0
  9
$OLESTARTUP
290
     0
  0
ENDSEC
  0
SECTION
  2
CLASSES
  0
CLASS
  1
ACDBDICTIONARYWDFLT
  2
AcDbDictionaryWithDefault
  3
ObjectDBX Classes
 90
        0
280
     0
281
     0
  0
CLASS
  1
VISUALSTYLE
  2
AcDbVisualStyle
  3
ObjectDBX Classes
 90
     4095
280
     0
281
     0
  0
CLASS
  1
MATERIAL
  2
AcDbMaterial
  3
ObjectDBX Classes
 90
     1153
280
     0
281
     0
  0
CLASS
  1
SCALE
  2
AcDbScale
  3
ObjectDBX Classes
 90
     1153
280
     0
281
     0
  0
CLASS
  1
TABLESTYLE
  2
AcDbTableStyle
  3
ObjectDBX Classes
 90
     4095
280
     0
281
     0
  0
CLASS
  1
MLEADERSTYLE
  2
AcDbMLeaderStyle
  3
ACDB_MLEADERSTYLE_CLASS
 90
     4095
280
     0
281
     0
  0
CLASS
  1
SUN
  2
AcDbSun
  3
SCENEOE
 90
     1153
280
     0
281
     0
  0
CLASS
  1
ACDBPLACEHOLDER
  2
AcDbPlaceHolder
  3
ObjectDBX Classes
 90
        0
280
     0
281
     0
  0
CLASS
  1
LAYOUT
  2
AcDbLayout
  3
ObjectDBX Classes
 90
        0
280
     0
281
     0
  0
ENDSEC
  0
SECTION
  2
TABLES
  0
TABLE
  2
VPORT
  5
8
330
0
100
AcDbSymbolTable
 70
     1
  0
VPORT
  5
29
330
8
100
AcDbSymbolTableRecord
100
AcDbViewportTableRecord
  2
*Active
 70
     0
 10
0.0
 20
0.0
 11
1.0
 21
1.0
 12
6712.4677537422
 22
4774.2371330247
 13
0.0
 23
0.0
 14
10.0
 24
10.0
 15
10.0
 25
10.0
 16
0.0
 26
0.0
 36
1.0
 17
0.0
 27
0.0
 37
0.0
 40
2191.3760030363
 41
1.8045447022
 42
50.0
 43
0.0
 44
0.0
 50
0.0
 51
0.0
 71
     0
 72
   100
 73
     1
 74
     3
 75
     0
 76
     0
 77
     0
 78
     0
281
     0
 65
     1
110
0.0
120
0.0
130
0.0
111
1.0
121
0.0
131
0.0
112
0.0
122
1.0
132
0.0
 79
     0
146
0.0
  0
ENDTAB
  0
TABLE
  2
LTYPE
  5
5
330
0
100
AcDbSymbolTable
 70
     6
  0
LTYPE
  5
14
330
5
100
AcDbSymbolTableRecord
100
AcDbLinetypeTableRecord
  2
ByBlock
 70
     0
  3

 72
    65
 73
     0
 40
0.0
  0
LTYPE
  5
15
330
5
100
AcDbSymbolTableRecord
100
AcDbLinetypeTableRecord
  2
ByLayer
 70
     0
  3

 72
    65
 73
     0
 40
0.0
  0
LTYPE
  5
16
330
5
100
AcDbSymbolTableRecord
100
AcDbLinetypeTableRecord
  2
Continuous
 70
     0
  3
Solid line
 72
    65
 73
     0
 40
0.0
  0
LTYPE
  5
6E
330
5
100
AcDbSymbolTableRecord
100
AcDbLinetypeTableRecord
  2
HIDDEN
 70
     0
  3
Hidden __ __ __ __ __ __ __ __ __ __ __ __ __ __
 72
    65
 73
     2
 40
1.905
 49
1.27
 74
     0
 49
-0.635
 74
     0
  0
LTYPE
  5
6F
330
5
100
AcDbSymbolTableRecord
100
AcDbLinetypeTableRecord
  2
PHANTOM
 70
     0
  3
Phantom ______  __  __  ______  __  __  ______
 72
    65
 73
     6
 40
12.7
 49
6.35
 74
     0
 49
-1.27
 74
     0
 49
1.27
 74
     0
 49
-1.27
 74
     0
 49
1.27
 74
     0
 49
-1.27
 74
     0
  0
LTYPE
  5
70
330
5
100
AcDbSymbolTableRecord
100
AcDbLinetypeTableRecord
  2
CENTER
 70
     0
  3
Center ____ _ ____ _ ____ _ ____ _ ____ _ ____
 72
    65
 73
     4
 40
10.16
 49
6.35
 74
     0
 49
-1.27
 74
     0
 49
1.27
 74
     0
 49
-1.27
 74
     0
  0
LTYPE
  5
71
330
5
100
AcDbSymbolTableRecord
100
AcDbLinetypeTableRecord
  2
CENTERX2
 70
     0
  3
Center (2x) ________  __  ________  __  _____
 72
    65
 73
     4
 40
20.32
 49
12.7
 74
     0
 49
-2.54
 74
     0
 49
2.54
 74
     0
 49
-2.54
 74
     0
  0
LTYPE
  5
72
330
5
100
AcDbSymbolTableRecord
100
AcDbLinetypeTableRecord
  2
DOT2
 70
     0
  3
Dot (.5x) ........................................
 72
    65
 73
     2
 40
0.635
 49
0.0
 74
     0
 49
-0.635
 74
     0
  0
ENDTAB
  0
TABLE
  2
LAYER
  5
2
330
0
100
AcDbSymbolTable
 70
     1
  0
LAYER
  5
10
330
2
100
AcDbSymbolTableRecord
100
AcDbLayerTableRecord
  2
0
 70
     0
 62
     7
  6
Continuous
370
    -3
390
F
  0
ENDTAB
  0
TABLE
  2
STYLE
  5
3
330
0
100
AcDbSymbolTable
 70
     1
  0
STYLE
  5
11
330
3
100
AcDbSymbolTableRecord
100
AcDbTextStyleTableRecord
  2
Standard
 70
     0
 40
0.0
 41
1.0
 50
0.0
 71
     0
 42
3.5
  3
txt
  4

  0
ENDTAB
  0
TABLE
  2
VIEW
  5
6
330
0
100
AcDbSymbolTable
 70
     0
  0
ENDTAB
  0
TABLE
  2
UCS
  5
7
330
0
100
AcDbSymbolTable
 70
     0
  0
ENDTAB
  0
TABLE
  2
APPID
  5
9
330
0
100
AcDbSymbolTable
 70
     1
  0
APPID
  5
12
330
9
100
AcDbSymbolTableRecord
100
AcDbRegAppTableRecord
  2
ACAD
 70
     0
  0
ENDTAB
  0
TABLE
  2
DIMSTYLE
  5
A
330
0
100
AcDbSymbolTable
 70
     1
100
AcDbDimStyleTable
  0
DIMSTYLE
105
27
330
A
100
AcDbSymbolTableRecord
100
AcDbDimStyleTableRecord
  2
ISO-25
 70
     0
 41
2.5
 42
0.625
 43
3.75
 44
1.25
 73
     0
 74
     0
 77
     1
 78
     8
140
2.5
141
2.5
143
0.0393700787
147
0.625
171
     3
172
     1
178
     0
271
     2
272
     2
274
     3
278
    44
283
     0
284
     8
340
11
  0
ENDTAB
  0
TABLE
  2
BLOCK_RECORD
  5
1
330
0
100
AcDbSymbolTable
 70
     1
  0
BLOCK_RECORD
  5
1F
330
1
100
AcDbSymbolTableRecord
100
AcDbBlockTableRecord
  2
*Model_Space
340
22
  0
BLOCK_RECORD
  5
1B
330
1
100
AcDbSymbolTableRecord
100
AcDbBlockTableRecord
  2
*Paper_Space
340
1E
  0
BLOCK_RECORD
  5
23
330
1
100
AcDbSymbolTableRecord
100
AcDbBlockTableRecord
  2
*Paper_Space0
340
26
  0
ENDTAB
  0
ENDSEC
  0
SECTION
  2
BLOCKS
  0
BLOCK
  5
20
330
1F
100
AcDbEntity
  8
0
100
AcDbBlockBegin
  2
*Model_Space
 70
     0
 10
0.0
 20
0.0
 30
0.0
  3
*Model_Space
  1

  0
ENDBLK
  5
21
330
1F
100
AcDbEntity
  8
0
100
AcDbBlockEnd
  0
BLOCK
  5
1C
330
1B
100
AcDbEntity
 67
     1
  8
0
100
AcDbBlockBegin
  2
*Paper_Space
 70
     0
 10
0.0
 20
0.0
 30
0.0
  3
*Paper_Space
  1

  0
ENDBLK
  5
1D
330
1B
100
AcDbEntity
 67
     1
  8
0
100
AcDbBlockEnd
  0
BLOCK
  5
24
330
23
100
AcDbEntity
  8
0
100
AcDbBlockBegin
  2
*Paper_Space0
 70
     0
 10
0.0
 20
0.0
 30
0.0
  3
*Paper_Space0
  1

  0
ENDBLK
  5
25
330
23
100
AcDbEntity
  8
0
100
AcDbBlockEnd
  0
ENDSEC
  0
SECTION
  2
ENTITIES
  0
ARC
  5
73
330
1F
100
AcDbEntity
  8
0
  6
Continuous
 62
     7
100
AcDbCircle
 10
4902.1891591458
 20
5157.9419203492
 30
0.0
 40
3.00000000000055
100
AcDbArc
 50
90.000625557
 51
173.3453670336
  0
ARC
  5
74
330
1F
100
AcDbEntity
  8
0
  6
Continuous
 62
     7
100
AcDbCircle
 10
4950.8484182836
 20
5157.9419203492
 30
0.0
 40
2.999999999998725
100
AcDbArc
 50
6.6546329664
 51
89.9993744431
  0
ARC
  5
75
330
1F
100
AcDbEntity
  8
0
  6
Continuous
 62
     7
100
AcDbCircle
 10
4902.3968915105
 20
5033.9419251174
 30
0.0
 40
3.000000000000856
100
AcDbArc
 50
185.8478511548
 51
270.0003184282
  0
ARC
  5
76
330
1F
100
AcDbEntity
  8
0
  6
Continuous
 62
     7
100
AcDbCircle
 10
4950.6405667096
 20
5033.9419251174
 30
0.0
 40
2.999999999999946
100
AcDbArc
 50
269.9996815718
 51
354.1521488452
  0
ARC
  5
77
330
1F
100
AcDbEntity
  8
0
  6
Continuous
 62
     7
100
AcDbCircle
 10
4906.5187868074
 20
5174.4419165344
 30
0.0
 40
2.999999999999697
100
AcDbArc
 50
89.999599296
 51
179.9998315232
  0
ARC
  5
78
330
1F
100
AcDbEntity
  8
0
  6
Continuous
 62
     7
100
AcDbCircle
 10
4946.518790622
 20
5174.4419165344
 30
0.0
 40
3.000000000000606
100
AcDbArc
 50
0.0001684769
 51
90.000400704
  0
ARC
  5
79
330
1F
100
AcDbEntity
  8
0
  6
Continuous
 62
     7
100
AcDbCircle
 10
6288.518755053
 20
4596.9578414649
 30
0.0
 40
6.000000283112968
100
AcDbArc
 50
270.0
 51
359.9998360758
  0
ARC
  5
7A
330
1F
100
AcDbEntity
  8
0
  6
Continuous
 62
     7
100
AcDbCircle
 10
6259.518755053
 20
4596.9578414649
 30
0.0
 40
6.000000283112968
100
AcDbArc
 50
180.0001639242
 51
270.0
  0
ARC
  5
7B
330
1F
100
AcDbEntity
  8
0
  6
Continuous
 62
     7
100
AcDbCircle
 10
4810.5187744096
 20
4596.9578419416
 30
0.0
 40
6.000000000000304
100
AcDbArc
 50
269.999599295
 51
359.9998315241
  0
ARC
  5
7C
330
1F
100
AcDbEntity
  8
0
  6
Continuous
 62
     7
100
AcDbCircle
 10
4781.5187658265
 20
4596.9578419416
 30
0.0
 40
6.000000000001213
100
AcDbArc
 50
180.0001684759
 51
270.000400705
  0
ARC
  5
7D
330
1F
100
AcDbEntity
  8
0
  6
Continuous
 62
     7
100
AcDbCircle
 10
7737.5187362626
 20
4596.9578419416
 30
0.0
 40
6.000000000000473
100
AcDbArc
 50
180.0001684759
 51
270.000400705
  0
ARC
  5
7E
330
1F
100
AcDbEntity
  8
0
  6
Continuous
 62
     7
100
AcDbCircle
 10
7766.5187448457
 20
4596.9578419416
 30
0.0
 40
6.000000000000473
100
AcDbArc
 50
269.999599295
 51
359.9998315241
  0
ARC
  5
7F
330
1F
100
AcDbEntity
  8
0
  6
Continuous
 62
     7
100
AcDbCircle
 10
4926.518755336
 20
5138.941930865
 30
0.0
 40
40.00000000000179
100
AcDbArc
 50
22.5226735859
 51
54.9003678044
  0
ARC
  5
80
330
1F
100
AcDbEntity
  8
0
  6
Continuous
 62
     7
100
AcDbCircle
 10
4926.518755336
 20
5138.941930865
 30
0.0
 40
39.9999999999997
100
AcDbArc
 50
125.0996321952
 51
216.1070114061
  0
ARC
  5
81
330
1F
100
AcDbEntity
  8
0
  6
Continuous
 62
     7
100
AcDbCircle
 10
4926.518755336
 20
5138.941930865
 30
0.0
 40
40.00000000000169
100
AcDbArc
 50
323.8929885945
 51
22.5226735859
  0
ARC
  5
82
330
1F
100
AcDbEntity
  8
0
  6
Continuous
 62
     7
100
AcDbCircle
 10
5674.0187612966
 20
5538.9578091089
 30
0.0
 40
20.00000000000015
100
AcDbArc
 50
24.7217543182
 51
155.2782456818
  0
ARC
  5
83
330
1F
100
AcDbEntity
  8
0
  6
Continuous
 62
     7
100
AcDbCircle
 10
5674.0187612966
 20
5538.9578726288
 30
0.0
 40
20.00000000000092
100
AcDbArc
 50
204.7217543182
 51
335.2782456818
  0
ARC
  5
84
330
1F
100
AcDbEntity
  8
0
  6
Continuous
 62
     7
100
AcDbCircle
 10
7474.0187434152
 20
5538.9577443791
 30
0.0
 40
19.99999999999989
100
AcDbArc
 50
24.7219584659
 51
155.2780415341
  0
ARC
  5
85
330
1F
100
AcDbEntity
  8
0
  6
Continuous
 62
     7
100
AcDbCircle
 10
7474.0187434152
 20
5538.9579373586
 30
0.0
 40
19.99999999999989
100
AcDbArc
 50
204.7219584659
 51
335.2780415341
  0
ARC
  5
86
330
1F
100
AcDbEntity
  8
0
  6
Continuous
 62
     7
100
AcDbCircle
 10
6274.0187553361
 20
5538.9578374284
 30
0.0
 40
19.9999999999999
100
AcDbArc
 50
24.7216650031
 51
155.2783349969
  0
ARC
  5
87
330
1F
100
AcDbEntity
  8
0
  6
Continuous
 62
     7
100
AcDbCircle
 10
6274.0187553361
 20
5538.9578374284
 30
0.0
 40
19.99999712236144
100
AcDbArc
 50
204.7216470975
 51
335.2783529025
  0
ARC
  5
88
330
1F
100
AcDbEntity
  8
0
  6
Continuous
 62
     7
100
AcDbCircle
 10
5074.018767257
 20
5538.9577443791
 30
0.0
 40
20.00000000000103
100
AcDbArc
 50
24.7219584659
 51
155.2780415341
  0
ARC
  5
89
330
1F
100
AcDbEntity
  8
0
  6
Continuous
 62
     7
100
AcDbCircle
 10
5074.018767257
 20
5538.9579373586
 30
0.0
 40
20.00000000000103
100
AcDbArc
 50
204.7219584659
 51
335.2780415341
  0
ARC
  5
8A
330
1F
100
AcDbEntity
  8
0
  6
Continuous
 62
     7
100
AcDbCircle
 10
6874.0187493756
 20
5538.9578091089
 30
0.0
 40
20.00000000000015
100
AcDbArc
 50
24.7217543182
 51
155.2782456818
  0
ARC
  5
8B
330
1F
100
AcDbEntity
  8
0
  6
Continuous
 62
     7
100
AcDbCircle
 10
6874.0187493756
 20
5538.9578726288
 30
0.0
 40
20.00000000000168
100
AcDbArc
 50
204.7217543182
 51
335.2782456818
  0
ARC
  5
8C
330
1F
100
AcDbEntity
  8
0
  6
Continuous
 62
     7
100
AcDbCircle
 10
6274.1295607184
 20
5761.0676483203
 30
0.0
 40
32.30016222890872
100
AcDbArc
 50
270.3177476007
 51
277.0592157465
  0
ARC
  5
8D
330
1F
100
AcDbEntity
  8
0
  6
Continuous
 62
     7
100
AcDbCircle
 10
6275.9285746971
 20
5746.682148544
 30
0.0
 40
18.75933011765614
100
AcDbArc
 50
277.5089933965
 51
284.9286968681
  0
ARC
  5
8E
330
1F
100
AcDbEntity
  8
0
  6
Continuous
 62
     7
100
AcDbCircle
 10
6278.9412372051
 20
5736.7309657606
 30
0.0
 40
7.435248162358154
100
AcDbArc
 50
284.1692744713
 51
298.0602447723
  0
ARC
  5
8F
330
1F
100
AcDbEntity
  8
0
  6
Continuous
 62
     7
100
AcDbCircle
 10
6282.3616627699
 20
5730.2459107643
 30
0.0
 40
0.9028689821036882
100
AcDbArc
 50
304.3229002516
 51
1.5282441492
  0
ARC
  5
90
330
1F
100
AcDbEntity
  8
0
  6
Continuous
 62
     7
100
AcDbCircle
 10
6278.2876723901
 20
5722.820600626
 30
0.0
 40
9.350017234999816
100
AcDbArc
 50
65.4260187266
 51
77.249568111
  0
ARC
  5
91
330
1F
100
AcDbEntity
  8
0
  6
Continuous
 62
     7
100
AcDbCircle
 10
6274.0311212424
 20
5697.9363889668
 30
0.0
 40
34.65279529146868
100
AcDbArc
 50
85.5780126135
 51
90.4998344574
  0
ARC
  5
92
330
1F
100
AcDbEntity
  8
0
  6
Continuous
 62
     7
100
AcDbCircle
 10
6272.110069937
 20
5713.7020597785
 30
0.0
 40
18.76514633844127
100
AcDbArc
 50
97.5101448667
 51
104.9275453978
  0
ARC
  5
93
330
1F
100
AcDbEntity
  8
0
  6
Continuous
 62
     7
100
AcDbCircle
 10
6265.6758538526
 20
5730.14401064
 30
0.0
 40
0.9028756194765294
100
AcDbArc
 50
124.3230698949
 51
181.5298725211
  0
ARC
  5
94
330
1F
100
AcDbEntity
  8
0
  6
Continuous
 62
     7
100
AcDbCircle
 10
6267.3886118374
 20
5733.2797620091
 30
0.0
 40
3.588819182923069
100
AcDbArc
 50
234.2865078137
 51
244.8158741514
  0
ARC
  5
95
330
1F
100
AcDbEntity
  8
0
  6
Continuous
 62
     7
100
AcDbCircle
 10
6269.7507571868
 20
5737.5724567764
 30
0.0
 40
9.353274834067003
100
AcDbArc
 50
245.4289543487
 51
257.2483123796
  0
ARC
  5
96
330
1F
100
AcDbEntity
  8
0
  6
Continuous
 62
     7
100
AcDbCircle
 10
6273.1064792558
 20
5753.4334195625
 30
0.0
 40
24.62742585081625
100
AcDbArc
 50
258.559217108
 51
265.8741574341
  0
ARC
  5
97
330
1F
100
AcDbEntity
  8
0
  6
Continuous
 62
     7
100
AcDbCircle
 10
6274.0050384941
 20
5762.4140822192
 30
0.0
 40
34.61335442680885
100
AcDbArc
 50
265.5752067517
 51
270.5026403191
  0
ARC
  5
98
330
1F
100
AcDbEntity
  8
0
  6
Continuous
 62
     7
100
AcDbCircle
 10
6281.7779305643
 20
5731.3049779607
 30
0.0
 40
1.011559277171922
100
AcDbArc
 50
305.6871203588
 51
346.4882642198
  0
ARC
  5
99
330
1F
100
AcDbEntity
  8
0
  6
Continuous
 62
     7
100
AcDbCircle
 10
6275.8200257759
 20
5746.745516712
 30
0.0
 40
17.73522184506149
100
AcDbArc
 50
277.2937664359
 51
285.1425482087
  0
ARC
  5
9A
330
1F
100
AcDbEntity
  8
0
  6
Continuous
 62
     7
100
AcDbCircle
 10
6274.0067698163
 20
5761.6183253444
 30
0.0
 40
32.72229976601686
100
AcDbArc
 50
265.4327304898
 51
270.6451165811
  0
ARC
  5
9B
330
1F
100
AcDbEntity
  8
0
  6
Continuous
 62
     7
100
AcDbCircle
 10
6269.9868718203
 20
5738.1251369851
 30
0.0
 40
8.835817403933834
100
AcDbArc
 50
245.0806503926
 51
257.594945311
  0
ARC
  5
9C
330
1F
100
AcDbEntity
  8
0
  6
Continuous
 62
     7
100
AcDbCircle
 10
6274.0307408559
 20
5699.7375231051
 30
0.0
 40
32.72229976601596
100
AcDbArc
 50
85.4327304898
 51
90.6451165811
  0
ARC
  5
9D
330
1F
100
AcDbEntity
  8
0
  6
Continuous
 62
     7
100
AcDbCircle
 10
6272.2174848963
 20
5714.6103317376
 30
0.0
 40
17.73522184506005
100
AcDbArc
 50
97.2937664359
 51
105.1425482087
  0
ARC
  5
9E
330
1F
100
AcDbEntity
  8
0
  6
Continuous
 62
     7
100
AcDbCircle
 10
6278.0516867412
 20
5723.2333968992
 30
0.0
 40
8.83294046030147
100
AcDbArc
 50
65.0794753182
 51
77.5978002814
  0
ARC
  5
9F
330
1F
100
AcDbEntity
  8
0
  6
Continuous
 62
     7
100
AcDbCircle
 10
6266.1341269623
 20
5730.1495047175
 30
0.0
 40
0.8593832677679907
100
AcDbArc
 50
122.7297321714
 51
183.1214122177
  0
ARC
  5
A0
330
1F
100
AcDbEntity
  8
0
  6
Continuous
 62
     7
100
AcDbCircle
 10
6281.9032795301
 20
5730.2404459219
 30
0.0
 40
0.8594859181309793
100
AcDbArc
 50
302.7335898108
 51
3.1193525996
  0
ARC
  5
A1
330
1F
100
AcDbEntity
  8
0
  6
Continuous
 62
     7
100
AcDbCircle
 10
6269.9868718203
 20
5737.1592139142
 30
0.0
 40
8.835817403932536
100
AcDbArc
 50
245.0806503925
 51
257.594945311
  0
ARC
  5
A2
330
1F
100
AcDbEntity
  8
0
  6
Continuous
 62
     7
100
AcDbCircle
 10
6275.8200257759
 20
5745.7795936411
 30
0.0
 40
17.7352218450614
100
AcDbArc
 50
277.2937664359
 51
285.1425482087
  0
ARC
  5
A3
330
1F
100
AcDbEntity
  8
0
  6
Continuous
 62
     7
100
AcDbCircle
 10
6274.0067698163
 20
5760.6524022735
 30
0.0
 40
32.72229976601697
100
AcDbArc
 50
265.4327304898
 51
270.6451165811
  0
ARC
  5
A4
330
1F
100
AcDbEntity
  8
0
  6
Continuous
 62
     7
100
AcDbCircle
 10
7474.1295133985
 20
5761.0684679347
 30
0.0
 40
32.30098226984192
100
AcDbArc
 50
270.3178799704
 51
277.0591321811
  0
ARC
  5
A5
330
1F
100
AcDbEntity
  8
0
  6
Continuous
 62
     7
100
AcDbCircle
 10
7475.9279446768
 20
5746.6852140939
 30
0.0
 40
18.76245131041423
100
AcDbArc
 50
277.5096681487
 51
284.9281076466
  0
ARC
  5
A6
330
1F
100
AcDbEntity
  8
0
  6
Continuous
 62
     7
100
AcDbCircle
 10
7478.9402057981
 20
5736.7337680619
 30
0.0
 40
7.438214658227822
100
AcDbArc
 50
284.1716011323
 51
298.057223285
  0
ARC
  5
A7
330
1F
100
AcDbEntity
  8
0
  6
Continuous
 62
     7
100
AcDbCircle
 10
7482.3615642235
 20
5730.2459094522
 30
0.0
 40
0.9029556117805
100
AcDbArc
 50
304.3310983822
 51
1.5281807806
  0
ARC
  5
A8
330
1F
100
AcDbEntity
  8
0
  6
Continuous
 62
     7
100
AcDbCircle
 10
7478.2871310686
 20
5722.8191002862
 30
0.0
 40
9.351611913090029
100
AcDbArc
 50
65.4267568373
 51
77.2480409801
  0
ARC
  5
A9
330
1F
100
AcDbEntity
  8
0
  6
Continuous
 62
     7
100
AcDbCircle
 10
7474.0311345639
 20
5697.9366635946
 30
0.0
 40
34.65252127627758
100
AcDbArc
 50
85.5779819847
 51
90.4999525256
  0
ARC
  5
AA
330
1F
100
AcDbEntity
  8
0
  6
Continuous
 62
     7
100
AcDbCircle
 10
7472.1106763536
 20
5713.6989930497
 30
0.0
 40
18.76826873547247
100
AcDbArc
 50
97.510819469
 51
104.9269563263
  0
ARC
  5
AB
330
1F
100
AcDbEntity
  8
0
  6
Continuous
 62
     7
100
AcDbCircle
 10
7465.6756055196
 20
5730.1440982364
 30
0.0
 40
0.9026416353674434
100
AcDbArc
 50
124.3111753074
 51
181.5358314226
  0
ARC
  5
AC
330
1F
100
AcDbEntity
  8
0
  6
Continuous
 62
     7
100
AcDbCircle
 10
7467.386325844
 20
5733.2753682812
 30
0.0
 40
3.583885725892873
100
AcDbArc
 50
234.2758820467
 51
244.8185334524
  0
ARC
  5
AD
330
1F
100
AcDbEntity
  8
0
  6
Continuous
 62
     7
100
AcDbCircle
 10
7469.7502032098
 20
5737.5711839158
 30
0.0
 40
9.351901906274193
100
AcDbArc
 50
245.4285969609
 51
257.2501501479
  0
ARC
  5
AE
330
1F
100
AcDbEntity
  8
0
  6
Continuous
 62
     7
100
AcDbCircle
 10
7473.1063108726
 20
5753.4316890445
 30
0.0
 40
24.62569018537425
100
AcDbArc
 50
258.5588729616
 51
265.8741784315
  0
ARC
  5
AF
330
1F
100
AcDbEntity
  8
0
  6
Continuous
 62
     7
100
AcDbCircle
 10
7474.0051109202
 20
5762.4170073533
 30
0.0
 40
34.61627909247432
100
AcDbArc
 50
265.5754038203
 51
270.5025306899
  0
ARC
  5
B0
330
1F
100
AcDbEntity
  8
0
  6
Continuous
 62
     7
100
AcDbCircle
 10
7481.7784226007
 20
5731.304698587
 30
0.0
 40
1.011016683987968
100
AcDbArc
 50
305.6714448194
 51
346.4971582735
  0
ARC
  5
B1
330
1F
100
AcDbEntity
  8
0
  6
Continuous
 62
     7
100
AcDbCircle
 10
7475.8191760199
 20
5746.7499641712
 30
0.0
 40
17.73974749209538
100
AcDbArc
 50
277.2948238414
 51
285.1415720532
  0
ARC
  5
B2
330
1F
100
AcDbEntity
  8
0
  6
Continuous
 62
     7
100
AcDbCircle
 10
7474.0067801109
 20
5761.6190672706
 30
0.0
 40
32.72304201376634
100
AcDbArc
 50
265.4327752467
 51
270.6451592635
  0
ARC
  5
B3
330
1F
100
AcDbEntity
  8
0
  6
Continuous
 62
     7
100
AcDbCircle
 10
7469.9866565598
 20
5738.1242804138
 30
0.0
 40
8.834937048910987
100
AcDbArc
 50
245.079754987
 51
257.5950428285
  0
ARC
  5
B4
330
1F
100
AcDbEntity
  8
0
  6
Continuous
 62
     7
100
AcDbCircle
 10
7474.0307481034
 20
5699.7375585214
 30
0.0
 40
32.72226384431195
100
AcDbArc
 50
85.4327390955
 51
90.6450383278
  0
ARC
  5
B5
330
1F
100
AcDbEntity
  8
0
  6
Continuous
 62
     7
100
AcDbCircle
 10
7472.2160296771
 20
5714.6179867179
 30
0.0
 40
17.7274382472942
100
AcDbArc
 50
97.2920953318
 51
105.144300562
  0
ARC
  5
B6
330
1F
100
AcDbEntity
  8
0
  6
Continuous
 62
     7
100
AcDbCircle
 10
7478.0518780253
 20
5723.2342530418
 30
0.0
 40
8.832060553745125
100
AcDbArc
 50
65.0785798839
 51
77.5978978602
  0
ARC
  5
B7
330
1F
100
AcDbEntity
  8
0
  6
Continuous
 62
     7
100
AcDbCircle
 10
7466.1340281977
 20
5730.1495120921
 30
0.0
 40
0.8593099737112659
100
AcDbArc
 50
122.7230374158
 51
183.1221711645
  0
ARC
  5
B8
330
1F
100
AcDbEntity
  8
0
  6
Continuous
 62
     7
100
AcDbCircle
 10
7481.9033544944
 20
5730.2404385331
 30
0.0
 40
0.8594125829217529
100
AcDbArc
 50
302.7268943624
 51
3.1201123736
  0
ARC
  5
B9
330
1F
100
AcDbEntity
  8
0
  6
Continuous
 62
     7
100
AcDbCircle
 10
7469.9866565598
 20
5737.1583573429
 30
0.0
 40
8.834937048910774
100
AcDbArc
 50
245.0797549869
 51
257.5950428285
  0
ARC
  5
BA
330
1F
100
AcDbEntity
  8
0
  6
Continuous
 62
     7
100
AcDbCircle
 10
7475.8191760199
 20
5745.7840411003
 30
0.0
 40
17.73974749209517
100
AcDbArc
 50
277.2948238414
 51
285.1415720532
  0
ARC
  5
BB
330
1F
100
AcDbEntity
  8
0
  6
Continuous
 62
     7
100
AcDbCircle
 10
7474.0067801109
 20
5760.6531441997
 30
0.0
 40
32.72304201376554
100
AcDbArc
 50
265.4327752468
 51
270.6451592635
  0
ARC
  5
BC
330
1F
100
AcDbEntity
  8
0
  6
Continuous
 62
     7
100
AcDbCircle
 10
6874.1295424462
 20
5761.0676475045
 30
0.0
 40
32.30016155891684
100
AcDbArc
 50
270.3177942276
 51
277.0592179239
  0
ARC
  5
BD
330
1F
100
AcDbEntity
  8
0
  6
Continuous
 62
     7
100
AcDbCircle
 10
6875.9284765909
 20
5746.6830220646
 30
0.0
 40
18.76020545071008
100
AcDbArc
 50
277.5088603204
 51
284.9283680882
  0
ARC
  5
BE
330
1F
100
AcDbEntity
  8
0
  6
Continuous
 62
     7
100
AcDbCircle
 10
6878.8866069658
 20
5736.8976976192
 30
0.0
 40
7.610295760081246
100
AcDbArc
 50
284.2609517605
 51
297.2233789925
  0
ARC
  5
BF
330
1F
100
AcDbEntity
  8
0
  6
Continuous
 62
     7
100
AcDbCircle
 10
6882.3616176992
 20
5730.2459792546
 30
0.0
 40
0.9029360463596874
100
AcDbArc
 50
304.3214255591
 51
1.5237830211
  0
ARC
  5
C0
330
1F
100
AcDbEntity
  8
0
  6
Continuous
 62
     7
100
AcDbCircle
 10
6878.2880386293
 20
5722.8216583841
 30
0.0
 40
9.348898174092572
100
AcDbArc
 50
65.4254284304
 51
77.2505041481
  0
ARC
  5
C1
330
1F
100
AcDbEntity
  8
0
  6
Continuous
 62
     7
100
AcDbCircle
 10
6874.0310990737
 20
5697.9361464425
 30
0.0
 40
34.65303778707744
100
AcDbArc
 50
85.57802871
 51
90.4998272585
  0
ARC
  5
C2
330
1F
100
AcDbEntity
  8
0
  6
Continuous
 62
     7
100
AcDbCircle
 10
6872.1093708263
 20
5713.7057553591
 30
0.0
 40
18.76138912613998
100
AcDbArc
 50
97.5094578557
 51
104.9283179396
  0
ARC
  5
C3
330
1F
100
AcDbEntity
  8
0
  6
Continuous
 62
     7
100
AcDbCircle
 10
6865.6758027338
 20
5730.1440551141
 30
0.0
 40
0.9028018742017021
100
AcDbArc
 50
124.3212205885
 51
181.5328210467
  0
ARC
  5
C4
330
1F
100
AcDbEntity
  8
0
  6
Continuous
 62
     7
100
AcDbCircle
 10
6867.3896287651
 20
5733.2816738815
 30
0.0
 40
3.590982214239356
100
AcDbArc
 50
234.2907613374
 51
244.8141662082
  0
ARC
  5
C5
330
1F
100
AcDbEntity
  8
0
  6
Continuous
 62
     7
100
AcDbCircle
 10
6869.7503788215
 20
5737.5713983872
 30
0.0
 40
9.352155108946214
100
AcDbArc
 50
245.4283641438
 51
257.2492483122
  0
ARC
  5
C6
330
1F
100
AcDbEntity
  8
0
  6
Continuous
 62
     7
100
AcDbCircle
 10
6873.0780154531
 20
5753.1808370318
 30
0.0
 40
24.37345206186726
100
AcDbArc
 50
258.1880689611
 51
265.8981788897
  0
ARC
  5
C7
330
1F
100
AcDbEntity
  8
0
  6
Continuous
 62
     7
100
AcDbCircle
 10
6874.0050487421
 20
5762.4143246628
 30
0.0
 40
34.61359684142239
100
AcDbArc
 50
265.5752228754
 51
270.5026330929
  0
ARC
  5
C8
330
1F
100
AcDbEntity
  8
0
  6
Continuous
 62
     7
100
AcDbCircle
 10
6881.7780001059
 20
5731.3049065429
 30
0.0
 40
1.011452879789719
100
AcDbArc
 50
305.6856637875
 51
346.4909766869
  0
ARC
  5
C9
330
1F
100
AcDbEntity
  8
0
  6
Continuous
 62
     7
100
AcDbCircle
 10
6875.8195394482
 20
5746.7480115703
 30
0.0
 40
17.73776152261583
100
AcDbArc
 50
277.2943838809
 51
285.1420120128
  0
ARC
  5
CA
330
1F
100
AcDbEntity
  8
0
  6
Continuous
 62
     7
100
AcDbCircle
 10
6874.0067616832
 20
5761.6177002742
 30
0.0
 40
32.7216750430374
100
AcDbArc
 50
265.4326792326
 51
270.6451767357
  0
ARC
  5
CB
330
1F
100
AcDbEntity
  8
0
  6
Continuous
 62
     7
100
AcDbCircle
 10
6869.9866025003
 20
5738.124374493
 30
0.0
 40
8.83500963681201
100
AcDbArc
 50
245.08018978
 51
257.5957427986
  0
ARC
  5
CC
330
1F
100
AcDbEntity
  8
0
  6
Continuous
 62
     7
100
AcDbCircle
 10
6874.0307577605
 20
5699.7385368451
 30
0.0
 40
32.72128595973017
100
AcDbArc
 50
85.4326611563
 51
90.6451162671
  0
ARC
  5
CD
330
1F
100
AcDbEntity
  8
0
  6
Continuous
 62
     7
100
AcDbCircle
 10
6872.2175255218
 20
5714.6097398154
 30
0.0
 40
17.73581134488451
100
AcDbArc
 50
97.2935834173
 51
105.1422651216
  0
ARC
  5
CE
330
1F
100
AcDbEntity
  8
0
  6
Continuous
 62
     7
100
AcDbCircle
 10
6878.0519137881
 20
5723.2342530418
 30
0.0
 40
8.83206055374571
100
AcDbArc
 50
65.0785798839
 51
77.5978978602
  0
ARC
  5
CF
330
1F
100
AcDbEntity
  8
0
  6
Continuous
 62
     7
100
AcDbCircle
 10
6866.1340477962
 20
5730.1495563274
 30
0.0
 40
0.8592962439798507
100
AcDbArc
 50
122.7270686587
 51
183.1251749862
  0
ARC
  5
D0
330
1F
100
AcDbEntity
  8
0
  6
Continuous
 62
     7
100
AcDbCircle
 10
6881.9033467898
 20
5730.2403943052
 30
0.0
 40
0.8593988780299938
100
AcDbArc
 50
302.7309264352
 51
3.1231152177
  0
ARC
  5
D1
330
1F
100
AcDbEntity
  8
0
  6
Continuous
 62
     7
100
AcDbCircle
 10
6869.9866025003
 20
5737.1584514221
 30
0.0
 40
8.835009636811797
100
AcDbArc
 50
245.08018978
 51
257.5957427985
  0
ARC
  5
D2
330
1F
100
AcDbEntity
  8
0
  6
Continuous
 62
     7
100
AcDbCircle
 10
6875.8195394482
 20
5745.7820884994
 30
0.0
 40
17.73776152261664
100
AcDbArc
 50
277.2943838809
 51
285.1420120129
  0
ARC
  5
D3
330
1F
100
AcDbEntity
  8
0
  6
Continuous
 62
     7
100
AcDbCircle
 10
6874.0067616832
 20
5760.6517772033
 30
0.0
 40
32.72167504303751
100
AcDbArc
 50
265.4326792326
 51
270.6451767357
  0
ARC
  5
D4
330
1F
100
AcDbEntity
  8
0
  6
Continuous
 62
     7
100
AcDbCircle
 10
5674.1295543672
 20
5761.0676475045
 30
0.0
 40
32.30016155891684
100
AcDbArc
 50
270.3177942276
 51
277.0592179239
  0
ARC
  5
D5
330
1F
100
AcDbEntity
  8
0
  6
Continuous
 62
     7
100
AcDbCircle
 10
5675.9292730622
 20
5746.6784567448
 30
0.0
 40
18.75557675627508
100
AcDbArc
 50
277.5083066905
 51
284.9294691048
  0
ARC
  5
D6
330
1F
100
AcDbEntity
  8
0
  6
Continuous
 62
     7
100
AcDbCircle
 10
5678.8866358447
 20
5736.8978364792
 30
0.0
 40
7.610411481460559
100
AcDbArc
 50
284.2601355857
 51
297.2227872244
  0
ARC
  5
D7
330
1F
100
AcDbEntity
  8
0
  6
Continuous
 62
     7
100
AcDbCircle
 10
5682.3617138972
 20
5730.2458662842
 30
0.0
 40
0.9027952271405204
100
AcDbArc
 50
304.3210506856
 51
1.5311929592
  0
ARC
  5
D8
330
1F
100
AcDbEntity
  8
0
  6
Continuous
 62
     7
100
AcDbCircle
 10
5678.2880505503
 20
5722.8216583841
 30
0.0
 40
9.348898174092572
100
AcDbArc
 50
65.4254284304
 51
77.2505041481
  0
ARC
  5
D9
330
1F
100
AcDbEntity
  8
0
  6
Continuous
 62
     7
100
AcDbCircle
 10
5674.0311109946
 20
5697.9361464425
 30
0.0
 40
34.65303778707754
100
AcDbArc
 50
85.57802871
 51
90.4998272583
  0
ARC
  5
DA
330
1F
100
AcDbEntity
  8
0
  6
Continuous
 62
     7
100
AcDbCircle
 10
5672.1101680854
 20
5713.7011859241
 30
0.0
 40
18.76602200705491
100
AcDbArc
 50
97.5100117729
 51
104.9272166357
  0
ARC
  5
DB
330
1F
100
AcDbEntity
  8
0
  6
Continuous
 62
     7
100
AcDbCircle
 10
5665.6758989095
 20
5730.143942159
 30
0.0
 40
0.9029426681981428
100
AcDbArc
 50
124.3215948111
 51
181.5254119189
  0
ARC
  5
DC
330
1F
100
AcDbEntity
  8
0
  6
Continuous
 62
     7
100
AcDbCircle
 10
5667.3896406858
 20
5733.2816738817
 30
0.0
 40
3.590982214239732
100
AcDbArc
 50
234.2907613411
 51
244.8141662133
  0
ARC
  5
DD
330
1F
100
AcDbEntity
  8
0
  6
Continuous
 62
     7
100
AcDbCircle
 10
5669.7503907425
 20
5737.5713983872
 30
0.0
 40
9.352155108946214
100
AcDbArc
 50
245.4283641438
 51
257.2492483122
  0
ARC
  5
DE
330
1F
100
AcDbEntity
  8
0
  6
Continuous
 62
     7
100
AcDbCircle
 10
5673.0786281599
 20
5753.1857908822
 30
0.0
 40
24.37843619794551
100
AcDbArc
 50
258.1889330269
 51
265.8976033046
  0
ARC
  5
DF
330
1F
100
AcDbEntity
  8
0
  6
Continuous
 62
     7
100
AcDbCircle
 10
5674.005060663
 20
5762.4143246628
 30
0.0
 40
34.61359684142226
100
AcDbArc
 50
265.5752228754
 51
270.502633093
  0
ARC
  5
E0
330
1F
100
AcDbEntity
  8
0
  6
Continuous
 62
     7
100
AcDbCircle
 10
5681.7780120268
 20
5731.3049065429
 30
0.0
 40
1.011452879789506
100
AcDbArc
 50
305.6856637876
 51
346.490976687
  0
ARC
  5
E1
330
1F
100
AcDbEntity
  8
0
  6
Continuous
 62
     7
100
AcDbCircle
 10
5675.8199851505
 20
5746.7461086341
 30
0.0
 40
17.73581134488523
100
AcDbArc
 50
277.2935834173
 51
285.1422651216
  0
ARC
  5
E2
330
1F
100
AcDbEntity
  8
0
  6
Continuous
 62
     7
100
AcDbCircle
 10
5674.0067529117
 20
5761.6173116044
 30
0.0
 40
32.72128595973111
100
AcDbArc
 50
265.4326611563
 51
270.6451162671
  0
ARC
  5
E3
330
1F
100
AcDbEntity
  8
0
  6
Continuous
 62
     7
100
AcDbCircle
 10
5669.9866446387
 20
5738.1242804138
 30
0.0
 40
8.834937048911314
100
AcDbArc
 50
245.0797549876
 51
257.5950428298
  0
ARC
  5
E4
330
1F
100
AcDbEntity
  8
0
  6
Continuous
 62
     7
100
AcDbCircle
 10
5674.030748989
 20
5699.7381481753
 30
0.0
 40
32.7216750430374
100
AcDbArc
 50
85.4326792326
 51
90.6451767357
  0
ARC
  5
E5
330
1F
100
AcDbEntity
  8
0
  6
Continuous
 62
     7
100
AcDbCircle
 10
5672.2179712241
 20
5714.6078368792
 30
0.0
 40
17.73776152261619
100
AcDbArc
 50
97.2943838809
 51
105.1420120129
  0
ARC
  5
E6
330
1F
100
AcDbEntity
  8
0
  6
Continuous
 62
     7
100
AcDbCircle
 10
5678.051955979
 20
5723.2341592148
 30
0.0
 40
8.832132889406466
100
AcDbArc
 50
65.0790144469
 51
77.5985980147
  0
ARC
  5
E7
330
1F
100
AcDbEntity
  8
0
  6
Continuous
 62
     7
100
AcDbCircle
 10
5666.1340597172
 20
5730.1495563274
 30
0.0
 40
0.8592962439804979
100
AcDbArc
 50
122.7270686664
 51
183.1251749904
  0
ARC
  5
E8
330
1F
100
AcDbEntity
  8
0
  6
Continuous
 62
     7
100
AcDbCircle
 10
5681.9033587108
 20
5730.2403943053
 30
0.0
 40
0.8593988780303066
100
AcDbArc
 50
302.7309264277
 51
3.1231152136
  0
ARC
  5
E9
330
1F
100
AcDbEntity
  8
0
  6
Continuous
 62
     7
100
AcDbCircle
 10
5669.9866446387
 20
5737.1583573429
 30
0.0
 40
8.834937048911101
100
AcDbArc
 50
245.0797549876
 51
257.5950428298
  0
ARC
  5
EA
330
1F
100
AcDbEntity
  8
0
  6
Continuous
 62
     7
100
AcDbCircle
 10
5675.8199851505
 20
5745.7801855632
 30
0.0
 40
17.73581134488423
100
AcDbArc
 50
277.2935834173
 51
285.1422651216
  0
ARC
  5
EB
330
1F
100
AcDbEntity
  8
0
  6
Continuous
 62
     7
100
AcDbCircle
 10
5674.0067529117
 20
5760.6513885335
 30
0.0
 40
32.7212859597303
100
AcDbArc
 50
265.4326611563
 51
270.6451162671
  0
ARC
  5
EC
330
1F
100
AcDbEntity
  8
0
  6
Continuous
 62
     7
100
AcDbCircle
 10
5074.128368071
 20
5761.0985615694
 30
0.0
 40
32.33108194352099
100
AcDbArc
 50
270.3196560114
 51
277.0054444179
  0
ARC
  5
ED
330
1F
100
AcDbEntity
  8
0
  6
Continuous
 62
     7
100
AcDbCircle
 10
5075.9279685187
 20
5746.6852140939
 30
0.0
 40
18.76245131041423
100
AcDbArc
 50
277.5096681487
 51
284.9281076466
  0
ARC
  5
EE
330
1F
100
AcDbEntity
  8
0
  6
Continuous
 62
     7
100
AcDbCircle
 10
5078.8870252537
 20
5736.8965616338
 30
0.0
 40
7.60908880566419
100
AcDbArc
 50
284.2599193007
 51
297.2244114507
  0
ARC
  5
EF
330
1F
100
AcDbEntity
  8
0
  6
Continuous
 62
     7
100
AcDbCircle
 10
5082.3619111144
 20
5730.2458231582
 30
0.0
 40
0.9026349840582074
100
AcDbArc
 50
304.3110052743
 51
1.534203306
  0
ARC
  5
F0
330
1F
100
AcDbEntity
  8
0
  6
Continuous
 62
     7
100
AcDbCircle
 10
5078.2882260583
 20
5722.8218726267
 30
0.0
 40
9.348645220613914
100
AcDbArc
 50
65.4256612538
 51
77.2514060213
  0
ARC
  5
F1
330
1F
100
AcDbEntity
  8
0
  6
Continuous
 62
     7
100
AcDbCircle
 10
5074.0310487267
 20
5697.933460337
 30
0.0
 40
34.65572345520742
100
AcDbArc
 50
85.5782095189
 51
90.4997249913
  0
ARC
  5
F2
330
1F
100
AcDbEntity
  8
0
  6
Continuous
 62
     7
100
AcDbCircle
 10
5072.1107001955
 20
5713.6989930497
 30
0.0
 40
18.76826873547271
100
AcDbArc
 50
97.510819469
 51
104.9269563263
  0
ARC
  5
F3
330
1F
100
AcDbEntity
  8
0
  6
Continuous
 62
     7
100
AcDbCircle
 10
5065.6759524045
 20
5730.1440119498
 30
0.0
 40
0.9029622545865313
100
AcDbArc
 50
124.3312681548
 51
181.5298088389
  0
ARC
  5
F4
330
1F
100
AcDbEntity
  8
0
  6
Continuous
 62
     7
100
AcDbCircle
 10
5067.3922178233
 20
5733.2860987283
 30
0.0
 40
3.596093292900448
100
AcDbArc
 50
234.2982607767
 51
244.8066667766
  0
ARC
  5
F5
330
1F
100
AcDbEntity
  8
0
  6
Continuous
 62
     7
100
AcDbCircle
 10
5069.7512988178
 20
5737.5739580437
 30
0.0
 40
9.354870490472328
100
AcDbArc
 50
245.4296923393
 51
257.2467853991
  0
ARC
  5
F6
330
1F
100
AcDbEntity
  8
0
  6
Continuous
 62
     7
100
AcDbCircle
 10
5073.0788366115
 20
5753.1867972426
 30
0.0
 40
24.3794565983771
100
AcDbArc
 50
258.1890198756
 51
265.8972279735
  0
ARC
  5
F7
330
1F
100
AcDbEntity
  8
0
  6
Continuous
 62
     7
100
AcDbCircle
 10
5074.0050253021
 20
5762.4138104928
 30
0.0
 40
34.61308331517532
100
AcDbArc
 50
265.5751762227
 51
270.5027582876
  0
ARC
  5
F8
330
1F
100
AcDbEntity
  8
0
  6
Continuous
 62
     7
100
AcDbCircle
 10
5081.7784464426
 20
5731.3046985871
 30
0.0
 40
1.011016683986673
100
AcDbArc
 50
305.6714448108
 51
346.4971582683
  0
ARC
  5
F9
330
1F
100
AcDbEntity
  8
0
  6
Continuous
 62
     7
100
AcDbCircle
 10
5075.8214809951
 20
5746.7378617316
 30
0.0
 40
17.72743824729331
100
AcDbArc
 50
277.2920953318
 51
285.1443005619
  0
ARC
  5
FA
330
1F
100
AcDbEntity
  8
0
  6
Continuous
 62
     7
100
AcDbCircle
 10
5074.0067625688
 20
5761.6182899281
 30
0.0
 40
32.72226384431104
100
AcDbArc
 50
265.4327390955
 51
270.6450383278
  0
ARC
  5
FB
330
1F
100
AcDbEntity
  8
0
  6
Continuous
 62
     7
100
AcDbCircle
 10
5069.9866804015
 20
5738.1242804138
 30
0.0
 40
8.834937048911705
100
AcDbArc
 50
245.0797549876
 51
257.5950428298
  0
ARC
  5
FC
330
1F
100
AcDbEntity
  8
0
  6
Continuous
 62
     7
100
AcDbCircle
 10
5074.0307305613
 20
5699.7367811789
 30
0.0
 40
32.72304201376543
100
AcDbArc
 50
85.4327752467
 51
90.6451592635
  0
ARC
  5
FD
330
1F
100
AcDbEntity
  8
0
  6
Continuous
 62
     7
100
AcDbCircle
 10
5072.2183346523
 20
5714.6058842783
 30
0.0
 40
17.73974749209454
100
AcDbArc
 50
97.2948238415
 51
105.1415720532
  0
ARC
  5
FE
330
1F
100
AcDbEntity
  8
0
  6
Continuous
 62
     7
100
AcDbCircle
 10
5078.051901867
 20
5723.2342530419
 30
0.0
 40
8.832060553745285
100
AcDbArc
 50
65.0785798832
 51
77.597897859
  0
ARC
  5
FF
330
1F
100
AcDbEntity
  8
0
  6
Continuous
 62
     7
100
AcDbCircle
 10
5066.1340520395
 20
5730.1495120921
 30
0.0
 40
0.859309973710366
100
AcDbArc
 50
122.7230374158
 51
183.1221711645
  0
ARC
  5
100
330
1F
100
AcDbEntity
  8
0
  6
Continuous
 62
     7
100
AcDbCircle
 10
5081.9033783362
 20
5730.2404385331
 30
0.0
 40
0.8594125829217529
100
AcDbArc
 50
302.7268943625
 51
3.1201123736
  0
ARC
  5
101
330
1F
100
AcDbEntity
  8
0
  6
Continuous
 62
     7
100
AcDbCircle
 10
5069.9866804015
 20
5737.1583573429
 30
0.0
 40
8.834937048911492
100
AcDbArc
 50
245.0797549876
 51
257.5950428298
  0
ARC
  5
102
330
1F
100
AcDbEntity
  8
0
  6
Continuous
 62
     7
100
AcDbCircle
 10
5075.8214809951
 20
5745.7719386607
 30
0.0
 40
17.72743824729424
100
AcDbArc
 50
277.2920953318
 51
285.1443005619
  0
ARC
  5
103
330
1F
100
AcDbEntity
  8
0
  6
Continuous
 62
     7
100
AcDbCircle
 10
5074.0067625688
 20
5760.6523668572
 30
0.0
 40
32.72226384431114
100
AcDbArc
 50
265.4327390956
 51
270.6450383278
  0
CIRCLE
  5
104
330
1F
100
AcDbEntity
  8
0
  6
Continuous
 62
     7
100
AcDbCircle
 10
5674.0187553361
 20
5738.9578414649
 30
0.0
 40
29.50000000000091
  0
CIRCLE
  5
105
330
1F
100
AcDbEntity
  8
0
  6
Continuous
 62
     7
100
AcDbCircle
 10
5674.0187553361
 20
5738.9578414649
 30
0.0
 40
30.0
  0
CIRCLE
  5
106
330
1F
100
AcDbEntity
  8
0
  6
Continuous
 62
     7
100
AcDbCircle
 10
5074.0187553361
 20
5738.9578414649
 30
0.0
 40
29.49999999999909
  0
CIRCLE
  5
107
330
1F
100
AcDbEntity
  8
0
  6
Continuous
 62
     7
100
AcDbCircle
 10
5074.0187553361
 20
5738.9578414649
 30
0.0
 40
30.0
  0
CIRCLE
  5
108
330
1F
100
AcDbEntity
  8
0
  6
Continuous
 62
     7
100
AcDbCircle
 10
6274.0187553361
 20
5738.9578414649
 30
0.0
 40
29.5
  0
CIRCLE
  5
109
330
1F
100
AcDbEntity
  8
0
  6
Continuous
 62
     7
100
AcDbCircle
 10
6274.0187553361
 20
5738.9578414649
 30
0.0
 40
30.0
  0
CIRCLE
  5
10A
330
1F
100
AcDbEntity
  8
0
  6
Continuous
 62
     7
100
AcDbCircle
 10
6874.0187553361
 20
5738.9578414649
 30
0.0
 40
29.49999999999909
  0
CIRCLE
  5
10B
330
1F
100
AcDbEntity
  8
0
  6
Continuous
 62
     7
100
AcDbCircle
 10
6874.0187553361
 20
5738.9578414649
 30
0.0
 40
30.0
  0
CIRCLE
  5
10C
330
1F
100
AcDbEntity
  8
0
  6
Continuous
 62
     7
100
AcDbCircle
 10
7474.0187553361
 20
5738.9578414649
 30
0.0
 40
29.50000000000091
  0
CIRCLE
  5
10D
330
1F
100
AcDbEntity
  8
0
  6
Continuous
 62
     7
100
AcDbCircle
 10
7474.0187553361
 20
5738.9578414649
 30
0.0
 40
30.0
  0
ARC
  5
10E
330
1F
100
AcDbEntity
  8
0
  6
Continuous
 62
     7
100
AcDbCircle
 10
5074.018767257
 20
5738.9577980729
 30
0.0
 40
13.00000000000084
100
AcDbArc
 50
339.1748326974
 51
200.8251673026
  0
ARC
  5
10F
330
1F
100
AcDbEntity
  8
0
  6
Continuous
 62
     7
100
AcDbCircle
 10
5074.0187553361
 20
5738.9578414649
 30
0.0
 40
14.00000000000071
100
AcDbArc
 50
200.4424420745
 51
339.5575579255
  0
ARC
  5
110
330
1F
100
AcDbEntity
  8
0
  6
Continuous
 62
     7
100
AcDbCircle
 10
5074.0187553361
 20
5738.9578414649
 30
0.0
 40
14.00000000000071
100
AcDbArc
 50
339.5575579255
 51
200.4424420745
  0
ARC
  5
111
330
1F
100
AcDbEntity
  8
0
  6
Continuous
 62
     7
100
AcDbCircle
 10
5074.1494484272
 20
5760.7563291863
 30
0.0
 40
32.50387568981778
100
AcDbArc
 50
270.3978440925
 51
276.9305834725
  0
ARC
  5
112
330
1F
100
AcDbEntity
  8
0
  6
Continuous
 62
     7
100
AcDbCircle
 10
5073.1487726058
 20
5753.6187036374
 30
0.0
 40
25.33067807003146
100
AcDbArc
 50
258.4771776501
 51
265.892964217
  0
ARC
  5
113
330
1F
100
AcDbEntity
  8
0
  6
Continuous
 62
     7
100
AcDbCircle
 10
7474.0187553361
 20
5738.9578414649
 30
0.0
 40
14.00000000000071
100
AcDbArc
 50
200.4424420745
 51
339.5575579255
  0
ARC
  5
114
330
1F
100
AcDbEntity
  8
0
  6
Continuous
 62
     7
100
AcDbCircle
 10
7474.0187553361
 20
5738.9578414649
 30
0.0
 40
14.00000000000071
100
AcDbArc
 50
339.5575579255
 51
200.4424420745
  0
ARC
  5
115
330
1F
100
AcDbEntity
  8
0
  6
Continuous
 62
     7
100
AcDbCircle
 10
7474.0187434152
 20
5738.9577980729
 30
0.0
 40
13.00000000000149
100
AcDbArc
 50
339.1748326974
 51
200.8251673026
  0
ARC
  5
116
330
1F
100
AcDbEntity
  8
0
  6
Continuous
 62
     7
100
AcDbCircle
 10
7474.1488664346
 20
5760.7669063384
 30
0.0
 40
32.51445729584424
100
AcDbArc
 50
270.3989082625
 51
276.9295193025
  0
ARC
  5
117
330
1F
100
AcDbEntity
  8
0
  6
Continuous
 62
     7
100
AcDbCircle
 10
7473.1487487639
 20
5753.6187036374
 30
0.0
 40
25.33067807003146
100
AcDbArc
 50
258.4771776501
 51
265.892964217
  0
ARC
  5
118
330
1F
100
AcDbEntity
  8
0
  6
Continuous
 62
     7
100
AcDbCircle
 10
5674.0187553361
 20
5738.9578414649
 30
0.0
 40
13.99999999999869
100
AcDbArc
 50
339.5575579255
 51
200.4424420745
  0
ARC
  5
119
330
1F
100
AcDbEntity
  8
0
  6
Continuous
 62
     7
100
AcDbCircle
 10
5674.0187612965
 20
5738.9578764237
 30
0.0
 40
13.00000000000084
100
AcDbArc
 50
339.1744632394
 51
200.8255367606
  0
ARC
  5
11A
330
1F
100
AcDbEntity
  8
0
  6
Continuous
 62
     7
100
AcDbCircle
 10
5674.0187553361
 20
5738.9578414649
 30
0.0
 40
13.99999999999869
100
AcDbArc
 50
200.4424420745
 51
339.5575579255
  0
ARC
  5
11B
330
1F
100
AcDbEntity
  8
0
  6
Continuous
 62
     7
100
AcDbCircle
 10
5674.1491336339
 20
5760.7616170619
 30
0.0
 40
32.50916579064504
100
AcDbArc
 50
270.3983761936
 51
276.9300513714
  0
ARC
  5
11C
330
1F
100
AcDbEntity
  8
0
  6
Continuous
 62
     7
100
AcDbCircle
 10
5673.1488107279
 20
5753.6194847058
 30
0.0
 40
25.33145815539623
100
AcDbArc
 50
258.4773668058
 51
265.8930585278
  0
ARC
  5
11D
330
1F
100
AcDbEntity
  8
0
  6
Continuous
 62
     7
100
AcDbCircle
 10
6274.0187553361
 20
5738.9578414649
 30
0.0
 40
13.99999999999986
100
AcDbArc
 50
339.5575579255
 51
200.4424420745
  0
ARC
  5
11E
330
1F
100
AcDbEntity
  8
0
  6
Continuous
 62
     7
100
AcDbCircle
 10
6274.0187553361
 20
5738.9578414649
 30
0.0
 40
12.99999801708533
100
AcDbArc
 50
339.1746247611
 51
200.8253752389
  0
ARC
  5
11F
330
1F
100
AcDbEntity
  8
0
  6
Continuous
 62
     7
100
AcDbCircle
 10
6274.0187553361
 20
5738.9578414649
 30
0.0
 40
13.99999999999986
100
AcDbArc
 50
200.4424420745
 51
339.5575579255
  0
ARC
  5
120
330
1F
100
AcDbEntity
  8
0
  6
Continuous
 62
     7
100
AcDbCircle
 10
6274.1491410723
 20
5760.761837895
 30
0.0
 40
32.50938676488857
100
AcDbArc
 50
270.3984106037
 51
276.930029851
  0
ARC
  5
121
330
1F
100
AcDbEntity
  8
0
  6
Continuous
 62
     7
100
AcDbCircle
 10
6273.148432587
 20
5753.6164103417
 30
0.0
 40
25.32836554834577
100
AcDbArc
 50
258.4768675681
 51
265.893383922
  0
ARC
  5
122
330
1F
100
AcDbEntity
  8
0
  6
Continuous
 62
     7
100
AcDbCircle
 10
6874.0187493757
 20
5738.9578764237
 30
0.0
 40
13.00000000000064
100
AcDbArc
 50
339.1744632394
 51
200.8255367606
  0
ARC
  5
123
330
1F
100
AcDbEntity
  8
0
  6
Continuous
 62
     7
100
AcDbCircle
 10
6874.0187553361
 20
5738.9578414649
 30
0.0
 40
14.00000000000071
100
AcDbArc
 50
200.4424420745
 51
339.5575579255
  0
ARC
  5
124
330
1F
100
AcDbEntity
  8
0
  6
Continuous
 62
     7
100
AcDbCircle
 10
6874.0187553361
 20
5738.9578414649
 30
0.0
 40
14.00000000000071
100
AcDbArc
 50
339.5575579255
 51
200.4424420745
  0
ARC
  5
125
330
1F
100
AcDbEntity
  8
0
  6
Continuous
 62
     7
100
AcDbCircle
 10
6874.1489102484
 20
5760.7658498785
 30
0.0
 40
32.51340039057686
100
AcDbArc
 50
270.398802003
 51
276.9296255621
  0
ARC
  5
126
330
1F
100
AcDbEntity
  8
0
  6
Continuous
 62
     7
100
AcDbCircle
 10
6873.1483480844
 20
5753.615523693
 30
0.0
 40
25.32747503465537
100
AcDbArc
 50
258.476708076
 51
265.8934337911
  0
ARC
  5
127
330
1F
100
AcDbEntity
  8
0
  6
Continuous
 62
     7
100
AcDbCircle
 10
8172.5020423777
 20
5743.9717741371
 30
0.0
 40
4.324969328315407
100
AcDbArc
 50
206.0594629037
 51
241.4760001529
  0
ARC
  5
128
330
1F
100
AcDbEntity
  8
0
  6
Continuous
 62
     7
100
AcDbCircle
 10
8172.5020225279
 20
5743.9717882099
 30
0.0
 40
4.324969328315528
100
AcDbArc
 50
118.5237005553
 51
153.9399385117
  0
ARC
  5
129
330
1F
100
AcDbEntity
  8
0
  6
Continuous
 62
     7
100
AcDbCircle
 10
8172.5020423777
 20
5833.9717777134
 30
0.0
 40
4.324969328316206
100
AcDbArc
 50
206.0594629037
 51
241.4760001529
  0
ARC
  5
12A
330
1F
100
AcDbEntity
  8
0
  6
Continuous
 62
     7
100
AcDbCircle
 10
8172.5020423777
 20
5833.9718025744
 30
0.0
 40
4.324969328315407
100
AcDbArc
 50
118.5239998471
 51
153.9405370963
  0
ARC
  5
12B
330
1F
100
AcDbEntity
  8
0
  6
Continuous
 62
     7
100
AcDbCircle
 10
8437.6463996011
 20
5157.941920349
 30
0.0
 40
2.999999999999633
100
AcDbArc
 50
6.6546329698
 51
89.9999436274
  0
ARC
  5
12C
330
1F
100
AcDbEntity
  8
0
  6
Continuous
 62
     7
100
AcDbCircle
 10
8389.1949324326
 20
5033.9419251174
 30
0.0
 40
3.000000000000536
100
AcDbArc
 50
185.8478511552
 51
269.9997492462
  0
ARC
  5
12D
330
1F
100
AcDbEntity
  8
0
  6
Continuous
 62
     7
100
AcDbCircle
 10
8437.4385778294
 20
5033.9419251174
 30
0.0
 40
3.000000000000621
100
AcDbArc
 50
269.9999661618
 51
354.1521488443
  0
ARC
  5
12E
330
1F
100
AcDbEntity
  8
0
  6
Continuous
 62
     7
100
AcDbCircle
 10
8356.3167378456
 20
5161.9419284554
 30
0.0
 40
3.000000000000237
100
AcDbArc
 50
89.9995992941
 51
179.9998315232
  0
ARC
  5
12F
330
1F
100
AcDbEntity
  8
0
  6
Continuous
 62
     7
100
AcDbCircle
 10
8356.3167378456
 20
5115.9419422834
 30
0.0
 40
3.000000000000607
100
AcDbArc
 50
180.0001684749
 51
270.0004007059
  0
ARC
  5
130
330
1F
100
AcDbEntity
  8
0
  6
Continuous
 62
     7
100
AcDbCircle
 10
8393.3167383225
 20
5174.4419165344
 30
0.0
 40
3.000000000000237
100
AcDbArc
 50
89.999599296
 51
179.9998315232
  0
ARC
  5
131
330
1F
100
AcDbEntity
  8
0
  6
Continuous
 62
     7
100
AcDbCircle
 10
8433.3167570383
 20
5174.4419165343
 30
0.0
 40
3.000000000002056
100
AcDbArc
 50
0.0001684782
 51
90.000116112
  0
ARC
  5
132
330
1F
100
AcDbEntity
  8
0
  6
Continuous
 62
     7
100
AcDbCircle
 10
8203.2208371706
 20
5538.9578307574
 30
0.0
 40
28.00000000000163
100
AcDbArc
 50
15.4636342609
 51
45.584708768
  0
ARC
  5
133
330
1F
100
AcDbEntity
  8
0
  6
Continuous
 62
     7
100
AcDbCircle
 10
8203.2208367186
 20
5538.9578505374
 30
0.0
 40
28.00000000000139
100
AcDbArc
 50
314.415292527
 51
344.5348076015
  0
ARC
  5
134
330
1F
100
AcDbEntity
  8
0
  6
Continuous
 62
     7
100
AcDbCircle
 10
8614.4167527736
 20
4596.9578414649
 30
0.0
 40
5.999999377113454
100
AcDbArc
 50
180.0001639242
 51
270.0
  0
ARC
  5
135
330
1F
100
AcDbEntity
  8
0
  6
Continuous
 62
     7
100
AcDbCircle
 10
8643.4167527736
 20
4596.9578421128
 30
0.0
 40
6.000000025010264
100
AcDbArc
 50
270.0
 51
359.9998298888
  0
ARC
  5
136
330
1F
100
AcDbEntity
  8
0
  6
Continuous
 62
     7
100
AcDbCircle
 10
8182.3246495277
 20
4596.9578419417
 30
0.0
 40
6.000000238401666
100
AcDbArc
 50
180.0001684772
 51
270.0001389645
  0
ARC
  5
137
330
1F
100
AcDbEntity
  8
0
  6
Continuous
 62
     7
100
AcDbCircle
 10
8211.32466408
 20
4596.9578389571
 30
0.0
 40
5.999996777017884
100
AcDbArc
 50
270.0001114766
 51
359.9998600234
  0
ARC
  5
138
330
1F
100
AcDbEntity
  8
0
  6
Continuous
 62
     7
100
AcDbCircle
 10
8218.6167449983
 20
5836.5484791939
 30
0.0
 40
2.20000000000019
100
AcDbArc
 50
0.0005141919
 51
78.0001894283
  0
ARC
  5
139
330
1F
100
AcDbEntity
  8
0
  6
Continuous
 62
     7
100
AcDbCircle
 10
8648.6167521507
 20
5426.7578414649
 30
0.0
 40
2.200000000000728
100
AcDbArc
 50
0.0000003099
 51
89.9999996875
  0
ARC
  5
13A
330
1F
100
AcDbEntity
  8
0
  6
Continuous
 62
     7
100
AcDbCircle
 10
8173.0167628795
 20
5846.2410555296
 30
0.0
 40
2.199999999999353
100
AcDbArc
 50
78.0005868058
 51
179.9994031939
  0
ARC
  5
13B
330
1F
100
AcDbEntity
  8
0
  6
Continuous
 62
     7
100
AcDbCircle
 10
8390.9479717864
 20
5158.0832889144
 30
0.0
 40
2.860414789647681
100
AcDbArc
 50
92.0233201078
 51
175.8644139483
  0
ARC
  5
13C
330
1F
100
AcDbEntity
  8
0
  6
Continuous
 62
     7
100
AcDbCircle
 10
8230.816823287
 20
5711.0097639942
 30
0.0
 40
14.04532662979764
100
AcDbArc
 50
83.2538341644
 51
96.6618116328
  0
ARC
  5
13D
330
1F
100
AcDbEntity
  8
0
  6
Continuous
 62
     7
100
AcDbCircle
 10
4927.5188147886
 20
4178.4479594384
 30
0.0
 40
4.32496932831467
100
AcDbArc
 50
116.060660079
 51
151.476598745
  0
ARC
  5
13E
330
1F
100
AcDbEntity
  8
0
  6
Continuous
 62
     7
100
AcDbCircle
 10
4927.5187368916
 20
4178.4479594384
 30
0.0
 40
4.324969328315469
100
AcDbArc
 50
28.523401255
 51
63.939339921
  0
ARC
  5
13F
330
1F
100
AcDbEntity
  8
0
  6
Continuous
 62
     7
100
AcDbCircle
 10
4787.5186667319
 20
4178.4478800405
 30
0.0
 40
4.324969328314551
100
AcDbArc
 50
116.0582657528
 51
151.4754015952
  0
ARC
  5
140
330
1F
100
AcDbEntity
  8
0
  6
Continuous
 62
     7
100
AcDbCircle
 10
4787.5187511967
 20
4178.4479594384
 30
0.0
 40
4.324969328313453
100
AcDbArc
 50
28.523401255
 51
63.939339921
  0
ARC
  5
141
330
1F
100
AcDbEntity
  8
0
  6
Continuous
 62
     7
100
AcDbCircle
 10
4926.5187553361
 20
3937.6332099652
 30
0.0
 40
5.250000000000043
100
AcDbArc
 50
98.2132107017
 51
261.7867892983
  0
ARC
  5
142
330
1F
100
AcDbEntity
  8
0
  6
Continuous
 62
     7
100
AcDbCircle
 10
4926.5187553361
 20
3937.6332099652
 30
0.0
 40
5.250000000000043
100
AcDbArc
 50
278.2132107017
 51
81.7867892983
  0
ARC
  5
143
330
1F
100
AcDbEntity
  8
0
  6
Continuous
 62
     7
100
AcDbCircle
 10
4926.5187553361
 20
3937.6332099652
 30
0.0
 40
5.250000000000043
100
AcDbArc
 50
81.7867892983
 51
98.2132107017
  0
ARC
  5
144
330
1F
100
AcDbEntity
  8
0
  6
Continuous
 62
     7
100
AcDbCircle
 10
4926.5187553361
 20
3937.6332099652
 30
0.0
 40
5.250000000000043
100
AcDbArc
 50
261.7867892983
 51
278.2132107017
  0
CIRCLE
  5
145
330
1F
100
AcDbEntity
  8
0
  6
Continuous
 62
     7
100
AcDbCircle
 10
4926.5187553361
 20
3937.6332099652
 30
0.0
 40
35.0
  0
CIRCLE
  5
146
330
1F
100
AcDbEntity
  8
0
  6
Continuous
 62
     7
100
AcDbCircle
 10
4926.5187553361
 20
3937.6332099652
 30
0.0
 40
35.16921944985916
  0
CIRCLE
  5
147
330
1F
100
AcDbEntity
  8
0
  6
Continuous
 62
     7
100
AcDbCircle
 10
4926.5187553361
 20
3937.6332099652
 30
0.0
 40
24.96512544439429
  0
CIRCLE
  5
148
330
1F
100
AcDbEntity
  8
0
  6
Continuous
 62
     7
100
AcDbCircle
 10
4926.5187553361
 20
3937.6332099652
 30
0.0
 40
22.0
  0
CIRCLE
  5
149
330
1F
100
AcDbEntity
  8
0
  6
Continuous
 62
     7
100
AcDbCircle
 10
4926.5187553361
 20
3937.6332099652
 30
0.0
 40
20.5
  0
CIRCLE
  5
14A
330
1F
100
AcDbEntity
  8
0
  6
Continuous
 62
     7
100
AcDbCircle
 10
4926.5187553361
 20
3937.6332099652
 30
0.0
 40
19.48700763430315
  0
CIRCLE
  5
14B
330
1F
100
AcDbEntity
  8
0
  6
Continuous
 62
     7
100
AcDbCircle
 10
4926.5187553361
 20
3937.6332099652
 30
0.0
 40
5.699999999999818
  0
CIRCLE
  5
14C
330
1F
100
AcDbEntity
  8
0
  6
Continuous
 62
     7
100
AcDbCircle
 10
4926.5187553361
 20
3951.6332099652
 30
0.0
 40
5.0
  0
CIRCLE
  5
14D
330
1F
100
AcDbEntity
  8
0
  6
Continuous
 62
     7
100
AcDbCircle
 10
4938.6431109891
 20
3944.6332099652
 30
0.0
 40
5.0
  0
CIRCLE
  5
14E
330
1F
100
AcDbEntity
  8
0
  6
Continuous
 62
     7
100
AcDbCircle
 10
4938.6431109891
 20
3930.6332099652
 30
0.0
 40
5.0
  0
CIRCLE
  5
14F
330
1F
100
AcDbEntity
  8
0
  6
Continuous
 62
     7
100
AcDbCircle
 10
4926.5187553361
 20
3923.6332099652
 30
0.0
 40
5.000000000000909
  0
CIRCLE
  5
150
330
1F
100
AcDbEntity
  8
0
  6
Continuous
 62
     7
100
AcDbCircle
 10
4914.3943996831
 20
3930.6332099652
 30
0.0
 40
5.000000000000909
  0
CIRCLE
  5
151
330
1F
100
AcDbEntity
  8
0
  6
Continuous
 62
     7
100
AcDbCircle
 10
4914.3943996831
 20
3944.6332099652
 30
0.0
 40
5.0
  0
ARC
  5
152
330
1F
100
AcDbEntity
  8
0
  6
Continuous
 62
     7
100
AcDbCircle
 10
4926.5187553361
 20
3937.6332099652
 30
0.0
 40
14.50000000000016
100
AcDbArc
 50
249.8908584092
 51
290.109141591
  0
ARC
  5
153
330
1F
100
AcDbEntity
  8
0
  6
Continuous
 62
     7
100
AcDbCircle
 10
4926.5188263634
 20
3937.6332447841
 30
0.0
 40
16.33403069561413
100
AcDbArc
 50
326.6129257651
 51
333.3868042559
  0
ARC
  5
154
330
1F
100
AcDbEntity
  8
0
  6
Continuous
 62
     7
100
AcDbCircle
 10
4926.5187553361
 20
3937.6332099652
 30
0.0
 40
14.50000000000027
100
AcDbArc
 50
9.8908583967
 51
50.1091416033
  0
ARC
  5
155
330
1F
100
AcDbEntity
  8
0
  6
Continuous
 62
     7
100
AcDbCircle
 10
4926.5187887147
 20
3937.6332099178
 30
0.0
 40
16.33403069561489
100
AcDbArc
 50
86.6130469173
 51
93.3869530827
  0
ARC
  5
156
330
1F
100
AcDbEntity
  8
0
  6
Continuous
 62
     7
100
AcDbCircle
 10
4926.5187553361
 20
3937.6332099652
 30
0.0
 40
14.50000000000104
100
AcDbArc
 50
129.8908583995
 51
170.1091416007
  0
ARC
  5
157
330
1F
100
AcDbEntity
  8
0
  6
Continuous
 62
     7
100
AcDbCircle
 10
4926.518751066
 20
3937.6332447841
 30
0.0
 40
16.33403069561438
100
AcDbArc
 50
206.6131957441
 51
213.3870742349
  0
ELLIPSE
  5
158
330
1F
100
AcDbEntity
  8
0
  6
Continuous
 62
     7
100
AcDbEllipse
 10
6288.518755053
 20
4596.9578414649
 30
0.0
 11
0.0
 21
6.000000283112058
 31
0.0
210
0.0
220
0.0
230
1.0
 40
0.5833333333
 41
3.141592653589793
 42
4.712388980384698
  0
ELLIPSE
  5
159
330
1F
100
AcDbEntity
  8
0
  6
Continuous
 62
     7
100
AcDbEllipse
 10
6259.518755053
 20
4596.9578414649
 30
0.0
 11
0.0
 21
6.000000283112058
 31
0.0
210
0.0
220
0.0
230
1.0
 40
0.5833333333
 41
1.570796326794897
 42
3.141592653589793
  0
ELLIPSE
  5
15A
330
1F
100
AcDbEntity
  8
0
  6
Continuous
 62
     7
100
AcDbEllipse
 10
4810.5187553361
 20
4596.9578414649
 30
0.0
 11
0.0
 21
5.999999999999091
 31
0.0
210
0.0
220
0.0
230
1.0
 40
0.5833333333
 41
3.141592653589793
 42
4.712388980384698
  0
ELLIPSE
  5
15B
330
1F
100
AcDbEntity
  8
0
  6
Continuous
 62
     7
100
AcDbEllipse
 10
4781.5187553361
 20
4596.9578414649
 30
0.0
 11
0.0
 21
5.999999999999091
 31
0.0
210
0.0
220
0.0
230
1.0
 40
0.5833333333
 41
1.570796326794897
 42
3.141592653589793
  0
ELLIPSE
  5
15C
330
1F
100
AcDbEntity
  8
0
  6
Continuous
 62
     7
100
AcDbEllipse
 10
7737.5187553361
 20
4596.9578414649
 30
0.0
 11
0.0
 21
5.999999999999091
 31
0.0
210
0.0
220
0.0
230
1.0
 40
0.5833333333
 41
1.570796326794897
 42
3.141592653589793
  0
ELLIPSE
  5
15D
330
1F
100
AcDbEntity
  8
0
  6
Continuous
 62
     7
100
AcDbEllipse
 10
7766.5187553361
 20
4596.9578414649
 30
0.0
 11
0.0
 21
5.999999999999091
 31
0.0
210
0.0
220
0.0
230
1.0
 40
0.5833333333
 41
3.141592653589793
 42
4.712388980384698
  0
ELLIPSE
  5
15E
330
1F
100
AcDbEntity
  8
0
  6
Continuous
 62
     7
100
AcDbEllipse
 10
8643.4167527736
 20
4596.9578421128
 30
0.0
 11
0.0
 21
6.000000025010195
 31
0.0
210
0.0
220
0.0
230
1.0
 40
0.5833333333
 41
3.141592653589793
 42
4.712388980384698
  0
ELLIPSE
  5
15F
330
1F
100
AcDbEntity
  8
0
  6
Continuous
 62
     7
100
AcDbEllipse
 10
8614.4167527736
 20
4596.9578414649
 30
0.0
 11
0.0
 21
5.999999377112545
 31
0.0
210
0.0
220
0.0
230
1.0
 40
0.5833333333
 41
1.570796326794897
 42
3.141592653589793
  0
ELLIPSE
  5
160
330
1F
100
AcDbEntity
  8
0
  6
Continuous
 62
     7
100
AcDbEllipse
 10
8182.32466408
 20
4596.9578417033
 30
0.0
 11
0.0
 21
6.0
 31
0.0
210
0.0
220
0.0
230
1.0
 40
0.5833333333
 41
1.570796326794897
 42
3.141592653589793
  0
ELLIPSE
  5
161
330
1F
100
AcDbEntity
  8
0
  6
Continuous
 62
     7
100
AcDbEllipse
 10
8211.32466408
 20
4596.9578389571
 30
0.0
 11
0.0
 21
6.0
 31
0.0
210
0.0
220
0.0
230
1.0
 40
0.5833333333
 41
3.141592653589793
 42
4.712388980384698
  0
LINE
  5
162
330
1F
100
AcDbEntity
  8
0
  6
Continuous
 62
     7
100
AcDbLine
 10
6269.0187554479
 20
4590.9578419417
 30
0.0
 11
6269.0187554479
 21
4586.9578338355
 31
0.0
  0
LINE
  5
163
330
1F
100
AcDbEntity
  8
0
  6
Continuous
 62
     7
100
AcDbLine
 10
6279.0187552243
 20
4586.9578338355
 30
0.0
 11
6279.0187552243
 21
4590.9578419417
 31
0.0
  0
LINE
  5
164
330
1F
100
AcDbEntity
  8
0
  6
Continuous
 62
     7
100
AcDbLine
 10
4791.0187152818
 20
4590.9578419417
 30
0.0
 11
4791.0187152818
 21
4586.9578338355
 31
0.0
  0
LINE
  5
165
330
1F
100
AcDbEntity
  8
0
  6
Continuous
 62
     7
100
AcDbLine
 10
4801.018705745
 20
4586.9578338355
 30
0.0
 11
4801.018705745
 21
4590.9578419417
 31
0.0
  0
LINE
  5
166
330
1F
100
AcDbEntity
  8
0
  6
Continuous
 62
     7
100
AcDbLine
 10
7747.0188049272
 20
4590.9578419417
 30
0.0
 11
7747.0188049272
 21
4586.9578338355
 31
0.0
  0
LINE
  5
167
330
1F
100
AcDbEntity
  8
0
  6
Continuous
 62
     7
100
AcDbLine
 10
7757.0187953904
 20
4586.9578338355
 30
0.0
 11
7757.0187953904
 21
4590.9578419417
 31
0.0
  0
LINE
  5
168
330
1F
100
AcDbEntity
  8
0
  6
Continuous
 62
     7
100
AcDbLine
 10
4791.0187152818
 20
4590.9578419417
 30
0.0
 11
4791.0187152818
 21
4586.9578338355
 31
0.0
  0
LINE
  5
169
330
1F
100
AcDbEntity
  8
0
  6
Continuous
 62
     7
100
AcDbLine
 10
4801.018705745
 20
4586.9578338355
 30
0.0
 11
4801.018705745
 21
4590.9578419417
 31
0.0
  0
LINE
  5
16A
330
1F
100
AcDbEntity
  8
0
  6
Continuous
 62
     7
100
AcDbLine
 10
7774.0187553361
 20
5848.4410560817
 30
0.0
 11
7772.0187810853
 21
5848.4410560817
 31
0.0
  0
LINE
  5
16B
330
1F
100
AcDbEntity
  8
0
  6
Continuous
 62
     7
100
AcDbLine
 10
4776.0187295869
 20
5848.4410560817
 30
0.0
 11
4774.0187553361
 21
5848.4410560817
 31
0.0
  0
LINE
  5
16C
330
1F
100
AcDbEntity
  8
0
  6
Continuous
 62
     7
100
AcDbLine
 10
7772.0187810853
 20
5848.4410560817
 30
0.0
 11
4776.0187295869
 21
5848.4410560817
 31
0.0
  0
LINE
  5
16D
330
1F
100
AcDbEntity
  8
0
  6
Continuous
 62
     7
100
AcDbLine
 10
4910.5187562898
 20
5178.9578414649
 30
0.0
 11
4910.5187562898
 21
5177.4419165343
 31
0.0
  0
LINE
  5
16E
330
1F
100
AcDbEntity
  8
0
  6
Continuous
 62
     7
100
AcDbLine
 10
4910.5187562898
 20
5163.4419179648
 30
0.0
 11
4910.5187562898
 21
5160.941920349
 31
0.0
  0
LINE
  5
16F
330
1F
100
AcDbEntity
  8
0
  6
Continuous
 62
     7
100
AcDbLine
 10
4942.5187019303
 20
5160.941920349
 30
0.0
 11
4942.5187019303
 21
5163.4419179648
 31
0.0
  0
LINE
  5
170
330
1F
100
AcDbEntity
  8
0
  6
Continuous
 62
     7
100
AcDbLine
 10
4942.5187019303
 20
5177.4419165343
 30
0.0
 11
4942.5187019303
 21
5178.9578414649
 31
0.0
  0
LINE
  5
171
330
1F
100
AcDbEntity
  8
0
  6
Continuous
 62
     7
100
AcDbLine
 10
4960.5187086061
 20
5100.9419179648
 30
0.0
 11
4953.8282064393
 21
5158.2895732612
 31
0.0
  0
LINE
  5
172
330
1F
100
AcDbEntity
  8
0
  6
Continuous
 62
     7
100
AcDbLine
 10
4899.2093709901
 20
5158.2895732612
 30
0.0
 11
4892.5187496141
 21
5100.9419179648
 31
0.0
  0
LINE
  5
173
330
1F
100
AcDbEntity
  8
0
  6
Continuous
 62
     7
100
AcDbLine
 10
4892.5187496141
 20
5100.9419179648
 30
0.0
 11
4899.4125036195
 21
5033.6362636775
 31
0.0
  0
LINE
  5
174
330
1F
100
AcDbEntity
  8
0
  6
Continuous
 62
     7
100
AcDbLine
 10
4953.6249546006
 20
5033.6362636775
 30
0.0
 11
4960.5187086061
 21
5100.9419179648
 31
0.0
  0
LINE
  5
175
330
1F
100
AcDbEntity
  8
0
  6
Continuous
 62
     7
100
AcDbLine
 10
4951.5187648728
 20
5163.4419179648
 30
0.0
 11
4949.518790622
 21
5167.4419260711
 31
0.0
  0
LINE
  5
176
330
1F
100
AcDbEntity
  8
0
  6
Continuous
 62
     7
100
AcDbLine
 10
4903.5187868074
 20
5167.4419260711
 30
0.0
 11
4901.5188125566
 21
5163.4419179648
 31
0.0
  0
LINE
  5
177
330
1F
100
AcDbEntity
  8
0
  6
Continuous
 62
     7
100
AcDbLine
 10
4903.5187868074
 20
5174.4419253558
 30
0.0
 11
4903.5187868074
 21
5167.4419260711
 31
0.0
  0
LINE
  5
178
330
1F
100
AcDbEntity
  8
0
  6
Continuous
 62
     7
100
AcDbLine
 10
4949.518790622
 20
5167.4419260711
 30
0.0
 11
4949.518790622
 21
5174.4419253558
 31
0.0
  0
LINE
  5
179
330
1F
100
AcDbEntity
  8
0
  6
Continuous
 62
     7
100
AcDbLine
 10
4910.5187562898
 20
5163.4419179648
 30
0.0
 11
4910.5187562898
 21
5160.941920349
 31
0.0
  0
LINE
  5
17A
330
1F
100
AcDbEntity
  8
0
  6
Continuous
 62
     7
100
AcDbLine
 10
4942.5187019303
 20
5160.941920349
 30
0.0
 11
4942.5187019303
 21
5163.4419179648
 31
0.0
  0
LINE
  5
17B
330
1F
100
AcDbEntity
  8
0
  6
Continuous
 62
     7
100
AcDbLine
 10
5072.4280981019
 20
5725.0485039443
 30
0.0
 11
5072.518697162
 21
5724.9578452796
 31
0.0
  0
LINE
  5
17C
330
1F
100
AcDbEntity
  8
0
  6
Continuous
 62
     7
100
AcDbLine
 10
5075.5187181428
 20
5724.9578452796
 30
0.0
 11
5075.6094364121
 21
5725.0485039443
 31
0.0
  0
LINE
  5
17D
330
1F
100
AcDbEntity
  8
0
  6
Continuous
 62
     7
100
AcDbLine
 10
5672.4281219438
 20
5725.0485039443
 30
0.0
 11
5672.5187806085
 21
5724.9578452796
 31
0.0
  0
LINE
  5
17E
330
1F
100
AcDbEntity
  8
0
  6
Continuous
 62
     7
100
AcDbLine
 10
5675.5187419847
 20
5724.9578452796
 30
0.0
 11
5675.6094006494
 21
5725.0485039443
 31
0.0
  0
LINE
  5
17F
330
1F
100
AcDbEntity
  8
0
  6
Continuous
 62
     7
100
AcDbLine
 10
6872.4281100228
 20
5725.0485039443
 30
0.0
 11
6872.5187686875
 21
5724.9578452796
 31
0.0
  0
LINE
  5
180
330
1F
100
AcDbEntity
  8
0
  6
Continuous
 62
     7
100
AcDbLine
 10
6875.5187300637
 20
5724.9578452796
 30
0.0
 11
6875.6093887284
 21
5725.0485039443
 31
0.0
  0
LINE
  5
181
330
1F
100
AcDbEntity
  8
0
  6
Continuous
 62
     7
100
AcDbLine
 10
7472.4280742601
 20
5725.0485039443
 30
0.0
 11
7472.5187925294
 21
5724.9578452796
 31
0.0
  0
LINE
  5
182
330
1F
100
AcDbEntity
  8
0
  6
Continuous
 62
     7
100
AcDbLine
 10
7475.5188135102
 20
5724.9578452796
 30
0.0
 11
7475.6094125703
 21
5725.0485039443
 31
0.0
  0
LINE
  5
183
330
1F
100
AcDbEntity
  8
0
  6
Continuous
 62
     7
100
AcDbLine
 10
6272.4280978225
 20
5725.0485039443
 30
0.0
 11
6272.5187553231
 21
5724.9578452796
 31
0.0
  0
LINE
  5
184
330
1F
100
AcDbEntity
  8
0
  6
Continuous
 62
     7
100
AcDbLine
 10
6275.5187553491
 20
5724.9578452796
 30
0.0
 11
6275.6094128497
 21
5725.0485039443
 31
0.0
  0
LINE
  5
185
330
1F
100
AcDbEntity
  8
0
  6
Continuous
 62
     7
100
AcDbLine
 10
6264.7687552169
 20
5730.7986534328
 30
0.0
 11
6264.7687552169
 21
5730.1949477881
 31
0.0
  0
LINE
  5
186
330
1F
100
AcDbEntity
  8
0
  6
Continuous
 62
     7
100
AcDbLine
 10
6283.2687554553
 20
5730.1949477881
 30
0.0
 11
6283.2687554553
 21
5730.7986534328
 31
0.0
  0
LINE
  5
187
330
1F
100
AcDbEntity
  8
0
  6
Continuous
 62
     7
100
AcDbLine
 10
6281.5187551685
 20
5731.1608708591
 30
0.0
 11
6281.5187551685
 21
5731.3614404887
 31
0.0
  0
LINE
  5
188
330
1F
100
AcDbEntity
  8
0
  6
Continuous
 62
     7
100
AcDbLine
 10
6266.5187555037
 20
5731.8575597495
 30
0.0
 11
6266.5187555037
 21
5731.1608708591
 31
0.0
  0
LINE
  5
189
330
1F
100
AcDbEntity
  8
0
  6
Continuous
 62
     7
100
AcDbLine
 10
7464.7687581971
 20
5730.7986534328
 30
0.0
 11
7464.7687581971
 21
5730.1949477881
 31
0.0
  0
LINE
  5
18A
330
1F
100
AcDbEntity
  8
0
  6
Continuous
 62
     7
100
AcDbLine
 10
7483.2687286332
 20
5730.1949477881
 30
0.0
 11
7483.2687286332
 21
5730.7986534328
 31
0.0
  0
LINE
  5
18B
330
1F
100
AcDbEntity
  8
0
  6
Continuous
 62
     7
100
AcDbLine
 10
7481.5187362626
 20
5731.1608708591
 30
0.0
 11
7481.5187362626
 21
5731.3614404887
 31
0.0
  0
LINE
  5
18C
330
1F
100
AcDbEntity
  8
0
  6
Continuous
 62
     7
100
AcDbLine
 10
7466.5187505677
 20
5731.8575597495
 30
0.0
 11
7466.5187505677
 21
5731.1608708591
 31
0.0
  0
LINE
  5
18D
330
1F
100
AcDbEntity
  8
0
  6
Continuous
 62
     7
100
AcDbLine
 10
6864.7687343553
 20
5730.7986534328
 30
0.0
 11
6864.7687343553
 21
5730.1949477881
 31
0.0
  0
LINE
  5
18E
330
1F
100
AcDbEntity
  8
0
  6
Continuous
 62
     7
100
AcDbLine
 10
6883.268764396
 20
5730.1949477881
 30
0.0
 11
6883.268764396
 21
5730.7986534328
 31
0.0
  0
LINE
  5
18F
330
1F
100
AcDbEntity
  8
0
  6
Continuous
 62
     7
100
AcDbLine
 10
6881.5187720254
 20
5731.1608708591
 30
0.0
 11
6881.5187720254
 21
5731.3614404887
 31
0.0
  0
LINE
  5
190
330
1F
100
AcDbEntity
  8
0
  6
Continuous
 62
     7
100
AcDbLine
 10
6866.5187267259
 20
5731.8575597495
 30
0.0
 11
6866.5187267259
 21
5731.1608708591
 31
0.0
  0
LINE
  5
191
330
1F
100
AcDbEntity
  8
0
  6
Continuous
 62
     7
100
AcDbLine
 10
5664.7687462762
 20
5730.7986534328
 30
0.0
 11
5664.7687462762
 21
5730.1949477881
 31
0.0
  0
LINE
  5
192
330
1F
100
AcDbEntity
  8
0
  6
Continuous
 62
     7
100
AcDbLine
 10
5683.2687763169
 20
5730.1949477881
 30
0.0
 11
5683.2687763169
 21
5730.7986534328
 31
0.0
  0
LINE
  5
193
330
1F
100
AcDbEntity
  8
0
  6
Continuous
 62
     7
100
AcDbLine
 10
5681.5187839463
 20
5731.1608708591
 30
0.0
 11
5681.5187839463
 21
5731.3614404887
 31
0.0
  0
LINE
  5
194
330
1F
100
AcDbEntity
  8
0
  6
Continuous
 62
     7
100
AcDbLine
 10
5666.5187386468
 20
5731.8575597495
 30
0.0
 11
5666.5187386468
 21
5731.1608708591
 31
0.0
  0
LINE
  5
195
330
1F
100
AcDbEntity
  8
0
  6
Continuous
 62
     7
100
AcDbLine
 10
5064.768782039
 20
5730.7986534328
 30
0.0
 11
5064.768782039
 21
5730.1949477881
 31
0.0
  0
LINE
  5
196
330
1F
100
AcDbEntity
  8
0
  6
Continuous
 62
     7
100
AcDbLine
 10
5083.2687524751
 20
5730.1949477881
 30
0.0
 11
5083.2687524751
 21
5730.7986534328
 31
0.0
  0
LINE
  5
197
330
1F
100
AcDbEntity
  8
0
  6
Continuous
 62
     7
100
AcDbLine
 10
5081.5187601045
 20
5731.1608708591
 30
0.0
 11
5081.5187601045
 21
5731.3614404887
 31
0.0
  0
LINE
  5
198
330
1F
100
AcDbEntity
  8
0
  6
Continuous
 62
     7
100
AcDbLine
 10
5066.5187744096
 20
5731.8575597495
 30
0.0
 11
5066.5187744096
 21
5731.1608708591
 31
0.0
  0
LINE
  5
199
330
1F
100
AcDbEntity
  8
0
  6
Continuous
 62
     7
100
AcDbLine
 10
5075.6688026383
 20
5725.0529742927
 30
0.0
 11
5075.6688026383
 21
5725.0554180831
 31
0.0
  0
LINE
  5
19A
330
1F
100
AcDbEntity
  8
0
  6
Continuous
 62
     7
100
AcDbLine
 10
7475.6687787965
 20
5725.0529742927
 30
0.0
 11
7475.6687787965
 21
5725.0554180831
 31
0.0
  0
LINE
  5
19B
330
1F
100
AcDbEntity
  8
0
  6
Continuous
 62
     7
100
AcDbLine
 10
5675.6687668756
 20
5725.0529742927
 30
0.0
 11
5675.6687668756
 21
5725.0554180831
 31
0.0
  0
LINE
  5
19C
330
1F
100
AcDbEntity
  8
0
  6
Continuous
 62
     7
100
AcDbLine
 10
6275.6687553272
 20
5725.0529742927
 30
0.0
 11
6275.6687553272
 21
5725.0554180831
 31
0.0
  0
LINE
  5
19D
330
1F
100
AcDbEntity
  8
0
  6
Continuous
 62
     7
100
AcDbLine
 10
6875.6687549546
 20
5725.0529742927
 30
0.0
 11
6875.6687549546
 21
5725.0554180831
 31
0.0
  0
LINE
  5
19E
330
1F
100
AcDbEntity
  8
0
  6
Continuous
 62
     7
100
AcDbLine
 10
6294.5187553361
 20
4598.9578581542
 30
0.0
 11
6292.0187545612
 21
4598.9578581542
 31
0.0
  0
LINE
  5
19F
330
1F
100
AcDbEntity
  8
0
  6
Continuous
 62
     7
100
AcDbLine
 10
6294.5187553361
 20
4596.9578242988
 30
0.0
 11
6294.5187553361
 21
4598.9578581542
 31
0.0
  0
LINE
  5
1A0
330
1F
100
AcDbEntity
  8
0
  6
Continuous
 62
     7
100
AcDbLine
 10
6292.0187545612
 20
4596.9578242988
 30
0.0
 11
6294.5187553361
 21
4596.9578242988
 31
0.0
  0
LINE
  5
1A1
330
1F
100
AcDbEntity
  8
0
  6
Continuous
 62
     7
100
AcDbLine
 10
6292.0187545612
 20
4596.9578242988
 30
0.0
 11
6292.0187545612
 21
4598.9578581542
 31
0.0
  0
LINE
  5
1A2
330
1F
100
AcDbEntity
  8
0
  6
Continuous
 62
     7
100
AcDbLine
 10
6292.0187545612
 20
4598.9578581542
 30
0.0
 11
6256.018756111
 21
4598.9578581542
 31
0.0
  0
LINE
  5
1A3
330
1F
100
AcDbEntity
  8
0
  6
Continuous
 62
     7
100
AcDbLine
 10
6256.018756111
 20
4596.9578242988
 30
0.0
 11
6292.0187545612
 21
4596.9578242988
 31
0.0
  0
LINE
  5
1A4
330
1F
100
AcDbEntity
  8
0
  6
Continuous
 62
     7
100
AcDbLine
 10
6256.018756111
 20
4596.9578242988
 30
0.0
 11
6256.018756111
 21
4598.9578581542
 31
0.0
  0
LINE
  5
1A5
330
1F
100
AcDbEntity
  8
0
  6
Continuous
 62
     7
100
AcDbLine
 10
6288.518755053
 20
4590.9578411818
 30
0.0
 11
6259.518755053
 21
4590.9578411818
 31
0.0
  0
LINE
  5
1A6
330
1F
100
AcDbEntity
  8
0
  6
Continuous
 62
     7
100
AcDbLine
 10
6253.5187547699
 20
4596.9578242988
 30
0.0
 11
6256.018756111
 21
4596.9578242988
 31
0.0
  0
LINE
  5
1A7
330
1F
100
AcDbEntity
  8
0
  6
Continuous
 62
     7
100
AcDbLine
 10
6253.5187547699
 20
4596.9578242988
 30
0.0
 11
6253.5187547699
 21
4598.9578581542
 31
0.0
  0
LINE
  5
1A8
330
1F
100
AcDbEntity
  8
0
  6
Continuous
 62
     7
100
AcDbLine
 10
6256.018756111
 20
4598.9578581542
 30
0.0
 11
6253.5187547699
 21
4598.9578581542
 31
0.0
  0
LINE
  5
1A9
330
1F
100
AcDbEntity
  8
0
  6
Continuous
 62
     7
100
AcDbLine
 10
6282.6790094048
 20
4578.957817623
 30
0.0
 11
6282.6790094048
 21
4586.9578338355
 31
0.0
  0
LINE
  5
1AA
330
1F
100
AcDbEntity
  8
0
  6
Continuous
 62
     7
100
AcDbLine
 10
6265.3585012674
 20
4578.957817623
 30
0.0
 11
6265.3585012674
 21
4586.9578338355
 31
0.0
  0
LINE
  5
1AB
330
1F
100
AcDbEntity
  8
0
  6
Continuous
 62
     7
100
AcDbLine
 10
6282.6790094048
 20
4586.9578338355
 30
0.0
 11
6265.3585012674
 21
4586.9578338355
 31
0.0
  0
LINE
  5
1AC
330
1F
100
AcDbEntity
  8
0
  6
Continuous
 62
     7
100
AcDbLine
 10
6282.6790094048
 20
4578.957817623
 30
0.0
 11
6265.3585012674
 21
4578.957817623
 31
0.0
  0
LINE
  5
1AD
330
1F
100
AcDbEntity
  8
0
  6
Continuous
 62
     7
100
AcDbLine
 10
6256.6982471988
 20
4578.957817623
 30
0.0
 11
6256.6982471988
 21
4586.9578338355
 31
0.0
  0
LINE
  5
1AE
330
1F
100
AcDbEntity
  8
0
  6
Continuous
 62
     7
100
AcDbLine
 10
6265.3585012674
 20
4586.9578338355
 30
0.0
 11
6256.6982471988
 21
4586.9578338355
 31
0.0
  0
LINE
  5
1AF
330
1F
100
AcDbEntity
  8
0
  6
Continuous
 62
     7
100
AcDbLine
 10
6265.3585012674
 20
4578.957817623
 30
0.0
 11
6256.6982471988
 21
4578.957817623
 31
0.0
  0
LINE
  5
1B0
330
1F
100
AcDbEntity
  8
0
  6
Continuous
 62
     7
100
AcDbLine
 10
6291.3392634734
 20
4578.957817623
 30
0.0
 11
6291.3392634734
 21
4586.9578338355
 31
0.0
  0
LINE
  5
1B1
330
1F
100
AcDbEntity
  8
0
  6
Continuous
 62
     7
100
AcDbLine
 10
6291.3392634734
 20
4586.9578338355
 30
0.0
 11
6282.6790094048
 21
4586.9578338355
 31
0.0
  0
LINE
  5
1B2
330
1F
100
AcDbEntity
  8
0
  6
Continuous
 62
     7
100
AcDbLine
 10
6291.3392634734
 20
4578.957817623
 30
0.0
 11
6282.6790094048
 21
4578.957817623
 31
0.0
  0
LINE
  5
1B3
330
1F
100
AcDbEntity
  8
0
  6
Continuous
 62
     7
100
AcDbLine
 10
4814.0187171891
 20
4596.9578242988
 30
0.0
 11
4816.5187744096
 21
4596.9578242988
 31
0.0
  0
LINE
  5
1B4
330
1F
100
AcDbEntity
  8
0
  6
Continuous
 62
     7
100
AcDbLine
 10
4778.0187038377
 20
4596.9578242988
 30
0.0
 11
4814.0187171891
 21
4596.9578242988
 31
0.0
  0
LINE
  5
1B5
330
1F
100
AcDbEntity
  8
0
  6
Continuous
 62
     7
100
AcDbLine
 10
4810.5187324479
 20
4590.9578419417
 30
0.0
 11
4781.5188077882
 21
4590.9578419417
 31
0.0
  0
LINE
  5
1B6
330
1F
100
AcDbEntity
  8
0
  6
Continuous
 62
     7
100
AcDbLine
 10
4816.5187744096
 20
4598.9578581542
 30
0.0
 11
4814.0187171891
 21
4598.9578581542
 31
0.0
  0
LINE
  5
1B7
330
1F
100
AcDbEntity
  8
0
  6
Continuous
 62
     7
100
AcDbLine
 10
4816.5187744096
 20
4596.9578242988
 30
0.0
 11
4816.5187744096
 21
4598.9578581542
 31
0.0
  0
LINE
  5
1B8
330
1F
100
AcDbEntity
  8
0
  6
Continuous
 62
     7
100
AcDbLine
 10
4814.0187171891
 20
4596.9578242988
 30
0.0
 11
4814.0187171891
 21
4598.9578581542
 31
0.0
  0
LINE
  5
1B9
330
1F
100
AcDbEntity
  8
0
  6
Continuous
 62
     7
100
AcDbLine
 10
4814.0187171891
 20
4598.9578581542
 30
0.0
 11
4778.0187038377
 21
4598.9578581542
 31
0.0
  0
LINE
  5
1BA
330
1F
100
AcDbEntity
  8
0
  6
Continuous
 62
     7
100
AcDbLine
 10
4778.0187038377
 20
4596.9578242988
 30
0.0
 11
4778.0187038377
 21
4598.9578581542
 31
0.0
  0
LINE
  5
1BB
330
1F
100
AcDbEntity
  8
0
  6
Continuous
 62
     7
100
AcDbLine
 10
4775.5187658265
 20
4596.9578242988
 30
0.0
 11
4778.0187038377
 21
4596.9578242988
 31
0.0
  0
LINE
  5
1BC
330
1F
100
AcDbEntity
  8
0
  6
Continuous
 62
     7
100
AcDbLine
 10
4775.5187658265
 20
4596.9578242988
 30
0.0
 11
4775.5187658265
 21
4598.9578581542
 31
0.0
  0
LINE
  5
1BD
330
1F
100
AcDbEntity
  8
0
  6
Continuous
 62
     7
100
AcDbLine
 10
4778.0187038377
 20
4598.9578581542
 30
0.0
 11
4775.5187658265
 21
4598.9578581542
 31
0.0
  0
LINE
  5
1BE
330
1F
100
AcDbEntity
  8
0
  6
Continuous
 62
     7
100
AcDbLine
 10
4804.6790269807
 20
4578.957817623
 30
0.0
 11
4804.6790269807
 21
4586.9578338355
 31
0.0
  0
LINE
  5
1BF
330
1F
100
AcDbEntity
  8
0
  6
Continuous
 62
     7
100
AcDbLine
 10
4804.6790269807
 20
4578.957817623
 30
0.0
 11
4787.3585132554
 21
4578.957817623
 31
0.0
  0
LINE
  5
1C0
330
1F
100
AcDbEntity
  8
0
  6
Continuous
 62
     7
100
AcDbLine
 10
4787.3585132554
 20
4578.957817623
 30
0.0
 11
4787.3585132554
 21
4586.9578338355
 31
0.0
  0
LINE
  5
1C1
330
1F
100
AcDbEntity
  8
0
  6
Continuous
 62
     7
100
AcDbLine
 10
4804.6790269807
 20
4586.9578338355
 30
0.0
 11
4787.3585132554
 21
4586.9578338355
 31
0.0
  0
LINE
  5
1C2
330
1F
100
AcDbEntity
  8
0
  6
Continuous
 62
     7
100
AcDbLine
 10
4787.3585132554
 20
4578.957817623
 30
0.0
 11
4778.6981967881
 21
4578.957817623
 31
0.0
  0
LINE
  5
1C3
330
1F
100
AcDbEntity
  8
0
  6
Continuous
 62
     7
100
AcDbLine
 10
4778.6981967881
 20
4578.957817623
 30
0.0
 11
4778.6981967881
 21
4586.9578338355
 31
0.0
  0
LINE
  5
1C4
330
1F
100
AcDbEntity
  8
0
  6
Continuous
 62
     7
100
AcDbLine
 10
4787.3585132554
 20
4586.9578338355
 30
0.0
 11
4778.6981967881
 21
4586.9578338355
 31
0.0
  0
LINE
  5
1C5
330
1F
100
AcDbEntity
  8
0
  6
Continuous
 62
     7
100
AcDbLine
 10
4813.3392242387
 20
4578.957817623
 30
0.0
 11
4813.3392242387
 21
4586.9578338355
 31
0.0
  0
LINE
  5
1C6
330
1F
100
AcDbEntity
  8
0
  6
Continuous
 62
     7
100
AcDbLine
 10
4813.3392242387
 20
4586.9578338355
 30
0.0
 11
4804.6790269807
 21
4586.9578338355
 31
0.0
  0
LINE
  5
1C7
330
1F
100
AcDbEntity
  8
0
  6
Continuous
 62
     7
100
AcDbLine
 10
4813.3392242387
 20
4578.957817623
 30
0.0
 11
4804.6790269807
 21
4578.957817623
 31
0.0
  0
LINE
  5
1C8
330
1F
100
AcDbEntity
  8
0
  6
Continuous
 62
     7
100
AcDbLine
 10
6294.0187548891
 20
4598.9578581542
 30
0.0
 11
6294.0187548891
 21
5178.9578414649
 31
0.0
  0
LINE
  5
1C9
330
1F
100
AcDbEntity
  8
0
  6
Continuous
 62
     7
100
AcDbLine
 10
6254.0187557831
 20
4598.9578581542
 30
0.0
 11
6254.0187557831
 21
5178.9578414649
 31
0.0
  0
LINE
  5
1CA
330
1F
100
AcDbEntity
  8
0
  6
Continuous
 62
     7
100
AcDbLine
 10
4816.0188106492
 20
4598.9578581542
 30
0.0
 11
4816.0188106492
 21
5178.9578414649
 31
0.0
  0
LINE
  5
1CB
330
1F
100
AcDbEntity
  8
0
  6
Continuous
 62
     7
100
AcDbLine
 10
4776.0187295869
 20
4598.9578581542
 30
0.0
 11
4776.0187295869
 21
5178.9578414649
 31
0.0
  0
LINE
  5
1CC
330
1F
100
AcDbEntity
  8
0
  6
Continuous
 62
     7
100
AcDbLine
 10
4816.0188106492
 20
4733.9578486175
 30
0.0
 11
6254.0187557831
 21
4733.9578486175
 31
0.0
  0
LINE
  5
1CD
330
1F
100
AcDbEntity
  8
0
  6
Continuous
 62
     7
100
AcDbLine
 10
6294.0187548891
 20
4733.9578486175
 30
0.0
 11
7732.018700023
 21
4733.9578486175
 31
0.0
  0
LINE
  5
1CE
330
1F
100
AcDbEntity
  8
0
  6
Continuous
 62
     7
100
AcDbLine
 10
4816.0188106492
 20
4773.9578700751
 30
0.0
 11
6254.0187557831
 21
4773.9578700751
 31
0.0
  0
LINE
  5
1CF
330
1F
100
AcDbEntity
  8
0
  6
Continuous
 62
     7
100
AcDbLine
 10
6294.0187548891
 20
4773.9578700751
 30
0.0
 11
7732.018700023
 21
4773.9578700751
 31
0.0
  0
LINE
  5
1D0
330
1F
100
AcDbEntity
  8
0
  6
Continuous
 62
     7
100
AcDbLine
 10
7737.5187782243
 20
4590.9578419417
 30
0.0
 11
7766.518702884
 21
4590.9578419417
 31
0.0
  0
LINE
  5
1D1
330
1F
100
AcDbEntity
  8
0
  6
Continuous
 62
     7
100
AcDbLine
 10
7770.0188068345
 20
4596.9578242988
 30
0.0
 11
7734.0187934831
 21
4596.9578242988
 31
0.0
  0
LINE
  5
1D2
330
1F
100
AcDbEntity
  8
0
  6
Continuous
 62
     7
100
AcDbLine
 10
7734.0187934831
 20
4596.9578242988
 30
0.0
 11
7731.5187362626
 21
4596.9578242988
 31
0.0
  0
LINE
  5
1D3
330
1F
100
AcDbEntity
  8
0
  6
Continuous
 62
     7
100
AcDbLine
 10
7731.5187362626
 20
4596.9578242988
 30
0.0
 11
7731.5187362626
 21
4598.9578581542
 31
0.0
  0
LINE
  5
1D4
330
1F
100
AcDbEntity
  8
0
  6
Continuous
 62
     7
100
AcDbLine
 10
7731.5187362626
 20
4598.9578581542
 30
0.0
 11
7734.0187934831
 21
4598.9578581542
 31
0.0
  0
LINE
  5
1D5
330
1F
100
AcDbEntity
  8
0
  6
Continuous
 62
     7
100
AcDbLine
 10
7734.0187934831
 20
4596.9578242988
 30
0.0
 11
7734.0187934831
 21
4598.9578581542
 31
0.0
  0
LINE
  5
1D6
330
1F
100
AcDbEntity
  8
0
  6
Continuous
 62
     7
100
AcDbLine
 10
7734.0187934831
 20
4598.9578581542
 30
0.0
 11
7770.0188068345
 21
4598.9578581542
 31
0.0
  0
LINE
  5
1D7
330
1F
100
AcDbEntity
  8
0
  6
Continuous
 62
     7
100
AcDbLine
 10
7770.0188068345
 20
4596.9578242988
 30
0.0
 11
7770.0188068345
 21
4598.9578581542
 31
0.0
  0
LINE
  5
1D8
330
1F
100
AcDbEntity
  8
0
  6
Continuous
 62
     7
100
AcDbLine
 10
7772.5187448457
 20
4596.9578242988
 30
0.0
 11
7770.0188068345
 21
4596.9578242988
 31
0.0
  0
LINE
  5
1D9
330
1F
100
AcDbEntity
  8
0
  6
Continuous
 62
     7
100
AcDbLine
 10
7772.5187448457
 20
4596.9578242988
 30
0.0
 11
7772.5187448457
 21
4598.9578581542
 31
0.0
  0
LINE
  5
1DA
330
1F
100
AcDbEntity
  8
0
  6
Continuous
 62
     7
100
AcDbLine
 10
7770.0188068345
 20
4598.9578581542
 30
0.0
 11
7772.5187448457
 21
4598.9578581542
 31
0.0
  0
LINE
  5
1DB
330
1F
100
AcDbEntity
  8
0
  6
Continuous
 62
     7
100
AcDbLine
 10
7760.6789974168
 20
4578.957817623
 30
0.0
 11
7760.6789974168
 21
4586.9578338355
 31
0.0
  0
LINE
  5
1DC
330
1F
100
AcDbEntity
  8
0
  6
Continuous
 62
     7
100
AcDbLine
 10
7743.3584836915
 20
4578.957817623
 30
0.0
 11
7760.6789974168
 21
4578.957817623
 31
0.0
  0
LINE
  5
1DD
330
1F
100
AcDbEntity
  8
0
  6
Continuous
 62
     7
100
AcDbLine
 10
7743.3584836915
 20
4578.957817623
 30
0.0
 11
7743.3584836915
 21
4586.9578338355
 31
0.0
  0
LINE
  5
1DE
330
1F
100
AcDbEntity
  8
0
  6
Continuous
 62
     7
100
AcDbLine
 10
7743.3584836915
 20
4586.9578338355
 30
0.0
 11
7760.6789974168
 21
4586.9578338355
 31
0.0
  0
LINE
  5
1DF
330
1F
100
AcDbEntity
  8
0
  6
Continuous
 62
     7
100
AcDbLine
 10
7769.3393138841
 20
4578.957817623
 30
0.0
 11
7769.3393138841
 21
4586.9578338355
 31
0.0
  0
LINE
  5
1E0
330
1F
100
AcDbEntity
  8
0
  6
Continuous
 62
     7
100
AcDbLine
 10
7760.6789974168
 20
4586.9578338355
 30
0.0
 11
7769.3393138841
 21
4586.9578338355
 31
0.0
  0
LINE
  5
1E1
330
1F
100
AcDbEntity
  8
0
  6
Continuous
 62
     7
100
AcDbLine
 10
7760.6789974168
 20
4578.957817623
 30
0.0
 11
7769.3393138841
 21
4578.957817623
 31
0.0
  0
LINE
  5
1E2
330
1F
100
AcDbEntity
  8
0
  6
Continuous
 62
     7
100
AcDbLine
 10
7734.6982864335
 20
4578.957817623
 30
0.0
 11
7734.6982864335
 21
4586.9578338355
 31
0.0
  0
LINE
  5
1E3
330
1F
100
AcDbEntity
  8
0
  6
Continuous
 62
     7
100
AcDbLine
 10
7734.6982864335
 20
4586.9578338355
 30
0.0
 11
7743.3584836915
 21
4586.9578338355
 31
0.0
  0
LINE
  5
1E4
330
1F
100
AcDbEntity
  8
0
  6
Continuous
 62
     7
100
AcDbLine
 10
7734.6982864335
 20
4578.957817623
 30
0.0
 11
7743.3584836915
 21
4578.957817623
 31
0.0
  0
LINE
  5
1E5
330
1F
100
AcDbEntity
  8
0
  6
Continuous
 62
     7
100
AcDbLine
 10
7732.018700023
 20
4598.9578581542
 30
0.0
 11
7732.018700023
 21
5178.9578414649
 31
0.0
  0
LINE
  5
1E6
330
1F
100
AcDbEntity
  8
0
  6
Continuous
 62
     7
100
AcDbLine
 10
7772.0187810853
 20
4598.9578581542
 30
0.0
 11
7772.0187810853
 21
5178.9578414649
 31
0.0
  0
LINE
  5
1E7
330
1F
100
AcDbEntity
  8
0
  6
Continuous
 62
     7
100
AcDbLine
 10
7727.3687032655
 20
5178.9578414649
 30
0.0
 11
4820.6688074067
 21
5178.9578414649
 31
0.0
  0
LINE
  5
1E8
330
1F
100
AcDbEntity
  8
0
  6
Continuous
 62
     7
100
AcDbLine
 10
4820.6688074067
 20
5178.9578414649
 30
0.0
 11
4820.6688074067
 21
5180.6078470439
 31
0.0
  0
LINE
  5
1E9
330
1F
100
AcDbEntity
  8
0
  6
Continuous
 62
     7
100
AcDbLine
 10
7727.3687032655
 20
5180.6078470439
 30
0.0
 11
4820.6688074067
 21
5180.6078470439
 31
0.0
  0
LINE
  5
1EA
330
1F
100
AcDbEntity
  8
0
  6
Continuous
 62
     7
100
AcDbLine
 10
7727.3687032655
 20
5178.9578414649
 30
0.0
 11
7727.3687032655
 21
5180.6078470439
 31
0.0
  0
LINE
  5
1EB
330
1F
100
AcDbEntity
  8
0
  6
Continuous
 62
     7
100
AcDbLine
 10
7727.3687032655
 20
5402.2978405595
 30
0.0
 11
7729.0187982514
 21
5402.2978405595
 31
0.0
  0
LINE
  5
1EC
330
1F
100
AcDbEntity
  8
0
  6
Continuous
 62
     7
100
AcDbLine
 10
7729.0187982514
 20
5180.6078470439
 30
0.0
 11
7729.0187982514
 21
5402.2978405595
 31
0.0
  0
LINE
  5
1ED
330
1F
100
AcDbEntity
  8
0
  6
Continuous
 62
     7
100
AcDbLine
 10
7729.0187982514
 20
5180.6078470439
 30
0.0
 11
7727.3687032655
 21
5180.6078470439
 31
0.0
  0
LINE
  5
1EE
330
1F
100
AcDbEntity
  8
0
  6
Continuous
 62
     7
100
AcDbLine
 10
7727.3687032655
 20
5180.6078470439
 30
0.0
 11
7727.3687032655
 21
5402.2978405595
 31
0.0
  0
LINE
  5
1EF
330
1F
100
AcDbEntity
  8
0
  6
Continuous
 62
     7
100
AcDbLine
 10
4820.6688074067
 20
5180.6078470439
 30
0.0
 11
4820.6688074067
 21
5402.2978405595
 31
0.0
  0
LINE
  5
1F0
330
1F
100
AcDbEntity
  8
0
  6
Continuous
 62
     7
100
AcDbLine
 10
7727.3687032655
 20
5402.2978405595
 30
0.0
 11
4820.6688074067
 21
5402.2978405595
 31
0.0
  0
LINE
  5
1F1
330
1F
100
AcDbEntity
  8
0
  6
Continuous
 62
     7
100
AcDbLine
 10
4820.6688074067
 20
5180.6078470439
 30
0.0
 11
4819.0187124208
 21
5180.6078470439
 31
0.0
  0
LINE
  5
1F2
330
1F
100
AcDbEntity
  8
0
  6
Continuous
 62
     7
100
AcDbLine
 10
4819.0187124208
 20
5180.6078470439
 30
0.0
 11
4819.0187124208
 21
5402.2978405595
 31
0.0
  0
LINE
  5
1F3
330
1F
100
AcDbEntity
  8
0
  6
Continuous
 62
     7
100
AcDbLine
 10
4819.0187124208
 20
5402.2978405595
 30
0.0
 11
4820.6688074067
 21
5402.2978405595
 31
0.0
  0
LINE
  5
1F4
330
1F
100
AcDbEntity
  8
0
  6
Continuous
 62
     7
100
AcDbLine
 10
7727.3687032655
 20
5403.9478405506
 30
0.0
 11
4820.6688074067
 21
5403.9478405506
 31
0.0
  0
LINE
  5
1F5
330
1F
100
AcDbEntity
  8
0
  6
Continuous
 62
     7
100
AcDbLine
 10
7727.3687032655
 20
5402.2978405595
 30
0.0
 11
7727.3687032655
 21
5403.9478405506
 31
0.0
  0
LINE
  5
1F6
330
1F
100
AcDbEntity
  8
0
  6
Continuous
 62
     7
100
AcDbLine
 10
4820.6688074067
 20
5402.2978405595
 30
0.0
 11
4820.6688074067
 21
5403.9478405506
 31
0.0
  0
LINE
  5
1F7
330
1F
100
AcDbEntity
  8
0
  6
Continuous
 62
     7
100
AcDbLine
 10
7774.0187553361
 20
5178.9578414649
 30
0.0
 11
7774.0187553361
 21
5403.9478405506
 31
0.0
  0
LINE
  5
1F8
330
1F
100
AcDbEntity
  8
0
  6
Continuous
 62
     7
100
AcDbLine
 10
7770.9187177613
 20
5178.9578414649
 30
0.0
 11
7774.0187553361
 21
5178.9578414649
 31
0.0
  0
LINE
  5
1F9
330
1F
100
AcDbEntity
  8
0
  6
Continuous
 62
     7
100
AcDbLine
 10
7770.9187177613
 20
5178.9578414649
 30
0.0
 11
7770.9187177613
 21
5403.9478405506
 31
0.0
  0
LINE
  5
1FA
330
1F
100
AcDbEntity
  8
0
  6
Continuous
 62
     7
100
AcDbLine
 10
7774.0187553361
 20
5403.9478405506
 30
0.0
 11
7770.9187177613
 21
5403.9478405506
 31
0.0
  0
LINE
  5
1FB
330
1F
100
AcDbEntity
  8
0
  6
Continuous
 62
     7
100
AcDbLine
 10
7732.1187166169
 20
5178.9578414649
 30
0.0
 11
7770.9187177613
 21
5178.9578414649
 31
0.0
  0
LINE
  5
1FC
330
1F
100
AcDbEntity
  8
0
  6
Continuous
 62
     7
100
AcDbLine
 10
7732.1187166169
 20
5178.9578414649
 30
0.0
 11
7732.1187166169
 21
5403.9478405506
 31
0.0
  0
LINE
  5
1FD
330
1F
100
AcDbEntity
  8
0
  6
Continuous
 62
     7
100
AcDbLine
 10
7770.9187177613
 20
5403.9478405506
 30
0.0
 11
7732.1187166169
 21
5403.9478405506
 31
0.0
  0
LINE
  5
1FE
330
1F
100
AcDbEntity
  8
0
  6
Continuous
 62
     7
100
AcDbLine
 10
7729.0187982514
 20
5403.9478405506
 30
0.0
 11
7732.1187166169
 21
5403.9478405506
 31
0.0
  0
LINE
  5
1FF
330
1F
100
AcDbEntity
  8
0
  6
Continuous
 62
     7
100
AcDbLine
 10
7732.1187166169
 20
5178.9578414649
 30
0.0
 11
7729.0187982514
 21
5178.9578414649
 31
0.0
  0
LINE
  5
200
330
1F
100
AcDbEntity
  8
0
  6
Continuous
 62
     7
100
AcDbLine
 10
7729.0187982514
 20
5178.9578414649
 30
0.0
 11
7729.0187982514
 21
5180.6078470439
 31
0.0
  0
LINE
  5
201
330
1F
100
AcDbEntity
  8
0
  6
Continuous
 62
     7
100
AcDbLine
 10
7729.0187982514
 20
5402.2978405595
 30
0.0
 11
7729.0187982514
 21
5403.9478405506
 31
0.0
  0
LINE
  5
202
330
1F
100
AcDbEntity
  8
0
  6
Continuous
 62
     7
100
AcDbLine
 10
7774.0187553361
 20
5428.9578414649
 30
0.0
 11
7772.0187810853
 21
5428.9578414649
 31
0.0
  0
LINE
  5
203
330
1F
100
AcDbEntity
  8
0
  6
Continuous
 62
     7
100
AcDbLine
 10
7774.0187553361
 20
5428.9578414649
 30
0.0
 11
7774.0187553361
 21
5426.7578414768
 31
0.0
  0
LINE
  5
204
330
1F
100
AcDbEntity
  8
0
  6
Continuous
 62
     7
100
AcDbLine
 10
7774.0187553361
 20
5426.7578414768
 30
0.0
 11
7772.0187810853
 21
5426.7578414768
 31
0.0
  0
LINE
  5
205
330
1F
100
AcDbEntity
  8
0
  6
Continuous
 62
     7
100
AcDbLine
 10
7772.0187810853
 20
5428.9578414649
 30
0.0
 11
7772.0187810853
 21
5426.7578414768
 31
0.0
  0
LINE
  5
206
330
1F
100
AcDbEntity
  8
0
  6
Continuous
 62
     7
100
AcDbLine
 10
7774.0187553361
 20
5426.7578414768
 30
0.0
 11
7774.0187553361
 21
5403.9578410924
 31
0.0
  0
LINE
  5
207
330
1F
100
AcDbEntity
  8
0
  6
Continuous
 62
     7
100
AcDbLine
 10
7774.0187553361
 20
5403.9578410924
 30
0.0
 11
7772.0187810853
 21
5403.9578410924
 31
0.0
  0
LINE
  5
208
330
1F
100
AcDbEntity
  8
0
  6
Continuous
 62
     7
100
AcDbLine
 10
7772.0187810853
 20
5426.7578414768
 30
0.0
 11
7772.0187810853
 21
5403.9578410924
 31
0.0
  0
LINE
  5
209
330
1F
100
AcDbEntity
  8
0
  6
Continuous
 62
     7
100
AcDbLine
 10
7774.0187553361
 20
5403.9578410924
 30
0.0
 11
7774.0187553361
 21
5403.9478405506
 31
0.0
  0
LINE
  5
20A
330
1F
100
AcDbEntity
  8
0
  6
Continuous
 62
     7
100
AcDbLine
 10
7772.0187810853
 20
5403.9578410924
 30
0.0
 11
7772.0187810853
 21
5403.9478405506
 31
0.0
  0
LINE
  5
20B
330
1F
100
AcDbEntity
  8
0
  6
Continuous
 62
     7
100
AcDbLine
 10
7774.0187553361
 20
5838.7004054278
 30
0.0
 11
7772.0187810853
 21
5838.7004054278
 31
0.0
  0
LINE
  5
20C
330
1F
100
AcDbEntity
  8
0
  6
Continuous
 62
     7
100
AcDbLine
 10
7774.0187553361
 20
5836.5484989375
 30
0.0
 11
7772.0187810853
 21
5836.5484989375
 31
0.0
  0
LINE
  5
20D
330
1F
100
AcDbEntity
  8
0
  6
Continuous
 62
     7
100
AcDbLine
 10
7774.0187553361
 20
5838.7004054278
 30
0.0
 11
7774.0187553361
 21
5836.5484989375
 31
0.0
  0
LINE
  5
20E
330
1F
100
AcDbEntity
  8
0
  6
Continuous
 62
     7
100
AcDbLine
 10
7772.0187810853
 20
5838.7004054278
 30
0.0
 11
7772.0187810853
 21
5836.5484989375
 31
0.0
  0
LINE
  5
20F
330
1F
100
AcDbEntity
  8
0
  6
Continuous
 62
     7
100
AcDbLine
 10
7774.0187553361
 20
5836.5484989375
 30
0.0
 11
7774.0187553361
 21
5428.9578414649
 31
0.0
  0
LINE
  5
210
330
1F
100
AcDbEntity
  8
0
  6
Continuous
 62
     7
100
AcDbLine
 10
7772.0187810853
 20
5836.5484989375
 30
0.0
 11
7772.0187810853
 21
5428.9578414649
 31
0.0
  0
LINE
  5
211
330
1F
100
AcDbEntity
  8
0
  6
Continuous
 62
     7
100
AcDbLine
 10
7774.0187553361
 20
5848.3929849357
 30
0.0
 11
7772.0187810853
 21
5848.3929849357
 31
0.0
  0
LINE
  5
212
330
1F
100
AcDbEntity
  8
0
  6
Continuous
 62
     7
100
AcDbLine
 10
7774.0187553361
 20
5848.3929849357
 30
0.0
 11
7774.0187553361
 21
5838.7004054278
 31
0.0
  0
LINE
  5
213
330
1F
100
AcDbEntity
  8
0
  6
Continuous
 62
     7
100
AcDbLine
 10
7772.0187810853
 20
5848.3929849357
 30
0.0
 11
7772.0187810853
 21
5838.7004054278
 31
0.0
  0
LINE
  5
214
330
1F
100
AcDbEntity
  8
0
  6
Continuous
 62
     7
100
AcDbLine
 10
7774.0187553361
 20
5848.4410560817
 30
0.0
 11
7774.0187553361
 21
5848.3929849357
 31
0.0
  0
LINE
  5
215
330
1F
100
AcDbEntity
  8
0
  6
Continuous
 62
     7
100
AcDbLine
 10
7772.0187810853
 20
5848.4410560817
 30
0.0
 11
7772.0187810853
 21
5848.3929849357
 31
0.0
  0
LINE
  5
216
330
1F
100
AcDbEntity
  8
0
  6
Continuous
 62
     7
100
AcDbLine
 10
4777.1187929109
 20
5178.9578414649
 30
0.0
 11
4777.1187929109
 21
5403.9478405506
 31
0.0
  0
LINE
  5
217
330
1F
100
AcDbEntity
  8
0
  6
Continuous
 62
     7
100
AcDbLine
 10
4777.1187929109
 20
5178.9578414649
 30
0.0
 11
4774.0187553361
 21
5178.9578414649
 31
0.0
  0
LINE
  5
218
330
1F
100
AcDbEntity
  8
0
  6
Continuous
 62
     7
100
AcDbLine
 10
4774.0187553361
 20
5178.9578414649
 30
0.0
 11
4774.0187553361
 21
5403.9478405506
 31
0.0
  0
LINE
  5
219
330
1F
100
AcDbEntity
  8
0
  6
Continuous
 62
     7
100
AcDbLine
 10
4774.0187553361
 20
5403.9478405506
 30
0.0
 11
4777.1187929109
 21
5403.9478405506
 31
0.0
  0
LINE
  5
21A
330
1F
100
AcDbEntity
  8
0
  6
Continuous
 62
     7
100
AcDbLine
 10
4815.9187940553
 20
5178.9578414649
 30
0.0
 11
4815.9187940553
 21
5403.9478405506
 31
0.0
  0
LINE
  5
21B
330
1F
100
AcDbEntity
  8
0
  6
Continuous
 62
     7
100
AcDbLine
 10
4815.9187940553
 20
5178.9578414649
 30
0.0
 11
4777.1187929109
 21
5178.9578414649
 31
0.0
  0
LINE
  5
21C
330
1F
100
AcDbEntity
  8
0
  6
Continuous
 62
     7
100
AcDbLine
 10
4777.1187929109
 20
5403.9478405506
 30
0.0
 11
4815.9187940553
 21
5403.9478405506
 31
0.0
  0
LINE
  5
21D
330
1F
100
AcDbEntity
  8
0
  6
Continuous
 62
     7
100
AcDbLine
 10
4815.9187940553
 20
5178.9578414649
 30
0.0
 11
4819.0187124208
 21
5178.9578414649
 31
0.0
  0
LINE
  5
21E
330
1F
100
AcDbEntity
  8
0
  6
Continuous
 62
     7
100
AcDbLine
 10
4819.0187124208
 20
5178.9578414649
 30
0.0
 11
4819.0187124208
 21
5180.6078470439
 31
0.0
  0
LINE
  5
21F
330
1F
100
AcDbEntity
  8
0
  6
Continuous
 62
     7
100
AcDbLine
 10
4819.0187124208
 20
5402.2978405595
 30
0.0
 11
4819.0187124208
 21
5403.9478405506
 31
0.0
  0
LINE
  5
220
330
1F
100
AcDbEntity
  8
0
  6
Continuous
 62
     7
100
AcDbLine
 10
4819.0187124208
 20
5403.9478405506
 30
0.0
 11
4815.9187940553
 21
5403.9478405506
 31
0.0
  0
LINE
  5
221
330
1F
100
AcDbEntity
  8
0
  6
Continuous
 62
     7
100
AcDbLine
 10
4774.0187553361
 20
5403.9578410924
 30
0.0
 11
4776.0187295869
 21
5403.9578410924
 31
0.0
  0
LINE
  5
222
330
1F
100
AcDbEntity
  8
0
  6
Continuous
 62
     7
100
AcDbLine
 10
4774.0187553361
 20
5426.7578414768
 30
0.0
 11
4774.0187553361
 21
5403.9578410924
 31
0.0
  0
LINE
  5
223
330
1F
100
AcDbEntity
  8
0
  6
Continuous
 62
     7
100
AcDbLine
 10
4774.0187553361
 20
5426.7578414768
 30
0.0
 11
4776.0187295869
 21
5426.7578414768
 31
0.0
  0
LINE
  5
224
330
1F
100
AcDbEntity
  8
0
  6
Continuous
 62
     7
100
AcDbLine
 10
4776.0187295869
 20
5426.7578414768
 30
0.0
 11
4776.0187295869
 21
5403.9578410924
 31
0.0
  0
LINE
  5
225
330
1F
100
AcDbEntity
  8
0
  6
Continuous
 62
     7
100
AcDbLine
 10
4774.0187553361
 20
5428.9578414649
 30
0.0
 11
4774.0187553361
 21
5426.7578414768
 31
0.0
  0
LINE
  5
226
330
1F
100
AcDbEntity
  8
0
  6
Continuous
 62
     7
100
AcDbLine
 10
4774.0187553361
 20
5428.9578414649
 30
0.0
 11
4776.0187295869
 21
5428.9578414649
 31
0.0
  0
LINE
  5
227
330
1F
100
AcDbEntity
  8
0
  6
Continuous
 62
     7
100
AcDbLine
 10
4776.0187295869
 20
5428.9578414649
 30
0.0
 11
4776.0187295869
 21
5426.7578414768
 31
0.0
  0
LINE
  5
228
330
1F
100
AcDbEntity
  8
0
  6
Continuous
 62
     7
100
AcDbLine
 10
4774.0187553361
 20
5403.9578410924
 30
0.0
 11
4774.0187553361
 21
5403.9478405506
 31
0.0
  0
LINE
  5
229
330
1F
100
AcDbEntity
  8
0
  6
Continuous
 62
     7
100
AcDbLine
 10
4776.0187295869
 20
5403.9578410924
 30
0.0
 11
4776.0187295869
 21
5403.9478405506
 31
0.0
  0
LINE
  5
22A
330
1F
100
AcDbEntity
  8
0
  6
Continuous
 62
     7
100
AcDbLine
 10
4774.0187553361
 20
5836.5484989375
 30
0.0
 11
4776.0187295869
 21
5836.5484989375
 31
0.0
  0
LINE
  5
22B
330
1F
100
AcDbEntity
  8
0
  6
Continuous
 62
     7
100
AcDbLine
 10
4774.0187553361
 20
5836.5484989375
 30
0.0
 11
4774.0187553361
 21
5428.9578414649
 31
0.0
  0
LINE
  5
22C
330
1F
100
AcDbEntity
  8
0
  6
Continuous
 62
     7
100
AcDbLine
 10
4776.0187295869
 20
5836.5484989375
 30
0.0
 11
4776.0187295869
 21
5428.9578414649
 31
0.0
  0
LINE
  5
22D
330
1F
100
AcDbEntity
  8
0
  6
Continuous
 62
     7
100
AcDbLine
 10
4774.0187553361
 20
5838.7004054278
 30
0.0
 11
4776.0187295869
 21
5838.7004054278
 31
0.0
  0
LINE
  5
22E
330
1F
100
AcDbEntity
  8
0
  6
Continuous
 62
     7
100
AcDbLine
 10
4774.0187553361
 20
5838.7004054278
 30
0.0
 11
4774.0187553361
 21
5836.5484989375
 31
0.0
  0
LINE
  5
22F
330
1F
100
AcDbEntity
  8
0
  6
Continuous
 62
     7
100
AcDbLine
 10
4776.0187295869
 20
5838.7004054278
 30
0.0
 11
4776.0187295869
 21
5836.5484989375
 31
0.0
  0
LINE
  5
230
330
1F
100
AcDbEntity
  8
0
  6
Continuous
 62
     7
100
AcDbLine
 10
4774.0187553361
 20
5848.3929849357
 30
0.0
 11
4776.0187295869
 21
5848.3929849357
 31
0.0
  0
LINE
  5
231
330
1F
100
AcDbEntity
  8
0
  6
Continuous
 62
     7
100
AcDbLine
 10
4774.0187553361
 20
5848.3929849357
 30
0.0
 11
4774.0187553361
 21
5838.7004054278
 31
0.0
  0
LINE
  5
232
330
1F
100
AcDbEntity
  8
0
  6
Continuous
 62
     7
100
AcDbLine
 10
4776.0187295869
 20
5848.3929849357
 30
0.0
 11
4776.0187295869
 21
5838.7004054278
 31
0.0
  0
LINE
  5
233
330
1F
100
AcDbEntity
  8
0
  6
Continuous
 62
     7
100
AcDbLine
 10
4774.0187553361
 20
5848.4410560817
 30
0.0
 11
4774.0187553361
 21
5848.3929849357
 31
0.0
  0
LINE
  5
234
330
1F
100
AcDbEntity
  8
0
  6
Continuous
 62
     7
100
AcDbLine
 10
4776.0187295869
 20
5848.4410560817
 30
0.0
 11
4776.0187295869
 21
5848.3929849357
 31
0.0
  0
LINE
  5
235
330
1F
100
AcDbEntity
  8
0
  6
Continuous
 62
     7
100
AcDbLine
 10
4776.0187295869
 20
5426.7578414768
 30
0.0
 11
7772.0187810853
 21
5426.7578414768
 31
0.0
  0
LINE
  5
236
330
1F
100
AcDbEntity
  8
0
  6
Continuous
 62
     7
100
AcDbLine
 10
4776.0187295869
 20
5403.9578410924
 30
0.0
 11
7772.0187810853
 21
5403.9578410924
 31
0.0
  0
LINE
  5
237
330
1F
100
AcDbEntity
  8
0
  6
Continuous
 62
     7
100
AcDbLine
 10
7772.0187810853
 20
5428.9578414649
 30
0.0
 11
4776.0187295869
 21
5428.9578414649
 31
0.0
  0
LINE
  5
238
330
1F
100
AcDbEntity
  8
0
  6
Continuous
 62
     7
100
AcDbLine
 10
4776.0187295869
 20
5836.5484989375
 30
0.0
 11
7772.0187810853
 21
5836.5484989375
 31
0.0
  0
LINE
  5
239
330
1F
100
AcDbEntity
  8
0
  6
Continuous
 62
     7
100
AcDbLine
 10
7772.0187810853
 20
5838.7004054278
 30
0.0
 11
4776.0187295869
 21
5838.7004054278
 31
0.0
  0
LINE
  5
23A
330
1F
100
AcDbEntity
  8
0
  6
Continuous
 62
     7
100
AcDbLine
 10
4776.0187295869
 20
5848.3929849357
 30
0.0
 11
7772.0187810853
 21
5848.3929849357
 31
0.0
  0
LINE
  5
23B
330
1F
100
AcDbEntity
  8
0
  6
Continuous
 62
     7
100
AcDbLine
 10
4892.5187496141
 20
5100.9419179648
 30
0.0
 11
4960.5187086061
 21
5100.9419179648
 31
0.0
  0
LINE
  5
23C
330
1F
100
AcDbEntity
  8
0
  6
Continuous
 62
     7
100
AcDbLine
 10
4902.1891263917
 20
5160.941920349
 30
0.0
 11
4950.8484510377
 21
5160.941920349
 31
0.0
  0
LINE
  5
23D
330
1F
100
AcDbEntity
  8
0
  6
Continuous
 62
     7
100
AcDbLine
 10
4902.3969081834
 20
5030.9419251174
 30
0.0
 11
4950.6405500367
 21
5030.9419251174
 31
0.0
  0
LINE
  5
23E
330
1F
100
AcDbEntity
  8
0
  6
Continuous
 62
     7
100
AcDbLine
 10
4903.5187868074
 20
5167.4419260711
 30
0.0
 11
4949.518790622
 21
5167.4419260711
 31
0.0
  0
LINE
  5
23F
330
1F
100
AcDbEntity
  8
0
  6
Continuous
 62
     7
100
AcDbLine
 10
4901.5188125566
 20
5163.4419179648
 30
0.0
 11
4951.5187648728
 21
5163.4419179648
 31
0.0
  0
LINE
  5
240
330
1F
100
AcDbEntity
  8
0
  6
Continuous
 62
     7
100
AcDbLine
 10
4906.5188077882
 20
5177.4419165343
 30
0.0
 11
4946.5187696412
 21
5177.4419165343
 31
0.0
  0
LINE
  5
241
330
1F
100
AcDbEntity
  8
0
  6
Continuous
 62
     7
100
AcDbLine
 10
4943.0187849
 20
5160.941920349
 30
0.0
 11
4942.5187019303
 21
5161.3081908912
 31
0.0
  0
LINE
  5
242
330
1F
100
AcDbEntity
  8
0
  6
Continuous
 62
     7
100
AcDbLine
 10
4910.5187562898
 20
5161.3081908912
 30
0.0
 11
4910.0187925294
 21
5160.941920349
 31
0.0
  0
LINE
  5
243
330
1F
100
AcDbEntity
  8
0
  6
Continuous
 62
     7
100
AcDbLine
 10
6281.5687555492
 20
5542.9578415245
 30
0.0
 11
6266.468755123
 21
5542.9578415245
 31
0.0
  0
LINE
  5
244
330
1F
100
AcDbEntity
  8
0
  6
Continuous
 62
     7
100
AcDbLine
 10
6281.5687555492
 20
5532.3578409046
 30
0.0
 11
6266.468755123
 21
5532.3578409046
 31
0.0
  0
LINE
  5
245
330
1F
100
AcDbEntity
  8
0
  6
Continuous
 62
     7
100
AcDbLine
 10
5081.5687087968
 20
5542.9578415245
 30
0.0
 11
5066.468706508
 21
5542.9578415245
 31
0.0
  0
LINE
  5
246
330
1F
100
AcDbEntity
  8
0
  6
Continuous
 62
     7
100
AcDbLine
 10
5081.5687087968
 20
5532.3578409046
 30
0.0
 11
5066.468706508
 21
5532.3578409046
 31
0.0
  0
LINE
  5
247
330
1F
100
AcDbEntity
  8
0
  6
Continuous
 62
     7
100
AcDbLine
 10
7481.5688041642
 20
5542.9578415245
 30
0.0
 11
7466.4688018754
 21
5542.9578415245
 31
0.0
  0
LINE
  5
248
330
1F
100
AcDbEntity
  8
0
  6
Continuous
 62
     7
100
AcDbLine
 10
7481.5688041642
 20
5532.3578409046
 30
0.0
 11
7466.4688018754
 21
5532.3578409046
 31
0.0
  0
LINE
  5
249
330
1F
100
AcDbEntity
  8
0
  6
Continuous
 62
     7
100
AcDbLine
 10
5681.5687326387
 20
5542.9578415245
 30
0.0
 11
5666.4687303498
 21
5542.9578415245
 31
0.0
  0
LINE
  5
24A
330
1F
100
AcDbEntity
  8
0
  6
Continuous
 62
     7
100
AcDbLine
 10
5681.5687326387
 20
5532.3578409046
 30
0.0
 11
5666.4687303498
 21
5532.3578409046
 31
0.0
  0
LINE
  5
24B
330
1F
100
AcDbEntity
  8
0
  6
Continuous
 62
     7
100
AcDbLine
 10
6881.5687803224
 20
5542.9578415245
 30
0.0
 11
6866.4687780335
 21
5542.9578415245
 31
0.0
  0
LINE
  5
24C
330
1F
100
AcDbEntity
  8
0
  6
Continuous
 62
     7
100
AcDbLine
 10
6881.5687803224
 20
5532.3578409046
 30
0.0
 11
6866.4687780335
 21
5532.3578409046
 31
0.0
  0
LINE
  5
24D
330
1F
100
AcDbEntity
  8
0
  6
Continuous
 62
     7
100
AcDbLine
 10
5681.5187839463
 20
5543.2578391522
 30
0.0
 11
5666.5187386468
 21
5543.2578391522
 31
0.0
  0
LINE
  5
24E
330
1F
100
AcDbEntity
  8
0
  6
Continuous
 62
     7
100
AcDbLine
 10
5666.5187386468
 20
5532.2578392119
 30
0.0
 11
5681.5187839463
 21
5532.2578392119
 31
0.0
  0
LINE
  5
24F
330
1F
100
AcDbEntity
  8
0
  6
Continuous
 62
     7
100
AcDbLine
 10
7481.5187362626
 20
5543.2578391522
 30
0.0
 11
7466.5187505677
 21
5543.2578391522
 31
0.0
  0
LINE
  5
250
330
1F
100
AcDbEntity
  8
0
  6
Continuous
 62
     7
100
AcDbLine
 10
7466.5187505677
 20
5532.2578392119
 30
0.0
 11
7481.5187362626
 21
5532.2578392119
 31
0.0
  0
LINE
  5
251
330
1F
100
AcDbEntity
  8
0
  6
Continuous
 62
     7
100
AcDbLine
 10
6281.5187551685
 20
5543.2578391522
 30
0.0
 11
6266.5187555037
 21
5543.2578391522
 31
0.0
  0
LINE
  5
252
330
1F
100
AcDbEntity
  8
0
  6
Continuous
 62
     7
100
AcDbLine
 10
6266.5187555037
 20
5532.2578392119
 30
0.0
 11
6281.5187551685
 21
5532.2578392119
 31
0.0
  0
LINE
  5
253
330
1F
100
AcDbEntity
  8
0
  6
Continuous
 62
     7
100
AcDbLine
 10
5081.5187601045
 20
5543.2578391522
 30
0.0
 11
5066.5187744096
 21
5543.2578391522
 31
0.0
  0
LINE
  5
254
330
1F
100
AcDbEntity
  8
0
  6
Continuous
 62
     7
100
AcDbLine
 10
5066.5187744096
 20
5532.2578392119
 30
0.0
 11
5081.5187601045
 21
5532.2578392119
 31
0.0
  0
LINE
  5
255
330
1F
100
AcDbEntity
  8
0
  6
Continuous
 62
     7
100
AcDbLine
 10
6881.5187720254
 20
5543.2578391522
 30
0.0
 11
6866.5187267259
 21
5543.2578391522
 31
0.0
  0
LINE
  5
256
330
1F
100
AcDbEntity
  8
0
  6
Continuous
 62
     7
100
AcDbLine
 10
6866.5187267259
 20
5532.2578392119
 30
0.0
 11
6881.5187720254
 21
5532.2578392119
 31
0.0
  0
LINE
  5
257
330
1F
100
AcDbEntity
  8
0
  6
Continuous
 62
     7
100
AcDbLine
 10
5060.0187686875
 20
5178.8578546733
 30
0.0
 11
5060.0187686875
 21
5178.9578414649
 31
0.0
  0
LINE
  5
258
330
1F
100
AcDbEntity
  8
0
  6
Continuous
 62
     7
100
AcDbLine
 10
5088.0187658265
 20
5178.8578546733
 30
0.0
 11
5060.0187686875
 21
5178.8578546733
 31
0.0
  0
LINE
  5
259
330
1F
100
AcDbEntity
  8
0
  6
Continuous
 62
     7
100
AcDbLine
 10
5088.0187658265
 20
5178.8578546733
 30
0.0
 11
5088.0187658265
 21
5178.9578414649
 31
0.0
  0
LINE
  5
25A
330
1F
100
AcDbEntity
  8
0
  6
Continuous
 62
     7
100
AcDbLine
 10
7460.0187448457
 20
5178.8578546733
 30
0.0
 11
7460.0187448457
 21
5178.9578414649
 31
0.0
  0
LINE
  5
25B
330
1F
100
AcDbEntity
  8
0
  6
Continuous
 62
     7
100
AcDbLine
 10
7488.0187419847
 20
5178.8578546733
 30
0.0
 11
7460.0187448457
 21
5178.8578546733
 31
0.0
  0
LINE
  5
25C
330
1F
100
AcDbEntity
  8
0
  6
Continuous
 62
     7
100
AcDbLine
 10
7488.0187419847
 20
5178.8578546733
 30
0.0
 11
7488.0187419847
 21
5178.9578414649
 31
0.0
  0
LINE
  5
25D
330
1F
100
AcDbEntity
  8
0
  6
Continuous
 62
     7
100
AcDbLine
 10
6888.0187777474
 20
5178.8578546733
 30
0.0
 11
6888.0187777474
 21
5178.9578414649
 31
0.0
  0
LINE
  5
25E
330
1F
100
AcDbEntity
  8
0
  6
Continuous
 62
     7
100
AcDbLine
 10
6888.0187777474
 20
5178.8578546733
 30
0.0
 11
6860.0187806085
 21
5178.8578546733
 31
0.0
  0
LINE
  5
25F
330
1F
100
AcDbEntity
  8
0
  6
Continuous
 62
     7
100
AcDbLine
 10
6860.0187806085
 20
5178.8578546733
 30
0.0
 11
6860.0187806085
 21
5178.9578414649
 31
0.0
  0
LINE
  5
260
330
1F
100
AcDbEntity
  8
0
  6
Continuous
 62
     7
100
AcDbLine
 10
5688.0187300637
 20
5178.8578546733
 30
0.0
 11
5688.0187300637
 21
5178.9578414649
 31
0.0
  0
LINE
  5
261
330
1F
100
AcDbEntity
  8
0
  6
Continuous
 62
     7
100
AcDbLine
 10
5688.0187300637
 20
5178.8578546733
 30
0.0
 11
5660.0187329248
 21
5178.8578546733
 31
0.0
  0
LINE
  5
262
330
1F
100
AcDbEntity
  8
0
  6
Continuous
 62
     7
100
AcDbLine
 10
5660.0187329248
 20
5178.8578546733
 30
0.0
 11
5660.0187329248
 21
5178.9578414649
 31
0.0
  0
LINE
  5
263
330
1F
100
AcDbEntity
  8
0
  6
Continuous
 62
     7
100
AcDbLine
 10
5075.5187181428
 20
5724.9578452796
 30
0.0
 11
5072.518697162
 21
5724.9578452796
 31
0.0
  0
LINE
  5
264
330
1F
100
AcDbEntity
  8
0
  6
Continuous
 62
     7
100
AcDbLine
 10
5675.5187419847
 20
5724.9578452796
 30
0.0
 11
5672.5187806085
 21
5724.9578452796
 31
0.0
  0
LINE
  5
265
330
1F
100
AcDbEntity
  8
0
  6
Continuous
 62
     7
100
AcDbLine
 10
6875.5187300637
 20
5724.9578452796
 30
0.0
 11
6872.5187686875
 21
5724.9578452796
 31
0.0
  0
LINE
  5
266
330
1F
100
AcDbEntity
  8
0
  6
Continuous
 62
     7
100
AcDbLine
 10
7475.5188135102
 20
5724.9578452796
 30
0.0
 11
7472.5187925294
 21
5724.9578452796
 31
0.0
  0
LINE
  5
267
330
1F
100
AcDbEntity
  8
0
  6
Continuous
 62
     7
100
AcDbLine
 10
6275.5187553491
 20
5724.9578452796
 30
0.0
 11
6272.5187553231
 21
5724.9578452796
 31
0.0
  0
LINE
  5
268
330
1F
100
AcDbEntity
  8
0
  6
Continuous
 62
     7
100
AcDbLine
 10
6280.7612928234
 20
5729.5219219417
 30
0.0
 11
6280.7612928234
 21
5728.5559988708
 31
0.0
  0
LINE
  5
269
330
1F
100
AcDbEntity
  8
0
  6
Continuous
 62
     7
100
AcDbLine
 10
6283.2642106011
 20
5730.8736956805
 30
0.0
 11
6283.2642106011
 21
5730.2699900359
 31
0.0
  0
LINE
  5
26A
330
1F
100
AcDbEntity
  8
0
  6
Continuous
 62
     7
100
AcDbLine
 10
6282.1760439917
 20
5731.6354132384
 30
0.0
 11
6282.1760439917
 21
5731.3237405509
 31
0.0
  0
LINE
  5
26B
330
1F
100
AcDbEntity
  8
0
  6
Continuous
 62
     7
100
AcDbLine
 10
6280.3512659527
 20
5732.1560896129
 30
0.0
 11
6280.3512659527
 21
5731.9400525779
 31
0.0
  0
LINE
  5
26C
330
1F
100
AcDbEntity
  8
0
  6
Continuous
 62
     7
100
AcDbLine
 10
6276.7029087197
 20
5732.6545632571
 30
0.0
 11
6276.7029087197
 21
5732.486031124
 31
0.0
  0
LINE
  5
26D
330
1F
100
AcDbEntity
  8
0
  6
Continuous
 62
     7
100
AcDbLine
 10
6273.7288225114
 20
5732.7496922702
 30
0.0
 11
6273.7288225114
 21
5732.5878656596
 31
0.0
  0
LINE
  5
26E
330
1F
100
AcDbEntity
  8
0
  6
Continuous
 62
     7
100
AcDbLine
 10
6269.6574327208
 20
5732.4880278796
 30
0.0
 11
6269.6574327208
 21
5732.3062337131
 31
0.0
  0
LINE
  5
26F
330
1F
100
AcDbEntity
  8
0
  6
Continuous
 62
     7
100
AcDbLine
 10
6267.2762178488
 20
5732.0623017043
 30
0.0
 11
6267.2762178488
 21
5731.8339265079
 31
0.0
  0
LINE
  5
270
330
1F
100
AcDbEntity
  8
0
  6
Continuous
 62
     7
100
AcDbLine
 10
6265.1667596444
 20
5731.3277936668
 30
0.0
 11
6265.1667596444
 21
5730.8896697253
 31
0.0
  0
LINE
  5
271
330
1F
100
AcDbEntity
  8
0
  6
Continuous
 62
     7
100
AcDbLine
 10
6265.8614666805
 20
5730.0320780963
 30
0.0
 11
6265.8614666805
 21
5729.0661550254
 31
0.0
  0
LINE
  5
272
330
1F
100
AcDbEntity
  8
0
  6
Continuous
 62
     7
100
AcDbLine
 10
6271.3346019525
 20
5728.8698173255
 30
0.0
 11
6271.3346019525
 21
5727.9038942546
 31
0.0
  0
LINE
  5
273
330
1F
100
AcDbEntity
  8
0
  6
Continuous
 62
     7
100
AcDbLine
 10
6267.4704149038
 20
5729.8620856494
 30
0.0
 11
6266.5701817393
 21
5730.2428401202
 31
0.0
  0
LINE
  5
274
330
1F
100
AcDbEntity
  8
0
  6
Continuous
 62
     7
100
AcDbLine
 10
6266.5701817393
 20
5730.2428401202
 30
0.0
 11
6265.9954867929
 21
5730.6637383193
 31
0.0
  0
LINE
  5
275
330
1F
100
AcDbEntity
  8
0
  6
Continuous
 62
     7
100
AcDbLine
 10
6265.9954867929
 20
5730.6637383193
 30
0.0
 11
6265.7714478344
 21
5731.1063326091
 31
0.0
  0
LINE
  5
276
330
1F
100
AcDbEntity
  8
0
  6
Continuous
 62
     7
100
AcDbLine
 10
6265.7714478344
 20
5731.1063326091
 30
0.0
 11
6265.9078549266
 21
5731.551340887
 31
0.0
  0
LINE
  5
277
330
1F
100
AcDbEntity
  8
0
  6
Continuous
 62
     7
100
AcDbLine
 10
6265.9078549266
 20
5731.551340887
 30
0.0
 11
6266.0352514729
 21
5731.6992200107
 31
0.0
  0
LINE
  5
278
330
1F
100
AcDbEntity
  8
0
  6
Continuous
 62
     7
100
AcDbLine
 10
6282.1933963939
 20
5731.448820898
 30
0.0
 11
6282.2660628378
 21
5731.2154389113
 31
0.0
  0
LINE
  5
279
330
1F
100
AcDbEntity
  8
0
  6
Continuous
 62
     7
100
AcDbLine
 10
6282.2660628378
 20
5731.2154389113
 30
0.0
 11
6282.1296557456
 21
5730.7704306335
 31
0.0
  0
LINE
  5
27A
330
1F
100
AcDbEntity
  8
0
  6
Continuous
 62
     7
100
AcDbLine
 10
6282.1296557456
 20
5730.7704306335
 30
0.0
 11
6281.6387630671
 21
5730.3424990863
 31
0.0
  0
LINE
  5
27B
330
1F
100
AcDbEntity
  8
0
  6
Continuous
 62
     7
100
AcDbLine
 10
6281.6387630671
 20
5730.3424990863
 30
0.0
 11
6280.8148392148
 21
5729.9503601283
 31
0.0
  0
LINE
  5
27C
330
1F
100
AcDbEntity
  8
0
  6
Continuous
 62
     7
100
AcDbLine
 10
6280.8148392148
 20
5729.9503601283
 30
0.0
 11
6280.461527095
 21
5729.8271871299
 31
0.0
  0
LINE
  5
27D
330
1F
100
AcDbEntity
  8
0
  6
Continuous
 62
     7
100
AcDbLine
 10
6267.7926818512
 20
5729.7599530906
 30
0.0
 11
6267.4704149038
 21
5729.8620856494
 31
0.0
  0
LINE
  5
27E
330
1F
100
AcDbEntity
  8
0
  6
Continuous
 62
     7
100
AcDbLine
 10
6282.7614919886
 20
5731.2531388492
 30
0.0
 11
6283.0233035281
 21
5731.2441683501
 31
0.0
  0
LINE
  5
27F
330
1F
100
AcDbEntity
  8
0
  6
Continuous
 62
     7
100
AcDbLine
 10
6280.7612928234
 20
5729.5219219417
 30
0.0
 11
6280.4528453059
 21
5729.6260810584
 31
0.0
  0
LINE
  5
280
330
1F
100
AcDbEntity
  8
0
  6
Continuous
 62
     7
100
AcDbLine
 10
6271.4011095602
 20
5728.999934265
 30
0.0
 11
6271.3346019525
 21
5728.8698173255
 31
0.0
  0
LINE
  5
281
330
1F
100
AcDbEntity
  8
0
  6
Continuous
 62
     7
100
AcDbLine
 10
6265.8614666805
 20
5730.0320780963
 30
0.0
 11
6266.2639698617
 21
5730.111918518
 31
0.0
  0
LINE
  5
282
330
1F
100
AcDbEntity
  8
0
  6
Continuous
 62
     7
100
AcDbLine
 10
6266.5187555037
 20
5731.2372542113
 30
0.0
 11
6265.9954867929
 21
5731.6296613902
 31
0.0
  0
LINE
  5
283
330
1F
100
AcDbEntity
  8
0
  6
Continuous
 62
     7
100
AcDbLine
 10
6265.9954867929
 20
5731.6296613902
 30
0.0
 11
6265.9584704459
 21
5731.6715336532
 31
0.0
  0
LINE
  5
284
330
1F
100
AcDbEntity
  8
0
  6
Continuous
 62
     7
100
AcDbLine
 10
6281.6384724945
 20
5731.3082433433
 30
0.0
 11
6281.5187551685
 21
5731.2372542113
 31
0.0
  0
LINE
  5
285
330
1F
100
AcDbEntity
  8
0
  6
Continuous
 62
     7
100
AcDbLine
 10
6276.636401112
 20
5732.3559141845
 30
0.0
 11
6276.7029087197
 21
5732.486031124
 31
0.0
  0
LINE
  5
286
330
1F
100
AcDbEntity
  8
0
  6
Continuous
 62
     7
100
AcDbLine
 10
6273.6623149037
 20
5732.4577487201
 30
0.0
 11
6273.7288225114
 21
5732.5878656596
 31
0.0
  0
LINE
  5
287
330
1F
100
AcDbEntity
  8
0
  6
Continuous
 62
     7
100
AcDbLine
 10
6268.0657186218
 20
5729.9801624507
 30
0.0
 11
6267.2242137276
 21
5730.3389824122
 31
0.0
  0
LINE
  5
288
330
1F
100
AcDbEntity
  8
0
  6
Continuous
 62
     7
100
AcDbLine
 10
6267.2242137276
 20
5730.3389824122
 30
0.0
 11
6266.7004141629
 21
5730.7362473697
 31
0.0
  0
LINE
  5
289
330
1F
100
AcDbEntity
  8
0
  6
Continuous
 62
     7
100
AcDbLine
 10
6266.7004141629
 20
5730.7362473697
 30
0.0
 11
6266.5188118488
 21
5731.1533606738
 31
0.0
  0
LINE
  5
28A
330
1F
100
AcDbEntity
  8
0
  6
Continuous
 62
     7
100
AcDbLine
 10
6266.5188118488
 20
5731.1533606738
 30
0.0
 11
6266.6878985844
 21
5731.5708018035
 31
0.0
  0
LINE
  5
28B
330
1F
100
AcDbEntity
  8
0
  6
Continuous
 62
     7
100
AcDbLine
 10
6266.6878985844
 20
5731.5708018035
 30
0.0
 11
6267.1997683726
 21
5731.9691098422
 31
0.0
  0
LINE
  5
28C
330
1F
100
AcDbEntity
  8
0
  6
Continuous
 62
     7
100
AcDbLine
 10
6267.1997683726
 20
5731.9691098422
 30
0.0
 11
6267.2762178488
 21
5732.0109821052
 31
0.0
  0
LINE
  5
28D
330
1F
100
AcDbEntity
  8
0
  6
Continuous
 62
     7
100
AcDbLine
 10
6281.4698225491
 20
5731.3822723121
 30
0.0
 11
6281.471586474
 21
5731.3782489986
 31
0.0
  0
LINE
  5
28E
330
1F
100
AcDbEntity
  8
0
  6
Continuous
 62
     7
100
AcDbLine
 10
6281.471586474
 20
5731.3782489986
 30
0.0
 11
6281.4778812833
 21
5730.95851309
 31
0.0
  0
LINE
  5
28F
330
1F
100
AcDbEntity
  8
0
  6
Continuous
 62
     7
100
AcDbLine
 10
6281.4778812833
 20
5730.95851309
 30
0.0
 11
6281.1353953227
 21
5730.5482245177
 31
0.0
  0
LINE
  5
290
330
1F
100
AcDbEntity
  8
0
  6
Continuous
 62
     7
100
AcDbLine
 10
6281.1353953227
 20
5730.5482245177
 30
0.0
 11
6280.4601431496
 21
5730.1665759772
 31
0.0
  0
LINE
  5
291
330
1F
100
AcDbEntity
  8
0
  6
Continuous
 62
     7
100
AcDbLine
 10
6280.4601431496
 20
5730.1665759772
 30
0.0
 11
6279.4836989276
 21
5729.831448862
 31
0.0
  0
LINE
  5
292
330
1F
100
AcDbEntity
  8
0
  6
Continuous
 62
     7
100
AcDbLine
 10
6279.4836989276
 20
5729.831448862
 30
0.0
 11
6278.2517202802
 21
5729.5584595889
 31
0.0
  0
LINE
  5
293
330
1F
100
AcDbEntity
  8
0
  6
Continuous
 62
     7
100
AcDbLine
 10
6278.2517202802
 20
5729.5584595889
 30
0.0
 11
6276.8218125354
 21
5729.3604231566
 31
0.0
  0
LINE
  5
294
330
1F
100
AcDbEntity
  8
0
  6
Continuous
 62
     7
100
AcDbLine
 10
6276.8218125354
 20
5729.3604231566
 30
0.0
 11
6275.2608372036
 21
5729.2465484828
 31
0.0
  0
LINE
  5
295
330
1F
100
AcDbEntity
  8
0
  6
Continuous
 62
     7
100
AcDbLine
 10
6275.2608372036
 20
5729.2465484828
 30
0.0
 11
6273.6417833737
 21
5729.2221999854
 31
0.0
  0
LINE
  5
296
330
1F
100
AcDbEntity
  8
0
  6
Continuous
 62
     7
100
AcDbLine
 10
6273.6417833737
 20
5729.2221999854
 30
0.0
 11
6272.0403563369
 21
5729.2884803504
 31
0.0
  0
LINE
  5
297
330
1F
100
AcDbEntity
  8
0
  6
Continuous
 62
     7
100
AcDbLine
 10
6272.0403563369
 20
5729.2884803504
 30
0.0
 11
6270.5314370476
 21
5729.4423497409
 31
0.0
  0
LINE
  5
298
330
1F
100
AcDbEntity
  8
0
  6
Continuous
 62
     7
100
AcDbLine
 10
6270.5314370476
 20
5729.4423497409
 30
0.0
 11
6269.1855809323
 21
5729.6765661925
 31
0.0
  0
LINE
  5
299
330
1F
100
AcDbEntity
  8
0
  6
Continuous
 62
     7
100
AcDbLine
 10
6269.1855809323
 20
5729.6765661925
 30
0.0
 11
6268.0657186218
 21
5729.9801624507
 31
0.0
  0
LINE
  5
29A
330
1F
100
AcDbEntity
  8
0
  6
Continuous
 62
     7
100
AcDbLine
 10
6273.6623149037
 20
5732.7491260261
 30
0.0
 11
6273.6623149037
 21
5732.4577487201
 31
0.0
  0
LINE
  5
29B
330
1F
100
AcDbEntity
  8
0
  6
Continuous
 62
     7
100
AcDbLine
 10
6269.6574327208
 20
5732.3062337131
 30
0.0
 11
6269.9658797726
 21
5732.202044794
 31
0.0
  0
LINE
  5
29C
330
1F
100
AcDbEntity
  8
0
  6
Continuous
 62
     7
100
AcDbLine
 10
6267.2762178488
 20
5731.8339265079
 30
0.0
 11
6267.5846653663
 21
5731.7297673911
 31
0.0
  0
LINE
  5
29D
330
1F
100
AcDbEntity
  8
0
  6
Continuous
 62
     7
100
AcDbLine
 10
6269.9658797726
 20
5732.5256086082
 30
0.0
 11
6269.9658797726
 21
5732.202044794
 31
0.0
  0
LINE
  5
29E
330
1F
100
AcDbEntity
  8
0
  6
Continuous
 62
     7
100
AcDbLine
 10
6280.3512659527
 20
5731.9400525779
 30
0.0
 11
6279.9487623058
 21
5731.8602121562
 31
0.0
  0
LINE
  5
29F
330
1F
100
AcDbEntity
  8
0
  6
Continuous
 62
     7
100
AcDbLine
 10
6282.1760439917
 20
5731.3237405509
 30
0.0
 11
6281.7735408105
 21
5731.2439299316
 31
0.0
  0
LINE
  5
2A0
330
1F
100
AcDbEntity
  8
0
  6
Continuous
 62
     7
100
AcDbLine
 10
6279.9487623058
 20
5732.2386420459
 30
0.0
 11
6279.9487623058
 21
5731.8602121562
 31
0.0
  0
LINE
  5
2A1
330
1F
100
AcDbEntity
  8
0
  6
Continuous
 62
     7
100
AcDbLine
 10
6265.669478257
 20
5731.5597153396
 30
0.0
 11
6265.669478257
 21
5730.872443983
 31
0.0
  0
LINE
  5
2A2
330
1F
100
AcDbEntity
  8
0
  6
Continuous
 62
     7
100
AcDbLine
 10
6265.669478257
 20
5730.872443983
 30
0.0
 11
6265.1667596444
 21
5730.8896697253
 31
0.0
  0
LINE
  5
2A3
330
1F
100
AcDbEntity
  8
0
  6
Continuous
 62
     7
100
AcDbLine
 10
6265.2760186836
 20
5730.1027096004
 30
0.0
 11
6264.7733000711
 21
5730.1199055404
 31
0.0
  0
LINE
  5
2A4
330
1F
100
AcDbEntity
  8
0
  6
Continuous
 62
     7
100
AcDbLine
 10
6265.2760186836
 20
5730.2872157783
 30
0.0
 11
6265.2760186836
 21
5730.1027096004
 31
0.0
  0
LINE
  5
2A5
330
1F
100
AcDbEntity
  8
0
  6
Continuous
 62
     7
100
AcDbLine
 10
6282.7614919886
 20
5731.2531388492
 30
0.0
 11
6282.7614919886
 21
5730.2872157783
 31
0.0
  0
LINE
  5
2A6
330
1F
100
AcDbEntity
  8
0
  6
Continuous
 62
     7
100
AcDbLine
 10
6282.7614919886
 20
5730.2872157783
 30
0.0
 11
6283.2642106011
 21
5730.2699900359
 31
0.0
  0
LINE
  5
2A7
330
1F
100
AcDbEntity
  8
0
  6
Continuous
 62
     7
100
AcDbLine
 10
6282.3680324152
 20
5729.5174515933
 30
0.0
 11
6282.8707510278
 21
5729.5002556533
 31
0.0
  0
LINE
  5
2A8
330
1F
100
AcDbEntity
  8
0
  6
Continuous
 62
     7
100
AcDbLine
 10
6282.3680324152
 20
5730.4833746642
 30
0.0
 11
6282.3680324152
 21
5729.5174515933
 31
0.0
  0
LINE
  5
2A9
330
1F
100
AcDbEntity
  8
0
  6
Continuous
 62
     7
100
AcDbLine
 10
6266.2639698617
 20
5730.111918518
 30
0.0
 11
6266.2639698617
 21
5729.1459954471
 31
0.0
  0
LINE
  5
2AA
330
1F
100
AcDbEntity
  8
0
  6
Continuous
 62
     7
100
AcDbLine
 10
6265.8614666805
 20
5729.0661550254
 30
0.0
 11
6266.2639698617
 21
5729.1459954471
 31
0.0
  0
LINE
  5
2AB
330
1F
100
AcDbEntity
  8
0
  6
Continuous
 62
     7
100
AcDbLine
 10
6267.6862447195
 20
5728.4498728007
 30
0.0
 11
6268.0887483664
 21
5728.5296834201
 31
0.0
  0
LINE
  5
2AC
330
1F
100
AcDbEntity
  8
0
  6
Continuous
 62
     7
100
AcDbLine
 10
6268.0887483664
 20
5729.495606491
 30
0.0
 11
6268.0887483664
 21
5728.5296834201
 31
0.0
  0
LINE
  5
2AD
330
1F
100
AcDbEntity
  8
0
  6
Continuous
 62
     7
100
AcDbLine
 10
6280.4528453059
 20
5729.6260810584
 30
0.0
 11
6280.4528453059
 21
5728.6601579875
 31
0.0
  0
LINE
  5
2AE
330
1F
100
AcDbEntity
  8
0
  6
Continuous
 62
     7
100
AcDbLine
 10
6280.7612928234
 20
5728.5559988708
 30
0.0
 11
6280.4528453059
 21
5728.6601579875
 31
0.0
  0
LINE
  5
2AF
330
1F
100
AcDbEntity
  8
0
  6
Continuous
 62
     7
100
AcDbLine
 10
6278.0716308996
 20
5729.1538036555
 30
0.0
 11
6278.0716308996
 21
5728.1878805846
 31
0.0
  0
LINE
  5
2B0
330
1F
100
AcDbEntity
  8
0
  6
Continuous
 62
     7
100
AcDbLine
 10
6278.3800779514
 20
5728.0836916656
 30
0.0
 11
6278.0716308996
 21
5728.1878805846
 31
0.0
  0
LINE
  5
2B1
330
1F
100
AcDbEntity
  8
0
  6
Continuous
 62
     7
100
AcDbLine
 10
6271.4011095602
 20
5728.999934265
 30
0.0
 11
6271.4011095602
 21
5728.0340111941
 31
0.0
  0
LINE
  5
2B2
330
1F
100
AcDbEntity
  8
0
  6
Continuous
 62
     7
100
AcDbLine
 10
6274.3751957685
 20
5728.8980997294
 30
0.0
 11
6274.3751957685
 21
5727.9321766585
 31
0.0
  0
LINE
  5
2B3
330
1F
100
AcDbEntity
  8
0
  6
Continuous
 62
     7
100
AcDbLine
 10
6271.4011095602
 20
5728.0340111941
 30
0.0
 11
6271.3346019525
 21
5727.9038942546
 31
0.0
  0
LINE
  5
2B4
330
1F
100
AcDbEntity
  8
0
  6
Continuous
 62
     7
100
AcDbLine
 10
6274.3751957685
 20
5727.9321766585
 30
0.0
 11
6274.3086881608
 21
5727.802059719
 31
0.0
  0
LINE
  5
2B5
330
1F
100
AcDbEntity
  8
0
  6
Continuous
 62
     7
100
AcDbLine
 10
7480.7612804368
 20
5729.5219219417
 30
0.0
 11
7480.7612804368
 21
5728.5559988708
 31
0.0
  0
LINE
  5
2B6
330
1F
100
AcDbEntity
  8
0
  6
Continuous
 62
     7
100
AcDbLine
 10
7483.2641986802
 20
5730.8736956805
 30
0.0
 11
7483.2641986802
 21
5730.2699900359
 31
0.0
  0
LINE
  5
2B7
330
1F
100
AcDbEntity
  8
0
  6
Continuous
 62
     7
100
AcDbLine
 10
7482.1760562852
 20
5731.6354132384
 30
0.0
 11
7482.1760562852
 21
5731.3237405509
 31
0.0
  0
LINE
  5
2B8
330
1F
100
AcDbEntity
  8
0
  6
Continuous
 62
     7
100
AcDbLine
 10
7480.35131969
 20
5732.1560896129
 30
0.0
 11
7480.35131969
 21
5731.9400525779
 31
0.0
  0
LINE
  5
2B9
330
1F
100
AcDbEntity
  8
0
  6
Continuous
 62
     7
100
AcDbLine
 10
7476.7029193833
 20
5732.6545632571
 30
0.0
 11
7476.7029193833
 21
5732.486031124
 31
0.0
  0
LINE
  5
2BA
330
1F
100
AcDbEntity
  8
0
  6
Continuous
 62
     7
100
AcDbLine
 10
7473.7287668183
 20
5732.7496922702
 30
0.0
 11
7473.7287668183
 21
5732.5878656596
 31
0.0
  0
LINE
  5
2BB
330
1F
100
AcDbEntity
  8
0
  6
Continuous
 62
     7
100
AcDbLine
 10
7469.6574119523
 20
5732.4880278796
 30
0.0
 11
7469.6574119523
 21
5732.3062337131
 31
0.0
  0
LINE
  5
2BC
330
1F
100
AcDbEntity
  8
0
  6
Continuous
 62
     7
100
AcDbLine
 10
7467.2762063935
 20
5732.0623017043
 30
0.0
 11
7467.2762063935
 21
5731.8339265079
 31
0.0
  0
LINE
  5
2BD
330
1F
100
AcDbEntity
  8
0
  6
Continuous
 62
     7
100
AcDbLine
 10
7465.1667980149
 20
5731.3277936668
 30
0.0
 11
7465.1667980149
 21
5730.8896697253
 31
0.0
  0
LINE
  5
2BE
330
1F
100
AcDbEntity
  8
0
  6
Continuous
 62
     7
100
AcDbLine
 10
7465.8614305451
 20
5730.0320780963
 30
0.0
 11
7465.8614305451
 21
5729.0661550254
 31
0.0
  0
LINE
  5
2BF
330
1F
100
AcDbEntity
  8
0
  6
Continuous
 62
     7
100
AcDbLine
 10
7471.334567447
 20
5728.8698173255
 30
0.0
 11
7471.334567447
 21
5727.9038942546
 31
0.0
  0
LINE
  5
2C0
330
1F
100
AcDbEntity
  8
0
  6
Continuous
 62
     7
100
AcDbLine
 10
7467.4703983262
 20
5729.8620856494
 30
0.0
 11
7466.5701297715
 21
5730.2428401202
 31
0.0
  0
LINE
  5
2C1
330
1F
100
AcDbEntity
  8
0
  6
Continuous
 62
     7
100
AcDbLine
 10
7466.5701297715
 20
5730.2428401202
 30
0.0
 11
7465.9955409959
 21
5730.6637383193
 31
0.0
  0
LINE
  5
2C2
330
1F
100
AcDbEntity
  8
0
  6
Continuous
 62
     7
100
AcDbLine
 10
7465.9955409959
 20
5730.6637383193
 30
0.0
 11
7465.7714275315
 21
5731.1063326091
 31
0.0
  0
LINE
  5
2C3
330
1F
100
AcDbEntity
  8
0
  6
Continuous
 62
     7
100
AcDbLine
 10
7465.7714275315
 20
5731.1063326091
 30
0.0
 11
7465.9078029588
 21
5731.551340887
 31
0.0
  0
LINE
  5
2C4
330
1F
100
AcDbEntity
  8
0
  6
Continuous
 62
     7
100
AcDbLine
 10
7465.9078029588
 20
5731.551340887
 30
0.0
 11
7466.0352376893
 21
5731.6992200107
 31
0.0
  0
LINE
  5
2C5
330
1F
100
AcDbEntity
  8
0
  6
Continuous
 62
     7
100
AcDbLine
 10
7482.1933416322
 20
5731.448820898
 30
0.0
 11
7482.2660592988
 21
5731.2154389113
 31
0.0
  0
LINE
  5
2C6
330
1F
100
AcDbEntity
  8
0
  6
Continuous
 62
     7
100
AcDbLine
 10
7482.2660592988
 20
5731.2154389113
 30
0.0
 11
7482.1296838716
 21
5730.7704306335
 31
0.0
  0
LINE
  5
2C7
330
1F
100
AcDbEntity
  8
0
  6
Continuous
 62
     7
100
AcDbLine
 10
7482.1296838716
 20
5730.7704306335
 30
0.0
 11
7481.6387800172
 21
5730.3424990863
 31
0.0
  0
LINE
  5
2C8
330
1F
100
AcDbEntity
  8
0
  6
Continuous
 62
     7
100
AcDbLine
 10
7481.6387800172
 20
5730.3424990863
 30
0.0
 11
7480.8148054078
 21
5729.9503601283
 31
0.0
  0
LINE
  5
2C9
330
1F
100
AcDbEntity
  8
0
  6
Continuous
 62
     7
100
AcDbLine
 10
7480.8148054078
 20
5729.9503601283
 30
0.0
 11
7480.4614690736
 21
5729.8271871299
 31
0.0
  0
LINE
  5
2CA
330
1F
100
AcDbEntity
  8
0
  6
Continuous
 62
     7
100
AcDbLine
 10
7467.7927402452
 20
5729.7599530906
 30
0.0
 11
7467.4703983262
 21
5729.8620856494
 31
0.0
  0
LINE
  5
2CB
330
1F
100
AcDbEntity
  8
0
  6
Continuous
 62
     7
100
AcDbLine
 10
7482.7614931062
 20
5731.2531388492
 30
0.0
 11
7483.023276706
 21
5731.2441683501
 31
0.0
  0
LINE
  5
2CC
330
1F
100
AcDbEntity
  8
0
  6
Continuous
 62
     7
100
AcDbLine
 10
7480.7612804368
 20
5729.5219219417
 30
0.0
 11
7480.4528860047
 21
5729.6260810584
 31
0.0
  0
LINE
  5
2CD
330
1F
100
AcDbEntity
  8
0
  6
Continuous
 62
     7
100
AcDbLine
 10
7471.4010862306
 20
5728.999934265
 30
0.0
 11
7471.334567447
 21
5728.8698173255
 31
0.0
  0
LINE
  5
2CE
330
1F
100
AcDbEntity
  8
0
  6
Continuous
 62
     7
100
AcDbLine
 10
7465.8614305451
 20
5730.0320780963
 30
0.0
 11
7466.264000316
 21
5730.111918518
 31
0.0
  0
LINE
  5
2CF
330
1F
100
AcDbEntity
  8
0
  6
Continuous
 62
     7
100
AcDbLine
 10
7466.5187505677
 20
5731.2372542113
 30
0.0
 11
7465.9955409959
 21
5731.6296613902
 31
0.0
  0
LINE
  5
2D0
330
1F
100
AcDbEntity
  8
0
  6
Continuous
 62
     7
100
AcDbLine
 10
7465.9955409959
 20
5731.6296613902
 30
0.0
 11
7465.9584669068
 21
5731.6715336532
 31
0.0
  0
LINE
  5
2D1
330
1F
100
AcDbEntity
  8
0
  6
Continuous
 62
     7
100
AcDbLine
 10
7481.6384223893
 20
5731.3082433433
 30
0.0
 11
7481.5187362626
 21
5731.2372542113
 31
0.0
  0
LINE
  5
2D2
330
1F
100
AcDbEntity
  8
0
  6
Continuous
 62
     7
100
AcDbLine
 10
7476.6364005998
 20
5732.3559141845
 30
0.0
 11
7476.7029193833
 21
5732.486031124
 31
0.0
  0
LINE
  5
2D3
330
1F
100
AcDbEntity
  8
0
  6
Continuous
 62
     7
100
AcDbLine
 10
7473.6623672441
 20
5732.4577487201
 30
0.0
 11
7473.7287668183
 21
5732.5878656596
 31
0.0
  0
LINE
  5
2D4
330
1F
100
AcDbEntity
  8
0
  6
Continuous
 62
     7
100
AcDbLine
 10
7468.0657295182
 20
5729.9801624507
 30
0.0
 11
7467.2242311433
 21
5730.3389824122
 31
0.0
  0
LINE
  5
2D5
330
1F
100
AcDbEntity
  8
0
  6
Continuous
 62
     7
100
AcDbLine
 10
7467.2242311433
 20
5730.3389824122
 30
0.0
 11
7466.700425525
 21
5730.7362473697
 31
0.0
  0
LINE
  5
2D6
330
1F
100
AcDbEntity
  8
0
  6
Continuous
 62
     7
100
AcDbLine
 10
7466.700425525
 20
5730.7362473697
 30
0.0
 11
7466.518869777
 21
5731.1533606738
 31
0.0
  0
LINE
  5
2D7
330
1F
100
AcDbEntity
  8
0
  6
Continuous
 62
     7
100
AcDbLine
 10
7466.518869777
 20
5731.1533606738
 30
0.0
 11
7466.6879085496
 21
5731.5708018035
 31
0.0
  0
LINE
  5
2D8
330
1F
100
AcDbEntity
  8
0
  6
Continuous
 62
     7
100
AcDbLine
 10
7466.6879085496
 20
5731.5708018035
 30
0.0
 11
7467.1997932389
 21
5731.9691098422
 31
0.0
  0
LINE
  5
2D9
330
1F
100
AcDbEntity
  8
0
  6
Continuous
 62
     7
100
AcDbLine
 10
7467.1997932389
 20
5731.9691098422
 30
0.0
 11
7467.2762063935
 21
5732.0109821052
 31
0.0
  0
LINE
  5
2DA
330
1F
100
AcDbEntity
  8
0
  6
Continuous
 62
     7
100
AcDbLine
 10
7481.4698604539
 20
5731.3822723121
 30
0.0
 11
7481.471529384
 21
5731.3782489986
 31
0.0
  0
LINE
  5
2DB
330
1F
100
AcDbEntity
  8
0
  6
Continuous
 62
     7
100
AcDbLine
 10
7481.471529384
 20
5731.3782489986
 30
0.0
 11
7481.4778474763
 21
5730.95851309
 31
0.0
  0
LINE
  5
2DC
330
1F
100
AcDbEntity
  8
0
  6
Continuous
 62
     7
100
AcDbLine
 10
7481.4778474763
 20
5730.95851309
 30
0.0
 11
7481.1353591874
 21
5730.5482245177
 31
0.0
  0
LINE
  5
2DD
330
1F
100
AcDbEntity
  8
0
  6
Continuous
 62
     7
100
AcDbLine
 10
7481.1353591874
 20
5730.5482245177
 30
0.0
 11
7480.4601577714
 21
5730.1665759772
 31
0.0
  0
LINE
  5
2DE
330
1F
100
AcDbEntity
  8
0
  6
Continuous
 62
     7
100
AcDbLine
 10
7480.4601577714
 20
5730.1665759772
 30
0.0
 11
7479.4837144807
 21
5729.831448862
 31
0.0
  0
LINE
  5
2DF
330
1F
100
AcDbEntity
  8
0
  6
Continuous
 62
     7
100
AcDbLine
 10
7479.4837144807
 20
5729.831448862
 30
0.0
 11
7478.2516864732
 21
5729.5584595889
 31
0.0
  0
LINE
  5
2E0
330
1F
100
AcDbEntity
  8
0
  6
Continuous
 62
     7
100
AcDbLine
 10
7478.2516864732
 20
5729.5584595889
 30
0.0
 11
7476.821771045
 21
5729.3604231566
 31
0.0
  0
LINE
  5
2E1
330
1F
100
AcDbEntity
  8
0
  6
Continuous
 62
     7
100
AcDbLine
 10
7476.821771045
 20
5729.3604231566
 30
0.0
 11
7475.2608446076
 21
5729.2465484828
 31
0.0
  0
LINE
  5
2E2
330
1F
100
AcDbEntity
  8
0
  6
Continuous
 62
     7
100
AcDbLine
 10
7475.2608446076
 20
5729.2465484828
 30
0.0
 11
7473.641744037
 21
5729.2221999854
 31
0.0
  0
LINE
  5
2E3
330
1F
100
AcDbEntity
  8
0
  6
Continuous
 62
     7
100
AcDbLine
 10
7473.641744037
 20
5729.2221999854
 30
0.0
 11
7472.0404056504
 21
5729.2884803504
 31
0.0
  0
LINE
  5
2E4
330
1F
100
AcDbEntity
  8
0
  6
Continuous
 62
     7
100
AcDbLine
 10
7472.0404056504
 20
5729.2884803504
 30
0.0
 11
7470.5314544633
 21
5729.4423497409
 31
0.0
  0
LINE
  5
2E5
330
1F
100
AcDbEntity
  8
0
  6
Continuous
 62
     7
100
AcDbLine
 10
7470.5314544633
 20
5729.4423497409
 30
0.0
 11
7469.1855815843
 21
5729.6765661925
 31
0.0
  0
LINE
  5
2E6
330
1F
100
AcDbEntity
  8
0
  6
Continuous
 62
     7
100
AcDbLine
 10
7469.1855815843
 20
5729.6765661925
 30
0.0
 11
7468.0657295182
 21
5729.9801624507
 31
0.0
  0
LINE
  5
2E7
330
1F
100
AcDbEntity
  8
0
  6
Continuous
 62
     7
100
AcDbLine
 10
7473.6623672441
 20
5732.7491260261
 30
0.0
 11
7473.6623672441
 21
5732.4577487201
 31
0.0
  0
LINE
  5
2E8
330
1F
100
AcDbEntity
  8
0
  6
Continuous
 62
     7
100
AcDbLine
 10
7469.6574119523
 20
5732.3062337131
 30
0.0
 11
7469.9659255937
 21
5732.202044794
 31
0.0
  0
LINE
  5
2E9
330
1F
100
AcDbEntity
  8
0
  6
Continuous
 62
     7
100
AcDbLine
 10
7467.2762063935
 20
5731.8339265079
 30
0.0
 11
7467.5847200349
 21
5731.7297673911
 31
0.0
  0
LINE
  5
2EA
330
1F
100
AcDbEntity
  8
0
  6
Continuous
 62
     7
100
AcDbLine
 10
7469.9659255937
 20
5732.5256086082
 30
0.0
 11
7469.9659255937
 21
5732.202044794
 31
0.0
  0
LINE
  5
2EB
330
1F
100
AcDbEntity
  8
0
  6
Continuous
 62
     7
100
AcDbLine
 10
7480.35131969
 20
5731.9400525779
 30
0.0
 11
7479.9487499192
 21
5731.8602121562
 31
0.0
  0
LINE
  5
2EC
330
1F
100
AcDbEntity
  8
0
  6
Continuous
 62
     7
100
AcDbLine
 10
7482.1760562852
 20
5731.3237405509
 30
0.0
 11
7481.7734865144
 21
5731.2439299316
 31
0.0
  0
LINE
  5
2ED
330
1F
100
AcDbEntity
  8
0
  6
Continuous
 62
     7
100
AcDbLine
 10
7479.9487499192
 20
5732.2386420459
 30
0.0
 11
7479.9487499192
 21
5731.8602121562
 31
0.0
  0
LINE
  5
2EE
330
1F
100
AcDbEntity
  8
0
  6
Continuous
 62
     7
100
AcDbLine
 10
7465.669503589
 20
5731.5597153396
 30
0.0
 11
7465.669503589
 21
5730.872443983
 31
0.0
  0
LINE
  5
2EF
330
1F
100
AcDbEntity
  8
0
  6
Continuous
 62
     7
100
AcDbLine
 10
7465.669503589
 20
5730.872443983
 30
0.0
 11
7465.1667980149
 21
5730.8896697253
 31
0.0
  0
LINE
  5
2F0
330
1F
100
AcDbEntity
  8
0
  6
Continuous
 62
     7
100
AcDbLine
 10
7465.2759937242
 20
5730.1027096004
 30
0.0
 11
7464.7732881501
 21
5730.1199055404
 31
0.0
  0
LINE
  5
2F1
330
1F
100
AcDbEntity
  8
0
  6
Continuous
 62
     7
100
AcDbLine
 10
7465.2759937242
 20
5730.2872157783
 30
0.0
 11
7465.2759937242
 21
5730.1027096004
 31
0.0
  0
LINE
  5
2F2
330
1F
100
AcDbEntity
  8
0
  6
Continuous
 62
     7
100
AcDbLine
 10
7482.7614931062
 20
5731.2531388492
 30
0.0
 11
7482.7614931062
 21
5730.2872157783
 31
0.0
  0
LINE
  5
2F3
330
1F
100
AcDbEntity
  8
0
  6
Continuous
 62
     7
100
AcDbLine
 10
7482.7614931062
 20
5730.2872157783
 30
0.0
 11
7483.2641986802
 21
5730.2699900359
 31
0.0
  0
LINE
  5
2F4
330
1F
100
AcDbEntity
  8
0
  6
Continuous
 62
     7
100
AcDbLine
 10
7482.3679832414
 20
5729.5174515933
 30
0.0
 11
7482.8708080247
 21
5729.5002556533
 31
0.0
  0
LINE
  5
2F5
330
1F
100
AcDbEntity
  8
0
  6
Continuous
 62
     7
100
AcDbLine
 10
7482.3679832414
 20
5730.4833746642
 30
0.0
 11
7482.3679832414
 21
5729.5174515933
 31
0.0
  0
LINE
  5
2F6
330
1F
100
AcDbEntity
  8
0
  6
Continuous
 62
     7
100
AcDbLine
 10
7466.264000316
 20
5730.111918518
 30
0.0
 11
7466.264000316
 21
5729.1459954471
 31
0.0
  0
LINE
  5
2F7
330
1F
100
AcDbEntity
  8
0
  6
Continuous
 62
     7
100
AcDbLine
 10
7465.8614305451
 20
5729.0661550254
 30
0.0
 11
7466.264000316
 21
5729.1459954471
 31
0.0
  0
LINE
  5
2F8
330
1F
100
AcDbEntity
  8
0
  6
Continuous
 62
     7
100
AcDbLine
 10
7467.6862863496
 20
5728.4498728007
 30
0.0
 11
7468.0887369111
 21
5728.5296834201
 31
0.0
  0
LINE
  5
2F9
330
1F
100
AcDbEntity
  8
0
  6
Continuous
 62
     7
100
AcDbLine
 10
7468.0887369111
 20
5729.495606491
 30
0.0
 11
7468.0887369111
 21
5728.5296834201
 31
0.0
  0
LINE
  5
2FA
330
1F
100
AcDbEntity
  8
0
  6
Continuous
 62
     7
100
AcDbLine
 10
7480.4528860047
 20
5729.6260810584
 30
0.0
 11
7480.4528860047
 21
5728.6601579875
 31
0.0
  0
LINE
  5
2FB
330
1F
100
AcDbEntity
  8
0
  6
Continuous
 62
     7
100
AcDbLine
 10
7478.071680446
 20
5729.1538036555
 30
0.0
 11
7478.071680446
 21
5728.1878805846
 31
0.0
  0
LINE
  5
2FC
330
1F
100
AcDbEntity
  8
0
  6
Continuous
 62
     7
100
AcDbLine
 10
7480.7612804368
 20
5728.5559988708
 30
0.0
 11
7480.4528860047
 21
5728.6601579875
 31
0.0
  0
LINE
  5
2FD
330
1F
100
AcDbEntity
  8
0
  6
Continuous
 62
     7
100
AcDbLine
 10
7478.380074878
 20
5728.0836916656
 30
0.0
 11
7478.071680446
 21
5728.1878805846
 31
0.0
  0
LINE
  5
2FE
330
1F
100
AcDbEntity
  8
0
  6
Continuous
 62
     7
100
AcDbLine
 10
7471.4010862306
 20
5728.999934265
 30
0.0
 11
7471.4010862306
 21
5728.0340111941
 31
0.0
  0
LINE
  5
2FF
330
1F
100
AcDbEntity
  8
0
  6
Continuous
 62
     7
100
AcDbLine
 10
7474.3752387956
 20
5728.8980997294
 30
0.0
 11
7474.3752387956
 21
5727.9321766585
 31
0.0
  0
LINE
  5
300
330
1F
100
AcDbEntity
  8
0
  6
Continuous
 62
     7
100
AcDbLine
 10
7471.4010862306
 20
5728.0340111941
 30
0.0
 11
7471.334567447
 21
5727.9038942546
 31
0.0
  0
LINE
  5
301
330
1F
100
AcDbEntity
  8
0
  6
Continuous
 62
     7
100
AcDbLine
 10
7474.3752387956
 20
5727.9321766585
 30
0.0
 11
7474.308720012
 21
5727.802059719
 31
0.0
  0
LINE
  5
302
330
1F
100
AcDbEntity
  8
0
  6
Continuous
 62
     7
100
AcDbLine
 10
6880.7613161996
 20
5729.5219219417
 30
0.0
 11
6880.7613161996
 21
5728.5559988708
 31
0.0
  0
LINE
  5
303
330
1F
100
AcDbEntity
  8
0
  6
Continuous
 62
     7
100
AcDbLine
 10
6883.264234443
 20
5730.8736956805
 30
0.0
 11
6883.264234443
 21
5730.2699900359
 31
0.0
  0
LINE
  5
304
330
1F
100
AcDbEntity
  8
0
  6
Continuous
 62
     7
100
AcDbLine
 10
6882.1760324433
 20
5731.6354132384
 30
0.0
 11
6882.1760324433
 21
5731.3237405509
 31
0.0
  0
LINE
  5
305
330
1F
100
AcDbEntity
  8
0
  6
Continuous
 62
     7
100
AcDbLine
 10
6880.3512362435
 20
5732.1560896129
 30
0.0
 11
6880.3512362435
 21
5731.9400525779
 31
0.0
  0
LINE
  5
306
330
1F
100
AcDbEntity
  8
0
  6
Continuous
 62
     7
100
AcDbLine
 10
6876.7028955415
 20
5732.6545632571
 30
0.0
 11
6876.7028955415
 21
5732.486031124
 31
0.0
  0
LINE
  5
307
330
1F
100
AcDbEntity
  8
0
  6
Continuous
 62
     7
100
AcDbLine
 10
6873.7288025811
 20
5732.7496922702
 30
0.0
 11
6873.7288025811
 21
5732.5878656596
 31
0.0
  0
LINE
  5
308
330
1F
100
AcDbEntity
  8
0
  6
Continuous
 62
     7
100
AcDbLine
 10
6869.6574477151
 20
5732.4880278796
 30
0.0
 11
6869.6574477151
 21
5732.3062337131
 31
0.0
  0
LINE
  5
309
330
1F
100
AcDbEntity
  8
0
  6
Continuous
 62
     7
100
AcDbLine
 10
6867.2762421563
 20
5732.0623017043
 30
0.0
 11
6867.2762421563
 21
5731.8339265079
 31
0.0
  0
LINE
  5
30A
330
1F
100
AcDbEntity
  8
0
  6
Continuous
 62
     7
100
AcDbLine
 10
6865.1667741731
 20
5731.3277936668
 30
0.0
 11
6865.1667741731
 21
5730.8896697253
 31
0.0
  0
LINE
  5
30B
330
1F
100
AcDbEntity
  8
0
  6
Continuous
 62
     7
100
AcDbLine
 10
6865.8614663079
 20
5730.0320780963
 30
0.0
 11
6865.8614663079
 21
5729.0661550254
 31
0.0
  0
LINE
  5
30C
330
1F
100
AcDbEntity
  8
0
  6
Continuous
 62
     7
100
AcDbLine
 10
6871.3346032098
 20
5728.8698173255
 30
0.0
 11
6871.3346032098
 21
5727.9038942546
 31
0.0
  0
LINE
  5
30D
330
1F
100
AcDbEntity
  8
0
  6
Continuous
 62
     7
100
AcDbLine
 10
6867.470434089
 20
5729.8620856494
 30
0.0
 11
6866.5701655343
 21
5730.2428401202
 31
0.0
  0
LINE
  5
30E
330
1F
100
AcDbEntity
  8
0
  6
Continuous
 62
     7
100
AcDbLine
 10
6866.5701655343
 20
5730.2428401202
 30
0.0
 11
6865.9954575494
 21
5730.6637383193
 31
0.0
  0
LINE
  5
30F
330
1F
100
AcDbEntity
  8
0
  6
Continuous
 62
     7
100
AcDbLine
 10
6865.9954575494
 20
5730.6637383193
 30
0.0
 11
6865.7714632943
 21
5731.1063326091
 31
0.0
  0
LINE
  5
310
330
1F
100
AcDbEntity
  8
0
  6
Continuous
 62
     7
100
AcDbLine
 10
6865.7714632943
 20
5731.1063326091
 30
0.0
 11
6865.9078387216
 21
5731.551340887
 31
0.0
  0
LINE
  5
311
330
1F
100
AcDbEntity
  8
0
  6
Continuous
 62
     7
100
AcDbLine
 10
6865.9078387216
 20
5731.551340887
 30
0.0
 11
6866.0352734521
 21
5731.6992200107
 31
0.0
  0
LINE
  5
312
330
1F
100
AcDbEntity
  8
0
  6
Continuous
 62
     7
100
AcDbLine
 10
6882.193377395
 20
5731.448820898
 30
0.0
 11
6882.2660354569
 21
5731.2154389113
 31
0.0
  0
LINE
  5
313
330
1F
100
AcDbEntity
  8
0
  6
Continuous
 62
     7
100
AcDbLine
 10
6882.2660354569
 20
5731.2154389113
 30
0.0
 11
6882.1296600297
 21
5730.7704306335
 31
0.0
  0
LINE
  5
314
330
1F
100
AcDbEntity
  8
0
  6
Continuous
 62
     7
100
AcDbLine
 10
6882.1296600297
 20
5730.7704306335
 30
0.0
 11
6881.6387561753
 21
5730.3424990863
 31
0.0
  0
LINE
  5
315
330
1F
100
AcDbEntity
  8
0
  6
Continuous
 62
     7
100
AcDbLine
 10
6881.6387561753
 20
5730.3424990863
 30
0.0
 11
6880.8148411706
 21
5729.9503601283
 31
0.0
  0
LINE
  5
316
330
1F
100
AcDbEntity
  8
0
  6
Continuous
 62
     7
100
AcDbLine
 10
6880.8148411706
 20
5729.9503601283
 30
0.0
 11
6879.693916221
 21
5729.6110904903
 31
0.0
  0
LINE
  5
317
330
1F
100
AcDbEntity
  8
0
  6
Continuous
 62
     7
100
AcDbLine
 10
6879.693916221
 20
5729.6110904903
 30
0.0
 11
6878.3249167398
 21
5729.339561531
 31
0.0
  0
LINE
  5
318
330
1F
100
AcDbEntity
  8
0
  6
Continuous
 62
     7
100
AcDbLine
 10
6878.3249167398
 20
5729.339561531
 30
0.0
 11
6876.767745395
 21
5729.1476643771
 31
0.0
  0
LINE
  5
319
330
1F
100
AcDbEntity
  8
0
  6
Continuous
 62
     7
100
AcDbLine
 10
6876.767745395
 20
5729.1476643771
 30
0.0
 11
6875.0904110864
 21
5729.0437138766
 31
0.0
  0
LINE
  5
31A
330
1F
100
AcDbEntity
  8
0
  6
Continuous
 62
     7
100
AcDbLine
 10
6875.0904110864
 20
5729.0437138766
 30
0.0
 11
6873.3662871316
 21
5729.0323293895
 31
0.0
  0
LINE
  5
31B
330
1F
100
AcDbEntity
  8
0
  6
Continuous
 62
     7
100
AcDbLine
 10
6873.3662871316
 20
5729.0323293895
 30
0.0
 11
6871.670654197
 21
5729.1139281482
 31
0.0
  0
LINE
  5
31C
330
1F
100
AcDbEntity
  8
0
  6
Continuous
 62
     7
100
AcDbLine
 10
6871.670654197
 20
5729.1139281482
 30
0.0
 11
6870.0776008561
 21
5729.285023281
 31
0.0
  0
LINE
  5
31D
330
1F
100
AcDbEntity
  8
0
  6
Continuous
 62
     7
100
AcDbLine
 10
6870.0776008561
 20
5729.285023281
 30
0.0
 11
6868.6568645433
 21
5729.5381046027
 31
0.0
  0
LINE
  5
31E
330
1F
100
AcDbEntity
  8
0
  6
Continuous
 62
     7
100
AcDbLine
 10
6868.6568645433
 20
5729.5381046027
 30
0.0
 11
6867.470434089
 21
5729.8620856494
 31
0.0
  0
LINE
  5
31F
330
1F
100
AcDbEntity
  8
0
  6
Continuous
 62
     7
100
AcDbLine
 10
6882.7614692643
 20
5731.2531388492
 30
0.0
 11
6883.0233124688
 21
5731.2441683501
 31
0.0
  0
LINE
  5
320
330
1F
100
AcDbEntity
  8
0
  6
Continuous
 62
     7
100
AcDbLine
 10
6880.7613161996
 20
5729.5219219417
 30
0.0
 11
6880.4528621629
 21
5729.6260810584
 31
0.0
  0
LINE
  5
321
330
1F
100
AcDbEntity
  8
0
  6
Continuous
 62
     7
100
AcDbLine
 10
6871.4011219934
 20
5728.999934265
 30
0.0
 11
6871.3346032098
 21
5728.8698173255
 31
0.0
  0
LINE
  5
322
330
1F
100
AcDbEntity
  8
0
  6
Continuous
 62
     7
100
AcDbLine
 10
6865.8614663079
 20
5730.0320780963
 30
0.0
 11
6866.2639764741
 21
5730.111918518
 31
0.0
  0
LINE
  5
323
330
1F
100
AcDbEntity
  8
0
  6
Continuous
 62
     7
100
AcDbLine
 10
6866.5187267259
 20
5731.2372542113
 30
0.0
 11
6865.9954575494
 21
5731.6296613902
 31
0.0
  0
LINE
  5
324
330
1F
100
AcDbEntity
  8
0
  6
Continuous
 62
     7
100
AcDbLine
 10
6865.9954575494
 20
5731.6296613902
 30
0.0
 11
6865.958443065
 21
5731.6715336532
 31
0.0
  0
LINE
  5
325
330
1F
100
AcDbEntity
  8
0
  6
Continuous
 62
     7
100
AcDbLine
 10
6881.6384581521
 20
5731.3082433433
 30
0.0
 11
6881.5187720254
 21
5731.2372542113
 31
0.0
  0
LINE
  5
326
330
1F
100
AcDbEntity
  8
0
  6
Continuous
 62
     7
100
AcDbLine
 10
6876.6363767579
 20
5732.3559141845
 30
0.0
 11
6876.7028955415
 21
5732.486031124
 31
0.0
  0
LINE
  5
327
330
1F
100
AcDbEntity
  8
0
  6
Continuous
 62
     7
100
AcDbLine
 10
6873.6623434022
 20
5732.4577487201
 30
0.0
 11
6873.7288025811
 21
5732.5878656596
 31
0.0
  0
LINE
  5
328
330
1F
100
AcDbEntity
  8
0
  6
Continuous
 62
     7
100
AcDbLine
 10
6868.0657056764
 20
5729.9801624507
 30
0.0
 11
6867.2242073014
 21
5730.3389824122
 31
0.0
  0
LINE
  5
329
330
1F
100
AcDbEntity
  8
0
  6
Continuous
 62
     7
100
AcDbLine
 10
6867.2242073014
 20
5730.3389824122
 30
0.0
 11
6866.7004016831
 21
5730.7362473697
 31
0.0
  0
LINE
  5
32A
330
1F
100
AcDbEntity
  8
0
  6
Continuous
 62
     7
100
AcDbLine
 10
6866.7004016831
 20
5730.7362473697
 30
0.0
 11
6866.5187863305
 21
5731.1533606738
 31
0.0
  0
LINE
  5
32B
330
1F
100
AcDbEntity
  8
0
  6
Continuous
 62
     7
100
AcDbLine
 10
6866.5187863305
 20
5731.1533606738
 30
0.0
 11
6866.6878847077
 21
5731.5708018035
 31
0.0
  0
LINE
  5
32C
330
1F
100
AcDbEntity
  8
0
  6
Continuous
 62
     7
100
AcDbLine
 10
6866.6878847077
 20
5731.5708018035
 30
0.0
 11
6867.1997693971
 21
5731.9691098422
 31
0.0
  0
LINE
  5
32D
330
1F
100
AcDbEntity
  8
0
  6
Continuous
 62
     7
100
AcDbLine
 10
6867.1997693971
 20
5731.9691098422
 30
0.0
 11
6867.2762421563
 21
5732.0109821052
 31
0.0
  0
LINE
  5
32E
330
1F
100
AcDbEntity
  8
0
  6
Continuous
 62
     7
100
AcDbLine
 10
6881.469836612
 20
5731.3822723121
 30
0.0
 11
6881.4715651467
 21
5731.3782489986
 31
0.0
  0
LINE
  5
32F
330
1F
100
AcDbEntity
  8
0
  6
Continuous
 62
     7
100
AcDbLine
 10
6881.4715651467
 20
5731.3782489986
 30
0.0
 11
6881.4778832391
 21
5730.95851309
 31
0.0
  0
LINE
  5
330
330
1F
100
AcDbEntity
  8
0
  6
Continuous
 62
     7
100
AcDbLine
 10
6881.4778832391
 20
5730.95851309
 30
0.0
 11
6881.1353949502
 21
5730.5482245177
 31
0.0
  0
LINE
  5
331
330
1F
100
AcDbEntity
  8
0
  6
Continuous
 62
     7
100
AcDbLine
 10
6881.1353949502
 20
5730.5482245177
 30
0.0
 11
6880.4601339295
 21
5730.1665759772
 31
0.0
  0
LINE
  5
332
330
1F
100
AcDbEntity
  8
0
  6
Continuous
 62
     7
100
AcDbLine
 10
6880.4601339295
 20
5730.1665759772
 30
0.0
 11
6879.4836906388
 21
5729.831448862
 31
0.0
  0
LINE
  5
333
330
1F
100
AcDbEntity
  8
0
  6
Continuous
 62
     7
100
AcDbLine
 10
6879.4836906388
 20
5729.831448862
 30
0.0
 11
6878.251722236
 21
5729.5584595889
 31
0.0
  0
LINE
  5
334
330
1F
100
AcDbEntity
  8
0
  6
Continuous
 62
     7
100
AcDbLine
 10
6878.251722236
 20
5729.5584595889
 30
0.0
 11
6876.8218068078
 21
5729.3604231566
 31
0.0
  0
LINE
  5
335
330
1F
100
AcDbEntity
  8
0
  6
Continuous
 62
     7
100
AcDbLine
 10
6876.8218068078
 20
5729.3604231566
 30
0.0
 11
6875.2608207658
 21
5729.2465484828
 31
0.0
  0
LINE
  5
336
330
1F
100
AcDbEntity
  8
0
  6
Continuous
 62
     7
100
AcDbLine
 10
6875.2608207658
 20
5729.2465484828
 30
0.0
 11
6873.6417797998
 21
5729.2221999854
 31
0.0
  0
LINE
  5
337
330
1F
100
AcDbEntity
  8
0
  6
Continuous
 62
     7
100
AcDbLine
 10
6873.6417797998
 20
5729.2221999854
 30
0.0
 11
6872.0403818086
 21
5729.2884803504
 31
0.0
  0
LINE
  5
338
330
1F
100
AcDbEntity
  8
0
  6
Continuous
 62
     7
100
AcDbLine
 10
6872.0403818086
 20
5729.2884803504
 30
0.0
 11
6870.5314306214
 21
5729.4423497409
 31
0.0
  0
LINE
  5
339
330
1F
100
AcDbEntity
  8
0
  6
Continuous
 62
     7
100
AcDbLine
 10
6870.5314306214
 20
5729.4423497409
 30
0.0
 11
6869.1855577424
 21
5729.6765661925
 31
0.0
  0
LINE
  5
33A
330
1F
100
AcDbEntity
  8
0
  6
Continuous
 62
     7
100
AcDbLine
 10
6869.1855577424
 20
5729.6765661925
 30
0.0
 11
6868.0657056764
 21
5729.9801624507
 31
0.0
  0
LINE
  5
33B
330
1F
100
AcDbEntity
  8
0
  6
Continuous
 62
     7
100
AcDbLine
 10
6873.6623434022
 20
5732.7491260261
 30
0.0
 11
6873.6623434022
 21
5732.4577487201
 31
0.0
  0
LINE
  5
33C
330
1F
100
AcDbEntity
  8
0
  6
Continuous
 62
     7
100
AcDbLine
 10
6869.6574477151
 20
5732.3062337131
 30
0.0
 11
6869.9659017518
 21
5732.202044794
 31
0.0
  0
LINE
  5
33D
330
1F
100
AcDbEntity
  8
0
  6
Continuous
 62
     7
100
AcDbLine
 10
6867.2762421563
 20
5731.8339265079
 30
0.0
 11
6867.5846365884
 21
5731.7297673911
 31
0.0
  0
LINE
  5
33E
330
1F
100
AcDbEntity
  8
0
  6
Continuous
 62
     7
100
AcDbLine
 10
6869.9659017518
 20
5732.5256086082
 30
0.0
 11
6869.9659017518
 21
5732.202044794
 31
0.0
  0
LINE
  5
33F
330
1F
100
AcDbEntity
  8
0
  6
Continuous
 62
     7
100
AcDbLine
 10
6880.3512362435
 20
5731.9400525779
 30
0.0
 11
6879.948785682
 21
5731.8602121562
 31
0.0
  0
LINE
  5
340
330
1F
100
AcDbEntity
  8
0
  6
Continuous
 62
     7
100
AcDbLine
 10
6882.1760324433
 20
5731.3237405509
 30
0.0
 11
6881.7735222772
 21
5731.2439299316
 31
0.0
  0
LINE
  5
341
330
1F
100
AcDbEntity
  8
0
  6
Continuous
 62
     7
100
AcDbLine
 10
6879.948785682
 20
5732.2386420459
 30
0.0
 11
6879.948785682
 21
5731.8602121562
 31
0.0
  0
LINE
  5
342
330
1F
100
AcDbEntity
  8
0
  6
Continuous
 62
     7
100
AcDbLine
 10
6865.6694797471
 20
5731.5597153396
 30
0.0
 11
6865.6694797471
 21
5730.872443983
 31
0.0
  0
LINE
  5
343
330
1F
100
AcDbEntity
  8
0
  6
Continuous
 62
     7
100
AcDbLine
 10
6865.6694797471
 20
5730.872443983
 30
0.0
 11
6865.1667741731
 21
5730.8896697253
 31
0.0
  0
LINE
  5
344
330
1F
100
AcDbEntity
  8
0
  6
Continuous
 62
     7
100
AcDbLine
 10
6865.2760294869
 20
5730.1027096004
 30
0.0
 11
6864.7733239129
 21
5730.1199055404
 31
0.0
  0
LINE
  5
345
330
1F
100
AcDbEntity
  8
0
  6
Continuous
 62
     7
100
AcDbLine
 10
6865.2760294869
 20
5730.2872157783
 30
0.0
 11
6865.2760294869
 21
5730.1027096004
 31
0.0
  0
LINE
  5
346
330
1F
100
AcDbEntity
  8
0
  6
Continuous
 62
     7
100
AcDbLine
 10
6882.7614692643
 20
5731.2531388492
 30
0.0
 11
6882.7614692643
 21
5730.2872157783
 31
0.0
  0
LINE
  5
347
330
1F
100
AcDbEntity
  8
0
  6
Continuous
 62
     7
100
AcDbLine
 10
6882.7614692643
 20
5730.2872157783
 30
0.0
 11
6883.264234443
 21
5730.2699900359
 31
0.0
  0
LINE
  5
348
330
1F
100
AcDbEntity
  8
0
  6
Continuous
 62
     7
100
AcDbLine
 10
6882.3680190042
 20
5729.5174515933
 30
0.0
 11
6882.8707245782
 21
5729.5002556533
 31
0.0
  0
LINE
  5
349
330
1F
100
AcDbEntity
  8
0
  6
Continuous
 62
     7
100
AcDbLine
 10
6882.3680190042
 20
5730.4833746642
 30
0.0
 11
6882.3680190042
 21
5729.5174515933
 31
0.0
  0
LINE
  5
34A
330
1F
100
AcDbEntity
  8
0
  6
Continuous
 62
     7
100
AcDbLine
 10
6866.2639764741
 20
5730.111918518
 30
0.0
 11
6866.2639764741
 21
5729.1459954471
 31
0.0
  0
LINE
  5
34B
330
1F
100
AcDbEntity
  8
0
  6
Continuous
 62
     7
100
AcDbLine
 10
6865.8614663079
 20
5729.0661550254
 30
0.0
 11
6866.2639764741
 21
5729.1459954471
 31
0.0
  0
LINE
  5
34C
330
1F
100
AcDbEntity
  8
0
  6
Continuous
 62
     7
100
AcDbLine
 10
6867.6862625077
 20
5728.4498728007
 30
0.0
 11
6868.0887726739
 21
5728.5296834201
 31
0.0
  0
LINE
  5
34D
330
1F
100
AcDbEntity
  8
0
  6
Continuous
 62
     7
100
AcDbLine
 10
6868.0887726739
 20
5729.495606491
 30
0.0
 11
6868.0887726739
 21
5728.5296834201
 31
0.0
  0
LINE
  5
34E
330
1F
100
AcDbEntity
  8
0
  6
Continuous
 62
     7
100
AcDbLine
 10
6880.4528621629
 20
5729.6260810584
 30
0.0
 11
6880.4528621629
 21
5728.6601579875
 31
0.0
  0
LINE
  5
34F
330
1F
100
AcDbEntity
  8
0
  6
Continuous
 62
     7
100
AcDbLine
 10
6878.0716566041
 20
5729.1538036555
 30
0.0
 11
6878.0716566041
 21
5728.1878805846
 31
0.0
  0
LINE
  5
350
330
1F
100
AcDbEntity
  8
0
  6
Continuous
 62
     7
100
AcDbLine
 10
6880.7613161996
 20
5728.5559988708
 30
0.0
 11
6880.4528621629
 21
5728.6601579875
 31
0.0
  0
LINE
  5
351
330
1F
100
AcDbEntity
  8
0
  6
Continuous
 62
     7
100
AcDbLine
 10
6878.3800510362
 20
5728.0836916656
 30
0.0
 11
6878.0716566041
 21
5728.1878805846
 31
0.0
  0
LINE
  5
352
330
1F
100
AcDbEntity
  8
0
  6
Continuous
 62
     7
100
AcDbLine
 10
6871.4011219934
 20
5728.999934265
 30
0.0
 11
6871.4011219934
 21
5728.0340111941
 31
0.0
  0
LINE
  5
353
330
1F
100
AcDbEntity
  8
0
  6
Continuous
 62
     7
100
AcDbLine
 10
6874.3752149537
 20
5728.8980997294
 30
0.0
 11
6874.3752149537
 21
5727.9321766585
 31
0.0
  0
LINE
  5
354
330
1F
100
AcDbEntity
  8
0
  6
Continuous
 62
     7
100
AcDbLine
 10
6871.4011219934
 20
5728.0340111941
 30
0.0
 11
6871.3346032098
 21
5727.9038942546
 31
0.0
  0
LINE
  5
355
330
1F
100
AcDbEntity
  8
0
  6
Continuous
 62
     7
100
AcDbLine
 10
6874.3752149537
 20
5727.9321766585
 30
0.0
 11
6874.3086961701
 21
5727.802059719
 31
0.0
  0
LINE
  5
356
330
1F
100
AcDbEntity
  8
0
  6
Continuous
 62
     7
100
AcDbLine
 10
5680.7612685159
 20
5729.5219219417
 30
0.0
 11
5680.7612685159
 21
5728.5559988708
 31
0.0
  0
LINE
  5
357
330
1F
100
AcDbEntity
  8
0
  6
Continuous
 62
     7
100
AcDbLine
 10
5683.2641867593
 20
5730.8736956805
 30
0.0
 11
5683.2641867593
 21
5730.2699900359
 31
0.0
  0
LINE
  5
358
330
1F
100
AcDbEntity
  8
0
  6
Continuous
 62
     7
100
AcDbLine
 10
5682.1760443643
 20
5731.6354132384
 30
0.0
 11
5682.1760443643
 21
5731.3237405509
 31
0.0
  0
LINE
  5
359
330
1F
100
AcDbEntity
  8
0
  6
Continuous
 62
     7
100
AcDbLine
 10
5680.3512481645
 20
5732.1560896129
 30
0.0
 11
5680.3512481645
 21
5731.9400525779
 31
0.0
  0
LINE
  5
35A
330
1F
100
AcDbEntity
  8
0
  6
Continuous
 62
     7
100
AcDbLine
 10
5676.7029074624
 20
5732.6545632571
 30
0.0
 11
5676.7029074624
 21
5732.486031124
 31
0.0
  0
LINE
  5
35B
330
1F
100
AcDbEntity
  8
0
  6
Continuous
 62
     7
100
AcDbLine
 10
5673.7288145021
 20
5732.7496922702
 30
0.0
 11
5673.7288145021
 21
5732.5878656596
 31
0.0
  0
LINE
  5
35C
330
1F
100
AcDbEntity
  8
0
  6
Continuous
 62
     7
100
AcDbLine
 10
5669.657459636
 20
5732.4880278796
 30
0.0
 11
5669.657459636
 21
5732.3062337131
 31
0.0
  0
LINE
  5
35D
330
1F
100
AcDbEntity
  8
0
  6
Continuous
 62
     7
100
AcDbLine
 10
5667.2761944726
 20
5732.0623017043
 30
0.0
 11
5667.2761944726
 21
5731.8339265079
 31
0.0
  0
LINE
  5
35E
330
1F
100
AcDbEntity
  8
0
  6
Continuous
 62
     7
100
AcDbLine
 10
5665.166786094
 20
5731.3277936668
 30
0.0
 11
5665.166786094
 21
5730.8896697253
 31
0.0
  0
LINE
  5
35F
330
1F
100
AcDbEntity
  8
0
  6
Continuous
 62
     7
100
AcDbLine
 10
5665.8614782289
 20
5730.0320780963
 30
0.0
 11
5665.8614782289
 21
5729.0661550254
 31
0.0
  0
LINE
  5
360
330
1F
100
AcDbEntity
  8
0
  6
Continuous
 62
     7
100
AcDbLine
 10
5671.3346151307
 20
5728.8698173255
 30
0.0
 11
5671.3346151307
 21
5727.9038942546
 31
0.0
  0
LINE
  5
361
330
1F
100
AcDbEntity
  8
0
  6
Continuous
 62
     7
100
AcDbLine
 10
5667.4703864053
 20
5729.8620856494
 30
0.0
 11
5666.5701774552
 21
5730.2428401202
 31
0.0
  0
LINE
  5
362
330
1F
100
AcDbEntity
  8
0
  6
Continuous
 62
     7
100
AcDbLine
 10
5666.5701774552
 20
5730.2428401202
 30
0.0
 11
5665.9954694703
 21
5730.6637383193
 31
0.0
  0
LINE
  5
363
330
1F
100
AcDbEntity
  8
0
  6
Continuous
 62
     7
100
AcDbLine
 10
5665.9954694703
 20
5730.6637383193
 30
0.0
 11
5665.7714752153
 21
5731.1063326091
 31
0.0
  0
LINE
  5
364
330
1F
100
AcDbEntity
  8
0
  6
Continuous
 62
     7
100
AcDbLine
 10
5665.7714752153
 20
5731.1063326091
 30
0.0
 11
5665.9078506425
 21
5731.551340887
 31
0.0
  0
LINE
  5
365
330
1F
100
AcDbEntity
  8
0
  6
Continuous
 62
     7
100
AcDbLine
 10
5665.9078506425
 20
5731.551340887
 30
0.0
 11
5666.0352257684
 21
5731.6992200107
 31
0.0
  0
LINE
  5
366
330
1F
100
AcDbEntity
  8
0
  6
Continuous
 62
     7
100
AcDbLine
 10
5682.1933893159
 20
5731.448820898
 30
0.0
 11
5682.2660473779
 21
5731.2154389113
 31
0.0
  0
LINE
  5
367
330
1F
100
AcDbEntity
  8
0
  6
Continuous
 62
     7
100
AcDbLine
 10
5682.2660473779
 20
5731.2154389113
 30
0.0
 11
5682.1296719506
 21
5730.7704306335
 31
0.0
  0
LINE
  5
368
330
1F
100
AcDbEntity
  8
0
  6
Continuous
 62
     7
100
AcDbLine
 10
5682.1296719506
 20
5730.7704306335
 30
0.0
 11
5681.6387680963
 21
5730.3424990863
 31
0.0
  0
LINE
  5
369
330
1F
100
AcDbEntity
  8
0
  6
Continuous
 62
     7
100
AcDbLine
 10
5681.6387680963
 20
5730.3424990863
 30
0.0
 11
5680.8148530915
 21
5729.9503601283
 31
0.0
  0
LINE
  5
36A
330
1F
100
AcDbEntity
  8
0
  6
Continuous
 62
     7
100
AcDbLine
 10
5680.8148530915
 20
5729.9503601283
 30
0.0
 11
5680.4615167573
 21
5729.8271871299
 31
0.0
  0
LINE
  5
36B
330
1F
100
AcDbEntity
  8
0
  6
Continuous
 62
     7
100
AcDbLine
 10
5667.8205636933
 20
5729.7516978473
 30
0.0
 11
5667.4703864053
 21
5729.8620856494
 31
0.0
  0
LINE
  5
36C
330
1F
100
AcDbEntity
  8
0
  6
Continuous
 62
     7
100
AcDbLine
 10
5682.7614811853
 20
5731.2531388492
 30
0.0
 11
5683.0233243898
 21
5731.2441683501
 31
0.0
  0
LINE
  5
36D
330
1F
100
AcDbEntity
  8
0
  6
Continuous
 62
     7
100
AcDbLine
 10
5680.7612685159
 20
5729.5219219417
 30
0.0
 11
5680.4528740838
 21
5729.6260810584
 31
0.0
  0
LINE
  5
36E
330
1F
100
AcDbEntity
  8
0
  6
Continuous
 62
     7
100
AcDbLine
 10
5671.4011339143
 20
5728.999934265
 30
0.0
 11
5671.3346151307
 21
5728.8698173255
 31
0.0
  0
LINE
  5
36F
330
1F
100
AcDbEntity
  8
0
  6
Continuous
 62
     7
100
AcDbLine
 10
5665.8614782289
 20
5730.0320780963
 30
0.0
 11
5666.263988395
 21
5730.111918518
 31
0.0
  0
LINE
  5
370
330
1F
100
AcDbEntity
  8
0
  6
Continuous
 62
     7
100
AcDbLine
 10
5666.5187386468
 20
5731.2372542113
 30
0.0
 11
5665.9954694703
 21
5731.6296613902
 31
0.0
  0
LINE
  5
371
330
1F
100
AcDbEntity
  8
0
  6
Continuous
 62
     7
100
AcDbLine
 10
5665.9954694703
 20
5731.6296613902
 30
0.0
 11
5665.9584549859
 21
5731.6715336532
 31
0.0
  0
LINE
  5
372
330
1F
100
AcDbEntity
  8
0
  6
Continuous
 62
     7
100
AcDbLine
 10
5681.638470073
 20
5731.3082433433
 30
0.0
 11
5681.5187839463
 21
5731.2372542113
 31
0.0
  0
LINE
  5
373
330
1F
100
AcDbEntity
  8
0
  6
Continuous
 62
     7
100
AcDbLine
 10
5676.6363886788
 20
5732.3559141845
 30
0.0
 11
5676.7029074624
 21
5732.486031124
 31
0.0
  0
LINE
  5
374
330
1F
100
AcDbEntity
  8
0
  6
Continuous
 62
     7
100
AcDbLine
 10
5673.6622957185
 20
5732.4577487201
 30
0.0
 11
5673.7288145021
 21
5732.5878656596
 31
0.0
  0
LINE
  5
375
330
1F
100
AcDbEntity
  8
0
  6
Continuous
 62
     7
100
AcDbLine
 10
5668.0657175973
 20
5729.9801624507
 30
0.0
 11
5667.2242192224
 21
5730.3389824122
 31
0.0
  0
LINE
  5
376
330
1F
100
AcDbEntity
  8
0
  6
Continuous
 62
     7
100
AcDbLine
 10
5667.2242192224
 20
5730.3389824122
 30
0.0
 11
5666.7004136041
 21
5730.7362473697
 31
0.0
  0
LINE
  5
377
330
1F
100
AcDbEntity
  8
0
  6
Continuous
 62
     7
100
AcDbLine
 10
5666.7004136041
 20
5730.7362473697
 30
0.0
 11
5666.5187982514
 21
5731.1533606738
 31
0.0
  0
LINE
  5
378
330
1F
100
AcDbEntity
  8
0
  6
Continuous
 62
     7
100
AcDbLine
 10
5666.5187982514
 20
5731.1533606738
 30
0.0
 11
5666.6878966287
 21
5731.5708018035
 31
0.0
  0
LINE
  5
379
330
1F
100
AcDbEntity
  8
0
  6
Continuous
 62
     7
100
AcDbLine
 10
5666.6878966287
 20
5731.5708018035
 30
0.0
 11
5667.199781318
 21
5731.9691098422
 31
0.0
  0
LINE
  5
37A
330
1F
100
AcDbEntity
  8
0
  6
Continuous
 62
     7
100
AcDbLine
 10
5667.199781318
 20
5731.9691098422
 30
0.0
 11
5667.2761944726
 21
5732.0109821052
 31
0.0
  0
LINE
  5
37B
330
1F
100
AcDbEntity
  8
0
  6
Continuous
 62
     7
100
AcDbLine
 10
5681.469848533
 20
5731.3822723121
 30
0.0
 11
5681.4715770677
 21
5731.3782489986
 31
0.0
  0
LINE
  5
37C
330
1F
100
AcDbEntity
  8
0
  6
Continuous
 62
     7
100
AcDbLine
 10
5681.4715770677
 20
5731.3782489986
 30
0.0
 11
5681.47789516
 21
5730.95851309
 31
0.0
  0
LINE
  5
37D
330
1F
100
AcDbEntity
  8
0
  6
Continuous
 62
     7
100
AcDbLine
 10
5681.47789516
 20
5730.95851309
 30
0.0
 11
5681.1354068711
 21
5730.5482245177
 31
0.0
  0
LINE
  5
37E
330
1F
100
AcDbEntity
  8
0
  6
Continuous
 62
     7
100
AcDbLine
 10
5681.1354068711
 20
5730.5482245177
 30
0.0
 11
5680.4601458505
 21
5730.1665759772
 31
0.0
  0
LINE
  5
37F
330
1F
100
AcDbEntity
  8
0
  6
Continuous
 62
     7
100
AcDbLine
 10
5680.4601458505
 20
5730.1665759772
 30
0.0
 11
5679.4837025598
 21
5729.831448862
 31
0.0
  0
LINE
  5
380
330
1F
100
AcDbEntity
  8
0
  6
Continuous
 62
     7
100
AcDbLine
 10
5679.4837025598
 20
5729.831448862
 30
0.0
 11
5678.2517341569
 21
5729.5584595889
 31
0.0
  0
LINE
  5
381
330
1F
100
AcDbEntity
  8
0
  6
Continuous
 62
     7
100
AcDbLine
 10
5678.2517341569
 20
5729.5584595889
 30
0.0
 11
5676.8218187287
 21
5729.3604231566
 31
0.0
  0
LINE
  5
382
330
1F
100
AcDbEntity
  8
0
  6
Continuous
 62
     7
100
AcDbLine
 10
5676.8218187287
 20
5729.3604231566
 30
0.0
 11
5675.2608326867
 21
5729.2465484828
 31
0.0
  0
LINE
  5
383
330
1F
100
AcDbEntity
  8
0
  6
Continuous
 62
     7
100
AcDbLine
 10
5675.2608326867
 20
5729.2465484828
 30
0.0
 11
5673.6417917207
 21
5729.2221999854
 31
0.0
  0
LINE
  5
384
330
1F
100
AcDbEntity
  8
0
  6
Continuous
 62
     7
100
AcDbLine
 10
5673.6417917207
 20
5729.2221999854
 30
0.0
 11
5672.0403341249
 21
5729.2884803504
 31
0.0
  0
LINE
  5
385
330
1F
100
AcDbEntity
  8
0
  6
Continuous
 62
     7
100
AcDbLine
 10
5672.0403341249
 20
5729.2884803504
 30
0.0
 11
5670.5314425424
 21
5729.4423497409
 31
0.0
  0
LINE
  5
386
330
1F
100
AcDbEntity
  8
0
  6
Continuous
 62
     7
100
AcDbLine
 10
5670.5314425424
 20
5729.4423497409
 30
0.0
 11
5669.1855696633
 21
5729.6765661925
 31
0.0
  0
LINE
  5
387
330
1F
100
AcDbEntity
  8
0
  6
Continuous
 62
     7
100
AcDbLine
 10
5669.1855696633
 20
5729.6765661925
 30
0.0
 11
5668.0657175973
 21
5729.9801624507
 31
0.0
  0
LINE
  5
388
330
1F
100
AcDbEntity
  8
0
  6
Continuous
 62
     7
100
AcDbLine
 10
5673.6622957185
 20
5732.7491260261
 30
0.0
 11
5673.6622957185
 21
5732.4577487201
 31
0.0
  0
LINE
  5
389
330
1F
100
AcDbEntity
  8
0
  6
Continuous
 62
     7
100
AcDbLine
 10
5669.657459636
 20
5732.3062337131
 30
0.0
 11
5669.9658540681
 21
5732.202044794
 31
0.0
  0
LINE
  5
38A
330
1F
100
AcDbEntity
  8
0
  6
Continuous
 62
     7
100
AcDbLine
 10
5667.2761944726
 20
5731.8339265079
 30
0.0
 11
5667.5846485093
 21
5731.7297673911
 31
0.0
  0
LINE
  5
38B
330
1F
100
AcDbEntity
  8
0
  6
Continuous
 62
     7
100
AcDbLine
 10
5669.9658540681
 20
5732.5256086082
 30
0.0
 11
5669.9658540681
 21
5732.202044794
 31
0.0
  0
LINE
  5
38C
330
1F
100
AcDbEntity
  8
0
  6
Continuous
 62
     7
100
AcDbLine
 10
5680.3512481645
 20
5731.9400525779
 30
0.0
 11
5679.9487379983
 21
5731.8602121562
 31
0.0
  0
LINE
  5
38D
330
1F
100
AcDbEntity
  8
0
  6
Continuous
 62
     7
100
AcDbLine
 10
5682.1760443643
 20
5731.3237405509
 30
0.0
 11
5681.7735341981
 21
5731.2439299316
 31
0.0
  0
LINE
  5
38E
330
1F
100
AcDbEntity
  8
0
  6
Continuous
 62
     7
100
AcDbLine
 10
5679.9487379983
 20
5732.2386420459
 30
0.0
 11
5679.9487379983
 21
5731.8602121562
 31
0.0
  0
LINE
  5
38F
330
1F
100
AcDbEntity
  8
0
  6
Continuous
 62
     7
100
AcDbLine
 10
5665.669491668
 20
5731.5597153396
 30
0.0
 11
5665.669491668
 21
5730.872443983
 31
0.0
  0
LINE
  5
390
330
1F
100
AcDbEntity
  8
0
  6
Continuous
 62
     7
100
AcDbLine
 10
5665.669491668
 20
5730.872443983
 30
0.0
 11
5665.166786094
 21
5730.8896697253
 31
0.0
  0
LINE
  5
391
330
1F
100
AcDbEntity
  8
0
  6
Continuous
 62
     7
100
AcDbLine
 10
5665.2760414079
 20
5730.1027096004
 30
0.0
 11
5664.7732762292
 21
5730.1199055404
 31
0.0
  0
LINE
  5
392
330
1F
100
AcDbEntity
  8
0
  6
Continuous
 62
     7
100
AcDbLine
 10
5665.2760414079
 20
5730.2872157783
 30
0.0
 11
5665.2760414079
 21
5730.1027096004
 31
0.0
  0
LINE
  5
393
330
1F
100
AcDbEntity
  8
0
  6
Continuous
 62
     7
100
AcDbLine
 10
5682.7614811853
 20
5731.2531388492
 30
0.0
 11
5682.7614811853
 21
5730.2872157783
 31
0.0
  0
LINE
  5
394
330
1F
100
AcDbEntity
  8
0
  6
Continuous
 62
     7
100
AcDbLine
 10
5682.7614811853
 20
5730.2872157783
 30
0.0
 11
5683.2641867593
 21
5730.2699900359
 31
0.0
  0
LINE
  5
395
330
1F
100
AcDbEntity
  8
0
  6
Continuous
 62
     7
100
AcDbLine
 10
5682.3680309251
 20
5729.5174515933
 30
0.0
 11
5682.8707364991
 21
5729.5002556533
 31
0.0
  0
LINE
  5
396
330
1F
100
AcDbEntity
  8
0
  6
Continuous
 62
     7
100
AcDbLine
 10
5682.3680309251
 20
5730.4833746642
 30
0.0
 11
5682.3680309251
 21
5729.5174515933
 31
0.0
  0
LINE
  5
397
330
1F
100
AcDbEntity
  8
0
  6
Continuous
 62
     7
100
AcDbLine
 10
5666.263988395
 20
5730.111918518
 30
0.0
 11
5666.263988395
 21
5729.1459954471
 31
0.0
  0
LINE
  5
398
330
1F
100
AcDbEntity
  8
0
  6
Continuous
 62
     7
100
AcDbLine
 10
5665.8614782289
 20
5729.0661550254
 30
0.0
 11
5666.263988395
 21
5729.1459954471
 31
0.0
  0
LINE
  5
399
330
1F
100
AcDbEntity
  8
0
  6
Continuous
 62
     7
100
AcDbLine
 10
5667.6862744287
 20
5728.4498728007
 30
0.0
 11
5668.0887249902
 21
5728.5296834201
 31
0.0
  0
LINE
  5
39A
330
1F
100
AcDbEntity
  8
0
  6
Continuous
 62
     7
100
AcDbLine
 10
5668.0887249902
 20
5729.495606491
 30
0.0
 11
5668.0887249902
 21
5728.5296834201
 31
0.0
  0
LINE
  5
39B
330
1F
100
AcDbEntity
  8
0
  6
Continuous
 62
     7
100
AcDbLine
 10
5680.4528740838
 20
5729.6260810584
 30
0.0
 11
5680.4528740838
 21
5728.6601579875
 31
0.0
  0
LINE
  5
39C
330
1F
100
AcDbEntity
  8
0
  6
Continuous
 62
     7
100
AcDbLine
 10
5680.7612685159
 20
5728.5559988708
 30
0.0
 11
5680.4528740838
 21
5728.6601579875
 31
0.0
  0
LINE
  5
39D
330
1F
100
AcDbEntity
  8
0
  6
Continuous
 62
     7
100
AcDbLine
 10
5678.0716089204
 20
5729.1538036555
 30
0.0
 11
5678.0716089204
 21
5728.1878805846
 31
0.0
  0
LINE
  5
39E
330
1F
100
AcDbEntity
  8
0
  6
Continuous
 62
     7
100
AcDbLine
 10
5678.3800629571
 20
5728.0836916656
 30
0.0
 11
5678.0716089204
 21
5728.1878805846
 31
0.0
  0
LINE
  5
39F
330
1F
100
AcDbEntity
  8
0
  6
Continuous
 62
     7
100
AcDbLine
 10
5671.4011339143
 20
5728.999934265
 30
0.0
 11
5671.4011339143
 21
5728.0340111941
 31
0.0
  0
LINE
  5
3A0
330
1F
100
AcDbEntity
  8
0
  6
Continuous
 62
     7
100
AcDbLine
 10
5674.37516727
 20
5728.8980997294
 30
0.0
 11
5674.37516727
 21
5727.9321766585
 31
0.0
  0
LINE
  5
3A1
330
1F
100
AcDbEntity
  8
0
  6
Continuous
 62
     7
100
AcDbLine
 10
5671.4011339143
 20
5728.0340111941
 30
0.0
 11
5671.3346151307
 21
5727.9038942546
 31
0.0
  0
LINE
  5
3A2
330
1F
100
AcDbEntity
  8
0
  6
Continuous
 62
     7
100
AcDbLine
 10
5674.37516727
 20
5727.9321766585
 30
0.0
 11
5674.3087080911
 21
5727.802059719
 31
0.0
  0
LINE
  5
3A3
330
1F
100
AcDbEntity
  8
0
  6
Continuous
 62
     7
100
AcDbLine
 10
5080.7613042787
 20
5729.5219219417
 30
0.0
 11
5080.7613042787
 21
5728.5559988708
 31
0.0
  0
LINE
  5
3A4
330
1F
100
AcDbEntity
  8
0
  6
Continuous
 62
     7
100
AcDbLine
 10
5083.2642225221
 20
5730.8736956805
 30
0.0
 11
5083.2642225221
 21
5730.2699900359
 31
0.0
  0
LINE
  5
3A5
330
1F
100
AcDbEntity
  8
0
  6
Continuous
 62
     7
100
AcDbLine
 10
5082.1760801271
 20
5731.6354132384
 30
0.0
 11
5082.1760801271
 21
5731.3237405509
 31
0.0
  0
LINE
  5
3A6
330
1F
100
AcDbEntity
  8
0
  6
Continuous
 62
     7
100
AcDbLine
 10
5080.3512243226
 20
5732.1560896129
 30
0.0
 11
5080.3512243226
 21
5731.9400525779
 31
0.0
  0
LINE
  5
3A7
330
1F
100
AcDbEntity
  8
0
  6
Continuous
 62
     7
100
AcDbLine
 10
5076.7029432252
 20
5732.6545632571
 30
0.0
 11
5076.7029432252
 21
5732.486031124
 31
0.0
  0
LINE
  5
3A8
330
1F
100
AcDbEntity
  8
0
  6
Continuous
 62
     7
100
AcDbLine
 10
5073.7287906602
 20
5732.7496922702
 30
0.0
 11
5073.7287906602
 21
5732.5878656596
 31
0.0
  0
LINE
  5
3A9
330
1F
100
AcDbEntity
  8
0
  6
Continuous
 62
     7
100
AcDbLine
 10
5069.6574357942
 20
5732.4880278796
 30
0.0
 11
5069.6574357942
 21
5732.3062337131
 31
0.0
  0
LINE
  5
3AA
330
1F
100
AcDbEntity
  8
0
  6
Continuous
 62
     7
100
AcDbLine
 10
5067.2762302354
 20
5732.0623017043
 30
0.0
 11
5067.2762302354
 21
5731.8339265079
 31
0.0
  0
LINE
  5
3AB
330
1F
100
AcDbEntity
  8
0
  6
Continuous
 62
     7
100
AcDbLine
 10
5065.1667026475
 20
5731.3277936668
 30
0.0
 11
5065.1667026475
 21
5730.8896697253
 31
0.0
  0
LINE
  5
3AC
330
1F
100
AcDbEntity
  8
0
  6
Continuous
 62
     7
100
AcDbLine
 10
5065.861454387
 20
5730.0320780963
 30
0.0
 11
5065.861454387
 21
5729.0661550254
 31
0.0
  0
LINE
  5
3AD
330
1F
100
AcDbEntity
  8
0
  6
Continuous
 62
     7
100
AcDbLine
 10
5071.3345912889
 20
5728.8698173255
 30
0.0
 11
5071.3345912889
 21
5727.9038942546
 31
0.0
  0
LINE
  5
3AE
330
1F
100
AcDbEntity
  8
0
  6
Continuous
 62
     7
100
AcDbLine
 10
5067.4704221681
 20
5729.8620856494
 30
0.0
 11
5066.5701536134
 21
5730.2428401202
 31
0.0
  0
LINE
  5
3AF
330
1F
100
AcDbEntity
  8
0
  6
Continuous
 62
     7
100
AcDbLine
 10
5066.5701536134
 20
5730.2428401202
 30
0.0
 11
5065.9954456285
 21
5730.6637383193
 31
0.0
  0
LINE
  5
3B0
330
1F
100
AcDbEntity
  8
0
  6
Continuous
 62
     7
100
AcDbLine
 10
5065.9954456285
 20
5730.6637383193
 30
0.0
 11
5065.7714513734
 21
5731.1063326091
 31
0.0
  0
LINE
  5
3B1
330
1F
100
AcDbEntity
  8
0
  6
Continuous
 62
     7
100
AcDbLine
 10
5065.7714513734
 20
5731.1063326091
 30
0.0
 11
5065.9078268006
 21
5731.551340887
 31
0.0
  0
LINE
  5
3B2
330
1F
100
AcDbEntity
  8
0
  6
Continuous
 62
     7
100
AcDbLine
 10
5065.9078268006
 20
5731.551340887
 30
0.0
 11
5066.0352615312
 21
5731.6992200107
 31
0.0
  0
LINE
  5
3B3
330
1F
100
AcDbEntity
  8
0
  6
Continuous
 62
     7
100
AcDbLine
 10
5082.1760801271
 20
5731.4800835342
 30
0.0
 11
5082.2660831407
 21
5731.2154389113
 31
0.0
  0
LINE
  5
3B4
330
1F
100
AcDbEntity
  8
0
  6
Continuous
 62
     7
100
AcDbLine
 10
5082.2660831407
 20
5731.2154389113
 30
0.0
 11
5082.1297077134
 21
5730.7704306335
 31
0.0
  0
LINE
  5
3B5
330
1F
100
AcDbEntity
  8
0
  6
Continuous
 62
     7
100
AcDbLine
 10
5082.1297077134
 20
5730.7704306335
 30
0.0
 11
5081.638803859
 21
5730.3424990863
 31
0.0
  0
LINE
  5
3B6
330
1F
100
AcDbEntity
  8
0
  6
Continuous
 62
     7
100
AcDbLine
 10
5081.638803859
 20
5730.3424990863
 30
0.0
 11
5080.8148292497
 21
5729.9503601283
 31
0.0
  0
LINE
  5
3B7
330
1F
100
AcDbEntity
  8
0
  6
Continuous
 62
     7
100
AcDbLine
 10
5080.8148292497
 20
5729.9503601283
 30
0.0
 11
5080.4614929154
 21
5729.8271871299
 31
0.0
  0
LINE
  5
3B8
330
1F
100
AcDbEntity
  8
0
  6
Continuous
 62
     7
100
AcDbLine
 10
5067.7926448777
 20
5729.7599530906
 30
0.0
 11
5067.4704221681
 21
5729.8620856494
 31
0.0
  0
LINE
  5
3B9
330
1F
100
AcDbEntity
  8
0
  6
Continuous
 62
     7
100
AcDbLine
 10
5082.761516948
 20
5731.2531388492
 30
0.0
 11
5083.0233005479
 21
5731.2441683501
 31
0.0
  0
LINE
  5
3BA
330
1F
100
AcDbEntity
  8
0
  6
Continuous
 62
     7
100
AcDbLine
 10
5080.7613042787
 20
5729.5219219417
 30
0.0
 11
5080.4527906373
 21
5729.6260810584
 31
0.0
  0
LINE
  5
3BB
330
1F
100
AcDbEntity
  8
0
  6
Continuous
 62
     7
100
AcDbLine
 10
5071.4011100724
 20
5728.999934265
 30
0.0
 11
5071.3345912889
 21
5728.8698173255
 31
0.0
  0
LINE
  5
3BC
330
1F
100
AcDbEntity
  8
0
  6
Continuous
 62
     7
100
AcDbLine
 10
5065.861454387
 20
5730.0320780963
 30
0.0
 11
5066.2640241578
 21
5730.111918518
 31
0.0
  0
LINE
  5
3BD
330
1F
100
AcDbEntity
  8
0
  6
Continuous
 62
     7
100
AcDbLine
 10
5066.5187744096
 20
5731.2372542113
 30
0.0
 11
5065.9954456285
 21
5731.6296613902
 31
0.0
  0
LINE
  5
3BE
330
1F
100
AcDbEntity
  8
0
  6
Continuous
 62
     7
100
AcDbLine
 10
5065.9954456285
 20
5731.6296613902
 30
0.0
 11
5065.9584907487
 21
5731.6715336532
 31
0.0
  0
LINE
  5
3BF
330
1F
100
AcDbEntity
  8
0
  6
Continuous
 62
     7
100
AcDbLine
 10
5081.6384462312
 20
5731.3082433433
 30
0.0
 11
5081.5187601045
 21
5731.2372542113
 31
0.0
  0
LINE
  5
3C0
330
1F
100
AcDbEntity
  8
0
  6
Continuous
 62
     7
100
AcDbLine
 10
5076.6364244416
 20
5732.3559141845
 30
0.0
 11
5076.7029432252
 21
5732.486031124
 31
0.0
  0
LINE
  5
3C1
330
1F
100
AcDbEntity
  8
0
  6
Continuous
 62
     7
100
AcDbLine
 10
5073.6622718766
 20
5732.4577487201
 30
0.0
 11
5073.7287906602
 21
5732.5878656596
 31
0.0
  0
LINE
  5
3C2
330
1F
100
AcDbEntity
  8
0
  6
Continuous
 62
     7
100
AcDbLine
 10
5068.0657533601
 20
5729.9801624507
 30
0.0
 11
5067.2242549851
 21
5730.3389824122
 31
0.0
  0
LINE
  5
3C3
330
1F
100
AcDbEntity
  8
0
  6
Continuous
 62
     7
100
AcDbLine
 10
5067.2242549851
 20
5730.3389824122
 30
0.0
 11
5066.7004493669
 21
5730.7362473697
 31
0.0
  0
LINE
  5
3C4
330
1F
100
AcDbEntity
  8
0
  6
Continuous
 62
     7
100
AcDbLine
 10
5066.7004493669
 20
5730.7362473697
 30
0.0
 11
5066.5187744096
 21
5731.1533606738
 31
0.0
  0
LINE
  5
3C5
330
1F
100
AcDbEntity
  8
0
  6
Continuous
 62
     7
100
AcDbLine
 10
5066.5187744096
 20
5731.1533606738
 30
0.0
 11
5066.6879323915
 21
5731.5708018035
 31
0.0
  0
LINE
  5
3C6
330
1F
100
AcDbEntity
  8
0
  6
Continuous
 62
     7
100
AcDbLine
 10
5066.6879323915
 20
5731.5708018035
 30
0.0
 11
5067.1998170808
 21
5731.9691098422
 31
0.0
  0
LINE
  5
3C7
330
1F
100
AcDbEntity
  8
0
  6
Continuous
 62
     7
100
AcDbLine
 10
5067.1998170808
 20
5731.9691098422
 30
0.0
 11
5067.2762302354
 21
5732.0109821052
 31
0.0
  0
LINE
  5
3C8
330
1F
100
AcDbEntity
  8
0
  6
Continuous
 62
     7
100
AcDbLine
 10
5081.4697650865
 20
5731.3822723121
 30
0.0
 11
5081.4715532258
 21
5731.3782489986
 31
0.0
  0
LINE
  5
3C9
330
1F
100
AcDbEntity
  8
0
  6
Continuous
 62
     7
100
AcDbLine
 10
5081.4715532258
 20
5731.3782489986
 30
0.0
 11
5081.4778713182
 21
5730.95851309
 31
0.0
  0
LINE
  5
3CA
330
1F
100
AcDbEntity
  8
0
  6
Continuous
 62
     7
100
AcDbLine
 10
5081.4778713182
 20
5730.95851309
 30
0.0
 11
5081.1353830293
 21
5730.5482245177
 31
0.0
  0
LINE
  5
3CB
330
1F
100
AcDbEntity
  8
0
  6
Continuous
 62
     7
100
AcDbLine
 10
5081.1353830293
 20
5730.5482245177
 30
0.0
 11
5080.4601816133
 21
5730.1665759772
 31
0.0
  0
LINE
  5
3CC
330
1F
100
AcDbEntity
  8
0
  6
Continuous
 62
     7
100
AcDbLine
 10
5080.4601816133
 20
5730.1665759772
 30
0.0
 11
5079.4837383226
 21
5729.831448862
 31
0.0
  0
LINE
  5
3CD
330
1F
100
AcDbEntity
  8
0
  6
Continuous
 62
     7
100
AcDbLine
 10
5079.4837383226
 20
5729.831448862
 30
0.0
 11
5078.251710315
 21
5729.5584595889
 31
0.0
  0
LINE
  5
3CE
330
1F
100
AcDbEntity
  8
0
  6
Continuous
 62
     7
100
AcDbLine
 10
5078.251710315
 20
5729.5584595889
 30
0.0
 11
5076.8217948869
 21
5729.3604231566
 31
0.0
  0
LINE
  5
3CF
330
1F
100
AcDbEntity
  8
0
  6
Continuous
 62
     7
100
AcDbLine
 10
5076.8217948869
 20
5729.3604231566
 30
0.0
 11
5075.2608684495
 21
5729.2465484828
 31
0.0
  0
LINE
  5
3D0
330
1F
100
AcDbEntity
  8
0
  6
Continuous
 62
     7
100
AcDbLine
 10
5075.2608684495
 20
5729.2465484828
 30
0.0
 11
5073.6417678788
 21
5729.2221999854
 31
0.0
  0
LINE
  5
3D1
330
1F
100
AcDbEntity
  8
0
  6
Continuous
 62
     7
100
AcDbLine
 10
5073.6417678788
 20
5729.2221999854
 30
0.0
 11
5072.040310283
 21
5729.2884803504
 31
0.0
  0
LINE
  5
3D2
330
1F
100
AcDbEntity
  8
0
  6
Continuous
 62
     7
100
AcDbLine
 10
5072.040310283
 20
5729.2884803504
 30
0.0
 11
5070.5314783052
 21
5729.4423497409
 31
0.0
  0
LINE
  5
3D3
330
1F
100
AcDbEntity
  8
0
  6
Continuous
 62
     7
100
AcDbLine
 10
5070.5314783052
 20
5729.4423497409
 30
0.0
 11
5069.1856054261
 21
5729.6765661925
 31
0.0
  0
LINE
  5
3D4
330
1F
100
AcDbEntity
  8
0
  6
Continuous
 62
     7
100
AcDbLine
 10
5069.1856054261
 20
5729.6765661925
 30
0.0
 11
5068.0657533601
 21
5729.9801624507
 31
0.0
  0
LINE
  5
3D5
330
1F
100
AcDbEntity
  8
0
  6
Continuous
 62
     7
100
AcDbLine
 10
5073.6622718766
 20
5732.7491260261
 30
0.0
 11
5073.6622718766
 21
5732.4577487201
 31
0.0
  0
LINE
  5
3D6
330
1F
100
AcDbEntity
  8
0
  6
Continuous
 62
     7
100
AcDbLine
 10
5069.6574357942
 20
5732.3062337131
 30
0.0
 11
5069.9658302262
 21
5732.202044794
 31
0.0
  0
LINE
  5
3D7
330
1F
100
AcDbEntity
  8
0
  6
Continuous
 62
     7
100
AcDbLine
 10
5067.2762302354
 20
5731.8339265079
 30
0.0
 11
5067.5846246675
 21
5731.7297673911
 31
0.0
  0
LINE
  5
3D8
330
1F
100
AcDbEntity
  8
0
  6
Continuous
 62
     7
100
AcDbLine
 10
5069.9658302262
 20
5732.5256086082
 30
0.0
 11
5069.9658302262
 21
5732.202044794
 31
0.0
  0
LINE
  5
3D9
330
1F
100
AcDbEntity
  8
0
  6
Continuous
 62
     7
100
AcDbLine
 10
5080.3512243226
 20
5731.9400525779
 30
0.0
 11
5079.9487737611
 21
5731.8602121562
 31
0.0
  0
LINE
  5
3DA
330
1F
100
AcDbEntity
  8
0
  6
Continuous
 62
     7
100
AcDbLine
 10
5082.1760801271
 20
5731.3237405509
 30
0.0
 11
5081.7735103562
 21
5731.2439299316
 31
0.0
  0
LINE
  5
3DB
330
1F
100
AcDbEntity
  8
0
  6
Continuous
 62
     7
100
AcDbLine
 10
5079.9487737611
 20
5732.2386420459
 30
0.0
 11
5079.9487737611
 21
5731.8602121562
 31
0.0
  0
LINE
  5
3DC
330
1F
100
AcDbEntity
  8
0
  6
Continuous
 62
     7
100
AcDbLine
 10
5065.6695274308
 20
5731.5597153396
 30
0.0
 11
5065.6695274308
 21
5730.872443983
 31
0.0
  0
LINE
  5
3DD
330
1F
100
AcDbEntity
  8
0
  6
Continuous
 62
     7
100
AcDbLine
 10
5065.6695274308
 20
5730.872443983
 30
0.0
 11
5065.1667026475
 21
5730.8896697253
 31
0.0
  0
LINE
  5
3DE
330
1F
100
AcDbEntity
  8
0
  6
Continuous
 62
     7
100
AcDbLine
 10
5065.276017566
 20
5730.1027096004
 30
0.0
 11
5064.773311992
 21
5730.1199055404
 31
0.0
  0
LINE
  5
3DF
330
1F
100
AcDbEntity
  8
0
  6
Continuous
 62
     7
100
AcDbLine
 10
5065.276017566
 20
5730.2872157783
 30
0.0
 11
5065.276017566
 21
5730.1027096004
 31
0.0
  0
LINE
  5
3E0
330
1F
100
AcDbEntity
  8
0
  6
Continuous
 62
     7
100
AcDbLine
 10
5082.761516948
 20
5731.2531388492
 30
0.0
 11
5082.761516948
 21
5730.2872157783
 31
0.0
  0
LINE
  5
3E1
330
1F
100
AcDbEntity
  8
0
  6
Continuous
 62
     7
100
AcDbLine
 10
5082.761516948
 20
5730.2872157783
 30
0.0
 11
5083.2642225221
 21
5730.2699900359
 31
0.0
  0
LINE
  5
3E2
330
1F
100
AcDbEntity
  8
0
  6
Continuous
 62
     7
100
AcDbLine
 10
5082.3680070832
 20
5729.5174515933
 30
0.0
 11
5082.8707126573
 21
5729.5002556533
 31
0.0
  0
LINE
  5
3E3
330
1F
100
AcDbEntity
  8
0
  6
Continuous
 62
     7
100
AcDbLine
 10
5082.3680070832
 20
5730.4833746642
 30
0.0
 11
5082.3680070832
 21
5729.5174515933
 31
0.0
  0
LINE
  5
3E4
330
1F
100
AcDbEntity
  8
0
  6
Continuous
 62
     7
100
AcDbLine
 10
5066.2640241578
 20
5730.111918518
 30
0.0
 11
5066.2640241578
 21
5729.1459954471
 31
0.0
  0
LINE
  5
3E5
330
1F
100
AcDbEntity
  8
0
  6
Continuous
 62
     7
100
AcDbLine
 10
5065.861454387
 20
5729.0661550254
 30
0.0
 11
5066.2640241578
 21
5729.1459954471
 31
0.0
  0
LINE
  5
3E6
330
1F
100
AcDbEntity
  8
0
  6
Continuous
 62
     7
100
AcDbLine
 10
5067.6861909822
 20
5728.4498728007
 30
0.0
 11
5068.088760753
 21
5728.5296834201
 31
0.0
  0
LINE
  5
3E7
330
1F
100
AcDbEntity
  8
0
  6
Continuous
 62
     7
100
AcDbLine
 10
5068.088760753
 20
5729.495606491
 30
0.0
 11
5068.088760753
 21
5728.5296834201
 31
0.0
  0
LINE
  5
3E8
330
1F
100
AcDbEntity
  8
0
  6
Continuous
 62
     7
100
AcDbLine
 10
5080.4527906373
 20
5729.6260810584
 30
0.0
 11
5080.4527906373
 21
5728.6601579875
 31
0.0
  0
LINE
  5
3E9
330
1F
100
AcDbEntity
  8
0
  6
Continuous
 62
     7
100
AcDbLine
 10
5078.0715850785
 20
5729.1538036555
 30
0.0
 11
5078.0715850785
 21
5728.1878805846
 31
0.0
  0
LINE
  5
3EA
330
1F
100
AcDbEntity
  8
0
  6
Continuous
 62
     7
100
AcDbLine
 10
5080.7613042787
 20
5728.5559988708
 30
0.0
 11
5080.4527906373
 21
5728.6601579875
 31
0.0
  0
LINE
  5
3EB
330
1F
100
AcDbEntity
  8
0
  6
Continuous
 62
     7
100
AcDbLine
 10
5078.3800987199
 20
5728.0836916656
 30
0.0
 11
5078.0715850785
 21
5728.1878805846
 31
0.0
  0
LINE
  5
3EC
330
1F
100
AcDbEntity
  8
0
  6
Continuous
 62
     7
100
AcDbLine
 10
5071.4011100724
 20
5728.999934265
 30
0.0
 11
5071.4011100724
 21
5728.0340111941
 31
0.0
  0
LINE
  5
3ED
330
1F
100
AcDbEntity
  8
0
  6
Continuous
 62
     7
100
AcDbLine
 10
5074.3751434281
 20
5728.8980997294
 30
0.0
 11
5074.3751434281
 21
5727.9321766585
 31
0.0
  0
LINE
  5
3EE
330
1F
100
AcDbEntity
  8
0
  6
Continuous
 62
     7
100
AcDbLine
 10
5071.4011100724
 20
5728.0340111941
 30
0.0
 11
5071.3345912889
 21
5727.9038942546
 31
0.0
  0
LINE
  5
3EF
330
1F
100
AcDbEntity
  8
0
  6
Continuous
 62
     7
100
AcDbLine
 10
5074.3751434281
 20
5727.9321766585
 30
0.0
 11
5074.3087438539
 21
5727.802059719
 31
0.0
  0
LINE
  5
3F0
330
1F
100
AcDbEntity
  8
0
  6
Continuous
 62
     7
100
AcDbLine
 10
5061.8680623963
 20
5734.3360698909
 30
0.0
 11
5086.1694721177
 21
5734.3360698909
 31
0.0
  0
LINE
  5
3F1
330
1F
100
AcDbEntity
  8
0
  6
Continuous
 62
     7
100
AcDbLine
 10
5087.1370847036
 20
5734.0681140076
 30
0.0
 11
5086.1694721177
 21
5734.3360698909
 31
0.0
  0
LINE
  5
3F2
330
1F
100
AcDbEntity
  8
0
  6
Continuous
 62
     7
100
AcDbLine
 10
5061.8680623963
 20
5734.3360698909
 30
0.0
 11
5060.9004259686
 21
5734.0681140076
 31
0.0
  0
LINE
  5
3F3
330
1F
100
AcDbEntity
  8
0
  6
Continuous
 62
     7
100
AcDbLine
 10
5074.0187076524
 20
5732.7507949561
 30
0.0
 11
5075.887670894
 21
5732.7046013564
 31
0.0
  0
LINE
  5
3F4
330
1F
100
AcDbEntity
  8
0
  6
Continuous
 62
     7
100
AcDbLine
 10
5075.887670894
 20
5732.7046013564
 30
0.0
 11
5077.6889232591
 21
5732.5677192897
 31
0.0
  0
LINE
  5
3F5
330
1F
100
AcDbEntity
  8
0
  6
Continuous
 62
     7
100
AcDbLine
 10
5077.6889232591
 20
5732.5677192897
 30
0.0
 11
5079.3576148942
 21
5732.3450661391
 31
0.0
  0
LINE
  5
3F6
330
1F
100
AcDbEntity
  8
0
  6
Continuous
 62
     7
100
AcDbLine
 10
5079.3576148942
 20
5732.3450661391
 30
0.0
 11
5080.8333066896
 21
5732.0447183341
 31
0.0
  0
LINE
  5
3F7
330
1F
100
AcDbEntity
  8
0
  6
Continuous
 62
     7
100
AcDbLine
 10
5080.8333066896
 20
5732.0447183341
 30
0.0
 11
5082.0627120927
 21
5731.6774941176
 31
0.0
  0
LINE
  5
3F8
330
1F
100
AcDbEntity
  8
0
  6
Continuous
 62
     7
100
AcDbLine
 10
5082.0627120927
 20
5731.6774941176
 30
0.0
 11
5083.0013660386
 21
5731.2566853255
 31
0.0
  0
LINE
  5
3F9
330
1F
100
AcDbEntity
  8
0
  6
Continuous
 62
     7
100
AcDbLine
 10
5083.0013660386
 20
5731.2566853255
 30
0.0
 11
5083.6154130891
 21
5730.7975209445
 31
0.0
  0
LINE
  5
3FA
330
1F
100
AcDbEntity
  8
0
  6
Continuous
 62
     7
100
AcDbLine
 10
5083.6154130891
 20
5730.7975209445
 30
0.0
 11
5083.882561107
 21
5730.3165710658
 31
0.0
  0
LINE
  5
3FB
330
1F
100
AcDbEntity
  8
0
  6
Continuous
 62
     7
100
AcDbLine
 10
5083.882561107
 20
5730.3165710658
 30
0.0
 11
5083.7932733491
 21
5729.8312104434
 31
0.0
  0
LINE
  5
3FC
330
1F
100
AcDbEntity
  8
0
  6
Continuous
 62
     7
100
AcDbLine
 10
5083.7932733491
 20
5729.8312104434
 30
0.0
 11
5083.350649257
 21
5729.3590224475
 31
0.0
  0
LINE
  5
3FD
330
1F
100
AcDbEntity
  8
0
  6
Continuous
 62
     7
100
AcDbLine
 10
5083.350649257
 20
5729.3590224475
 30
0.0
 11
5082.5707820848
 21
5728.9170540065
 31
0.0
  0
LINE
  5
3FE
330
1F
100
AcDbEntity
  8
0
  6
Continuous
 62
     7
100
AcDbLine
 10
5082.5707820848
 20
5728.9170540065
 30
0.0
 11
5081.4818052247
 21
5728.5212493629
 31
0.0
  0
LINE
  5
3FF
330
1F
100
AcDbEntity
  8
0
  6
Continuous
 62
     7
100
AcDbLine
 10
5081.4818052247
 20
5728.5212493629
 30
0.0
 11
5080.1230577424
 21
5728.1859434337
 31
0.0
  0
LINE
  5
400
330
1F
100
AcDbEntity
  8
0
  6
Continuous
 62
     7
100
AcDbLine
 10
5080.1230577424
 20
5728.1859434337
 30
0.0
 11
5078.5437730744
 21
5727.9232359618
 31
0.0
  0
LINE
  5
401
330
1F
100
AcDbEntity
  8
0
  6
Continuous
 62
     7
100
AcDbLine
 10
5078.5437730744
 20
5727.9232359618
 30
0.0
 11
5076.8008140519
 21
5727.7426636905
 31
0.0
  0
LINE
  5
402
330
1F
100
AcDbEntity
  8
0
  6
Continuous
 62
     7
100
AcDbLine
 10
5076.8008140519
 20
5727.7426636905
 30
0.0
 11
5074.9574808076
 21
5727.6506937236
 31
0.0
  0
LINE
  5
403
330
1F
100
AcDbEntity
  8
0
  6
Continuous
 62
     7
100
AcDbLine
 10
5074.9574808076
 20
5727.6506937236
 30
0.0
 11
5073.0800537065
 21
5727.6506937236
 31
0.0
  0
LINE
  5
404
330
1F
100
AcDbEntity
  8
0
  6
Continuous
 62
     7
100
AcDbLine
 10
5073.0800537065
 20
5727.6506937236
 30
0.0
 11
5071.2366012528
 21
5727.7426636905
 31
0.0
  0
LINE
  5
405
330
1F
100
AcDbEntity
  8
0
  6
Continuous
 62
     7
100
AcDbLine
 10
5071.2366012528
 20
5727.7426636905
 30
0.0
 11
5069.4937614396
 21
5727.9232359618
 31
0.0
  0
LINE
  5
406
330
1F
100
AcDbEntity
  8
0
  6
Continuous
 62
     7
100
AcDbLine
 10
5069.4937614396
 20
5727.9232359618
 30
0.0
 11
5067.9144767716
 21
5728.1859434337
 31
0.0
  0
LINE
  5
407
330
1F
100
AcDbEntity
  8
0
  6
Continuous
 62
     7
100
AcDbLine
 10
5067.9144767716
 20
5728.1859434337
 30
0.0
 11
5066.5557292893
 21
5728.5212493629
 31
0.0
  0
LINE
  5
408
330
1F
100
AcDbEntity
  8
0
  6
Continuous
 62
     7
100
AcDbLine
 10
5066.5557292893
 20
5728.5212493629
 30
0.0
 11
5065.4667524293
 21
5728.9170540065
 31
0.0
  0
LINE
  5
409
330
1F
100
AcDbEntity
  8
0
  6
Continuous
 62
     7
100
AcDbLine
 10
5065.4667524293
 20
5728.9170540065
 30
0.0
 11
5064.6868852571
 21
5729.3590224475
 31
0.0
  0
LINE
  5
40A
330
1F
100
AcDbEntity
  8
0
  6
Continuous
 62
     7
100
AcDbLine
 10
5064.6868852571
 20
5729.3590224475
 30
0.0
 11
5064.244261165
 21
5729.8312104434
 31
0.0
  0
LINE
  5
40B
330
1F
100
AcDbEntity
  8
0
  6
Continuous
 62
     7
100
AcDbLine
 10
5064.244261165
 20
5729.8312104434
 30
0.0
 11
5064.1549734071
 21
5730.3165710658
 31
0.0
  0
LINE
  5
40C
330
1F
100
AcDbEntity
  8
0
  6
Continuous
 62
     7
100
AcDbLine
 10
5064.1549734071
 20
5730.3165710658
 30
0.0
 11
5064.422121425
 21
5730.7975209445
 31
0.0
  0
LINE
  5
40D
330
1F
100
AcDbEntity
  8
0
  6
Continuous
 62
     7
100
AcDbLine
 10
5064.422121425
 20
5730.7975209445
 30
0.0
 11
5065.0361684754
 21
5731.2566853255
 31
0.0
  0
LINE
  5
40E
330
1F
100
AcDbEntity
  8
0
  6
Continuous
 62
     7
100
AcDbLine
 10
5065.0361684754
 20
5731.2566853255
 30
0.0
 11
5065.9748224214
 21
5731.6774941176
 31
0.0
  0
LINE
  5
40F
330
1F
100
AcDbEntity
  8
0
  6
Continuous
 62
     7
100
AcDbLine
 10
5065.9748224214
 20
5731.6774941176
 30
0.0
 11
5067.2042278245
 21
5732.0447183341
 31
0.0
  0
LINE
  5
410
330
1F
100
AcDbEntity
  8
0
  6
Continuous
 62
     7
100
AcDbLine
 10
5067.2042278245
 20
5732.0447183341
 30
0.0
 11
5068.6799196199
 21
5732.3450661391
 31
0.0
  0
LINE
  5
411
330
1F
100
AcDbEntity
  8
0
  6
Continuous
 62
     7
100
AcDbLine
 10
5068.6799196199
 20
5732.3450661391
 30
0.0
 11
5070.348611255
 21
5732.5677192897
 31
0.0
  0
LINE
  5
412
330
1F
100
AcDbEntity
  8
0
  6
Continuous
 62
     7
100
AcDbLine
 10
5070.348611255
 20
5732.5677192897
 30
0.0
 11
5072.1498636201
 21
5732.7046013564
 31
0.0
  0
LINE
  5
413
330
1F
100
AcDbEntity
  8
0
  6
Continuous
 62
     7
100
AcDbLine
 10
5072.1498636201
 20
5732.7046013564
 30
0.0
 11
5074.0187076524
 21
5732.7507949561
 31
0.0
  0
LINE
  5
414
330
1F
100
AcDbEntity
  8
0
  6
Continuous
 62
     7
100
AcDbLine
 10
5083.248129268
 20
5731.1039484233
 30
0.0
 11
5083.3938030198
 21
5730.6779242248
 31
0.0
  0
LINE
  5
415
330
1F
100
AcDbEntity
  8
0
  6
Continuous
 62
     7
100
AcDbLine
 10
5083.3938030198
 20
5730.6779242248
 30
0.0
 11
5083.2687524751
 21
5730.2830136508
 31
0.0
  0
LINE
  5
416
330
1F
100
AcDbEntity
  8
0
  6
Continuous
 62
     7
100
AcDbLine
 10
5082.3680070832
 20
5729.5743740291
 30
0.0
 11
5081.8138030961
 21
5729.3298757762
 31
0.0
  0
LINE
  5
417
330
1F
100
AcDbEntity
  8
0
  6
Continuous
 62
     7
100
AcDbLine
 10
5081.8138030961
 20
5729.3298757762
 30
0.0
 11
5080.7613042787
 21
5728.9920366496
 31
0.0
  0
LINE
  5
418
330
1F
100
AcDbEntity
  8
0
  6
Continuous
 62
     7
100
AcDbLine
 10
5065.861454387
 20
5729.4820464343
 30
0.0
 11
5065.3574375108
 21
5729.7493732661
 31
0.0
  0
LINE
  5
419
330
1F
100
AcDbEntity
  8
0
  6
Continuous
 62
     7
100
AcDbLine
 10
5065.3574375108
 20
5729.7493732661
 30
0.0
 11
5064.8989585832
 21
5730.115614006
 31
0.0
  0
LINE
  5
41A
330
1F
100
AcDbEntity
  8
0
  6
Continuous
 62
     7
100
AcDbLine
 10
5064.768782039
 20
5730.2830136508
 30
0.0
 11
5064.6437314942
 21
5730.6779242248
 31
0.0
  0
LINE
  5
41B
330
1F
100
AcDbEntity
  8
0
  6
Continuous
 62
     7
100
AcDbLine
 10
5064.6437314942
 20
5730.6779242248
 30
0.0
 11
5064.7894052461
 21
5731.1039484233
 31
0.0
  0
LINE
  5
41C
330
1F
100
AcDbEntity
  8
0
  6
Continuous
 62
     7
100
AcDbLine
 10
7461.8680385545
 20
5734.3360698909
 30
0.0
 11
7486.1694482759
 21
5734.3360698909
 31
0.0
  0
LINE
  5
41D
330
1F
100
AcDbEntity
  8
0
  6
Continuous
 62
     7
100
AcDbLine
 10
7487.1370847036
 20
5734.0681140076
 30
0.0
 11
7486.1694482759
 21
5734.3360698909
 31
0.0
  0
LINE
  5
41E
330
1F
100
AcDbEntity
  8
0
  6
Continuous
 62
     7
100
AcDbLine
 10
7461.8680385545
 20
5734.3360698909
 30
0.0
 11
7460.9004259686
 21
5734.0681140076
 31
0.0
  0
LINE
  5
41F
330
1F
100
AcDbEntity
  8
0
  6
Continuous
 62
     7
100
AcDbLine
 10
7474.0188030198
 20
5732.7507949561
 30
0.0
 11
7475.8876470521
 21
5732.7046013564
 31
0.0
  0
LINE
  5
420
330
1F
100
AcDbEntity
  8
0
  6
Continuous
 62
     7
100
AcDbLine
 10
7475.8876470521
 20
5732.7046013564
 30
0.0
 11
7477.6888994172
 21
5732.5677192897
 31
0.0
  0
LINE
  5
421
330
1F
100
AcDbEntity
  8
0
  6
Continuous
 62
     7
100
AcDbLine
 10
7477.6888994172
 20
5732.5677192897
 30
0.0
 11
7479.3575910523
 21
5732.3450661391
 31
0.0
  0
LINE
  5
422
330
1F
100
AcDbEntity
  8
0
  6
Continuous
 62
     7
100
AcDbLine
 10
7479.3575910523
 20
5732.3450661391
 30
0.0
 11
7480.8332828477
 21
5732.0447183341
 31
0.0
  0
LINE
  5
423
330
1F
100
AcDbEntity
  8
0
  6
Continuous
 62
     7
100
AcDbLine
 10
7480.8332828477
 20
5732.0447183341
 30
0.0
 11
7482.0626882508
 21
5731.6774941176
 31
0.0
  0
LINE
  5
424
330
1F
100
AcDbEntity
  8
0
  6
Continuous
 62
     7
100
AcDbLine
 10
7482.0626882508
 20
5731.6774941176
 30
0.0
 11
7483.0013421968
 21
5731.2566853255
 31
0.0
  0
LINE
  5
425
330
1F
100
AcDbEntity
  8
0
  6
Continuous
 62
     7
100
AcDbLine
 10
7483.0013421968
 20
5731.2566853255
 30
0.0
 11
7483.6153892472
 21
5730.7975209445
 31
0.0
  0
LINE
  5
426
330
1F
100
AcDbEntity
  8
0
  6
Continuous
 62
     7
100
AcDbLine
 10
7483.6153892472
 20
5730.7975209445
 30
0.0
 11
7483.8825372651
 21
5730.3165710658
 31
0.0
  0
LINE
  5
427
330
1F
100
AcDbEntity
  8
0
  6
Continuous
 62
     7
100
AcDbLine
 10
7483.8825372651
 20
5730.3165710658
 30
0.0
 11
7483.7932495072
 21
5729.8312104434
 31
0.0
  0
LINE
  5
428
330
1F
100
AcDbEntity
  8
0
  6
Continuous
 62
     7
100
AcDbLine
 10
7483.7932495072
 20
5729.8312104434
 30
0.0
 11
7483.3506254151
 21
5729.3590224475
 31
0.0
  0
LINE
  5
429
330
1F
100
AcDbEntity
  8
0
  6
Continuous
 62
     7
100
AcDbLine
 10
7483.3506254151
 20
5729.3590224475
 30
0.0
 11
7482.5707582429
 21
5728.9170540065
 31
0.0
  0
LINE
  5
42A
330
1F
100
AcDbEntity
  8
0
  6
Continuous
 62
     7
100
AcDbLine
 10
7482.5707582429
 20
5728.9170540065
 30
0.0
 11
7481.4817813829
 21
5728.5212493629
 31
0.0
  0
LINE
  5
42B
330
1F
100
AcDbEntity
  8
0
  6
Continuous
 62
     7
100
AcDbLine
 10
7481.4817813829
 20
5728.5212493629
 30
0.0
 11
7480.1230339006
 21
5728.1859434337
 31
0.0
  0
LINE
  5
42C
330
1F
100
AcDbEntity
  8
0
  6
Continuous
 62
     7
100
AcDbLine
 10
7480.1230339006
 20
5728.1859434337
 30
0.0
 11
7478.5437492326
 21
5727.9232359618
 31
0.0
  0
LINE
  5
42D
330
1F
100
AcDbEntity
  8
0
  6
Continuous
 62
     7
100
AcDbLine
 10
7478.5437492326
 20
5727.9232359618
 30
0.0
 11
7476.8009094194
 21
5727.7426636905
 31
0.0
  0
LINE
  5
42E
330
1F
100
AcDbEntity
  8
0
  6
Continuous
 62
     7
100
AcDbLine
 10
7476.8009094194
 20
5727.7426636905
 30
0.0
 11
7474.9574569657
 21
5727.6506937236
 31
0.0
  0
LINE
  5
42F
330
1F
100
AcDbEntity
  8
0
  6
Continuous
 62
     7
100
AcDbLine
 10
7474.9574569657
 20
5727.6506937236
 30
0.0
 11
7473.0800298646
 21
5727.6506937236
 31
0.0
  0
LINE
  5
430
330
1F
100
AcDbEntity
  8
0
  6
Continuous
 62
     7
100
AcDbLine
 10
7473.0800298646
 20
5727.6506937236
 30
0.0
 11
7471.2366966203
 21
5727.7426636905
 31
0.0
  0
LINE
  5
431
330
1F
100
AcDbEntity
  8
0
  6
Continuous
 62
     7
100
AcDbLine
 10
7471.2366966203
 20
5727.7426636905
 30
0.0
 11
7469.4937375978
 21
5727.9232359618
 31
0.0
  0
LINE
  5
432
330
1F
100
AcDbEntity
  8
0
  6
Continuous
 62
     7
100
AcDbLine
 10
7469.4937375978
 20
5727.9232359618
 30
0.0
 11
7467.9144529298
 21
5728.1859434337
 31
0.0
  0
LINE
  5
433
330
1F
100
AcDbEntity
  8
0
  6
Continuous
 62
     7
100
AcDbLine
 10
7467.9144529298
 20
5728.1859434337
 30
0.0
 11
7466.5557054475
 21
5728.5212493629
 31
0.0
  0
LINE
  5
434
330
1F
100
AcDbEntity
  8
0
  6
Continuous
 62
     7
100
AcDbLine
 10
7466.5557054475
 20
5728.5212493629
 30
0.0
 11
7465.4667285874
 21
5728.9170540065
 31
0.0
  0
LINE
  5
435
330
1F
100
AcDbEntity
  8
0
  6
Continuous
 62
     7
100
AcDbLine
 10
7465.4667285874
 20
5728.9170540065
 30
0.0
 11
7464.6868614152
 21
5729.3590224475
 31
0.0
  0
LINE
  5
436
330
1F
100
AcDbEntity
  8
0
  6
Continuous
 62
     7
100
AcDbLine
 10
7464.6868614152
 20
5729.3590224475
 30
0.0
 11
7464.2442373231
 21
5729.8312104434
 31
0.0
  0
LINE
  5
437
330
1F
100
AcDbEntity
  8
0
  6
Continuous
 62
     7
100
AcDbLine
 10
7464.2442373231
 20
5729.8312104434
 30
0.0
 11
7464.1549495652
 21
5730.3165710658
 31
0.0
  0
LINE
  5
438
330
1F
100
AcDbEntity
  8
0
  6
Continuous
 62
     7
100
AcDbLine
 10
7464.1549495652
 20
5730.3165710658
 30
0.0
 11
7464.4220975831
 21
5730.7975209445
 31
0.0
  0
LINE
  5
439
330
1F
100
AcDbEntity
  8
0
  6
Continuous
 62
     7
100
AcDbLine
 10
7464.4220975831
 20
5730.7975209445
 30
0.0
 11
7465.0361446336
 21
5731.2566853255
 31
0.0
  0
LINE
  5
43A
330
1F
100
AcDbEntity
  8
0
  6
Continuous
 62
     7
100
AcDbLine
 10
7465.0361446336
 20
5731.2566853255
 30
0.0
 11
7465.9747985795
 21
5731.6774941176
 31
0.0
  0
LINE
  5
43B
330
1F
100
AcDbEntity
  8
0
  6
Continuous
 62
     7
100
AcDbLine
 10
7465.9747985795
 20
5731.6774941176
 30
0.0
 11
7467.2042039826
 21
5732.0447183341
 31
0.0
  0
LINE
  5
43C
330
1F
100
AcDbEntity
  8
0
  6
Continuous
 62
     7
100
AcDbLine
 10
7467.2042039826
 20
5732.0447183341
 30
0.0
 11
7468.679895778
 21
5732.3450661391
 31
0.0
  0
LINE
  5
43D
330
1F
100
AcDbEntity
  8
0
  6
Continuous
 62
     7
100
AcDbLine
 10
7468.679895778
 20
5732.3450661391
 30
0.0
 11
7470.3485874131
 21
5732.5677192897
 31
0.0
  0
LINE
  5
43E
330
1F
100
AcDbEntity
  8
0
  6
Continuous
 62
     7
100
AcDbLine
 10
7470.3485874131
 20
5732.5677192897
 30
0.0
 11
7472.1498397782
 21
5732.7046013564
 31
0.0
  0
LINE
  5
43F
330
1F
100
AcDbEntity
  8
0
  6
Continuous
 62
     7
100
AcDbLine
 10
7472.1498397782
 20
5732.7046013564
 30
0.0
 11
7474.0188030198
 21
5732.7507949561
 31
0.0
  0
LINE
  5
440
330
1F
100
AcDbEntity
  8
0
  6
Continuous
 62
     7
100
AcDbLine
 10
7483.2481054261
 20
5731.1039484233
 30
0.0
 11
7483.393779178
 21
5730.6779242248
 31
0.0
  0
LINE
  5
441
330
1F
100
AcDbEntity
  8
0
  6
Continuous
 62
     7
100
AcDbLine
 10
7483.393779178
 20
5730.6779242248
 30
0.0
 11
7483.2687286332
 21
5730.2830136508
 31
0.0
  0
LINE
  5
442
330
1F
100
AcDbEntity
  8
0
  6
Continuous
 62
     7
100
AcDbLine
 10
7482.3679832414
 20
5729.5743740291
 30
0.0
 11
7481.8137792543
 21
5729.3298757762
 31
0.0
  0
LINE
  5
443
330
1F
100
AcDbEntity
  8
0
  6
Continuous
 62
     7
100
AcDbLine
 10
7481.8137792543
 20
5729.3298757762
 30
0.0
 11
7480.7612804368
 21
5728.9920366496
 31
0.0
  0
LINE
  5
444
330
1F
100
AcDbEntity
  8
0
  6
Continuous
 62
     7
100
AcDbLine
 10
7465.8614305451
 20
5729.4820464343
 30
0.0
 11
7465.3574136689
 21
5729.7493732661
 31
0.0
  0
LINE
  5
445
330
1F
100
AcDbEntity
  8
0
  6
Continuous
 62
     7
100
AcDbLine
 10
7465.3574136689
 20
5729.7493732661
 30
0.0
 11
7464.8989347413
 21
5730.115614006
 31
0.0
  0
LINE
  5
446
330
1F
100
AcDbEntity
  8
0
  6
Continuous
 62
     7
100
AcDbLine
 10
7464.7687581971
 20
5730.2830136508
 30
0.0
 11
7464.6437076524
 21
5730.6779242248
 31
0.0
  0
LINE
  5
447
330
1F
100
AcDbEntity
  8
0
  6
Continuous
 62
     7
100
AcDbLine
 10
7464.6437076524
 20
5730.6779242248
 30
0.0
 11
7464.7893814042
 21
5731.1039484233
 31
0.0
  0
LINE
  5
448
330
1F
100
AcDbEntity
  8
0
  6
Continuous
 62
     7
100
AcDbLine
 10
5687.1370847036
 20
5734.0681140076
 30
0.0
 11
5686.1694363549
 21
5734.3360698909
 31
0.0
  0
LINE
  5
449
330
1F
100
AcDbEntity
  8
0
  6
Continuous
 62
     7
100
AcDbLine
 10
5661.8680862382
 20
5734.3360698909
 30
0.0
 11
5660.9004259686
 21
5734.0681140076
 31
0.0
  0
LINE
  5
44A
330
1F
100
AcDbEntity
  8
0
  6
Continuous
 62
     7
100
AcDbLine
 10
5661.8680862382
 20
5734.3360698909
 30
0.0
 11
5686.1694363549
 21
5734.3360698909
 31
0.0
  0
LINE
  5
44B
330
1F
100
AcDbEntity
  8
0
  6
Continuous
 62
     7
100
AcDbLine
 10
5674.0187314942
 20
5732.7507949561
 30
0.0
 11
5675.8876351312
 21
5732.7046013564
 31
0.0
  0
LINE
  5
44C
330
1F
100
AcDbEntity
  8
0
  6
Continuous
 62
     7
100
AcDbLine
 10
5675.8876351312
 20
5732.7046013564
 30
0.0
 11
5677.6889471009
 21
5732.5677192897
 31
0.0
  0
LINE
  5
44D
330
1F
100
AcDbEntity
  8
0
  6
Continuous
 62
     7
100
AcDbLine
 10
5677.6889471009
 20
5732.5677192897
 30
0.0
 11
5679.3575791314
 21
5732.3450661391
 31
0.0
  0
LINE
  5
44E
330
1F
100
AcDbEntity
  8
0
  6
Continuous
 62
     7
100
AcDbLine
 10
5679.3575791314
 20
5732.3450661391
 30
0.0
 11
5680.8332709268
 21
5732.0447183341
 31
0.0
  0
LINE
  5
44F
330
1F
100
AcDbEntity
  8
0
  6
Continuous
 62
     7
100
AcDbLine
 10
5680.8332709268
 20
5732.0447183341
 30
0.0
 11
5682.0626763299
 21
5731.6774941176
 31
0.0
  0
LINE
  5
450
330
1F
100
AcDbEntity
  8
0
  6
Continuous
 62
     7
100
AcDbLine
 10
5682.0626763299
 20
5731.6774941176
 30
0.0
 11
5683.0013898805
 21
5731.2566853255
 31
0.0
  0
LINE
  5
451
330
1F
100
AcDbEntity
  8
0
  6
Continuous
 62
     7
100
AcDbLine
 10
5683.0013898805
 20
5731.2566853255
 30
0.0
 11
5683.6153773263
 21
5730.7975209445
 31
0.0
  0
LINE
  5
452
330
1F
100
AcDbEntity
  8
0
  6
Continuous
 62
     7
100
AcDbLine
 10
5683.6153773263
 20
5730.7975209445
 30
0.0
 11
5683.8825849488
 21
5730.3165710658
 31
0.0
  0
LINE
  5
453
330
1F
100
AcDbEntity
  8
0
  6
Continuous
 62
     7
100
AcDbLine
 10
5683.8825849488
 20
5730.3165710658
 30
0.0
 11
5683.7932375863
 21
5729.8312104434
 31
0.0
  0
LINE
  5
454
330
1F
100
AcDbEntity
  8
0
  6
Continuous
 62
     7
100
AcDbLine
 10
5683.7932375863
 20
5729.8312104434
 30
0.0
 11
5683.3506134942
 21
5729.3590224475
 31
0.0
  0
LINE
  5
455
330
1F
100
AcDbEntity
  8
0
  6
Continuous
 62
     7
100
AcDbLine
 10
5683.3506134942
 20
5729.3590224475
 30
0.0
 11
5682.570746322
 21
5728.9170540065
 31
0.0
  0
LINE
  5
456
330
1F
100
AcDbEntity
  8
0
  6
Continuous
 62
     7
100
AcDbLine
 10
5682.570746322
 20
5728.9170540065
 30
0.0
 11
5681.4817694619
 21
5728.5212493629
 31
0.0
  0
LINE
  5
457
330
1F
100
AcDbEntity
  8
0
  6
Continuous
 62
     7
100
AcDbLine
 10
5681.4817694619
 20
5728.5212493629
 30
0.0
 11
5680.1230815843
 21
5728.1859434337
 31
0.0
  0
LINE
  5
458
330
1F
100
AcDbEntity
  8
0
  6
Continuous
 62
     7
100
AcDbLine
 10
5680.1230815843
 20
5728.1859434337
 30
0.0
 11
5678.5437373117
 21
5727.9232359618
 31
0.0
  0
LINE
  5
459
330
1F
100
AcDbEntity
  8
0
  6
Continuous
 62
     7
100
AcDbLine
 10
5678.5437373117
 20
5727.9232359618
 30
0.0
 11
5676.8008378938
 21
5727.7426636905
 31
0.0
  0
LINE
  5
45A
330
1F
100
AcDbEntity
  8
0
  6
Continuous
 62
     7
100
AcDbLine
 10
5676.8008378938
 20
5727.7426636905
 30
0.0
 11
5674.9574450448
 21
5727.6506937236
 31
0.0
  0
LINE
  5
45B
330
1F
100
AcDbEntity
  8
0
  6
Continuous
 62
     7
100
AcDbLine
 10
5674.9574450448
 20
5727.6506937236
 30
0.0
 11
5673.0800775483
 21
5727.6506937236
 31
0.0
  0
LINE
  5
45C
330
1F
100
AcDbEntity
  8
0
  6
Continuous
 62
     7
100
AcDbLine
 10
5673.0800775483
 20
5727.6506937236
 30
0.0
 11
5671.2366250947
 21
5727.7426636905
 31
0.0
  0
LINE
  5
45D
330
1F
100
AcDbEntity
  8
0
  6
Continuous
 62
     7
100
AcDbLine
 10
5671.2366250947
 20
5727.7426636905
 30
0.0
 11
5669.4937852815
 21
5727.9232359618
 31
0.0
  0
LINE
  5
45E
330
1F
100
AcDbEntity
  8
0
  6
Continuous
 62
     7
100
AcDbLine
 10
5669.4937852815
 20
5727.9232359618
 30
0.0
 11
5667.9144410089
 21
5728.1859434337
 31
0.0
  0
LINE
  5
45F
330
1F
100
AcDbEntity
  8
0
  6
Continuous
 62
     7
100
AcDbLine
 10
5667.9144410089
 20
5728.1859434337
 30
0.0
 11
5666.5557531312
 21
5728.5212493629
 31
0.0
  0
LINE
  5
460
330
1F
100
AcDbEntity
  8
0
  6
Continuous
 62
     7
100
AcDbLine
 10
5666.5557531312
 20
5728.5212493629
 30
0.0
 11
5665.4667762712
 21
5728.9170540065
 31
0.0
  0
LINE
  5
461
330
1F
100
AcDbEntity
  8
0
  6
Continuous
 62
     7
100
AcDbLine
 10
5665.4667762712
 20
5728.9170540065
 30
0.0
 11
5664.6868494943
 21
5729.3590224475
 31
0.0
  0
LINE
  5
462
330
1F
100
AcDbEntity
  8
0
  6
Continuous
 62
     7
100
AcDbLine
 10
5664.6868494943
 20
5729.3590224475
 30
0.0
 11
5664.2442850068
 21
5729.8312104434
 31
0.0
  0
LINE
  5
463
330
1F
100
AcDbEntity
  8
0
  6
Continuous
 62
     7
100
AcDbLine
 10
5664.2442850068
 20
5729.8312104434
 30
0.0
 11
5664.1549376443
 21
5730.3165710658
 31
0.0
  0
LINE
  5
464
330
1F
100
AcDbEntity
  8
0
  6
Continuous
 62
     7
100
AcDbLine
 10
5664.1549376443
 20
5730.3165710658
 30
0.0
 11
5664.4221452668
 21
5730.7975209445
 31
0.0
  0
LINE
  5
465
330
1F
100
AcDbEntity
  8
0
  6
Continuous
 62
     7
100
AcDbLine
 10
5664.4221452668
 20
5730.7975209445
 30
0.0
 11
5665.0361327127
 21
5731.2566853255
 31
0.0
  0
LINE
  5
466
330
1F
100
AcDbEntity
  8
0
  6
Continuous
 62
     7
100
AcDbLine
 10
5665.0361327127
 20
5731.2566853255
 30
0.0
 11
5665.9748462632
 21
5731.6774941176
 31
0.0
  0
LINE
  5
467
330
1F
100
AcDbEntity
  8
0
  6
Continuous
 62
     7
100
AcDbLine
 10
5665.9748462632
 20
5731.6774941176
 30
0.0
 11
5667.2042516664
 21
5732.0447183341
 31
0.0
  0
LINE
  5
468
330
1F
100
AcDbEntity
  8
0
  6
Continuous
 62
     7
100
AcDbLine
 10
5667.2042516664
 20
5732.0447183341
 30
0.0
 11
5668.6799434617
 21
5732.3450661391
 31
0.0
  0
LINE
  5
469
330
1F
100
AcDbEntity
  8
0
  6
Continuous
 62
     7
100
AcDbLine
 10
5668.6799434617
 20
5732.3450661391
 30
0.0
 11
5670.3485754922
 21
5732.5677192897
 31
0.0
  0
LINE
  5
46A
330
1F
100
AcDbEntity
  8
0
  6
Continuous
 62
     7
100
AcDbLine
 10
5670.3485754922
 20
5732.5677192897
 30
0.0
 11
5672.149887462
 21
5732.7046013564
 31
0.0
  0
LINE
  5
46B
330
1F
100
AcDbEntity
  8
0
  6
Continuous
 62
     7
100
AcDbLine
 10
5672.149887462
 20
5732.7046013564
 30
0.0
 11
5674.0187314942
 21
5732.7507949561
 31
0.0
  0
LINE
  5
46C
330
1F
100
AcDbEntity
  8
0
  6
Continuous
 62
     7
100
AcDbLine
 10
5683.2481531098
 20
5731.1039484233
 30
0.0
 11
5683.393767257
 21
5730.6779242248
 31
0.0
  0
LINE
  5
46D
330
1F
100
AcDbEntity
  8
0
  6
Continuous
 62
     7
100
AcDbLine
 10
5683.393767257
 20
5730.6779242248
 30
0.0
 11
5683.2687763169
 21
5730.2830136508
 31
0.0
  0
LINE
  5
46E
330
1F
100
AcDbEntity
  8
0
  6
Continuous
 62
     7
100
AcDbLine
 10
5682.3680309251
 20
5729.5743740291
 30
0.0
 11
5681.8137673333
 21
5729.3298757762
 31
0.0
  0
LINE
  5
46F
330
1F
100
AcDbEntity
  8
0
  6
Continuous
 62
     7
100
AcDbLine
 10
5681.8137673333
 20
5729.3298757762
 30
0.0
 11
5680.7612685159
 21
5728.9920366496
 31
0.0
  0
LINE
  5
470
330
1F
100
AcDbEntity
  8
0
  6
Continuous
 62
     7
100
AcDbLine
 10
5665.8614782289
 20
5729.4820464343
 30
0.0
 11
5665.357401748
 21
5729.7493732661
 31
0.0
  0
LINE
  5
471
330
1F
100
AcDbEntity
  8
0
  6
Continuous
 62
     7
100
AcDbLine
 10
5665.357401748
 20
5729.7493732661
 30
0.0
 11
5664.898982425
 21
5730.115614006
 31
0.0
  0
LINE
  5
472
330
1F
100
AcDbEntity
  8
0
  6
Continuous
 62
     7
100
AcDbLine
 10
5664.7687462762
 20
5730.2830136508
 30
0.0
 11
5664.6437553361
 21
5730.6779242248
 31
0.0
  0
LINE
  5
473
330
1F
100
AcDbEntity
  8
0
  6
Continuous
 62
     7
100
AcDbLine
 10
5664.6437553361
 20
5730.6779242248
 30
0.0
 11
5664.7893694833
 21
5731.1039484233
 31
0.0
  0
LINE
  5
474
330
1F
100
AcDbEntity
  8
0
  6
Continuous
 62
     7
100
AcDbLine
 10
6287.1370847036
 20
5734.0681140076
 30
0.0
 11
6286.1694415703
 21
5734.3360698909
 31
0.0
  0
LINE
  5
475
330
1F
100
AcDbEntity
  8
0
  6
Continuous
 62
     7
100
AcDbLine
 10
6261.8680691019
 20
5734.3360698909
 30
0.0
 11
6260.9004259686
 21
5734.0681140076
 31
0.0
  0
LINE
  5
476
330
1F
100
AcDbEntity
  8
0
  6
Continuous
 62
     7
100
AcDbLine
 10
6261.8680691019
 20
5734.3360698909
 30
0.0
 11
6286.1694415703
 21
5734.3360698909
 31
0.0
  0
LINE
  5
477
330
1F
100
AcDbEntity
  8
0
  6
Continuous
 62
     7
100
AcDbLine
 10
6274.0187553361
 20
5732.7507949561
 30
0.0
 11
6275.8876113592
 21
5732.7046013564
 31
0.0
  0
LINE
  5
478
330
1F
100
AcDbEntity
  8
0
  6
Continuous
 62
     7
100
AcDbLine
 10
6275.8876113592
 20
5732.7046013564
 30
0.0
 11
6277.6889220484
 21
5732.5677192897
 31
0.0
  0
LINE
  5
479
330
1F
100
AcDbEntity
  8
0
  6
Continuous
 62
     7
100
AcDbLine
 10
6277.6889220484
 20
5732.5677192897
 30
0.0
 11
6279.3575834155
 21
5732.3450661391
 31
0.0
  0
LINE
  5
47A
330
1F
100
AcDbEntity
  8
0
  6
Continuous
 62
     7
100
AcDbLine
 10
6279.3575834155
 20
5732.3450661391
 30
0.0
 11
6280.8332854554
 21
5732.0447183341
 31
0.0
  0
LINE
  5
47B
330
1F
100
AcDbEntity
  8
0
  6
Continuous
 62
     7
100
AcDbLine
 10
6280.8332854554
 20
5732.0447183341
 30
0.0
 11
6282.0626927212
 21
5731.6774941176
 31
0.0
  0
LINE
  5
47C
330
1F
100
AcDbEntity
  8
0
  6
Continuous
 62
     7
100
AcDbLine
 10
6282.0626927212
 20
5731.6774941176
 30
0.0
 11
6283.0013708815
 21
5731.2566853255
 31
0.0
  0
LINE
  5
47D
330
1F
100
AcDbEntity
  8
0
  6
Continuous
 62
     7
100
AcDbLine
 10
6283.0013708815
 20
5731.2566853255
 30
0.0
 11
6283.6153946489
 21
5730.7975209445
 31
0.0
  0
LINE
  5
47E
330
1F
100
AcDbEntity
  8
0
  6
Continuous
 62
     7
100
AcDbLine
 10
6283.6153946489
 20
5730.7975209445
 30
0.0
 11
6283.8825706065
 21
5730.3165710658
 31
0.0
  0
LINE
  5
47F
330
1F
100
AcDbEntity
  8
0
  6
Continuous
 62
     7
100
AcDbLine
 10
6283.8825706065
 20
5730.3165710658
 30
0.0
 11
6283.7932418704
 21
5729.8312104434
 31
0.0
  0
LINE
  5
480
330
1F
100
AcDbEntity
  8
0
  6
Continuous
 62
     7
100
AcDbLine
 10
6283.7932418704
 20
5729.8312104434
 30
0.0
 11
6283.3506382674
 21
5729.3590224475
 31
0.0
  0
LINE
  5
481
330
1F
100
AcDbEntity
  8
0
  6
Continuous
 62
     7
100
AcDbLine
 10
6283.3506382674
 20
5729.3590224475
 30
0.0
 11
6282.570756194
 21
5728.9170540065
 31
0.0
  0
LINE
  5
482
330
1F
100
AcDbEntity
  8
0
  6
Continuous
 62
     7
100
AcDbLine
 10
6282.570756194
 20
5728.9170540065
 30
0.0
 11
6281.4817825936
 21
5728.5212493629
 31
0.0
  0
LINE
  5
483
330
1F
100
AcDbEntity
  8
0
  6
Continuous
 62
     7
100
AcDbLine
 10
6281.4817825936
 20
5728.5212493629
 30
0.0
 11
6280.1230751581
 21
5728.1859434337
 31
0.0
  0
LINE
  5
484
330
1F
100
AcDbEntity
  8
0
  6
Continuous
 62
     7
100
AcDbLine
 10
6280.1230751581
 20
5728.1859434337
 30
0.0
 11
6278.5437420614
 21
5727.9232359618
 31
0.0
  0
LINE
  5
485
330
1F
100
AcDbEntity
  8
0
  6
Continuous
 62
     7
100
AcDbLine
 10
6278.5437420614
 20
5727.9232359618
 30
0.0
 11
6276.8008642968
 21
5727.7426636905
 31
0.0
  0
LINE
  5
486
330
1F
100
AcDbEntity
  8
0
  6
Continuous
 62
     7
100
AcDbLine
 10
6276.8008642968
 20
5727.7426636905
 30
0.0
 11
6274.9574337874
 21
5727.6506937236
 31
0.0
  0
LINE
  5
487
330
1F
100
AcDbEntity
  8
0
  6
Continuous
 62
     7
100
AcDbLine
 10
6274.9574337874
 20
5727.6506937236
 30
0.0
 11
6273.0800768848
 21
5727.6506937236
 31
0.0
  0
LINE
  5
488
330
1F
100
AcDbEntity
  8
0
  6
Continuous
 62
     7
100
AcDbLine
 10
6273.0800768848
 20
5727.6506937236
 30
0.0
 11
6271.2366463754
 21
5727.7426636905
 31
0.0
  0
LINE
  5
489
330
1F
100
AcDbEntity
  8
0
  6
Continuous
 62
     7
100
AcDbLine
 10
6271.2366463754
 20
5727.7426636905
 30
0.0
 11
6269.4937686108
 21
5727.9232359618
 31
0.0
  0
LINE
  5
48A
330
1F
100
AcDbEntity
  8
0
  6
Continuous
 62
     7
100
AcDbLine
 10
6269.4937686108
 20
5727.9232359618
 30
0.0
 11
6267.9144355141
 21
5728.1859434337
 31
0.0
  0
LINE
  5
48B
330
1F
100
AcDbEntity
  8
0
  6
Continuous
 62
     7
100
AcDbLine
 10
6267.9144355141
 20
5728.1859434337
 30
0.0
 11
6266.5557280786
 21
5728.5212493629
 31
0.0
  0
LINE
  5
48C
330
1F
100
AcDbEntity
  8
0
  6
Continuous
 62
     7
100
AcDbLine
 10
6266.5557280786
 20
5728.5212493629
 30
0.0
 11
6265.4667544782
 21
5728.9170540065
 31
0.0
  0
LINE
  5
48D
330
1F
100
AcDbEntity
  8
0
  6
Continuous
 62
     7
100
AcDbLine
 10
6265.4667544782
 20
5728.9170540065
 30
0.0
 11
6264.6868724048
 21
5729.3590224475
 31
0.0
  0
LINE
  5
48E
330
1F
100
AcDbEntity
  8
0
  6
Continuous
 62
     7
100
AcDbLine
 10
6264.6868724048
 20
5729.3590224475
 30
0.0
 11
6264.2442688018
 21
5729.8312104434
 31
0.0
  0
LINE
  5
48F
330
1F
100
AcDbEntity
  8
0
  6
Continuous
 62
     7
100
AcDbLine
 10
6264.2442688018
 20
5729.8312104434
 30
0.0
 11
6264.1549400657
 21
5730.3165710658
 31
0.0
  0
LINE
  5
490
330
1F
100
AcDbEntity
  8
0
  6
Continuous
 62
     7
100
AcDbLine
 10
6264.1549400657
 20
5730.3165710658
 30
0.0
 11
6264.4221160233
 21
5730.7975209445
 31
0.0
  0
LINE
  5
491
330
1F
100
AcDbEntity
  8
0
  6
Continuous
 62
     7
100
AcDbLine
 10
6264.4221160233
 20
5730.7975209445
 30
0.0
 11
6265.0361397907
 21
5731.2566853255
 31
0.0
  0
LINE
  5
492
330
1F
100
AcDbEntity
  8
0
  6
Continuous
 62
     7
100
AcDbLine
 10
6265.0361397907
 20
5731.2566853255
 30
0.0
 11
6265.974817951
 21
5731.6774941176
 31
0.0
  0
LINE
  5
493
330
1F
100
AcDbEntity
  8
0
  6
Continuous
 62
     7
100
AcDbLine
 10
6265.974817951
 20
5731.6774941176
 30
0.0
 11
6267.2042252168
 21
5732.0447183341
 31
0.0
  0
LINE
  5
494
330
1F
100
AcDbEntity
  8
0
  6
Continuous
 62
     7
100
AcDbLine
 10
6267.2042252168
 20
5732.0447183341
 30
0.0
 11
6268.6799272567
 21
5732.3450661391
 31
0.0
  0
LINE
  5
495
330
1F
100
AcDbEntity
  8
0
  6
Continuous
 62
     7
100
AcDbLine
 10
6268.6799272567
 20
5732.3450661391
 30
0.0
 11
6270.3485886238
 21
5732.5677192897
 31
0.0
  0
LINE
  5
496
330
1F
100
AcDbEntity
  8
0
  6
Continuous
 62
     7
100
AcDbLine
 10
6270.3485886238
 20
5732.5677192897
 30
0.0
 11
6272.149899313
 21
5732.7046013564
 31
0.0
  0
LINE
  5
497
330
1F
100
AcDbEntity
  8
0
  6
Continuous
 62
     7
100
AcDbLine
 10
6272.149899313
 20
5732.7046013564
 30
0.0
 11
6274.0187553361
 21
5732.7507949561
 31
0.0
  0
LINE
  5
498
330
1F
100
AcDbEntity
  8
0
  6
Continuous
 62
     7
100
AcDbLine
 10
6283.2481275916
 20
5731.1039484233
 30
0.0
 11
6283.3937557086
 21
5730.6779242248
 31
0.0
  0
LINE
  5
499
330
1F
100
AcDbEntity
  8
0
  6
Continuous
 62
     7
100
AcDbLine
 10
6283.3937557086
 20
5730.6779242248
 30
0.0
 11
6283.2687554553
 21
5730.2830136508
 31
0.0
  0
LINE
  5
49A
330
1F
100
AcDbEntity
  8
0
  6
Continuous
 62
     7
100
AcDbLine
 10
6282.3680324152
 20
5729.5743740291
 30
0.0
 11
6281.8137827933
 21
5729.3298757762
 31
0.0
  0
LINE
  5
49B
330
1F
100
AcDbEntity
  8
0
  6
Continuous
 62
     7
100
AcDbLine
 10
6281.8137827933
 20
5729.3298757762
 30
0.0
 11
6280.7612928234
 21
5728.9920366496
 31
0.0
  0
LINE
  5
49C
330
1F
100
AcDbEntity
  8
0
  6
Continuous
 62
     7
100
AcDbLine
 10
6265.8614666805
 20
5729.4820464343
 30
0.0
 11
6265.3573846117
 21
5729.7493732661
 31
0.0
  0
LINE
  5
49D
330
1F
100
AcDbEntity
  8
0
  6
Continuous
 62
     7
100
AcDbLine
 10
6265.3573846117
 20
5729.7493732661
 30
0.0
 11
6264.898969014
 21
5730.115614006
 31
0.0
  0
LINE
  5
49E
330
1F
100
AcDbEntity
  8
0
  6
Continuous
 62
     7
100
AcDbLine
 10
6264.7687552169
 20
5730.2830136508
 30
0.0
 11
6264.6437549636
 21
5730.6779242248
 31
0.0
  0
LINE
  5
49F
330
1F
100
AcDbEntity
  8
0
  6
Continuous
 62
     7
100
AcDbLine
 10
6264.6437549636
 20
5730.6779242248
 30
0.0
 11
6264.7893830806
 21
5731.1039484233
 31
0.0
  0
LINE
  5
4A0
330
1F
100
AcDbEntity
  8
0
  6
Continuous
 62
     7
100
AcDbLine
 10
6861.8680743173
 20
5734.3360698909
 30
0.0
 11
6886.169424434
 21
5734.3360698909
 31
0.0
  0
LINE
  5
4A1
330
1F
100
AcDbEntity
  8
0
  6
Continuous
 62
     7
100
AcDbLine
 10
6887.1370847036
 20
5734.0681140076
 30
0.0
 11
6886.169424434
 21
5734.3360698909
 31
0.0
  0
LINE
  5
4A2
330
1F
100
AcDbEntity
  8
0
  6
Continuous
 62
     7
100
AcDbLine
 10
6861.8680743173
 20
5734.3360698909
 30
0.0
 11
6860.9004259686
 21
5734.0681140076
 31
0.0
  0
LINE
  5
4A3
330
1F
100
AcDbEntity
  8
0
  6
Continuous
 62
     7
100
AcDbLine
 10
6874.018779178
 20
5732.7507949561
 30
0.0
 11
6875.8876232102
 21
5732.7046013564
 31
0.0
  0
LINE
  5
4A4
330
1F
100
AcDbEntity
  8
0
  6
Continuous
 62
     7
100
AcDbLine
 10
6875.8876232102
 20
5732.7046013564
 30
0.0
 11
6877.68893518
 21
5732.5677192897
 31
0.0
  0
LINE
  5
4A5
330
1F
100
AcDbEntity
  8
0
  6
Continuous
 62
     7
100
AcDbLine
 10
6877.68893518
 20
5732.5677192897
 30
0.0
 11
6879.3575672105
 21
5732.3450661391
 31
0.0
  0
LINE
  5
4A6
330
1F
100
AcDbEntity
  8
0
  6
Continuous
 62
     7
100
AcDbLine
 10
6879.3575672105
 20
5732.3450661391
 30
0.0
 11
6880.8332590058
 21
5732.0447183341
 31
0.0
  0
LINE
  5
4A7
330
1F
100
AcDbEntity
  8
0
  6
Continuous
 62
     7
100
AcDbLine
 10
6880.8332590058
 20
5732.0447183341
 30
0.0
 11
6882.062664409
 21
5731.6774941176
 31
0.0
  0
LINE
  5
4A8
330
1F
100
AcDbEntity
  8
0
  6
Continuous
 62
     7
100
AcDbLine
 10
6882.062664409
 20
5731.6774941176
 30
0.0
 11
6883.0013779595
 21
5731.2566853255
 31
0.0
  0
LINE
  5
4A9
330
1F
100
AcDbEntity
  8
0
  6
Continuous
 62
     7
100
AcDbLine
 10
6883.0013779595
 20
5731.2566853255
 30
0.0
 11
6883.6153654054
 21
5730.7975209445
 31
0.0
  0
LINE
  5
4AA
330
1F
100
AcDbEntity
  8
0
  6
Continuous
 62
     7
100
AcDbLine
 10
6883.6153654054
 20
5730.7975209445
 30
0.0
 11
6883.8825730279
 21
5730.3165710658
 31
0.0
  0
LINE
  5
4AB
330
1F
100
AcDbEntity
  8
0
  6
Continuous
 62
     7
100
AcDbLine
 10
6883.8825730279
 20
5730.3165710658
 30
0.0
 11
6883.7932256654
 21
5729.8312104434
 31
0.0
  0
LINE
  5
4AC
330
1F
100
AcDbEntity
  8
0
  6
Continuous
 62
     7
100
AcDbLine
 10
6883.7932256654
 20
5729.8312104434
 30
0.0
 11
6883.3506611779
 21
5729.3590224475
 31
0.0
  0
LINE
  5
4AD
330
1F
100
AcDbEntity
  8
0
  6
Continuous
 62
     7
100
AcDbLine
 10
6883.3506611779
 20
5729.3590224475
 30
0.0
 11
6882.570734401
 21
5728.9170540065
 31
0.0
  0
LINE
  5
4AE
330
1F
100
AcDbEntity
  8
0
  6
Continuous
 62
     7
100
AcDbLine
 10
6882.570734401
 20
5728.9170540065
 30
0.0
 11
6881.481757541
 21
5728.5212493629
 31
0.0
  0
LINE
  5
4AF
330
1F
100
AcDbEntity
  8
0
  6
Continuous
 62
     7
100
AcDbLine
 10
6881.481757541
 20
5728.5212493629
 30
0.0
 11
6880.1230696633
 21
5728.1859434337
 31
0.0
  0
LINE
  5
4B0
330
1F
100
AcDbEntity
  8
0
  6
Continuous
 62
     7
100
AcDbLine
 10
6880.1230696633
 20
5728.1859434337
 30
0.0
 11
6878.5437253907
 21
5727.9232359618
 31
0.0
  0
LINE
  5
4B1
330
1F
100
AcDbEntity
  8
0
  6
Continuous
 62
     7
100
AcDbLine
 10
6878.5437253907
 20
5727.9232359618
 30
0.0
 11
6876.8008855775
 21
5727.7426636905
 31
0.0
  0
LINE
  5
4B2
330
1F
100
AcDbEntity
  8
0
  6
Continuous
 62
     7
100
AcDbLine
 10
6876.8008855775
 20
5727.7426636905
 30
0.0
 11
6874.9574331239
 21
5727.6506937236
 31
0.0
  0
LINE
  5
4B3
330
1F
100
AcDbEntity
  8
0
  6
Continuous
 62
     7
100
AcDbLine
 10
6874.9574331239
 20
5727.6506937236
 30
0.0
 11
6873.0800656274
 21
5727.6506937236
 31
0.0
  0
LINE
  5
4B4
330
1F
100
AcDbEntity
  8
0
  6
Continuous
 62
     7
100
AcDbLine
 10
6873.0800656274
 20
5727.6506937236
 30
0.0
 11
6871.2366727784
 21
5727.7426636905
 31
0.0
  0
LINE
  5
4B5
330
1F
100
AcDbEntity
  8
0
  6
Continuous
 62
     7
100
AcDbLine
 10
6871.2366727784
 20
5727.7426636905
 30
0.0
 11
6869.4937733605
 21
5727.9232359618
 31
0.0
  0
LINE
  5
4B6
330
1F
100
AcDbEntity
  8
0
  6
Continuous
 62
     7
100
AcDbLine
 10
6869.4937733605
 20
5727.9232359618
 30
0.0
 11
6867.9144290879
 21
5728.1859434337
 31
0.0
  0
LINE
  5
4B7
330
1F
100
AcDbEntity
  8
0
  6
Continuous
 62
     7
100
AcDbLine
 10
6867.9144290879
 20
5728.1859434337
 30
0.0
 11
6866.5557412103
 21
5728.5212493629
 31
0.0
  0
LINE
  5
4B8
330
1F
100
AcDbEntity
  8
0
  6
Continuous
 62
     7
100
AcDbLine
 10
6866.5557412103
 20
5728.5212493629
 30
0.0
 11
6865.4667643502
 21
5728.9170540065
 31
0.0
  0
LINE
  5
4B9
330
1F
100
AcDbEntity
  8
0
  6
Continuous
 62
     7
100
AcDbLine
 10
6865.4667643502
 20
5728.9170540065
 30
0.0
 11
6864.686897178
 21
5729.3590224475
 31
0.0
  0
LINE
  5
4BA
330
1F
100
AcDbEntity
  8
0
  6
Continuous
 62
     7
100
AcDbLine
 10
6864.686897178
 20
5729.3590224475
 30
0.0
 11
6864.2442730859
 21
5729.8312104434
 31
0.0
  0
LINE
  5
4BB
330
1F
100
AcDbEntity
  8
0
  6
Continuous
 62
     7
100
AcDbLine
 10
6864.2442730859
 20
5729.8312104434
 30
0.0
 11
6864.1549257234
 21
5730.3165710658
 31
0.0
  0
LINE
  5
4BC
330
1F
100
AcDbEntity
  8
0
  6
Continuous
 62
     7
100
AcDbLine
 10
6864.1549257234
 20
5730.3165710658
 30
0.0
 11
6864.4221333459
 21
5730.7975209445
 31
0.0
  0
LINE
  5
4BD
330
1F
100
AcDbEntity
  8
0
  6
Continuous
 62
     7
100
AcDbLine
 10
6864.4221333459
 20
5730.7975209445
 30
0.0
 11
6865.0361207917
 21
5731.2566853255
 31
0.0
  0
LINE
  5
4BE
330
1F
100
AcDbEntity
  8
0
  6
Continuous
 62
     7
100
AcDbLine
 10
6865.0361207917
 20
5731.2566853255
 30
0.0
 11
6865.9748343423
 21
5731.6774941176
 31
0.0
  0
LINE
  5
4BF
330
1F
100
AcDbEntity
  8
0
  6
Continuous
 62
     7
100
AcDbLine
 10
6865.9748343423
 20
5731.6774941176
 30
0.0
 11
6867.2042397454
 21
5732.0447183341
 31
0.0
  0
LINE
  5
4C0
330
1F
100
AcDbEntity
  8
0
  6
Continuous
 62
     7
100
AcDbLine
 10
6867.2042397454
 20
5732.0447183341
 30
0.0
 11
6868.6799315408
 21
5732.3450661391
 31
0.0
  0
LINE
  5
4C1
330
1F
100
AcDbEntity
  8
0
  6
Continuous
 62
     7
100
AcDbLine
 10
6868.6799315408
 20
5732.3450661391
 30
0.0
 11
6870.3485635713
 21
5732.5677192897
 31
0.0
  0
LINE
  5
4C2
330
1F
100
AcDbEntity
  8
0
  6
Continuous
 62
     7
100
AcDbLine
 10
6870.3485635713
 20
5732.5677192897
 30
0.0
 11
6872.149875541
 21
5732.7046013564
 31
0.0
  0
LINE
  5
4C3
330
1F
100
AcDbEntity
  8
0
  6
Continuous
 62
     7
100
AcDbLine
 10
6872.149875541
 20
5732.7046013564
 30
0.0
 11
6874.018779178
 21
5732.7507949561
 31
0.0
  0
LINE
  5
4C4
330
1F
100
AcDbEntity
  8
0
  6
Continuous
 62
     7
100
AcDbLine
 10
6883.2481411889
 20
5731.1039484233
 30
0.0
 11
6883.3937553361
 21
5730.6779242248
 31
0.0
  0
LINE
  5
4C5
330
1F
100
AcDbEntity
  8
0
  6
Continuous
 62
     7
100
AcDbLine
 10
6883.3937553361
 20
5730.6779242248
 30
0.0
 11
6883.268764396
 21
5730.2830136508
 31
0.0
  0
LINE
  5
4C6
330
1F
100
AcDbEntity
  8
0
  6
Continuous
 62
     7
100
AcDbLine
 10
6882.3680190042
 20
5729.5743740291
 30
0.0
 11
6881.8137554124
 21
5729.3298757762
 31
0.0
  0
LINE
  5
4C7
330
1F
100
AcDbEntity
  8
0
  6
Continuous
 62
     7
100
AcDbLine
 10
6881.8137554124
 20
5729.3298757762
 30
0.0
 11
6880.7613161996
 21
5728.9920366496
 31
0.0
  0
LINE
  5
4C8
330
1F
100
AcDbEntity
  8
0
  6
Continuous
 62
     7
100
AcDbLine
 10
6865.8614663079
 20
5729.4820464343
 30
0.0
 11
6865.3573898271
 21
5729.7493732661
 31
0.0
  0
LINE
  5
4C9
330
1F
100
AcDbEntity
  8
0
  6
Continuous
 62
     7
100
AcDbLine
 10
6865.3573898271
 20
5729.7493732661
 30
0.0
 11
6864.8989705041
 21
5730.115614006
 31
0.0
  0
LINE
  5
4CA
330
1F
100
AcDbEntity
  8
0
  6
Continuous
 62
     7
100
AcDbLine
 10
6864.7687343553
 20
5730.2830136508
 30
0.0
 11
6864.6437434152
 21
5730.6779242248
 31
0.0
  0
LINE
  5
4CB
330
1F
100
AcDbEntity
  8
0
  6
Continuous
 62
     7
100
AcDbLine
 10
6864.6437434152
 20
5730.6779242248
 30
0.0
 11
6864.7893575624
 21
5731.1039484233
 31
0.0
  0
LINE
  5
4CC
330
1F
100
AcDbEntity
  8
0
  6
Continuous
 62
     7
100
AcDbLine
 10
6292.0187545612
 20
4598.9578581542
 30
0.0
 11
6292.0187545612
 21
5178.9578414649
 31
0.0
  0
LINE
  5
4CD
330
1F
100
AcDbEntity
  8
0
  6
Continuous
 62
     7
100
AcDbLine
 10
6256.018756111
 20
4598.9578581542
 30
0.0
 11
6256.018756111
 21
5178.9578414649
 31
0.0
  0
LINE
  5
4CE
330
1F
100
AcDbEntity
  8
0
  6
Continuous
 62
     7
100
AcDbLine
 10
4814.0187171891
 20
4598.9578581542
 30
0.0
 11
4814.0187171891
 21
5178.9578414649
 31
0.0
  0
LINE
  5
4CF
330
1F
100
AcDbEntity
  8
0
  6
Continuous
 62
     7
100
AcDbLine
 10
4778.0187038377
 20
4598.9578581542
 30
0.0
 11
4778.0187038377
 21
5178.9578414649
 31
0.0
  0
LINE
  5
4D0
330
1F
100
AcDbEntity
  8
0
  6
Continuous
 62
     7
100
AcDbLine
 10
4816.0188106492
 20
4735.9578228683
 30
0.0
 11
6254.0187557831
 21
4735.9578228683
 31
0.0
  0
LINE
  5
4D1
330
1F
100
AcDbEntity
  8
0
  6
Continuous
 62
     7
100
AcDbLine
 10
6294.0187548891
 20
4735.9578228683
 30
0.0
 11
7732.018700023
 21
4735.9578228683
 31
0.0
  0
LINE
  5
4D2
330
1F
100
AcDbEntity
  8
0
  6
Continuous
 62
     7
100
AcDbLine
 10
4816.0188106492
 20
4771.9578362197
 30
0.0
 11
6254.0187557831
 21
4771.9578362197
 31
0.0
  0
LINE
  5
4D3
330
1F
100
AcDbEntity
  8
0
  6
Continuous
 62
     7
100
AcDbLine
 10
6294.0187548891
 20
4771.9578362197
 30
0.0
 11
7732.018700023
 21
4771.9578362197
 31
0.0
  0
LINE
  5
4D4
330
1F
100
AcDbEntity
  8
0
  6
Continuous
 62
     7
100
AcDbLine
 10
7734.0187934831
 20
4598.9578581542
 30
0.0
 11
7734.0187934831
 21
5178.9578414649
 31
0.0
  0
LINE
  5
4D5
330
1F
100
AcDbEntity
  8
0
  6
Continuous
 62
     7
100
AcDbLine
 10
7770.0188068345
 20
4598.9578581542
 30
0.0
 11
7770.0188068345
 21
5178.9578414649
 31
0.0
  0
LINE
  5
4D6
330
1F
100
AcDbEntity
  8
0
  6
Continuous
 62
     7
100
AcDbLine
 10
4953.8282064393
 20
5158.2895732612
 30
0.0
 11
4899.2093709901
 21
5158.2895732612
 31
0.0
  0
LINE
  5
4D7
330
1F
100
AcDbEntity
  8
0
  6
Continuous
 62
     7
100
AcDbLine
 10
4899.4125036195
 20
5033.6362636775
 30
0.0
 11
4953.6249546006
 21
5033.6362636775
 31
0.0
  0
LINE
  5
4D8
330
1F
100
AcDbEntity
  8
0
  6
Continuous
 62
     7
100
AcDbLine
 10
4903.5187868074
 20
5174.4419253558
 30
0.0
 11
4949.518790622
 21
5174.4419253558
 31
0.0
  0
LINE
  5
4D9
330
1F
100
AcDbEntity
  8
0
  6
Continuous
 62
     7
100
AcDbLine
 10
8623.9167512805
 20
4590.9578419417
 30
0.0
 11
8623.9167512805
 21
4586.9578338355
 31
0.0
  0
LINE
  5
4DA
330
1F
100
AcDbEntity
  8
0
  6
Continuous
 62
     7
100
AcDbLine
 10
8633.9167529196
 20
4586.9578338355
 30
0.0
 11
8633.9167529196
 21
4590.9578419417
 31
0.0
  0
LINE
  5
4DB
330
1F
100
AcDbEntity
  8
0
  6
Continuous
 62
     7
100
AcDbLine
 10
8191.8246583492
 20
4590.9578419417
 30
0.0
 11
8191.8246583492
 21
4586.9578338355
 31
0.0
  0
LINE
  5
4DC
330
1F
100
AcDbEntity
  8
0
  6
Continuous
 62
     7
100
AcDbLine
 10
8201.8246786148
 20
4586.9578338355
 30
0.0
 11
8201.8246786148
 21
4590.9578419417
 31
0.0
  0
LINE
  5
4DD
330
1F
100
AcDbEntity
  8
0
  6
Continuous
 62
     7
100
AcDbLine
 10
8191.8246583492
 20
4590.9578419417
 30
0.0
 11
8191.8246583492
 21
4586.9578338355
 31
0.0
  0
LINE
  5
4DE
330
1F
100
AcDbEntity
  8
0
  6
Continuous
 62
     7
100
AcDbLine
 10
8201.8246786148
 20
4586.9578338355
 30
0.0
 11
8201.8246786148
 21
4590.9578419417
 31
0.0
  0
LINE
  5
4DF
330
1F
100
AcDbEntity
  8
0
  6
Continuous
 62
     7
100
AcDbLine
 10
8623.9167512805
 20
4590.9578419417
 30
0.0
 11
8623.9167512805
 21
4586.9578338355
 31
0.0
  0
LINE
  5
4E0
330
1F
100
AcDbEntity
  8
0
  6
Continuous
 62
     7
100
AcDbLine
 10
8633.9167529196
 20
4586.9578338355
 30
0.0
 11
8633.9167529196
 21
4590.9578419417
 31
0.0
  0
LINE
  5
4E1
330
1F
100
AcDbEntity
  8
0
  6
Continuous
 62
     7
100
AcDbLine
 10
8170.4367534668
 20
5740.1717818469
 30
0.0
 11
8170.8167628796
 21
5740.1717818469
 31
0.0
  0
LINE
  5
4E2
330
1F
100
AcDbEntity
  8
0
  6
Continuous
 62
     7
100
AcDbLine
 10
8170.8167628796
 20
5747.7717912883
 30
0.0
 11
8170.4367534668
 21
5747.7717912883
 31
0.0
  0
LINE
  5
4E3
330
1F
100
AcDbEntity
  8
0
  6
Continuous
 62
     7
100
AcDbLine
 10
8170.4367534668
 20
5830.1717854232
 30
0.0
 11
8170.8167628796
 21
5830.1717854232
 31
0.0
  0
LINE
  5
4E4
330
1F
100
AcDbEntity
  8
0
  6
Continuous
 62
     7
100
AcDbLine
 10
8170.8167628796
 20
5837.7717948646
 30
0.0
 11
8170.4367534668
 21
5837.7717948646
 31
0.0
  0
LINE
  5
4E5
330
1F
100
AcDbEntity
  8
0
  6
Continuous
 62
     7
100
AcDbLine
 10
8176.8246726544
 20
5178.9419270248
 30
0.0
 11
8170.6483499558
 21
5178.9419270248
 31
0.0
  0
LINE
  5
4E6
330
1F
100
AcDbEntity
  8
0
  6
Continuous
 62
     7
100
AcDbLine
 10
8170.6483499558
 20
5098.9419437141
 30
0.0
 11
8176.8246726544
 21
5098.9419437141
 31
0.0
  0
LINE
  5
4E7
330
1F
100
AcDbEntity
  8
0
  6
Continuous
 62
     7
100
AcDbLine
 10
8170.6483499558
 20
5158.9419162959
 30
0.0
 11
8160.6483594925
 21
5158.9419162959
 31
0.0
  0
LINE
  5
4E8
330
1F
100
AcDbEntity
  8
0
  6
Continuous
 62
     7
100
AcDbLine
 10
8160.6483594925
 20
5118.9419246406
 30
0.0
 11
8170.6483499558
 21
5118.9419246406
 31
0.0
  0
LINE
  5
4E9
330
1F
100
AcDbEntity
  8
0
  6
Continuous
 62
     7
100
AcDbLine
 10
8353.3167378456
 20
5158.9419162959
 30
0.0
 11
8216.8246643097
 21
5158.9419162959
 31
0.0
  0
LINE
  5
4EA
330
1F
100
AcDbEntity
  8
0
  6
Continuous
 62
     7
100
AcDbLine
 10
8216.8246643097
 20
5118.9419246406
 30
0.0
 11
8353.3167378456
 21
5118.9419246406
 31
0.0
  0
LINE
  5
4EB
330
1F
100
AcDbEntity
  8
0
  6
Continuous
 62
     7
100
AcDbLine
 10
8397.3167376072
 20
5178.9578414649
 30
0.0
 11
8397.3167376072
 21
5177.4419165343
 31
0.0
  0
LINE
  5
4EC
330
1F
100
AcDbEntity
  8
0
  6
Continuous
 62
     7
100
AcDbLine
 10
8397.3167376072
 20
5163.4419179648
 30
0.0
 11
8397.3167376072
 21
5160.941920349
 31
0.0
  0
LINE
  5
4ED
330
1F
100
AcDbEntity
  8
0
  6
Continuous
 62
     7
100
AcDbLine
 10
8429.3167577536
 20
5160.941920349
 30
0.0
 11
8429.3167577536
 21
5163.4419179648
 31
0.0
  0
LINE
  5
4EE
330
1F
100
AcDbEntity
  8
0
  6
Continuous
 62
     7
100
AcDbLine
 10
8429.3167577536
 20
5177.4419165343
 30
0.0
 11
8429.3167577536
 21
5178.9578414649
 31
0.0
  0
LINE
  5
4EF
330
1F
100
AcDbEntity
  8
0
  6
Continuous
 62
     7
100
AcDbLine
 10
8447.3167495281
 20
5100.9419179648
 30
0.0
 11
8440.6261877568
 21
5158.2895732612
 31
0.0
  0
LINE
  5
4F0
330
1F
100
AcDbEntity
  8
0
  6
Continuous
 62
     7
100
AcDbLine
 10
8381.1878399403
 20
5116.9799483508
 30
0.0
 11
8379.3167607338
 21
5100.9419179648
 31
0.0
  0
LINE
  5
4F1
330
1F
100
AcDbEntity
  8
0
  6
Continuous
 62
     7
100
AcDbLine
 10
8379.3167607338
 20
5100.9419179648
 30
0.0
 11
8386.2105445416
 21
5033.6362636775
 31
0.0
  0
LINE
  5
4F2
330
1F
100
AcDbEntity
  8
0
  6
Continuous
 62
     7
100
AcDbLine
 10
8440.4229657204
 20
5033.6362636775
 30
0.0
 11
8447.3167495281
 21
5100.9419179648
 31
0.0
  0
LINE
  5
4F3
330
1F
100
AcDbEntity
  8
0
  6
Continuous
 62
     7
100
AcDbLine
 10
8369.3167404682
 20
5166.4419389457
 30
0.0
 11
8365.3167621643
 21
5164.9419284553
 31
0.0
  0
LINE
  5
4F4
330
1F
100
AcDbEntity
  8
0
  6
Continuous
 62
     7
100
AcDbLine
 10
8365.3167621643
 20
5112.9419422835
 30
0.0
 11
8369.3167404682
 21
5111.4419317931
 31
0.0
  0
LINE
  5
4F5
330
1F
100
AcDbEntity
  8
0
  6
Continuous
 62
     7
100
AcDbLine
 10
8365.3167621643
 20
5164.9419284553
 30
0.0
 11
8356.3167588265
 21
5164.9419284553
 31
0.0
  0
LINE
  5
4F6
330
1F
100
AcDbEntity
  8
0
  6
Continuous
 62
     7
100
AcDbLine
 10
8356.3167588265
 20
5112.9419422835
 30
0.0
 11
8365.3167621643
 21
5112.9419422835
 31
0.0
  0
LINE
  5
4F7
330
1F
100
AcDbEntity
  8
0
  6
Continuous
 62
     7
100
AcDbLine
 10
8438.3167461903
 20
5163.4419179648
 30
0.0
 11
8436.3167570383
 21
5167.4419260711
 31
0.0
  0
LINE
  5
4F8
330
1F
100
AcDbEntity
  8
0
  6
Continuous
 62
     7
100
AcDbLine
 10
8390.3167383225
 20
5167.4419260711
 30
0.0
 11
8388.3167640717
 21
5163.4419179648
 31
0.0
  0
LINE
  5
4F9
330
1F
100
AcDbEntity
  8
0
  6
Continuous
 62
     7
100
AcDbLine
 10
8390.3167383225
 20
5174.4419253558
 30
0.0
 11
8390.3167383225
 21
5167.4419260711
 31
0.0
  0
LINE
  5
4FA
330
1F
100
AcDbEntity
  8
0
  6
Continuous
 62
     7
100
AcDbLine
 10
8436.3167570383
 20
5167.4419260711
 30
0.0
 11
8436.3167570383
 21
5174.4419253558
 31
0.0
  0
LINE
  5
4FB
330
1F
100
AcDbEntity
  8
0
  6
Continuous
 62
     7
100
AcDbLine
 10
8369.3167404682
 20
5116.9419205875
 30
0.0
 11
8381.2115923912
 21
5116.9419205875
 31
0.0
  0
LINE
  5
4FC
330
1F
100
AcDbEntity
  8
0
  6
Continuous
 62
     7
100
AcDbLine
 10
8386.3167600186
 20
5160.941920349
 30
0.0
 11
8369.3167404682
 21
5160.941920349
 31
0.0
  0
LINE
  5
4FD
330
1F
100
AcDbEntity
  8
0
  6
Continuous
 62
     7
100
AcDbLine
 10
8397.3167376072
 20
5163.4419179648
 30
0.0
 11
8397.3167376072
 21
5160.941920349
 31
0.0
  0
LINE
  5
4FE
330
1F
100
AcDbEntity
  8
0
  6
Continuous
 62
     7
100
AcDbLine
 10
8429.3167577536
 20
5160.941920349
 30
0.0
 11
8429.3167577536
 21
5163.4419179648
 31
0.0
  0
LINE
  5
4FF
330
1F
100
AcDbEntity
  8
0
  6
Continuous
 62
     7
100
AcDbLine
 10
8230.3667501957
 20
5532.3578409046
 30
0.0
 11
8230.3667501957
 21
5542.9578415245
 31
0.0
  0
LINE
  5
500
330
1F
100
AcDbEntity
  8
0
  6
Continuous
 62
     7
100
AcDbLine
 10
8220.8167449982
 20
5518.9578450412
 30
0.0
 11
8222.8167490513
 21
5518.9578450412
 31
0.0
  0
LINE
  5
501
330
1F
100
AcDbEntity
  8
0
  6
Continuous
 62
     7
100
AcDbLine
 10
8222.8167490513
 20
5558.9578366965
 30
0.0
 11
8220.8167449982
 21
5558.9578366965
 31
0.0
  0
LINE
  5
502
330
1F
100
AcDbEntity
  8
0
  6
Continuous
 62
     7
100
AcDbLine
 10
8230.2167551071
 20
5543.2578391522
 30
0.0
 11
8230.2167551071
 21
5546.400210926
 31
0.0
  0
LINE
  5
503
330
1F
100
AcDbEntity
  8
0
  6
Continuous
 62
     7
100
AcDbLine
 10
8230.2167551071
 20
5531.5154708118
 30
0.0
 11
8230.2167551071
 21
5532.2578392119
 31
0.0
  0
LINE
  5
504
330
1F
100
AcDbEntity
  8
0
  6
Continuous
 62
     7
100
AcDbLine
 10
8223.316742614
 20
5768.9578450412
 30
0.0
 11
8220.8167449982
 21
5768.9578450412
 31
0.0
  0
LINE
  5
505
330
1F
100
AcDbEntity
  8
0
  6
Continuous
 62
     7
100
AcDbLine
 10
8220.8167449982
 20
5708.957842657
 30
0.0
 11
8223.316742614
 21
5708.957842657
 31
0.0
  0
LINE
  5
506
330
1F
100
AcDbEntity
  8
0
  6
Continuous
 62
     7
100
AcDbLine
 10
8223.316742614
 20
5708.957842657
 30
0.0
 11
8223.816765979
 21
5709.4578362197
 31
0.0
  0
LINE
  5
507
330
1F
100
AcDbEntity
  8
0
  6
Continuous
 62
     7
100
AcDbLine
 10
8223.816765979
 20
5768.4578514785
 30
0.0
 11
8223.316742614
 21
5768.9578450412
 31
0.0
  0
LINE
  5
508
330
1F
100
AcDbEntity
  8
0
  6
Continuous
 62
     7
100
AcDbLine
 10
8232.4667410404
 20
5724.9578452796
 30
0.0
 11
8354.8167483361
 21
5724.9578452796
 31
0.0
  0
LINE
  5
509
330
1F
100
AcDbEntity
  8
0
  6
Continuous
 62
     7
100
AcDbLine
 10
8223.816765979
 20
5724.9578452796
 30
0.0
 11
8229.1874424965
 21
5724.9578452796
 31
0.0
  0
LINE
  5
50A
330
1F
100
AcDbEntity
  8
0
  6
Continuous
 62
     7
100
AcDbLine
 10
8388.8167576344
 20
5752.9578424186
 30
0.0
 11
8223.816765979
 21
5752.9578424186
 31
0.0
  0
LINE
  5
50B
330
1F
100
AcDbEntity
  8
0
  6
Continuous
 62
     7
100
AcDbLine
 10
8389.8167447598
 20
5751.9578552932
 30
0.0
 11
8388.8167576344
 21
5752.9578424186
 31
0.0
  0
LINE
  5
50C
330
1F
100
AcDbEntity
  8
0
  6
Continuous
 62
     7
100
AcDbLine
 10
8610.9167510123
 20
4596.9578242988
 30
0.0
 11
8646.9167522565
 21
4596.9578242988
 31
0.0
  0
LINE
  5
50D
330
1F
100
AcDbEntity
  8
0
  6
Continuous
 62
     7
100
AcDbLine
 10
8643.4167527736
 20
4590.9578420878
 30
0.0
 11
8614.4167527736
 21
4590.9578420878
 31
0.0
  0
LINE
  5
50E
330
1F
100
AcDbEntity
  8
0
  6
Continuous
 62
     7
100
AcDbLine
 10
8646.9167522565
 20
4598.9578581542
 30
0.0
 11
8610.9167510123
 21
4598.9578581542
 31
0.0
  0
LINE
  5
50F
330
1F
100
AcDbEntity
  8
0
  6
Continuous
 62
     7
100
AcDbLine
 10
8646.9167522565
 20
4596.9578242988
 30
0.0
 11
8646.9167522565
 21
4598.9578581542
 31
0.0
  0
LINE
  5
510
330
1F
100
AcDbEntity
  8
0
  6
Continuous
 62
     7
100
AcDbLine
 10
8610.9167510123
 20
4596.9578242988
 30
0.0
 11
8610.9167510123
 21
4598.9578581542
 31
0.0
  0
LINE
  5
511
330
1F
100
AcDbEntity
  8
0
  6
Continuous
 62
     7
100
AcDbLine
 10
8610.9167510123
 20
4598.9578581542
 30
0.0
 11
8608.4167533965
 21
4598.9578581542
 31
0.0
  0
LINE
  5
512
330
1F
100
AcDbEntity
  8
0
  6
Continuous
 62
     7
100
AcDbLine
 10
8608.4167533965
 20
4596.9578242988
 30
0.0
 11
8610.9167510123
 21
4596.9578242988
 31
0.0
  0
LINE
  5
513
330
1F
100
AcDbEntity
  8
0
  6
Continuous
 62
     7
100
AcDbLine
 10
8608.4167533965
 20
4596.9578242988
 30
0.0
 11
8608.4167533965
 21
4598.9578581542
 31
0.0
  0
LINE
  5
514
330
1F
100
AcDbEntity
  8
0
  6
Continuous
 62
     7
100
AcDbLine
 10
8649.4167527986
 20
4596.9578242988
 30
0.0
 11
8649.4167527986
 21
4598.9578581542
 31
0.0
  0
LINE
  5
515
330
1F
100
AcDbEntity
  8
0
  6
Continuous
 62
     7
100
AcDbLine
 10
8646.9167522565
 20
4596.9578242988
 30
0.0
 11
8649.4167527986
 21
4596.9578242988
 31
0.0
  0
LINE
  5
516
330
1F
100
AcDbEntity
  8
0
  6
Continuous
 62
     7
100
AcDbLine
 10
8649.4167527986
 20
4598.9578581542
 30
0.0
 11
8646.9167522565
 21
4598.9578581542
 31
0.0
  0
LINE
  5
517
330
1F
100
AcDbEntity
  8
0
  6
Continuous
 62
     7
100
AcDbLine
 10
8628.9167521001
 20
4578.957817623
 30
0.0
 11
8628.9167521001
 21
4586.9578338355
 31
0.0
  0
LINE
  5
518
330
1F
100
AcDbEntity
  8
0
  6
Continuous
 62
     7
100
AcDbLine
 10
8628.9167521001
 20
4578.957817623
 30
0.0
 11
8613.9167533667
 21
4578.957817623
 31
0.0
  0
LINE
  5
519
330
1F
100
AcDbEntity
  8
0
  6
Continuous
 62
     7
100
AcDbLine
 10
8613.9167533667
 20
4578.957817623
 30
0.0
 11
8613.9167533667
 21
4586.9578338355
 31
0.0
  0
LINE
  5
51A
330
1F
100
AcDbEntity
  8
0
  6
Continuous
 62
     7
100
AcDbLine
 10
8628.9167521001
 20
4586.9578338355
 30
0.0
 11
8613.9167533667
 21
4586.9578338355
 31
0.0
  0
LINE
  5
51B
330
1F
100
AcDbEntity
  8
0
  6
Continuous
 62
     7
100
AcDbLine
 10
8643.9167522305
 20
4578.957817623
 30
0.0
 11
8643.9167522305
 21
4586.9578338355
 31
0.0
  0
LINE
  5
51C
330
1F
100
AcDbEntity
  8
0
  6
Continuous
 62
     7
100
AcDbLine
 10
8643.9167522305
 20
4578.957817623
 30
0.0
 11
8628.9167521001
 21
4578.957817623
 31
0.0
  0
LINE
  5
51D
330
1F
100
AcDbEntity
  8
0
  6
Continuous
 62
     7
100
AcDbLine
 10
8643.9167522305
 20
4586.9578338355
 30
0.0
 11
8628.9167521001
 21
4586.9578338355
 31
0.0
  0
LINE
  5
51E
330
1F
100
AcDbEntity
  8
0
  6
Continuous
 62
     7
100
AcDbLine
 10
8178.8246767075
 20
4598.9578581542
 30
0.0
 11
8176.3246492893
 21
4598.9578581542
 31
0.0
  0
LINE
  5
51F
330
1F
100
AcDbEntity
  8
0
  6
Continuous
 62
     7
100
AcDbLine
 10
8178.8246767075
 20
4596.9578242988
 30
0.0
 11
8178.8246767075
 21
4598.9578581542
 31
0.0
  0
LINE
  5
520
330
1F
100
AcDbEntity
  8
0
  6
Continuous
 62
     7
100
AcDbLine
 10
8176.3246492893
 20
4596.9578242988
 30
0.0
 11
8178.8246767075
 21
4596.9578242988
 31
0.0
  0
LINE
  5
521
330
1F
100
AcDbEntity
  8
0
  6
Continuous
 62
     7
100
AcDbLine
 10
8176.3246492893
 20
4596.9578242988
 30
0.0
 11
8176.3246492893
 21
4598.9578581542
 31
0.0
  0
LINE
  5
522
330
1F
100
AcDbEntity
  8
0
  6
Continuous
 62
     7
100
AcDbLine
 10
8214.8246602566
 20
4598.9578581542
 30
0.0
 11
8178.8246767075
 21
4598.9578581542
 31
0.0
  0
LINE
  5
523
330
1F
100
AcDbEntity
  8
0
  6
Continuous
 62
     7
100
AcDbLine
 10
8214.8246602566
 20
4596.9578242988
 30
0.0
 11
8214.8246602566
 21
4598.9578581542
 31
0.0
  0
LINE
  5
524
330
1F
100
AcDbEntity
  8
0
  6
Continuous
 62
     7
100
AcDbLine
 10
8178.8246767075
 20
4596.9578242988
 30
0.0
 11
8214.8246602566
 21
4596.9578242988
 31
0.0
  0
LINE
  5
525
330
1F
100
AcDbEntity
  8
0
  6
Continuous
 62
     7
100
AcDbLine
 10
8211.3246757538
 20
4590.9578421801
 30
0.0
 11
8182.32466408
 21
4590.9578417033
 31
0.0
  0
LINE
  5
526
330
1F
100
AcDbEntity
  8
0
  6
Continuous
 62
     7
100
AcDbLine
 10
8217.324660857
 20
4596.9578242988
 30
0.0
 11
8217.324660857
 21
4598.9578581542
 31
0.0
  0
LINE
  5
527
330
1F
100
AcDbEntity
  8
0
  6
Continuous
 62
     7
100
AcDbLine
 10
8214.8246602566
 20
4596.9578242988
 30
0.0
 11
8217.324660857
 21
4596.9578242988
 31
0.0
  0
LINE
  5
528
330
1F
100
AcDbEntity
  8
0
  6
Continuous
 62
     7
100
AcDbLine
 10
8217.324660857
 20
4598.9578581542
 30
0.0
 11
8214.8246602566
 21
4598.9578581542
 31
0.0
  0
LINE
  5
529
330
1F
100
AcDbEntity
  8
0
  6
Continuous
 62
     7
100
AcDbLine
 10
8196.8246535809
 20
4578.957817623
 30
0.0
 11
8196.8246535809
 21
4586.9578338355
 31
0.0
  0
LINE
  5
52A
330
1F
100
AcDbEntity
  8
0
  6
Continuous
 62
     7
100
AcDbLine
 10
8196.8246535809
 20
4578.957817623
 30
0.0
 11
8181.824667886
 21
4578.957817623
 31
0.0
  0
LINE
  5
52B
330
1F
100
AcDbEntity
  8
0
  6
Continuous
 62
     7
100
AcDbLine
 10
8181.824667886
 20
4578.957817623
 30
0.0
 11
8181.824667886
 21
4586.9578338355
 31
0.0
  0
LINE
  5
52C
330
1F
100
AcDbEntity
  8
0
  6
Continuous
 62
     7
100
AcDbLine
 10
8196.8246535809
 20
4586.9578338355
 30
0.0
 11
8181.824667886
 21
4586.9578338355
 31
0.0
  0
LINE
  5
52D
330
1F
100
AcDbEntity
  8
0
  6
Continuous
 62
     7
100
AcDbLine
 10
8211.8246690781
 20
4578.957817623
 30
0.0
 11
8211.8246690781
 21
4586.9578338355
 31
0.0
  0
LINE
  5
52E
330
1F
100
AcDbEntity
  8
0
  6
Continuous
 62
     7
100
AcDbLine
 10
8211.8246690781
 20
4578.957817623
 30
0.0
 11
8196.8246535809
 21
4578.957817623
 31
0.0
  0
LINE
  5
52F
330
1F
100
AcDbEntity
  8
0
  6
Continuous
 62
     7
100
AcDbLine
 10
8211.8246690781
 20
4586.9578338355
 30
0.0
 11
8196.8246535809
 21
4586.9578338355
 31
0.0
  0
LINE
  5
530
330
1F
100
AcDbEntity
  8
0
  6
Continuous
 62
     7
100
AcDbLine
 10
8608.9167506845
 20
4598.9578581542
 30
0.0
 11
8608.9167506845
 21
5178.9578414649
 31
0.0
  0
LINE
  5
531
330
1F
100
AcDbEntity
  8
0
  6
Continuous
 62
     7
100
AcDbLine
 10
8648.9167521187
 20
4598.9578581542
 30
0.0
 11
8648.9167521187
 21
5178.9578414649
 31
0.0
  0
LINE
  5
532
330
1F
100
AcDbEntity
  8
0
  6
Continuous
 62
     7
100
AcDbLine
 10
8176.8246726544
 20
4598.9578581542
 30
0.0
 11
8176.8246726544
 21
5178.9578414649
 31
0.0
  0
LINE
  5
533
330
1F
100
AcDbEntity
  8
0
  6
Continuous
 62
     7
100
AcDbLine
 10
8216.8246643097
 20
4598.9578581542
 30
0.0
 11
8216.8246643097
 21
5178.9578414649
 31
0.0
  0
LINE
  5
534
330
1F
100
AcDbEntity
  8
0
  6
Continuous
 62
     7
100
AcDbLine
 10
8608.9167506845
 20
4733.9578486175
 30
0.0
 11
8216.8246643097
 21
4733.9578486175
 31
0.0
  0
LINE
  5
535
330
1F
100
AcDbEntity
  8
0
  6
Continuous
 62
     7
100
AcDbLine
 10
8608.9167506845
 20
4735.9578228683
 30
0.0
 11
8216.8246643097
 21
4735.9578228683
 31
0.0
  0
LINE
  5
536
330
1F
100
AcDbEntity
  8
0
  6
Continuous
 62
     7
100
AcDbLine
 10
8608.9167506845
 20
4771.9578362197
 30
0.0
 11
8216.8246643097
 21
4771.9578362197
 31
0.0
  0
LINE
  5
537
330
1F
100
AcDbEntity
  8
0
  6
Continuous
 62
     7
100
AcDbLine
 10
8608.9167506845
 20
4773.9578700751
 30
0.0
 11
8216.8246643097
 21
4773.9578700751
 31
0.0
  0
LINE
  5
538
330
1F
100
AcDbEntity
  8
0
  6
Continuous
 62
     7
100
AcDbLine
 10
8173.4741465599
 20
5848.3929849357
 30
0.0
 11
8219.0741436035
 21
5838.7004054278
 31
0.0
  0
LINE
  5
539
330
1F
100
AcDbEntity
  8
0
  6
Continuous
 62
     7
100
AcDbLine
 10
8220.8167449982
 20
5836.5484989375
 30
0.0
 11
8220.8167449982
 21
5428.9578414649
 31
0.0
  0
LINE
  5
53A
330
1F
100
AcDbEntity
  8
0
  6
Continuous
 62
     7
100
AcDbLine
 10
8220.8167449982
 20
5428.9578414649
 30
0.0
 11
8648.6167521627
 21
5428.9578414649
 31
0.0
  0
LINE
  5
53B
330
1F
100
AcDbEntity
  8
0
  6
Continuous
 62
     7
100
AcDbLine
 10
8650.8167521507
 20
5426.7578414768
 30
0.0
 11
8650.8167521507
 21
5403.9578410924
 31
0.0
  0
LINE
  5
53C
330
1F
100
AcDbEntity
  8
0
  6
Continuous
 62
     7
100
AcDbLine
 10
8650.8167521507
 20
5403.9578410924
 30
0.0
 11
8647.8167521247
 21
5403.9578410924
 31
0.0
  0
LINE
  5
53D
330
1F
100
AcDbEntity
  8
0
  6
Continuous
 62
     7
100
AcDbLine
 10
8647.8167521247
 20
5403.9578410924
 30
0.0
 11
8647.8167521247
 21
5403.9478405506
 31
0.0
  0
LINE
  5
53E
330
1F
100
AcDbEntity
  8
0
  6
Continuous
 62
     7
100
AcDbLine
 10
8647.8167521247
 20
5178.9578414649
 30
0.0
 11
8647.8167521247
 21
5403.9478405506
 31
0.0
  0
LINE
  5
53F
330
1F
100
AcDbEntity
  8
0
  6
Continuous
 62
     7
100
AcDbLine
 10
8647.8167521247
 20
5178.9578414649
 30
0.0
 11
8173.9167408497
 21
5178.9578414649
 31
0.0
  0
LINE
  5
540
330
1F
100
AcDbEntity
  8
0
  6
Continuous
 62
     7
100
AcDbLine
 10
8173.9167408497
 20
5823.5578454227
 30
0.0
 11
8173.9167408497
 21
5178.9578414649
 31
0.0
  0
LINE
  5
541
330
1F
100
AcDbEntity
  8
0
  6
Continuous
 62
     7
100
AcDbLine
 10
8173.9167408497
 20
5823.5578454227
 30
0.0
 11
8174.9167577774
 21
5823.5578454227
 31
0.0
  0
LINE
  5
542
330
1F
100
AcDbEntity
  8
0
  6
Continuous
 62
     7
100
AcDbLine
 10
8174.9167577774
 20
5823.5578454227
 30
0.0
 11
8174.9167577774
 21
5825.5578494758
 31
0.0
  0
LINE
  5
543
330
1F
100
AcDbEntity
  8
0
  6
Continuous
 62
     7
100
AcDbLine
 10
8174.9167577774
 20
5825.5578494758
 30
0.0
 11
8170.8167628796
 21
5825.5578494758
 31
0.0
  0
LINE
  5
544
330
1F
100
AcDbEntity
  8
0
  6
Continuous
 62
     7
100
AcDbLine
 10
8170.8167628796
 20
5825.5578494758
 30
0.0
 11
8170.8167628796
 21
5846.2410784453
 31
0.0
  0
LINE
  5
545
330
1F
100
AcDbEntity
  8
0
  6
Continuous
 62
     7
100
AcDbLine
 10
8170.8167628796
 20
5178.9578414649
 30
0.0
 11
8170.8167628796
 21
5823.5578454227
 31
0.0
  0
LINE
  5
546
330
1F
100
AcDbEntity
  8
0
  6
Continuous
 62
     7
100
AcDbLine
 10
8170.8167628796
 20
5823.5578454227
 30
0.0
 11
8173.9167408497
 21
5823.5578454227
 31
0.0
  0
LINE
  5
547
330
1F
100
AcDbEntity
  8
0
  6
Continuous
 62
     7
100
AcDbLine
 10
8173.9167408497
 20
5178.9578414649
 30
0.0
 11
8170.8167628796
 21
5178.9578414649
 31
0.0
  0
LINE
  5
548
330
1F
100
AcDbEntity
  8
0
  6
Continuous
 62
     7
100
AcDbLine
 10
8650.9167521482
 20
5178.9578414649
 30
0.0
 11
8650.9167521482
 21
5403.9478405506
 31
0.0
  0
LINE
  5
549
330
1F
100
AcDbEntity
  8
0
  6
Continuous
 62
     7
100
AcDbLine
 10
8650.9167521482
 20
5178.9578414649
 30
0.0
 11
8647.8167521247
 21
5178.9578414649
 31
0.0
  0
LINE
  5
54A
330
1F
100
AcDbEntity
  8
0
  6
Continuous
 62
     7
100
AcDbLine
 10
8647.8167521247
 20
5403.9478405506
 30
0.0
 11
8650.9167521482
 21
5403.9478405506
 31
0.0
  0
LINE
  5
54B
330
1F
100
AcDbEntity
  8
0
  6
Continuous
 62
     7
100
AcDbLine
 10
8170.8167628796
 20
5823.9578521937
 30
0.0
 11
8172.0167533905
 21
5823.9578521937
 31
0.0
  0
LINE
  5
54C
330
1F
100
AcDbEntity
  8
0
  6
Continuous
 62
     7
100
AcDbLine
 10
8170.8167628796
 20
5825.5578494758
 30
0.0
 11
8170.8167628796
 21
5823.9578521937
 31
0.0
  0
LINE
  5
54D
330
1F
100
AcDbEntity
  8
0
  6
Continuous
 62
     7
100
AcDbLine
 10
8172.0167533905
 20
5825.5578494758
 30
0.0
 11
8172.0167533905
 21
5823.9578521937
 31
0.0
  0
LINE
  5
54E
330
1F
100
AcDbEntity
  8
0
  6
Continuous
 62
     7
100
AcDbLine
 10
8168.6167554409
 20
5745.8060599059
 30
0.0
 11
8168.6167554409
 21
5745.8718038291
 31
0.0
  0
LINE
  5
54F
330
1F
100
AcDbEntity
  8
0
  6
Continuous
 62
     7
100
AcDbLine
 10
8168.6167554409
 20
5742.0717991084
 30
0.0
 11
8168.6167554409
 21
5745.8060599059
 31
0.0
  0
LINE
  5
550
330
1F
100
AcDbEntity
  8
0
  6
Continuous
 62
     7
100
AcDbLine
 10
8170.4367534668
 20
5747.6403332442
 30
0.0
 11
8170.4367534668
 21
5747.7717912883
 31
0.0
  0
LINE
  5
551
330
1F
100
AcDbEntity
  8
0
  6
Continuous
 62
     7
100
AcDbLine
 10
8170.4367534668
 20
5740.1717818469
 30
0.0
 11
8170.4367534668
 21
5747.6403332442
 31
0.0
  0
LINE
  5
552
330
1F
100
AcDbEntity
  8
0
  6
Continuous
 62
     7
100
AcDbLine
 10
8168.6167554409
 20
5832.0718026847
 30
0.0
 11
8168.6167554409
 21
5835.8717776031
 31
0.0
  0
LINE
  5
553
330
1F
100
AcDbEntity
  8
0
  6
Continuous
 62
     7
100
AcDbLine
 10
8170.4367534668
 20
5830.1717854232
 30
0.0
 11
8170.4367534668
 21
5837.7717948646
 31
0.0
  0
LINE
  5
554
330
1F
100
AcDbEntity
  8
0
  6
Continuous
 62
     7
100
AcDbLine
 10
8174.3167476208
 20
5824.971786806
 30
0.0
 11
8172.8167669327
 21
5824.971786806
 31
0.0
  0
LINE
  5
555
330
1F
100
AcDbEntity
  8
0
  6
Continuous
 62
     7
100
AcDbLine
 10
8174.3167476208
 20
5824.971786806
 30
0.0
 11
8174.3167476208
 21
5823.5578454227
 31
0.0
  0
LINE
  5
556
330
1F
100
AcDbEntity
  8
0
  6
Continuous
 62
     7
100
AcDbLine
 10
8172.8167669327
 20
5824.971786806
 30
0.0
 11
8172.8167669327
 21
5823.5578454227
 31
0.0
  0
LINE
  5
557
330
1F
100
AcDbEntity
  8
0
  6
Continuous
 62
     7
100
AcDbLine
 10
8174.3167476208
 20
5825.5578494758
 30
0.0
 11
8174.3167476208
 21
5824.971786806
 31
0.0
  0
LINE
  5
558
330
1F
100
AcDbEntity
  8
0
  6
Continuous
 62
     7
100
AcDbLine
 10
8172.8167669327
 20
5824.971786806
 30
0.0
 11
8172.8167669327
 21
5825.5578494758
 31
0.0
  0
LINE
  5
559
330
1F
100
AcDbEntity
  8
0
  6
Continuous
 62
     7
100
AcDbLine
 10
8170.6483499558
 20
5178.9419270248
 30
0.0
 11
8170.6483499558
 21
5098.9419437141
 31
0.0
  0
LINE
  5
55A
330
1F
100
AcDbEntity
  8
0
  6
Continuous
 62
     7
100
AcDbLine
 10
8160.6483594925
 20
5158.9419162959
 30
0.0
 11
8160.6483594925
 21
5118.9419246406
 31
0.0
  0
LINE
  5
55B
330
1F
100
AcDbEntity
  8
0
  6
Continuous
 62
     7
100
AcDbLine
 10
8379.3167607338
 20
5100.9419179648
 30
0.0
 11
8447.3167495281
 21
5100.9419179648
 31
0.0
  0
LINE
  5
55C
330
1F
100
AcDbEntity
  8
0
  6
Continuous
 62
     7
100
AcDbLine
 10
8369.3167404682
 20
5166.4419389457
 30
0.0
 11
8369.3167404682
 21
5111.4419317931
 31
0.0
  0
LINE
  5
55D
330
1F
100
AcDbEntity
  8
0
  6
Continuous
 62
     7
100
AcDbLine
 10
8365.3167621643
 20
5164.9419284553
 30
0.0
 11
8365.3167621643
 21
5112.9419422835
 31
0.0
  0
LINE
  5
55E
330
1F
100
AcDbEntity
  8
0
  6
Continuous
 62
     7
100
AcDbLine
 10
8390.8469812424
 20
5160.941920349
 30
0.0
 11
8437.6464025528
 21
5160.941920349
 31
0.0
  0
LINE
  5
55F
330
1F
100
AcDbEntity
  8
0
  6
Continuous
 62
     7
100
AcDbLine
 10
8389.1949193032
 20
5030.9419251174
 30
0.0
 11
8437.4385760576
 21
5030.9419251174
 31
0.0
  0
LINE
  5
560
330
1F
100
AcDbEntity
  8
0
  6
Continuous
 62
     7
100
AcDbLine
 10
8353.3167378456
 20
5161.9419372768
 30
0.0
 11
8353.3167378456
 21
5115.9419334621
 31
0.0
  0
LINE
  5
561
330
1F
100
AcDbEntity
  8
0
  6
Continuous
 62
     7
100
AcDbLine
 10
8390.3167383225
 20
5167.4419260711
 30
0.0
 11
8436.3167570383
 21
5167.4419260711
 31
0.0
  0
LINE
  5
562
330
1F
100
AcDbEntity
  8
0
  6
Continuous
 62
     7
100
AcDbLine
 10
8388.3167640717
 20
5163.4419179648
 30
0.0
 11
8438.3167461903
 21
5163.4419179648
 31
0.0
  0
LINE
  5
563
330
1F
100
AcDbEntity
  8
0
  6
Continuous
 62
     7
100
AcDbLine
 10
8393.3167593033
 20
5177.4419165343
 30
0.0
 11
8433.3167509587
 21
5177.4419165343
 31
0.0
  0
LINE
  5
564
330
1F
100
AcDbEntity
  8
0
  6
Continuous
 62
     7
100
AcDbLine
 10
8229.2464212925
 20
5542.9578415245
 30
0.0
 11
8228.5345034153
 21
5542.9578415245
 31
0.0
  0
LINE
  5
565
330
1F
100
AcDbEntity
  8
0
  6
Continuous
 62
     7
100
AcDbLine
 10
8229.2464212925
 20
5532.3578409046
 30
0.0
 11
8228.8205461056
 21
5532.3578409046
 31
0.0
  0
LINE
  5
566
330
1F
100
AcDbEntity
  8
0
  6
Continuous
 62
     7
100
AcDbLine
 10
8230.3667501957
 20
5542.9578415245
 30
0.0
 11
8229.2464212925
 21
5542.9578415245
 31
0.0
  0
LINE
  5
567
330
1F
100
AcDbEntity
  8
0
  6
Continuous
 62
     7
100
AcDbLine
 10
8230.3667501957
 20
5532.3578409046
 30
0.0
 11
8229.2464212925
 21
5532.3578409046
 31
0.0
  0
LINE
  5
568
330
1F
100
AcDbEntity
  8
0
  6
Continuous
 62
     7
100
AcDbLine
 10
8222.8167490513
 20
5530.5936328262
 30
0.0
 11
8222.8167490513
 21
5518.9578450412
 31
0.0
  0
LINE
  5
569
330
1F
100
AcDbEntity
  8
0
  6
Continuous
 62
     7
100
AcDbLine
 10
8222.8167490513
 20
5558.9578366965
 30
0.0
 11
8222.8167490513
 21
5547.3220489115
 31
0.0
  0
LINE
  5
56A
330
1F
100
AcDbEntity
  8
0
  6
Continuous
 62
     7
100
AcDbLine
 10
8230.2167551071
 20
5543.2578391522
 30
0.0
 11
8229.1115359814
 21
5543.2578391522
 31
0.0
  0
LINE
  5
56B
330
1F
100
AcDbEntity
  8
0
  6
Continuous
 62
     7
100
AcDbLine
 10
8229.1115359814
 20
5532.2578392119
 30
0.0
 11
8230.2167551071
 21
5532.2578392119
 31
0.0
  0
LINE
  5
56C
330
1F
100
AcDbEntity
  8
0
  6
Continuous
 62
     7
100
AcDbLine
 10
8229.7127680332
 20
5724.9578452796
 30
0.0
 11
8229.3167547734
 21
5724.9578452796
 31
0.0
  0
LINE
  5
56D
330
1F
100
AcDbEntity
  8
0
  6
Continuous
 62
     7
100
AcDbLine
 10
8232.3167459519
 20
5724.9578452796
 30
0.0
 11
8229.7127680332
 21
5724.9578452796
 31
0.0
  0
LINE
  5
56E
330
1F
100
AcDbEntity
  8
0
  6
Continuous
 62
     7
100
AcDbLine
 10
8223.316742614
 20
5750.529787609
 30
0.0
 11
8223.316742614
 21
5768.9578450412
 31
0.0
  0
LINE
  5
56F
330
1F
100
AcDbEntity
  8
0
  6
Continuous
 62
     7
100
AcDbLine
 10
8223.316742614
 20
5708.957842657
 30
0.0
 11
8223.316742614
 21
5750.529787609
 31
0.0
  0
LINE
  5
570
330
1F
100
AcDbEntity
  8
0
  6
Continuous
 62
     7
100
AcDbLine
 10
8223.816765979
 20
5750.3369367808
 30
0.0
 11
8223.816765979
 21
5709.4578362197
 31
0.0
  0
LINE
  5
571
330
1F
100
AcDbEntity
  8
0
  6
Continuous
 62
     7
100
AcDbLine
 10
8223.816765979
 20
5768.4578514785
 30
0.0
 11
8223.816765979
 21
5750.3369367808
 31
0.0
  0
LINE
  5
572
330
1F
100
AcDbEntity
  8
0
  6
Continuous
 62
     7
100
AcDbLine
 10
8388.8167576344
 20
5734.0681172103
 30
0.0
 11
8388.8167576344
 21
5752.9578424186
 31
0.0
  0
LINE
  5
573
330
1F
100
AcDbEntity
  8
0
  6
Continuous
 62
     7
100
AcDbLine
 10
8354.8167483361
 20
5724.9578452796
 30
0.0
 11
8354.9877838642
 21
5725.0036812514
 31
0.0
  0
LINE
  5
574
330
1F
100
AcDbEntity
  8
0
  6
Continuous
 62
     7
100
AcDbLine
 10
8354.9877838642
 20
5725.0036812514
 30
0.0
 11
8355.4997579605
 21
5725.1408613414
 31
0.0
  0
LINE
  5
575
330
1F
100
AcDbEntity
  8
0
  6
Continuous
 62
     7
100
AcDbLine
 10
8355.4997579605
 20
5725.1408613414
 30
0.0
 11
8356.3493029625
 21
5725.3684914798
 31
0.0
  0
LINE
  5
576
330
1F
100
AcDbEntity
  8
0
  6
Continuous
 62
     7
100
AcDbLine
 10
8356.3493029625
 20
5725.3684914798
 30
0.0
 11
8357.5308756382
 21
5725.6850815505
 31
0.0
  0
LINE
  5
577
330
1F
100
AcDbEntity
  8
0
  6
Continuous
 62
     7
100
AcDbLine
 10
8357.5308756382
 20
5725.6850815505
 30
0.0
 11
8359.0367571861
 21
5726.0885751933
 31
0.0
  0
LINE
  5
578
330
1F
100
AcDbEntity
  8
0
  6
Continuous
 62
     7
100
AcDbLine
 10
8359.0367571861
 20
5726.0885751933
 30
0.0
 11
8360.8570532353
 21
5726.5763200015
 31
0.0
  0
LINE
  5
579
330
1F
100
AcDbEntity
  8
0
  6
Continuous
 62
     7
100
AcDbLine
 10
8360.8570532353
 20
5726.5763200015
 30
0.0
 11
8362.9798428566
 21
5727.1451271266
 31
0.0
  0
LINE
  5
57A
330
1F
100
AcDbEntity
  8
0
  6
Continuous
 62
     7
100
AcDbLine
 10
8362.9798428566
 20
5727.1451271266
 30
0.0
 11
8365.3912679703
 21
5727.7912712783
 31
0.0
  0
LINE
  5
57B
330
1F
100
AcDbEntity
  8
0
  6
Continuous
 62
     7
100
AcDbLine
 10
8365.3912679703
 20
5727.7912712783
 30
0.0
 11
8368.0755333454
 21
5728.5105205268
 31
0.0
  0
LINE
  5
57C
330
1F
100
AcDbEntity
  8
0
  6
Continuous
 62
     7
100
AcDbLine
 10
8368.0755333454
 20
5728.5105205268
 30
0.0
 11
8371.0150556118
 21
5729.2981661052
 31
0.0
  0
LINE
  5
57D
330
1F
100
AcDbEntity
  8
0
  6
Continuous
 62
     7
100
AcDbLine
 10
8371.0150556118
 20
5729.2981661052
 30
0.0
 11
8374.1905824692
 21
5730.1490522117
 31
0.0
  0
LINE
  5
57E
330
1F
100
AcDbEntity
  8
0
  6
Continuous
 62
     7
100
AcDbLine
 10
8374.1905824692
 20
5730.1490522117
 30
0.0
 11
8377.5813118965
 21
5731.0575760097
 31
0.0
  0
LINE
  5
57F
330
1F
100
AcDbEntity
  8
0
  6
Continuous
 62
     7
100
AcDbLine
 10
8377.5813118965
 20
5731.0575760097
 30
0.0
 11
8381.1651007683
 21
5732.0178664416
 31
0.0
  0
LINE
  5
580
330
1F
100
AcDbEntity
  8
0
  6
Continuous
 62
     7
100
AcDbLine
 10
8381.1651007683
 20
5732.0178664416
 30
0.0
 11
8384.9184350521
 21
5733.0235756129
 31
0.0
  0
LINE
  5
581
330
1F
100
AcDbEntity
  8
0
  6
Continuous
 62
     7
100
AcDbLine
 10
8384.9184350521
 20
5733.0235756129
 30
0.0
 11
8388.8167576344
 21
5734.0681172103
 31
0.0
  0
LINE
  5
582
330
1F
100
AcDbEntity
  8
0
  6
Continuous
 62
     7
100
AcDbLine
 10
8389.8167447598
 20
5751.9578552932
 30
0.0
 11
8389.8167447598
 21
5734.3360698909
 31
0.0
  0
LINE
  5
583
330
1F
100
AcDbEntity
  8
0
  6
Continuous
 62
     7
100
AcDbLine
 10
8389.8167447598
 20
5734.3360698909
 30
0.0
 11
8388.8167576344
 21
5734.0681172103
 31
0.0
  0
LINE
  5
584
330
1F
100
AcDbEntity
  8
0
  6
Continuous
 62
     7
100
AcDbLine
 10
8610.9167510123
 20
4598.9578581542
 30
0.0
 11
8610.9167510123
 21
5178.9578414649
 31
0.0
  0
LINE
  5
585
330
1F
100
AcDbEntity
  8
0
  6
Continuous
 62
     7
100
AcDbLine
 10
8646.9167522565
 20
4598.9578581542
 30
0.0
 11
8646.9167522565
 21
5178.9578414649
 31
0.0
  0
LINE
  5
586
330
1F
100
AcDbEntity
  8
0
  6
Continuous
 62
     7
100
AcDbLine
 10
8178.8246767075
 20
4598.9578581542
 30
0.0
 11
8178.8246767075
 21
5178.9578414649
 31
0.0
  0
LINE
  5
587
330
1F
100
AcDbEntity
  8
0
  6
Continuous
 62
     7
100
AcDbLine
 10
8214.8246602566
 20
4598.9578581542
 30
0.0
 11
8214.8246602566
 21
5178.9578414649
 31
0.0
  0
LINE
  5
588
330
1F
100
AcDbEntity
  8
0
  6
Continuous
 62
     7
100
AcDbLine
 10
8440.6261877568
 20
5158.2895732612
 30
0.0
 11
8388.0950049908
 21
5158.2895732612
 31
0.0
  0
LINE
  5
589
330
1F
100
AcDbEntity
  8
0
  6
Continuous
 62
     7
100
AcDbLine
 10
8386.2105445416
 20
5033.6362636775
 30
0.0
 11
8440.4229657204
 21
5033.6362636775
 31
0.0
  0
LINE
  5
58A
330
1F
100
AcDbEntity
  8
0
  6
Continuous
 62
     7
100
AcDbLine
 10
8356.3167588265
 20
5164.9419284553
 30
0.0
 11
8356.3167588265
 21
5112.9419422835
 31
0.0
  0
LINE
  5
58B
330
1F
100
AcDbEntity
  8
0
  6
Continuous
 62
     7
100
AcDbLine
 10
8390.3167383225
 20
5174.4419253558
 30
0.0
 11
8436.3167570383
 21
5174.4419253558
 31
0.0
  0
LINE
  5
58C
330
1F
100
AcDbEntity
  8
0
  6
Continuous
 62
     7
100
AcDbLine
 10
4923.7188009217
 20
4180.5132086491
 30
0.0
 11
4923.7188009217
 21
4180.1331992363
 31
0.0
  0
LINE
  5
58D
330
1F
100
AcDbEntity
  8
0
  6
Continuous
 62
     7
100
AcDbLine
 10
4931.3187507585
 20
4180.1331992363
 30
0.0
 11
4931.3187507585
 21
4180.5132086491
 31
0.0
  0
LINE
  5
58E
330
1F
100
AcDbEntity
  8
0
  6
Continuous
 62
     7
100
AcDbLine
 10
4783.7186960176
 20
4180.5132086491
 30
0.0
 11
4783.7186960176
 21
4180.1331992363
 31
0.0
  0
LINE
  5
58F
330
1F
100
AcDbEntity
  8
0
  6
Continuous
 62
     7
100
AcDbLine
 10
4791.3187650636
 20
4180.1331992363
 30
0.0
 11
4791.3187650636
 21
4180.5132086491
 31
0.0
  0
LINE
  5
590
330
1F
100
AcDbEntity
  8
0
  6
Continuous
 62
     7
100
AcDbLine
 10
4966.5187505677
 20
4180.1331992363
 30
0.0
 11
4966.5187505677
 21
4180.3016121601
 31
0.0
  0
LINE
  5
591
330
1F
100
AcDbEntity
  8
0
  6
Continuous
 62
     7
100
AcDbLine
 10
4886.5187076524
 20
4180.3016121601
 30
0.0
 11
4886.5187076524
 21
4180.1331992363
 31
0.0
  0
LINE
  5
592
330
1F
100
AcDbEntity
  8
0
  6
Continuous
 62
     7
100
AcDbLine
 10
4946.5187696412
 20
4180.3016121601
 30
0.0
 11
4946.5187696412
 21
4190.3016026234
 31
0.0
  0
LINE
  5
593
330
1F
100
AcDbEntity
  8
0
  6
Continuous
 62
     7
100
AcDbLine
 10
4906.5188077882
 20
4190.3016026234
 30
0.0
 11
4906.5188077882
 21
4180.3016121601
 31
0.0
  0
LINE
  5
594
330
1F
100
AcDbEntity
  8
0
  6
Continuous
 62
     7
100
AcDbLine
 10
5704.0187624887
 20
4127.6332195019
 30
0.0
 11
5704.0187624887
 21
4130.1332171177
 31
0.0
  0
LINE
  5
595
330
1F
100
AcDbEntity
  8
0
  6
Continuous
 62
     7
100
AcDbLine
 10
5644.0187601045
 20
4130.1332171177
 30
0.0
 11
5644.0187601045
 21
4127.6332195019
 31
0.0
  0
LINE
  5
596
330
1F
100
AcDbEntity
  8
0
  6
Continuous
 62
     7
100
AcDbLine
 10
5644.0187601045
 20
4127.6332195019
 30
0.0
 11
5644.5187834695
 21
4127.1331961369
 31
0.0
  0
LINE
  5
597
330
1F
100
AcDbEntity
  8
0
  6
Continuous
 62
     7
100
AcDbLine
 10
5703.5187391236
 20
4127.1331961369
 30
0.0
 11
5704.0187624887
 21
4127.6332195019
 31
0.0
  0
LINE
  5
598
330
1F
100
AcDbEntity
  8
0
  6
Continuous
 62
     7
100
AcDbLine
 10
5104.0187982514
 20
4127.6332195019
 30
0.0
 11
5104.0187982514
 21
4130.1332171177
 31
0.0
  0
LINE
  5
599
330
1F
100
AcDbEntity
  8
0
  6
Continuous
 62
     7
100
AcDbLine
 10
5044.0187362626
 20
4130.1332171177
 30
0.0
 11
5044.0187362626
 21
4127.6332195019
 31
0.0
  0
LINE
  5
59A
330
1F
100
AcDbEntity
  8
0
  6
Continuous
 62
     7
100
AcDbLine
 10
5044.0187362626
 20
4127.6332195019
 30
0.0
 11
5044.518700023
 21
4127.1331961369
 31
0.0
  0
LINE
  5
59B
330
1F
100
AcDbEntity
  8
0
  6
Continuous
 62
     7
100
AcDbLine
 10
5103.5187152818
 20
4127.1331961369
 30
0.0
 11
5104.0187982514
 21
4127.6332195019
 31
0.0
  0
LINE
  5
59C
330
1F
100
AcDbEntity
  8
0
  6
Continuous
 62
     7
100
AcDbLine
 10
6304.0187546655
 20
4127.6332195019
 30
0.0
 11
6304.0187546655
 21
4130.1332171177
 31
0.0
  0
LINE
  5
59D
330
1F
100
AcDbEntity
  8
0
  6
Continuous
 62
     7
100
AcDbLine
 10
6244.0187560067
 20
4130.1332171177
 30
0.0
 11
6244.0187560067
 21
4127.6332195019
 31
0.0
  0
LINE
  5
59E
330
1F
100
AcDbEntity
  8
0
  6
Continuous
 62
     7
100
AcDbLine
 10
6244.0187560067
 20
4127.6332195019
 30
0.0
 11
6244.5187551573
 21
4127.1331961369
 31
0.0
  0
LINE
  5
59F
330
1F
100
AcDbEntity
  8
0
  6
Continuous
 62
     7
100
AcDbLine
 10
6303.5187555149
 20
4127.1331961369
 30
0.0
 11
6304.0187546655
 21
4127.6332195019
 31
0.0
  0
LINE
  5
5A0
330
1F
100
AcDbEntity
  8
0
  6
Continuous
 62
     7
100
AcDbLine
 10
6904.0187505677
 20
4127.6332195019
 30
0.0
 11
6904.0187505677
 21
4130.1332171177
 31
0.0
  0
LINE
  5
5A1
330
1F
100
AcDbEntity
  8
0
  6
Continuous
 62
     7
100
AcDbLine
 10
6844.0187481835
 20
4130.1332171177
 30
0.0
 11
6844.0187481835
 21
4127.6332195019
 31
0.0
  0
LINE
  5
5A2
330
1F
100
AcDbEntity
  8
0
  6
Continuous
 62
     7
100
AcDbLine
 10
6844.0187481835
 20
4127.6332195019
 30
0.0
 11
6844.5187715486
 21
4127.1331961369
 31
0.0
  0
LINE
  5
5A3
330
1F
100
AcDbEntity
  8
0
  6
Continuous
 62
     7
100
AcDbLine
 10
6903.5187272027
 20
4127.1331961369
 30
0.0
 11
6904.0187505677
 21
4127.6332195019
 31
0.0
  0
LINE
  5
5A4
330
1F
100
AcDbEntity
  8
0
  6
Continuous
 62
     7
100
AcDbLine
 10
7504.0187744096
 20
4127.6332195019
 30
0.0
 11
7504.0187744096
 21
4130.1332171177
 31
0.0
  0
LINE
  5
5A5
330
1F
100
AcDbEntity
  8
0
  6
Continuous
 62
     7
100
AcDbLine
 10
7444.0187124208
 20
4130.1332171177
 30
0.0
 11
7444.0187124208
 21
4127.6332195019
 31
0.0
  0
LINE
  5
5A6
330
1F
100
AcDbEntity
  8
0
  6
Continuous
 62
     7
100
AcDbLine
 10
7444.0187124208
 20
4127.6332195019
 30
0.0
 11
7444.5187953904
 21
4127.1331961369
 31
0.0
  0
LINE
  5
5A7
330
1F
100
AcDbEntity
  8
0
  6
Continuous
 62
     7
100
AcDbLine
 10
7503.5188106492
 20
4127.1331961369
 30
0.0
 11
7504.0187744096
 21
4127.6332195019
 31
0.0
  0
LINE
  5
5A8
330
1F
100
AcDbEntity
  8
0
  6
Continuous
 62
     7
100
AcDbLine
 10
5060.0187686875
 20
4127.1331961369
 30
0.0
 11
5060.0187686875
 21
3962.1332044815
 31
0.0
  0
LINE
  5
5A9
330
1F
100
AcDbEntity
  8
0
  6
Continuous
 62
     7
100
AcDbLine
 10
5088.0187658265
 20
3962.1332044815
 30
0.0
 11
5088.0187658265
 21
4127.1331961369
 31
0.0
  0
LINE
  5
5AA
330
1F
100
AcDbEntity
  8
0
  6
Continuous
 62
     7
100
AcDbLine
 10
5060.0187686875
 20
3962.1332044815
 30
0.0
 11
5061.0186962083
 21
3961.1332173561
 31
0.0
  0
LINE
  5
5AB
330
1F
100
AcDbEntity
  8
0
  6
Continuous
 62
     7
100
AcDbLine
 10
5087.0187190965
 20
3961.1332173561
 30
0.0
 11
5088.0187658265
 21
3962.1332044815
 31
0.0
  0
LINE
  5
5AC
330
1F
100
AcDbEntity
  8
0
  6
Continuous
 62
     7
100
AcDbLine
 10
7460.0187448457
 20
4127.1331961369
 30
0.0
 11
7460.0187448457
 21
3962.1332044815
 31
0.0
  0
LINE
  5
5AD
330
1F
100
AcDbEntity
  8
0
  6
Continuous
 62
     7
100
AcDbLine
 10
7488.0187419847
 20
3962.1332044815
 30
0.0
 11
7488.0187419847
 21
4127.1331961369
 31
0.0
  0
LINE
  5
5AE
330
1F
100
AcDbEntity
  8
0
  6
Continuous
 62
     7
100
AcDbLine
 10
7460.0187448457
 20
3962.1332044815
 30
0.0
 11
7461.0187915757
 21
3961.1332173561
 31
0.0
  0
LINE
  5
5AF
330
1F
100
AcDbEntity
  8
0
  6
Continuous
 62
     7
100
AcDbLine
 10
7487.0188144639
 20
3961.1332173561
 30
0.0
 11
7488.0187419847
 21
3962.1332044815
 31
0.0
  0
LINE
  5
5B0
330
1F
100
AcDbEntity
  8
0
  6
Continuous
 62
     7
100
AcDbLine
 10
5660.0187329248
 20
4127.1331961369
 30
0.0
 11
5660.0187329248
 21
3962.1332044815
 31
0.0
  0
LINE
  5
5B1
330
1F
100
AcDbEntity
  8
0
  6
Continuous
 62
     7
100
AcDbLine
 10
5688.0187300637
 20
3962.1332044815
 30
0.0
 11
5688.0187300637
 21
4127.1331961369
 31
0.0
  0
LINE
  5
5B2
330
1F
100
AcDbEntity
  8
0
  6
Continuous
 62
     7
100
AcDbLine
 10
5660.0187329248
 20
3962.1332044815
 30
0.0
 11
5661.0187796548
 21
3961.1332173561
 31
0.0
  0
LINE
  5
5B3
330
1F
100
AcDbEntity
  8
0
  6
Continuous
 62
     7
100
AcDbLine
 10
5687.0187429383
 20
3961.1332173561
 30
0.0
 11
5688.0187300637
 21
3962.1332044815
 31
0.0
  0
LINE
  5
5B4
330
1F
100
AcDbEntity
  8
0
  6
Continuous
 62
     7
100
AcDbLine
 10
6260.018754904
 20
4127.1331961369
 30
0.0
 11
6260.018754904
 21
3962.1332044815
 31
0.0
  0
LINE
  5
5B5
330
1F
100
AcDbEntity
  8
0
  6
Continuous
 62
     7
100
AcDbLine
 10
6288.0187557682
 20
3962.1332044815
 30
0.0
 11
6288.0187557682
 21
4127.1331961369
 31
0.0
  0
LINE
  5
5B6
330
1F
100
AcDbEntity
  8
0
  6
Continuous
 62
     7
100
AcDbLine
 10
6260.018754904
 20
3962.1332044815
 30
0.0
 11
6261.0187550679
 21
3961.1332173561
 31
0.0
  0
LINE
  5
5B7
330
1F
100
AcDbEntity
  8
0
  6
Continuous
 62
     7
100
AcDbLine
 10
6287.0187556043
 20
3961.1332173561
 30
0.0
 11
6288.0187557682
 21
3962.1332044815
 31
0.0
  0
LINE
  5
5B8
330
1F
100
AcDbEntity
  8
0
  6
Continuous
 62
     7
100
AcDbLine
 10
6860.0187806085
 20
4127.1331961369
 30
0.0
 11
6860.0187806085
 21
3962.1332044815
 31
0.0
  0
LINE
  5
5B9
330
1F
100
AcDbEntity
  8
0
  6
Continuous
 62
     7
100
AcDbLine
 10
6888.0187777474
 20
3962.1332044815
 30
0.0
 11
6888.0187777474
 21
4127.1331961369
 31
0.0
  0
LINE
  5
5BA
330
1F
100
AcDbEntity
  8
0
  6
Continuous
 62
     7
100
AcDbLine
 10
6860.0187806085
 20
3962.1332044815
 30
0.0
 11
6861.0187677339
 21
3961.1332173561
 31
0.0
  0
LINE
  5
5BB
330
1F
100
AcDbEntity
  8
0
  6
Continuous
 62
     7
100
AcDbLine
 10
6887.0187310174
 20
3961.1332173561
 30
0.0
 11
6888.0187777474
 21
3962.1332044815
 31
0.0
  0
LINE
  5
5BC
330
1F
100
AcDbEntity
  8
0
  6
Continuous
 62
     7
100
AcDbLine
 10
7727.3687032655
 20
3700.0332099677
 30
0.0
 11
4820.6688074067
 21
3700.0332099677
 31
0.0
  0
LINE
  5
5BD
330
1F
100
AcDbEntity
  8
0
  6
Continuous
 62
     7
100
AcDbLine
 10
4820.6688074067
 20
3700.0332099677
 30
0.0
 11
4820.6688074067
 21
3700.1332099652
 31
0.0
  0
LINE
  5
5BE
330
1F
100
AcDbEntity
  8
0
  6
Continuous
 62
     7
100
AcDbLine
 10
7727.3687032655
 20
3700.0332099677
 30
0.0
 11
7727.3687032655
 21
3700.1332099652
 31
0.0
  0
LINE
  5
5BF
330
1F
100
AcDbEntity
  8
0
  6
Continuous
 62
     7
100
AcDbLine
 10
7727.3687032655
 20
3700.0332099677
 30
0.0
 11
7727.6906875566
 21
3700.0649142545
 31
0.0
  0
LINE
  5
5C0
330
1F
100
AcDbEntity
  8
0
  6
Continuous
 62
     7
100
AcDbLine
 10
7727.6906875566
 20
3700.0649142545
 30
0.0
 11
7727.9344705537
 21
3700.1332099652
 31
0.0
  0
LINE
  5
5C1
330
1F
100
AcDbEntity
  8
0
  6
Continuous
 62
     7
100
AcDbLine
 10
4820.1030401185
 20
3700.1332099652
 30
0.0
 11
4820.3468231156
 21
3700.0649142545
 31
0.0
  0
LINE
  5
5C2
330
1F
100
AcDbEntity
  8
0
  6
Continuous
 62
     7
100
AcDbLine
 10
4820.3468231156
 20
3700.0649142545
 30
0.0
 11
4820.6688074067
 21
3700.0332099677
 31
0.0
  0
LINE
  5
5C3
330
1F
100
AcDbEntity
  8
0
  6
Continuous
 62
     7
100
AcDbLine
 10
7774.0187553361
 20
4180.1331992363
 30
0.0
 11
7772.0187810853
 21
4180.1331992363
 31
0.0
  0
LINE
  5
5C4
330
1F
100
AcDbEntity
  8
0
  6
Continuous
 62
     7
100
AcDbLine
 10
7774.0187553361
 20
4177.475815556
 30
0.0
 11
7772.0187810853
 21
4177.475815556
 31
0.0
  0
LINE
  5
5C5
330
1F
100
AcDbEntity
  8
0
  6
Continuous
 62
     7
100
AcDbLine
 10
7772.0187810853
 20
4180.1331992363
 30
0.0
 11
7772.0187810853
 21
4177.475815556
 31
0.0
  0
LINE
  5
5C6
330
1F
100
AcDbEntity
  8
0
  6
Continuous
 62
     7
100
AcDbLine
 10
7774.0187553361
 20
4180.1331992363
 30
0.0
 11
7774.0187553361
 21
4177.475815556
 31
0.0
  0
LINE
  5
5C7
330
1F
100
AcDbEntity
  8
0
  6
Continuous
 62
     7
100
AcDbLine
 10
7774.0187553361
 20
4131.8758185124
 30
0.0
 11
7772.0187810853
 21
4131.8758185124
 31
0.0
  0
LINE
  5
5C8
330
1F
100
AcDbEntity
  8
0
  6
Continuous
 62
     7
100
AcDbLine
 10
7772.0187810853
 20
4177.475815556
 30
0.0
 11
7772.0187810853
 21
4131.8758185124
 31
0.0
  0
LINE
  5
5C9
330
1F
100
AcDbEntity
  8
0
  6
Continuous
 62
     7
100
AcDbLine
 10
7774.0187553361
 20
4177.475815556
 30
0.0
 11
7774.0187553361
 21
4131.8758185124
 31
0.0
  0
LINE
  5
5CA
330
1F
100
AcDbEntity
  8
0
  6
Continuous
 62
     7
100
AcDbLine
 10
7774.0187553361
 20
4130.1332171177
 30
0.0
 11
7772.0187810853
 21
4130.1332171177
 31
0.0
  0
LINE
  5
5CB
330
1F
100
AcDbEntity
  8
0
  6
Continuous
 62
     7
100
AcDbLine
 10
7772.0187810853
 20
4131.8758185124
 30
0.0
 11
7772.0187810853
 21
4130.1332171177
 31
0.0
  0
LINE
  5
5CC
330
1F
100
AcDbEntity
  8
0
  6
Continuous
 62
     7
100
AcDbLine
 10
7774.0187553361
 20
4131.8758185124
 30
0.0
 11
7774.0187553361
 21
4130.1332171177
 31
0.0
  0
LINE
  5
5CD
330
1F
100
AcDbEntity
  8
0
  6
Continuous
 62
     7
100
AcDbLine
 10
7774.0187553361
 20
3702.3332099533
 30
0.0
 11
7772.0187810853
 21
3702.3332099533
 31
0.0
  0
LINE
  5
5CE
330
1F
100
AcDbEntity
  8
0
  6
Continuous
 62
     7
100
AcDbLine
 10
7772.0187810853
 20
4130.1332171177
 30
0.0
 11
7772.0187810853
 21
3702.3332099533
 31
0.0
  0
LINE
  5
5CF
330
1F
100
AcDbEntity
  8
0
  6
Continuous
 62
     7
100
AcDbLine
 10
7774.0187553361
 20
4130.1332171177
 30
0.0
 11
7774.0187553361
 21
3702.3332099533
 31
0.0
  0
LINE
  5
5D0
330
1F
100
AcDbEntity
  8
0
  6
Continuous
 62
     7
100
AcDbLine
 10
7774.0187553361
 20
3700.1332099652
 30
0.0
 11
7772.0187810853
 21
3700.1332099652
 31
0.0
  0
LINE
  5
5D1
330
1F
100
AcDbEntity
  8
0
  6
Continuous
 62
     7
100
AcDbLine
 10
7772.0187810853
 20
3702.3332099533
 30
0.0
 11
7772.0187810853
 21
3700.1332099652
 31
0.0
  0
LINE
  5
5D2
330
1F
100
AcDbEntity
  8
0
  6
Continuous
 62
     7
100
AcDbLine
 10
7774.0187553361
 20
3702.3332099533
 30
0.0
 11
7774.0187553361
 21
3700.1332099652
 31
0.0
  0
LINE
  5
5D3
330
1F
100
AcDbEntity
  8
0
  6
Continuous
 62
     7
100
AcDbLine
 10
7771.6997770265
 20
3700.1332099652
 30
0.0
 11
7771.5235856965
 21
3700.0927755952
 31
0.0
  0
LINE
  5
5D4
330
1F
100
AcDbEntity
  8
0
  6
Continuous
 62
     7
100
AcDbLine
 10
7771.5235856965
 20
3700.0927755952
 30
0.0
 11
7770.9187177613
 21
3700.0332099677
 31
0.0
  0
LINE
  5
5D5
330
1F
100
AcDbEntity
  8
0
  6
Continuous
 62
     7
100
AcDbLine
 10
7770.9187177613
 20
3700.0332099677
 30
0.0
 11
7732.1187166169
 21
3700.0332099677
 31
0.0
  0
LINE
  5
5D6
330
1F
100
AcDbEntity
  8
0
  6
Continuous
 62
     7
100
AcDbLine
 10
7731.3377765611
 20
3700.1332099652
 30
0.0
 11
7731.513967891
 21
3700.0927755952
 31
0.0
  0
LINE
  5
5D7
330
1F
100
AcDbEntity
  8
0
  6
Continuous
 62
     7
100
AcDbLine
 10
7731.513967891
 20
3700.0927755952
 30
0.0
 11
7732.1187166169
 21
3700.0332099677
 31
0.0
  0
LINE
  5
5D8
330
1F
100
AcDbEntity
  8
0
  6
Continuous
 62
     7
100
AcDbLine
 10
4774.0187553361
 20
4177.475815556
 30
0.0
 11
4776.0187295869
 21
4177.475815556
 31
0.0
  0
LINE
  5
5D9
330
1F
100
AcDbEntity
  8
0
  6
Continuous
 62
     7
100
AcDbLine
 10
4774.0187553361
 20
4180.1331992363
 30
0.0
 11
4776.0187295869
 21
4180.1331992363
 31
0.0
  0
LINE
  5
5DA
330
1F
100
AcDbEntity
  8
0
  6
Continuous
 62
     7
100
AcDbLine
 10
4774.0187553361
 20
4180.1331992363
 30
0.0
 11
4774.0187553361
 21
4177.475815556
 31
0.0
  0
LINE
  5
5DB
330
1F
100
AcDbEntity
  8
0
  6
Continuous
 62
     7
100
AcDbLine
 10
4776.0187295869
 20
4180.1331992363
 30
0.0
 11
4776.0187295869
 21
4177.475815556
 31
0.0
  0
LINE
  5
5DC
330
1F
100
AcDbEntity
  8
0
  6
Continuous
 62
     7
100
AcDbLine
 10
4774.0187553361
 20
4131.8758185124
 30
0.0
 11
4776.0187295869
 21
4131.8758185124
 31
0.0
  0
LINE
  5
5DD
330
1F
100
AcDbEntity
  8
0
  6
Continuous
 62
     7
100
AcDbLine
 10
4774.0187553361
 20
4177.475815556
 30
0.0
 11
4774.0187553361
 21
4131.8758185124
 31
0.0
  0
LINE
  5
5DE
330
1F
100
AcDbEntity
  8
0
  6
Continuous
 62
     7
100
AcDbLine
 10
4776.0187295869
 20
4177.475815556
 30
0.0
 11
4776.0187295869
 21
4131.8758185124
 31
0.0
  0
LINE
  5
5DF
330
1F
100
AcDbEntity
  8
0
  6
Continuous
 62
     7
100
AcDbLine
 10
4774.0187553361
 20
4130.1332171177
 30
0.0
 11
4776.0187295869
 21
4130.1332171177
 31
0.0
  0
LINE
  5
5E0
330
1F
100
AcDbEntity
  8
0
  6
Continuous
 62
     7
100
AcDbLine
 10
4774.0187553361
 20
4131.8758185124
 30
0.0
 11
4774.0187553361
 21
4130.1332171177
 31
0.0
  0
LINE
  5
5E1
330
1F
100
AcDbEntity
  8
0
  6
Continuous
 62
     7
100
AcDbLine
 10
4776.0187295869
 20
4131.8758185124
 30
0.0
 11
4776.0187295869
 21
4130.1332171177
 31
0.0
  0
LINE
  5
5E2
330
1F
100
AcDbEntity
  8
0
  6
Continuous
 62
     7
100
AcDbLine
 10
4774.0187553361
 20
3702.3332099533
 30
0.0
 11
4776.0187295869
 21
3702.3332099533
 31
0.0
  0
LINE
  5
5E3
330
1F
100
AcDbEntity
  8
0
  6
Continuous
 62
     7
100
AcDbLine
 10
4774.0187553361
 20
4130.1332171177
 30
0.0
 11
4774.0187553361
 21
3702.3332099533
 31
0.0
  0
LINE
  5
5E4
330
1F
100
AcDbEntity
  8
0
  6
Continuous
 62
     7
100
AcDbLine
 10
4776.0187295869
 20
4130.1332171177
 30
0.0
 11
4776.0187295869
 21
3702.3332099533
 31
0.0
  0
LINE
  5
5E5
330
1F
100
AcDbEntity
  8
0
  6
Continuous
 62
     7
100
AcDbLine
 10
4774.0187553361
 20
3700.1332099652
 30
0.0
 11
4776.0187295869
 21
3700.1332099652
 31
0.0
  0
LINE
  5
5E6
330
1F
100
AcDbEntity
  8
0
  6
Continuous
 62
     7
100
AcDbLine
 10
4774.0187553361
 20
3702.3332099533
 30
0.0
 11
4774.0187553361
 21
3700.1332099652
 31
0.0
  0
LINE
  5
5E7
330
1F
100
AcDbEntity
  8
0
  6
Continuous
 62
     7
100
AcDbLine
 10
4776.0187295869
 20
3702.3332099533
 30
0.0
 11
4776.0187295869
 21
3700.1332099652
 31
0.0
  0
LINE
  5
5E8
330
1F
100
AcDbEntity
  8
0
  6
Continuous
 62
     7
100
AcDbLine
 10
4776.3377336457
 20
3700.1332099652
 30
0.0
 11
4776.5139249757
 21
3700.0927755952
 31
0.0
  0
LINE
  5
5E9
330
1F
100
AcDbEntity
  8
0
  6
Continuous
 62
     7
100
AcDbLine
 10
4776.5139249757
 20
3700.0927755952
 30
0.0
 11
4777.1187929109
 21
3700.0332099677
 31
0.0
  0
LINE
  5
5EA
330
1F
100
AcDbEntity
  8
0
  6
Continuous
 62
     7
100
AcDbLine
 10
4777.1187929109
 20
3700.0332099677
 30
0.0
 11
4815.9187940553
 21
3700.0332099677
 31
0.0
  0
LINE
  5
5EB
330
1F
100
AcDbEntity
  8
0
  6
Continuous
 62
     7
100
AcDbLine
 10
4816.6997341111
 20
3700.1332099652
 30
0.0
 11
4816.5235427812
 21
3700.0927755952
 31
0.0
  0
LINE
  5
5EC
330
1F
100
AcDbEntity
  8
0
  6
Continuous
 62
     7
100
AcDbLine
 10
4816.5235427812
 20
3700.0927755952
 30
0.0
 11
4815.9187940553
 21
3700.0332099677
 31
0.0
  0
LINE
  5
5ED
330
1F
100
AcDbEntity
  8
0
  6
Continuous
 62
     7
100
AcDbLine
 10
7772.0187810853
 20
4180.1331992363
 30
0.0
 11
4776.0187295869
 21
4180.1331992363
 31
0.0
  0
LINE
  5
5EE
330
1F
100
AcDbEntity
  8
0
  6
Continuous
 62
     7
100
AcDbLine
 10
4776.0187295869
 20
4177.475815556
 30
0.0
 11
7772.0187810853
 21
4177.475815556
 31
0.0
  0
LINE
  5
5EF
330
1F
100
AcDbEntity
  8
0
  6
Continuous
 62
     7
100
AcDbLine
 10
7772.0187810853
 20
4131.8758185124
 30
0.0
 11
4776.0187295869
 21
4131.8758185124
 31
0.0
  0
LINE
  5
5F0
330
1F
100
AcDbEntity
  8
0
  6
Continuous
 62
     7
100
AcDbLine
 10
4776.0187295869
 20
4130.1332171177
 30
0.0
 11
7772.0187810853
 21
4130.1332171177
 31
0.0
  0
LINE
  5
5F1
330
1F
100
AcDbEntity
  8
0
  6
Continuous
 62
     7
100
AcDbLine
 10
7772.0187810853
 20
3745.1332117533
 30
0.0
 11
4776.0187295869
 21
3745.1332117533
 31
0.0
  0
LINE
  5
5F2
330
1F
100
AcDbEntity
  8
0
  6
Continuous
 62
     7
100
AcDbLine
 10
4776.0187295869
 20
3742.9332117652
 30
0.0
 11
7772.0187810853
 21
3742.9332117652
 31
0.0
  0
LINE
  5
5F3
330
1F
100
AcDbEntity
  8
0
  6
Continuous
 62
     7
100
AcDbLine
 10
7772.0187810853
 20
3702.3332099533
 30
0.0
 11
4776.0187295869
 21
3702.3332099533
 31
0.0
  0
LINE
  5
5F4
330
1F
100
AcDbEntity
  8
0
  6
Continuous
 62
     7
100
AcDbLine
 10
7772.0187810853
 20
3702.3332099533
 30
0.0
 11
7772.0187810853
 21
3742.9332117652
 31
0.0
  0
LINE
  5
5F5
330
1F
100
AcDbEntity
  8
0
  6
Continuous
 62
     7
100
AcDbLine
 10
4776.0187295869
 20
3702.3332099533
 30
0.0
 11
4776.0187295869
 21
3742.9332117652
 31
0.0
  0
LINE
  5
5F6
330
1F
100
AcDbEntity
  8
0
  6
Continuous
 62
     7
100
AcDbLine
 10
4776.0187295869
 20
3700.1332099652
 30
0.0
 11
7772.0187810853
 21
3700.1332099652
 31
0.0
  0
LINE
  5
5F7
330
1F
100
AcDbEntity
  8
0
  6
Continuous
 62
     7
100
AcDbLine
 10
7772.0187810853
 20
3745.475569657
 30
0.0
 11
4776.0187295869
 21
3745.475569657
 31
0.0
  0
LINE
  5
5F8
330
1F
100
AcDbEntity
  8
0
  6
Continuous
 62
     7
100
AcDbLine
 10
4776.0187295869
 20
3870.8506430602
 30
0.0
 11
7772.0187810853
 21
3870.8506430602
 31
0.0
  0
LINE
  5
5F9
330
1F
100
AcDbEntity
  8
0
  6
Continuous
 62
     7
100
AcDbLine
 10
7772.0187810853
 20
3871.5082909083
 30
0.0
 11
4776.0187295869
 21
3871.5082909083
 31
0.0
  0
LINE
  5
5FA
330
1F
100
AcDbEntity
  8
0
  6
Continuous
 62
     7
100
AcDbLine
 10
4926.4422563508
 20
4182.333206675
 30
0.0
 11
4929.4187931016
 21
4182.333206675
 31
0.0
  0
LINE
  5
5FB
330
1F
100
AcDbEntity
  8
0
  6
Continuous
 62
     7
100
AcDbLine
 10
4925.6187585786
 20
4182.333206675
 30
0.0
 11
4926.4422563508
 21
4182.333206675
 31
0.0
  0
LINE
  5
5FC
330
1F
100
AcDbEntity
  8
0
  6
Continuous
 62
     7
100
AcDbLine
 10
4925.3656772569
 20
4180.5132086491
 30
0.0
 11
4931.3187507585
 21
4180.5132086491
 31
0.0
  0
LINE
  5
5FD
330
1F
100
AcDbEntity
  8
0
  6
Continuous
 62
     7
100
AcDbLine
 10
4923.7188009217
 20
4180.5132086491
 30
0.0
 11
4925.3656772569
 21
4180.5132086491
 31
0.0
  0
LINE
  5
5FE
330
1F
100
AcDbEntity
  8
0
  6
Continuous
 62
     7
100
AcDbLine
 10
4787.6217273667
 20
4182.333206675
 30
0.0
 11
4789.4188074067
 21
4182.333206675
 31
0.0
  0
LINE
  5
5FF
330
1F
100
AcDbEntity
  8
0
  6
Continuous
 62
     7
100
AcDbLine
 10
4785.6187728837
 20
4182.333206675
 30
0.0
 11
4787.6217273667
 21
4182.333206675
 31
0.0
  0
LINE
  5
600
330
1F
100
AcDbEntity
  8
0
  6
Continuous
 62
     7
100
AcDbLine
 10
4787.7246049836
 20
4180.5132086491
 30
0.0
 11
4791.3187650636
 21
4180.5132086491
 31
0.0
  0
LINE
  5
601
330
1F
100
AcDbEntity
  8
0
  6
Continuous
 62
     7
100
AcDbLine
 10
4783.7186960176
 20
4180.5132086491
 30
0.0
 11
4787.7246049836
 21
4180.5132086491
 31
0.0
  0
LINE
  5
602
330
1F
100
AcDbEntity
  8
0
  6
Continuous
 62
     7
100
AcDbLine
 10
4925.7687553361
 20
3942.8293623879
 30
0.0
 11
4925.7687553361
 21
3932.4370575425
 31
0.0
  0
LINE
  5
603
330
1F
100
AcDbEntity
  8
0
  6
Continuous
 62
     7
100
AcDbLine
 10
4927.2687553361
 20
3932.4370575425
 30
0.0
 11
4927.2687553361
 21
3942.8293623879
 31
0.0
  0
LINE
  5
604
330
1F
100
AcDbEntity
  8
0
  6
Continuous
 62
     7
100
AcDbLine
 10
4963.4678272203
 20
4180.3016121601
 30
0.0
 11
4931.3187507585
 21
4180.3016121601
 31
0.0
  0
LINE
  5
605
330
1F
100
AcDbEntity
  8
0
  6
Continuous
 62
     7
100
AcDbLine
 10
4923.7188009217
 20
4180.3016121601
 30
0.0
 11
4886.5187076524
 21
4180.3016121601
 31
0.0
  0
LINE
  5
606
330
1F
100
AcDbEntity
  8
0
  6
Continuous
 62
     7
100
AcDbLine
 10
4966.5187505677
 20
4180.3016121601
 30
0.0
 11
4963.4678272203
 21
4180.3016121601
 31
0.0
  0
LINE
  5
607
330
1F
100
AcDbEntity
  8
0
  6
Continuous
 62
     7
100
AcDbLine
 10
4944.9933675721
 20
4190.3016026234
 30
0.0
 11
4906.5188077882
 21
4190.3016026234
 31
0.0
  0
LINE
  5
608
330
1F
100
AcDbEntity
  8
0
  6
Continuous
 62
     7
100
AcDbLine
 10
4946.5187696412
 20
4190.3016026234
 30
0.0
 11
4944.9933675721
 21
4190.3016026234
 31
0.0
  0
LINE
  5
609
330
1F
100
AcDbEntity
  8
0
  6
Continuous
 62
     7
100
AcDbLine
 10
4914.4717363313
 20
3929.5635725474
 30
0.0
 11
4915.9452823594
 21
3927.7109707808
 31
0.0
  0
LINE
  5
60A
330
1F
100
AcDbEntity
  8
0
  6
Continuous
 62
     7
100
AcDbLine
 10
4915.9452823594
 20
3927.7109707808
 30
0.0
 11
4917.2195104554
 21
3926.5078361248
 31
0.0
  0
LINE
  5
60B
330
1F
100
AcDbEntity
  8
0
  6
Continuous
 62
     7
100
AcDbLine
 10
4935.8179477647
 20
3926.5078361248
 30
0.0
 11
4937.09229507
 21
3927.7109707808
 31
0.0
  0
LINE
  5
60C
330
1F
100
AcDbEntity
  8
0
  6
Continuous
 62
     7
100
AcDbLine
 10
4937.09229507
 20
3927.7109707808
 30
0.0
 11
4938.5658410981
 21
3929.5635725474
 31
0.0
  0
LINE
  5
60D
330
1F
100
AcDbEntity
  8
0
  6
Continuous
 62
     7
100
AcDbLine
 10
4939.530840297
 20
3931.234991095
 30
0.0
 11
4940.3984455064
 21
3933.4373976206
 31
0.0
  0
LINE
  5
60E
330
1F
100
AcDbEntity
  8
0
  6
Continuous
 62
     7
100
AcDbLine
 10
4940.3984455064
 20
3933.4373976206
 30
0.0
 11
4940.8032802537
 21
3935.1425225949
 31
0.0
  0
LINE
  5
60F
330
1F
100
AcDbEntity
  8
0
  6
Continuous
 62
     7
100
AcDbLine
 10
4931.5040019944
 20
3951.2492771363
 30
0.0
 11
4929.8249391511
 21
3951.7512674546
 31
0.0
  0
LINE
  5
610
330
1F
100
AcDbEntity
  8
0
  6
Continuous
 62
     7
100
AcDbLine
 10
4929.8249391511
 20
3951.7512674546
 30
0.0
 11
4927.4837879136
 21
3952.1010573124
 31
0.0
  0
LINE
  5
611
330
1F
100
AcDbEntity
  8
0
  6
Continuous
 62
     7
100
AcDbLine
 10
4925.5537895158
 20
3952.1010573124
 30
0.0
 11
4923.2126382783
 21
3951.7512674546
 31
0.0
  0
LINE
  5
612
330
1F
100
AcDbEntity
  8
0
  6
Continuous
 62
     7
100
AcDbLine
 10
4923.2126382783
 20
3951.7512674546
 30
0.0
 11
4921.533575435
 21
3951.2492771363
 31
0.0
  0
LINE
  5
613
330
1F
100
AcDbEntity
  8
0
  6
Continuous
 62
     7
100
AcDbLine
 10
4912.2342971757
 20
3935.1425225949
 30
0.0
 11
4912.639131923
 21
3933.4373976206
 31
0.0
  0
LINE
  5
614
330
1F
100
AcDbEntity
  8
0
  6
Continuous
 62
     7
100
AcDbLine
 10
4912.639131923
 20
3933.4373976206
 30
0.0
 11
4913.5067371324
 21
3931.234991095
 31
0.0
  0
LINE
  5
615
330
1F
100
AcDbEntity
  8
0
  6
Continuous
 62
     7
100
AcDbLine
 10
4925.5537895158
 20
3953.938710073
 30
0.0
 11
4925.5537895158
 21
3946.7272217488
 31
0.0
  0
LINE
  5
616
330
1F
100
AcDbEntity
  8
0
  6
Continuous
 62
     7
100
AcDbLine
 10
4941.1222843125
 20
3930.3161705946
 30
0.0
 11
4934.876909633
 21
3933.921923778
 31
0.0
  0
LINE
  5
617
330
1F
100
AcDbEntity
  8
0
  6
Continuous
 62
     7
100
AcDbLine
 10
4933.9119104341
 20
3932.2504903292
 30
0.0
 11
4940.1572851136
 21
3928.644752047
 31
0.0
  0
LINE
  5
618
330
1F
100
AcDbEntity
  8
0
  6
Continuous
 62
     7
100
AcDbLine
 10
4912.8802923158
 20
3928.644752047
 30
0.0
 11
4919.1256669953
 21
3932.2504903292
 31
0.0
  0
LINE
  5
619
330
1F
100
AcDbEntity
  8
0
  6
Continuous
 62
     7
100
AcDbLine
 10
4918.1606677964
 20
3933.921923778
 30
0.0
 11
4911.9152931169
 21
3930.3161705946
 31
0.0
  0
LINE
  5
61A
330
1F
100
AcDbEntity
  8
0
  6
Continuous
 62
     7
100
AcDbLine
 10
4927.4837879136
 20
3946.7272217488
 30
0.0
 11
4927.4837879136
 21
3953.938710073
 31
0.0
  0
LINE
  5
61B
330
1F
100
AcDbEntity
  8
0
  6
Continuous
 62
     7
100
AcDbLine
 10
5646.3404206231
 20
4127.6332195019
 30
0.0
 11
5704.0187624887
 21
4127.6332195019
 31
0.0
  0
LINE
  5
61C
330
1F
100
AcDbEntity
  8
0
  6
Continuous
 62
     7
100
AcDbLine
 10
5644.0187601045
 20
4127.6332195019
 30
0.0
 11
5646.3404206231
 21
4127.6332195019
 31
0.0
  0
LINE
  5
61D
330
1F
100
AcDbEntity
  8
0
  6
Continuous
 62
     7
100
AcDbLine
 10
5646.8017605737
 20
4127.1331961369
 30
0.0
 11
5644.5187834695
 21
4127.1331961369
 31
0.0
  0
LINE
  5
61E
330
1F
100
AcDbEntity
  8
0
  6
Continuous
 62
     7
100
AcDbLine
 10
5703.5187391236
 20
4127.1331961369
 30
0.0
 11
5646.8017605737
 21
4127.1331961369
 31
0.0
  0
LINE
  5
61F
330
1F
100
AcDbEntity
  8
0
  6
Continuous
 62
     7
100
AcDbLine
 10
5046.3404563859
 20
4127.6332195019
 30
0.0
 11
5104.0187982514
 21
4127.6332195019
 31
0.0
  0
LINE
  5
620
330
1F
100
AcDbEntity
  8
0
  6
Continuous
 62
     7
100
AcDbLine
 10
5044.0187362626
 20
4127.6332195019
 30
0.0
 11
5046.3404563859
 21
4127.6332195019
 31
0.0
  0
LINE
  5
621
330
1F
100
AcDbEntity
  8
0
  6
Continuous
 62
     7
100
AcDbLine
 10
5046.8016771272
 20
4127.1331961369
 30
0.0
 11
5044.518700023
 21
4127.1331961369
 31
0.0
  0
LINE
  5
622
330
1F
100
AcDbEntity
  8
0
  6
Continuous
 62
     7
100
AcDbLine
 10
5103.5187152818
 20
4127.1331961369
 30
0.0
 11
5046.8016771272
 21
4127.1331961369
 31
0.0
  0
LINE
  5
623
330
1F
100
AcDbEntity
  8
0
  6
Continuous
 62
     7
100
AcDbLine
 10
6246.3404277012
 20
4127.6332195019
 30
0.0
 11
6304.0187546655
 21
4127.6332195019
 31
0.0
  0
LINE
  5
624
330
1F
100
AcDbEntity
  8
0
  6
Continuous
 62
     7
100
AcDbLine
 10
6244.0187560067
 20
4127.6332195019
 30
0.0
 11
6246.3404277012
 21
4127.6332195019
 31
0.0
  0
LINE
  5
625
330
1F
100
AcDbEntity
  8
0
  6
Continuous
 62
     7
100
AcDbLine
 10
6246.8017322615
 20
4127.1331961369
 30
0.0
 11
6244.5187551573
 21
4127.1331961369
 31
0.0
  0
LINE
  5
626
330
1F
100
AcDbEntity
  8
0
  6
Continuous
 62
     7
100
AcDbLine
 10
6303.5187555149
 20
4127.1331961369
 30
0.0
 11
6246.8017322615
 21
4127.1331961369
 31
0.0
  0
LINE
  5
627
330
1F
100
AcDbEntity
  8
0
  6
Continuous
 62
     7
100
AcDbLine
 10
6846.3404087022
 20
4127.6332195019
 30
0.0
 11
6904.0187505677
 21
4127.6332195019
 31
0.0
  0
LINE
  5
628
330
1F
100
AcDbEntity
  8
0
  6
Continuous
 62
     7
100
AcDbLine
 10
6844.0187481835
 20
4127.6332195019
 30
0.0
 11
6846.3404087022
 21
4127.6332195019
 31
0.0
  0
LINE
  5
629
330
1F
100
AcDbEntity
  8
0
  6
Continuous
 62
     7
100
AcDbLine
 10
6846.8017486528
 20
4127.1331961369
 30
0.0
 11
6844.5187715486
 21
4127.1331961369
 31
0.0
  0
LINE
  5
62A
330
1F
100
AcDbEntity
  8
0
  6
Continuous
 62
     7
100
AcDbLine
 10
6903.5187272027
 20
4127.1331961369
 30
0.0
 11
6846.8017486528
 21
4127.1331961369
 31
0.0
  0
LINE
  5
62B
330
1F
100
AcDbEntity
  8
0
  6
Continuous
 62
     7
100
AcDbLine
 10
7446.340432544
 20
4127.6332195019
 30
0.0
 11
7504.0187744096
 21
4127.6332195019
 31
0.0
  0
LINE
  5
62C
330
1F
100
AcDbEntity
  8
0
  6
Continuous
 62
     7
100
AcDbLine
 10
7444.0187124208
 20
4127.6332195019
 30
0.0
 11
7446.340432544
 21
4127.6332195019
 31
0.0
  0
LINE
  5
62D
330
1F
100
AcDbEntity
  8
0
  6
Continuous
 62
     7
100
AcDbLine
 10
7446.8017724946
 20
4127.1331961369
 30
0.0
 11
7444.5187953904
 21
4127.1331961369
 31
0.0
  0
LINE
  5
62E
330
1F
100
AcDbEntity
  8
0
  6
Continuous
 62
     7
100
AcDbLine
 10
7503.5188106492
 20
4127.1331961369
 30
0.0
 11
7446.8017724946
 21
4127.1331961369
 31
0.0
  0
LINE
  5
62F
330
1F
100
AcDbEntity
  8
0
  6
Continuous
 62
     7
100
AcDbLine
 10
5060.0187686875
 20
3962.1332044815
 30
0.0
 11
5088.0187658265
 21
3962.1332044815
 31
0.0
  0
LINE
  5
630
330
1F
100
AcDbEntity
  8
0
  6
Continuous
 62
     7
100
AcDbLine
 10
5087.0187190965
 20
3961.1332173561
 30
0.0
 11
5061.0186962083
 21
3961.1332173561
 31
0.0
  0
LINE
  5
631
330
1F
100
AcDbEntity
  8
0
  6
Continuous
 62
     7
100
AcDbLine
 10
7460.0187448457
 20
3962.1332044815
 30
0.0
 11
7488.0187419847
 21
3962.1332044815
 31
0.0
  0
LINE
  5
632
330
1F
100
AcDbEntity
  8
0
  6
Continuous
 62
     7
100
AcDbLine
 10
7487.0188144639
 20
3961.1332173561
 30
0.0
 11
7461.0187915757
 21
3961.1332173561
 31
0.0
  0
LINE
  5
633
330
1F
100
AcDbEntity
  8
0
  6
Continuous
 62
     7
100
AcDbLine
 10
5660.0187329248
 20
3962.1332044815
 30
0.0
 11
5688.0187300637
 21
3962.1332044815
 31
0.0
  0
LINE
  5
634
330
1F
100
AcDbEntity
  8
0
  6
Continuous
 62
     7
100
AcDbLine
 10
5687.0187429383
 20
3961.1332173561
 30
0.0
 11
5661.0187796548
 21
3961.1332173561
 31
0.0
  0
LINE
  5
635
330
1F
100
AcDbEntity
  8
0
  6
Continuous
 62
     7
100
AcDbLine
 10
6260.018754904
 20
3962.1332044815
 30
0.0
 11
6288.0187557682
 21
3962.1332044815
 31
0.0
  0
LINE
  5
636
330
1F
100
AcDbEntity
  8
0
  6
Continuous
 62
     7
100
AcDbLine
 10
6287.0187556043
 20
3961.1332173561
 30
0.0
 11
6261.0187550679
 21
3961.1332173561
 31
0.0
  0
LINE
  5
637
330
1F
100
AcDbEntity
  8
0
  6
Continuous
 62
     7
100
AcDbLine
 10
6860.0187806085
 20
3962.1332044815
 30
0.0
 11
6888.0187777474
 21
3962.1332044815
 31
0.0
  0
LINE
  5
638
330
1F
100
AcDbEntity
  8
0
  6
Continuous
 62
     7
100
AcDbLine
 10
6887.0187310174
 20
3961.1332173561
 30
0.0
 11
6861.0187677339
 21
3961.1332173561
 31
0.0
  0
LINE
  5
639
330
1F
100
AcDbEntity
  8
0
  6
Continuous
 62
     7
100
AcDbLine
 10
7770.9187177613
 20
3700.1332099652
 30
0.0
 11
7770.9187177613
 21
3700.0332099677
 31
0.0
  0
LINE
  5
63A
330
1F
100
AcDbEntity
  8
0
  6
Continuous
 62
     7
100
AcDbLine
 10
7732.1187166169
 20
3700.1332099652
 30
0.0
 11
7732.1187166169
 21
3700.0332099677
 31
0.0
  0
LINE
  5
63B
330
1F
100
AcDbEntity
  8
0
  6
Continuous
 62
     7
100
AcDbLine
 10
4777.1187929109
 20
3700.1332099652
 30
0.0
 11
4777.1187929109
 21
3700.0332099677
 31
0.0
  0
LINE
  5
63C
330
1F
100
AcDbEntity
  8
0
  6
Continuous
 62
     7
100
AcDbLine
 10
4815.9187940553
 20
3700.1332099652
 30
0.0
 11
4815.9187940553
 21
3700.0332099677
 31
0.0
  0
LINE
  5
63D
330
1F
100
AcDbEntity
  8
0
  6
Continuous
 62
     7
100
AcDbLine
 10
4776.0187295869
 20
4129.7908480381
 30
0.0
 11
5044.0187362626
 21
4129.7908480381
 31
0.0
  0
LINE
  5
63E
330
1F
100
AcDbEntity
  8
0
  6
Continuous
 62
     7
100
AcDbLine
 10
5104.0187982514
 20
4129.7908480381
 30
0.0
 11
5644.0187601045
 21
4129.7908480381
 31
0.0
  0
LINE
  5
63F
330
1F
100
AcDbEntity
  8
0
  6
Continuous
 62
     7
100
AcDbLine
 10
5704.0187624887
 20
4129.7908480381
 30
0.0
 11
6244.0187560067
 21
4129.7908480381
 31
0.0
  0
LINE
  5
640
330
1F
100
AcDbEntity
  8
0
  6
Continuous
 62
     7
100
AcDbLine
 10
6304.0187546655
 20
4129.7908480381
 30
0.0
 11
6844.0187481835
 21
4129.7908480381
 31
0.0
  0
LINE
  5
641
330
1F
100
AcDbEntity
  8
0
  6
Continuous
 62
     7
100
AcDbLine
 10
6904.0187505677
 20
4129.7908480381
 30
0.0
 11
7444.0187124208
 21
4129.7908480381
 31
0.0
  0
LINE
  5
642
330
1F
100
AcDbEntity
  8
0
  6
Continuous
 62
     7
100
AcDbLine
 10
7504.0187744096
 20
4129.7908480381
 30
0.0
 11
7772.0187810853
 21
4129.7908480381
 31
0.0
  0
LINE
  5
643
330
1F
100
AcDbEntity
  8
0
  6
Continuous
 62
     7
100
AcDbLine
 10
7772.0187810853
 20
4004.4157560086
 30
0.0
 11
7488.0187419847
 21
4004.4157560086
 31
0.0
  0
LINE
  5
644
330
1F
100
AcDbEntity
  8
0
  6
Continuous
 62
     7
100
AcDbLine
 10
7460.0187448457
 20
4004.4157560086
 30
0.0
 11
6888.0187777474
 21
4004.4157560086
 31
0.0
  0
LINE
  5
645
330
1F
100
AcDbEntity
  8
0
  6
Continuous
 62
     7
100
AcDbLine
 10
6860.0187806085
 20
4004.4157560086
 30
0.0
 11
6288.0187557682
 21
4004.4157560086
 31
0.0
  0
LINE
  5
646
330
1F
100
AcDbEntity
  8
0
  6
Continuous
 62
     7
100
AcDbLine
 10
6260.018754904
 20
4004.4157560086
 30
0.0
 11
5688.0187300637
 21
4004.4157560086
 31
0.0
  0
LINE
  5
647
330
1F
100
AcDbEntity
  8
0
  6
Continuous
 62
     7
100
AcDbLine
 10
5660.0187329248
 20
4004.4157560086
 30
0.0
 11
5088.0187658265
 21
4004.4157560086
 31
0.0
  0
LINE
  5
648
330
1F
100
AcDbEntity
  8
0
  6
Continuous
 62
     7
100
AcDbLine
 10
5060.0187686875
 20
4004.4157560086
 30
0.0
 11
4776.0187295869
 21
4004.4157560086
 31
0.0
  0
LINE
  5
649
330
1F
100
AcDbEntity
  8
0
  6
Continuous
 62
     7
100
AcDbLine
 10
4776.0187295869
 20
4003.7581379628
 30
0.0
 11
5060.0187686875
 21
4003.7581379628
 31
0.0
  0
LINE
  5
64A
330
1F
100
AcDbEntity
  8
0
  6
Continuous
 62
     7
100
AcDbLine
 10
5088.0187658265
 20
4003.7581379628
 30
0.0
 11
5660.0187329248
 21
4003.7581379628
 31
0.0
  0
LINE
  5
64B
330
1F
100
AcDbEntity
  8
0
  6
Continuous
 62
     7
100
AcDbLine
 10
5688.0187300637
 20
4003.7581379628
 30
0.0
 11
6260.018754904
 21
4003.7581379628
 31
0.0
  0
LINE
  5
64C
330
1F
100
AcDbEntity
  8
0
  6
Continuous
 62
     7
100
AcDbLine
 10
6288.0187557682
 20
4003.7581379628
 30
0.0
 11
6860.0187806085
 21
4003.7581379628
 31
0.0
  0
LINE
  5
64D
330
1F
100
AcDbEntity
  8
0
  6
Continuous
 62
     7
100
AcDbLine
 10
6888.0187777474
 20
4003.7581379628
 30
0.0
 11
7460.0187448457
 21
4003.7581379628
 31
0.0
  0
LINE
  5
64E
330
1F
100
AcDbEntity
  8
0
  6
Continuous
 62
     7
100
AcDbLine
 10
7488.0187419847
 20
4003.7581379628
 30
0.0
 11
7772.0187810853
 21
4003.7581379628
 31
0.0
  0
LWPOLYLINE
  5
64F
330
1F
100
AcDbEntity
  8
0
  6
Continuous
 62
     7
100
AcDbPolyline
 90
        5
 70
   128
 43
0.0
 10
6266.4680480957
 20
5532.3578409046
 10
6262.771760764
 20
5533.8622239981
 10
6261.1692033323
 20
5537.6634304915
 10
6262.7743171888
 20
5541.4577930853
 10
6266.468755123
 20
5542.9578415245
  0
LWPOLYLINE
  5
650
330
1F
100
AcDbEntity
  8
0
  6
Continuous
 62
     7
100
AcDbPolyline
 90
        5
 70
   128
 43
0.0
 10
6281.566619873
 20
5542.9578415245
 10
6285.2638757671
 20
5541.4573199092
 10
6286.8685468888
 20
5537.6548473933
 10
6285.2644614137
 20
5533.8589181135
 10
6281.5687555492
 20
5532.3578409046
  0
LWPOLYLINE
  5
651
330
1F
100
AcDbEntity
  8
0
  6
Continuous
 62
     7
100
AcDbPolyline
 90
        5
 70
   128
 43
0.0
 10
5066.4672851562
 20
5532.3578409046
 10
5062.7717602676
 20
5533.8622536744
 10
5061.1691595177
 20
5537.6634371237
 10
5062.7742967277
 20
5541.4577869491
 10
5066.468706508
 20
5542.9578415245
  0
LWPOLYLINE
  5
652
330
1F
100
AcDbEntity
  8
0
  6
Continuous
 62
     7
100
AcDbPolyline
 90
        5
 70
   128
 43
0.0
 10
5081.5658569336
 20
5542.9578415245
 10
5085.2638838801
 20
5541.4573653104
 10
5086.8685413952
 20
5537.6548697904
 10
5085.2644264662
 20
5533.8589180243
 10
5081.5687087968
 20
5532.3578409046
  0
LWPOLYLINE
  5
653
330
1F
100
AcDbEntity
  8
0
  6
Continuous
 62
     7
100
AcDbPolyline
 90
        5
 70
   128
 43
0.0
 10
7466.4649963379
 20
5532.3578409046
 10
7462.7717740635
 20
5533.8622170846
 10
7461.1691356767
 20
5537.6634382583
 10
7462.7743120208
 20
5541.4578247226
 10
7466.4688018754
 20
5542.9578415245
  0
LWPOLYLINE
  5
654
330
1F
100
AcDbEntity
  8
0
  6
Continuous
 62
     7
100
AcDbPolyline
 90
        5
 70
   128
 43
0.0
 10
7481.5673828125
 20
5542.9578415245
 10
7485.2639044683
 20
5541.4573221102
 10
7486.868553462
 20
5537.6548484023
 10
7485.2644453415
 20
5533.8589618042
 10
7481.5688041642
 20
5532.3578409046
  0
LWPOLYLINE
  5
655
330
1F
100
AcDbEntity
  8
0
  6
Continuous
 62
     7
100
AcDbPolyline
 90
        5
 70
   128
 43
0.0
 10
5666.4657592773
 20
5532.3578409046
 10
5662.7717510061
 20
5533.8622249068
 10
5661.169194358
 20
5537.663426523
 10
5662.7743183186
 20
5541.4577772067
 10
5666.4687303498
 20
5542.9578415245
  0
LWPOLYLINE
  5
656
330
1F
100
AcDbEntity
  8
0
  6
Continuous
 62
     7
100
AcDbPolyline
 90
        5
 70
   128
 43
0.0
 10
5681.568145752
 20
5542.9578415245
 10
5685.2638780133
 20
5541.4573363137
 10
5686.8685696966
 20
5537.6548550613
 10
5685.264448992
 20
5533.8589156916
 10
5681.5687326387
 20
5532.3578409046
  0
LWPOLYLINE
  5
657
330
1F
100
AcDbEntity
  8
0
  6
Continuous
 62
     7
100
AcDbPolyline
 90
        5
 70
   128
 43
0.0
 10
6866.4665222168
 20
5532.3578409046
 10
6862.7717584515
 20
5533.8622060767
 10
6861.1691824574
 20
5537.6634254576
 10
6862.7743239917
 20
5541.4577948044
 10
6866.4687780335
 20
5542.9578415245
  0
LWPOLYLINE
  5
658
330
1F
100
AcDbEntity
  8
0
  6
Continuous
 62
     7
100
AcDbPolyline
 90
        5
 70
   128
 43
0.0
 10
6881.5650939941
 20
5542.9578415245
 10
6885.2638887334
 20
5541.4573140863
 10
6886.868552603
 20
5537.6548613426
 10
6885.2644583511
 20
5533.85893629
 10
6881.5687803224
 20
5532.3578409046
  0
LWPOLYLINE
  5
659
330
1F
100
AcDbEntity
  8
0
  6
Continuous
 62
     7
100
AcDbPolyline
 90
        3
 70
   128
 43
0.0
 10
5692.1844482422
 20
5547.3220489115
 10
5671.6066891463
 20
5546.4043642593
 10
5655.8517722085
 20
5547.3220489115
  0
LWPOLYLINE
  5
65A
330
1F
100
AcDbEntity
  8
0
  6
Continuous
 62
     7
100
AcDbPolyline
 90
        3
 70
   128
 43
0.0
 10
5692.1844482422
 20
5530.5936328262
 10
5693.9900942813
 20
5540.0274147642
 10
5692.1857503846
 20
5547.3220489115
  0
LWPOLYLINE
  5
65B
330
1F
100
AcDbEntity
  8
0
  6
Continuous
 62
     7
100
AcDbPolyline
 90
        3
 70
   128
 43
0.0
 10
5655.8494567871
 20
5530.5936328262
 10
5676.4308297569
 20
5531.5113176197
 10
5692.1857503846
 20
5530.5936328262
  0
LWPOLYLINE
  5
65C
330
1F
100
AcDbEntity
  8
0
  6
Continuous
 62
     7
100
AcDbPolyline
 90
        3
 70
   128
 43
0.0
 10
5655.8494567871
 20
5547.3220489115
 10
5654.0473739625
 20
5537.8882624886
 10
5655.8517722085
 20
5530.5936328262
  0
LWPOLYLINE
  5
65D
330
1F
100
AcDbEntity
  8
0
  6
Continuous
 62
     7
100
AcDbPolyline
 90
        5
 70
   128
 43
0.0
 10
5666.5153503418
 20
5543.2578391522
 10
5662.6818883767
 20
5541.6963023713
 10
5661.0192425996
 20
5537.7519998964
 10
5662.6844865424
 20
5533.8149142351
 10
5666.5187386468
 20
5532.2578392119
  0
LWPOLYLINE
  5
65E
330
1F
100
AcDbEntity
  8
0
  6
Continuous
 62
     7
100
AcDbPolyline
 90
        5
 70
   128
 43
0.0
 10
5681.5185546875
 20
5532.2578392119
 10
5685.3556271297
 20
5533.8193868683
 10
5687.0182854903
 20
5537.7636950242
 10
5685.35303233
 20
5541.7007754741
 10
5681.5187839463
 20
5543.2578391522
  0
LWPOLYLINE
  5
65F
330
1F
100
AcDbEntity
  8
0
  6
Continuous
 62
     7
100
AcDbPolyline
 90
        3
 70
   128
 43
0.0
 10
7492.1836853027
 20
5547.3220489115
 10
7471.6066807245
 20
5546.4043636098
 10
7455.8517841294
 20
5547.3220489115
  0
LWPOLYLINE
  5
660
330
1F
100
AcDbEntity
  8
0
  6
Continuous
 62
     7
100
AcDbPolyline
 90
        3
 70
   128
 43
0.0
 10
7492.1836853027
 20
5530.5936328262
 10
7493.9900946079
 20
5540.027419089
 10
7492.1857027009
 20
5547.3220489115
  0
LWPOLYLINE
  5
661
330
1F
100
AcDbEntity
  8
0
  6
Continuous
 62
     7
100
AcDbPolyline
 90
        3
 70
   128
 43
0.0
 10
7455.8486938477
 20
5530.5936328262
 10
7476.4308177487
 20
5531.5113179655
 10
7492.1857027009
 20
5530.5936328262
  0
LWPOLYLINE
  5
662
330
1F
100
AcDbEntity
  8
0
  6
Continuous
 62
     7
100
AcDbPolyline
 90
        3
 70
   128
 43
0.0
 10
7455.8486938477
 20
5547.3220489115
 10
7454.0473820666
 20
5537.888267998
 10
7455.8517841294
 20
5530.5936328262
  0
LWPOLYLINE
  5
663
330
1F
100
AcDbEntity
  8
0
  6
Continuous
 62
     7
100
AcDbPolyline
 90
        5
 70
   128
 43
0.0
 10
7466.5184020996
 20
5543.2578391522
 10
7462.6818658203
 20
5541.6963236412
 10
7461.0192198537
 20
5537.7519896488
 10
7462.6844929055
 20
5533.814911855
 10
7466.5187505677
 20
5532.2578392119
  0
LWPOLYLINE
  5
664
330
1F
100
AcDbEntity
  8
0
  6
Continuous
 62
     7
100
AcDbPolyline
 90
        5
 70
   128
 43
0.0
 10
7481.517791748
 20
5532.2578392119
 10
7485.3556105925
 20
5533.8193582183
 10
7487.0182672037
 20
5537.7636911376
 10
7485.3529928831
 20
5541.7007739672
 10
7481.5187362626
 20
5543.2578391522
  0
LWPOLYLINE
  5
665
330
1F
100
AcDbEntity
  8
0
  6
Continuous
 62
     7
100
AcDbPolyline
 90
        3
 70
   128
 43
0.0
 10
6292.1829223633
 20
5547.3220489115
 10
6271.6066819654
 20
5546.4043642802
 10
6255.8517532095
 20
5547.3220489115
  0
LWPOLYLINE
  5
666
330
1F
100
AcDbEntity
  8
0
  6
Continuous
 62
     7
100
AcDbPolyline
 90
        3
 70
   128
 43
0.0
 10
6292.1829223633
 20
5530.5936328262
 10
6293.9901126797
 20
5540.0274132189
 10
6292.1857574627
 20
5547.3220489115
  0
LWPOLYLINE
  5
667
330
1F
100
AcDbEntity
  8
0
  6
Continuous
 62
     7
100
AcDbPolyline
 90
        3
 70
   128
 43
0.0
 10
6255.8517456055
 20
5530.5936328262
 10
6276.4308287068
 20
5531.5113174575
 10
6292.1857574627
 20
5530.5936328262
  0
LWPOLYLINE
  5
668
330
1F
100
AcDbEntity
  8
0
  6
Continuous
 62
     7
100
AcDbPolyline
 90
        3
 70
   128
 43
0.0
 10
6255.8517456055
 20
5547.3220489115
 10
6254.0473979925
 20
5537.8882685188
 10
6255.8517532095
 20
5530.5936328262
  0
LWPOLYLINE
  5
669
330
1F
100
AcDbEntity
  8
0
  6
Continuous
 62
     7
100
AcDbPolyline
 90
        5
 70
   128
 43
0.0
 10
6266.5176391602
 20
5543.2578391522
 10
6262.6818829852
 20
5541.6963166582
 10
6261.0192321698
 20
5537.7519934122
 10
6262.6844938929
 20
5533.8149090428
 10
6266.5187555037
 20
5532.2578392119
  0
LWPOLYLINE
  5
66A
330
1F
100
AcDbEntity
  8
0
  6
Continuous
 62
     7
100
AcDbPolyline
 90
        5
 70
   128
 43
0.0
 10
6281.5170288086
 20
5532.2578392119
 10
6285.3556268191
 20
5533.8193681553
 10
6287.0182788923
 20
5537.7636911806
 10
6285.3530172998
 20
5541.7007765923
 10
6281.5187551685
 20
5543.2578391522
  0
LWPOLYLINE
  5
66B
330
1F
100
AcDbEntity
  8
0
  6
Continuous
 62
     7
100
AcDbPolyline
 90
        3
 70
   128
 43
0.0
 10
5092.1821594238
 20
5547.3220489115
 10
5071.6066929235
 20
5546.4043637722
 10
5055.8518079713
 20
5547.3220489115
  0
LWPOLYLINE
  5
66C
330
1F
100
AcDbEntity
  8
0
  6
Continuous
 62
     7
100
AcDbPolyline
 90
        3
 70
   128
 43
0.0
 10
5092.1821594238
 20
5530.5936328262
 10
5093.9901286056
 20
5540.0274137397
 10
5092.1857265428
 20
5547.3220489115
  0
LWPOLYLINE
  5
66D
330
1F
100
AcDbEntity
  8
0
  6
Continuous
 62
     7
100
AcDbPolyline
 90
        3
 70
   128
 43
0.0
 10
5055.850982666
 20
5530.5936328262
 10
5076.4308299477
 20
5531.5113181279
 10
5092.1857265428
 20
5530.5936328262
  0
LWPOLYLINE
  5
66E
330
1F
100
AcDbEntity
  8
0
  6
Continuous
 62
     7
100
AcDbPolyline
 90
        3
 70
   128
 43
0.0
 10
5055.850982666
 20
5547.3220489115
 10
5054.0474160643
 20
5537.8882626487
 10
5055.8518079713
 20
5530.5936328262
  0
LWPOLYLINE
  5
66F
330
1F
100
AcDbEntity
  8
0
  6
Continuous
 62
     7
100
AcDbPolyline
 90
        5
 70
   128
 43
0.0
 10
5066.5168762207
 20
5543.2578391522
 10
5062.6818992118
 20
5541.6963265953
 10
5061.0192438583
 20
5537.7519934553
 10
5062.6845183096
 20
5533.8149116679
 10
5066.5187744096
 20
5532.2578392119
  0
LWPOLYLINE
  5
670
330
1F
100
AcDbEntity
  8
0
  6
Continuous
 62
     7
100
AcDbPolyline
 90
        5
 70
   128
 43
0.0
 10
5081.5162658691
 20
5532.2578392119
 10
5085.355643984
 20
5533.8193611723
 10
5087.0182912083
 20
5537.763694944
 10
5085.3530182872
 20
5541.7007737801
 10
5081.5187601045
 20
5543.2578391522
  0
LWPOLYLINE
  5
671
330
1F
100
AcDbEntity
  8
0
  6
Continuous
 62
     7
100
AcDbPolyline
 90
        3
 70
   128
 43
0.0
 10
6892.1852111816
 20
5547.3220489115
 10
6871.6066809153
 20
5546.404364118
 10
6855.8517602876
 20
5547.3220489115
  0
LWPOLYLINE
  5
672
330
1F
100
AcDbEntity
  8
0
  6
Continuous
 62
     7
100
AcDbPolyline
 90
        3
 70
   128
 43
0.0
 10
6892.1852111816
 20
5530.5936328262
 10
6893.9901367097
 20
5540.0274192492
 10
6892.1857384637
 20
5547.3220489115
  0
LWPOLYLINE
  5
673
330
1F
100
AcDbEntity
  8
0
  6
Continuous
 62
     7
100
AcDbPolyline
 90
        3
 70
   128
 43
0.0
 10
6855.8502197266
 20
5530.5936328262
 10
6876.4308215259
 20
5531.5113174784
 10
6892.1857384637
 20
5530.5936328262
  0
LWPOLYLINE
  5
674
330
1F
100
AcDbEntity
  8
0
  6
Continuous
 62
     7
100
AcDbPolyline
 90
        3
 70
   128
 43
0.0
 10
6855.8502197266
 20
5547.3220489115
 10
6854.0474163909
 20
5537.8882669735
 10
6855.8517602876
 20
5530.5936328262
  0
LWPOLYLINE
  5
675
330
1F
100
AcDbEntity
  8
0
  6
Continuous
 62
     7
100
AcDbPolyline
 90
        5
 70
   128
 43
0.0
 10
6866.5161132812
 20
5543.2578391522
 10
6862.6818826746
 20
5541.6962979452
 10
6861.0192255718
 20
5537.7519895686
 10
6862.6844788627
 20
5533.814910161
 10
6866.5187267259
 20
5532.2578392119
  0
LWPOLYLINE
  5
676
330
1F
100
AcDbEntity
  8
0
  6
Continuous
 62
     7
100
AcDbPolyline
 90
        5
 70
   128
 43
0.0
 10
6881.5155029297
 20
5532.2578392119
 10
6885.3556214276
 20
5533.8193824423
 10
6887.0182684625
 20
5537.7636846964
 10
6885.3530246503
 20
5541.7007714
 10
6881.5187720254
 20
5543.2578391522
  0
LWPOLYLINE
  5
677
330
1F
100
AcDbEntity
  8
0
  6
Continuous
 62
     7
100
AcDbPolyline
 90
       12
 70
   128
 43
0.0
 10
8388.0920410156
 20
5158.2895732612
 10
8391.7378404231
 20
5133.0698905185
 10
8382.2158759162
 20
5118.2430470542
 10
8381.2285019786
 20
5116.9981858634
 10
8381.1897318942
 20
5116.9497833469
 10
8381.187168734
 20
5116.9465941666
 10
8381.1870185762
 20
5116.9464096927
 10
8381.1870131524
 20
5116.9464039353
 10
8381.1871088168
 20
5116.946526105
 10
8381.187366099
 20
5116.9468500825
 10
8381.1923721047
 20
5116.9531164102
 10
8381.2116221935
 20
5116.9771767348
  0
LWPOLYLINE
  5
678
330
1F
100
AcDbEntity
  8
0
  6
Continuous
 62
     7
100
AcDbPolyline
 90
        3
 70
   128
 43
0.0
 10
8386.3143920898
 20
5160.9419203491
 10
8386.909949195
 20
5160.0827742466
 10
8388.0950049908
 20
5158.2895732612
  0
LINE
  5
679
330
1F
100
AcDbEntity
  8
0
  6
Continuous
 62
     7
100
AcDbLine
 10
8386.3143920898
 20
5160.9419203491
 30
0.0
 11
8390.8469812424
 21
5160.941920349
 31
0.0
  0
LWPOLYLINE
  5
67A
330
1F
100
AcDbEntity
  8
0
  6
Continuous
 62
     7
100
AcDbPolyline
 90
        5
 70
   128
 43
0.0
 10
8229.2404174805
 20
5532.3578409046
 10
8227.807731485
 20
5533.8622536744
 10
8226.9697296995
 20
5537.6634371237
 10
8227.8094321027
 20
5541.4577869491
 10
8229.2464212925
 20
5542.9578415245
  0
LWPOLYLINE
  5
67B
330
1F
100
AcDbEntity
  8
0
  6
Continuous
 62
     7
100
AcDbPolyline
 90
        3
 70
   128
 43
0.0
 10
8222.8164672852
 20
5547.3220489115
 10
8220.8646955552
 20
5537.8882626487
 10
8222.8167490513
 20
5530.5936328262
  0
LWPOLYLINE
  5
67C
330
1F
100
AcDbEntity
  8
0
  6
Continuous
 62
     7
100
AcDbPolyline
 90
       10
 70
   128
 43
0.0
 10
8230.1254272461
 20
5546.400210926
 10
8230.1656950108
 20
5546.3957243711
 10
8230.1658527136
 20
5546.3957037067
 10
8230.1658609017
 20
5546.3957026979
 10
8230.1658621976
 20
5546.3957026129
 10
8230.1658438834
 20
5546.395705245
 10
8230.1651245255
 20
5546.3958027273
 10
8230.1412088068
 20
5546.3990128648
 10
8229.7465064519
 20
5546.4516555461
 10
8222.8167490513
 20
5547.3220489115
  0
LWPOLYLINE
  5
67D
330
1F
100
AcDbEntity
  8
0
  6
Continuous
 62
     7
100
AcDbPolyline
 90
       11
 70
   128
 43
0.0
 10
8222.8164672852
 20
5530.5936328262
 10
8229.7505216824
 20
5531.4645607092
 10
8230.1098946061
 20
5531.5124908743
 10
8230.1354552578
 20
5531.5159108693
 10
8230.1371773272
 20
5531.5161417675
 10
8230.1372349886
 20
5531.5161495928
 10
8230.1372376376
 20
5531.5161499684
 10
8230.1372377863
 20
5531.5161500098
 10
8230.1372307094
 20
5531.5161491063
 10
8230.1369950621
 20
5531.516117851
 10
8230.1321463139
 20
5531.5154708118
  0
LWPOLYLINE
  5
67E
330
1F
100
AcDbEntity
  8
0
  6
Continuous
 62
     7
100
AcDbPolyline
 90
        5
 70
   128
 43
0.0
 10
8229.1107177734
 20
5543.2578391522
 10
8227.6143681925
 20
5541.6963265953
 10
8226.7338328628
 20
5537.7519934553
 10
8227.6161116663
 20
5533.8149116679
 10
8229.1115359814
 20
5532.2578392119
  0
LWPOLYLINE
  5
67F
330
1F
100
AcDbEntity
  8
0
  6
Continuous
 62
     7
100
AcDbPolyline
 90
        3
 70
   128
 43
0.0
 10
5690.9713745117
 20
4127.1331961369
 10
5689.4007476474
 20
4125.7642493155
 10
5688.0187300637
 20
4124.89933326
  0
LWPOLYLINE
  5
680
330
1F
100
AcDbEntity
  8
0
  6
Continuous
 62
     7
100
AcDbPolyline
 90
        3
 70
   128
 43
0.0
 10
5660.0151062012
 20
4124.8252446865
 10
5658.3236150011
 20
4126.0175208473
 10
5657.1105627015
 20
4127.1331961369
  0
LWPOLYLINE
  5
681
330
1F
100
AcDbEntity
  8
0
  6
Continuous
 62
     7
100
AcDbPolyline
 90
        3
 70
   128
 43
0.0
 10
7490.9706115723
 20
4127.1331961369
 10
7489.4007595684
 20
4125.7642493155
 10
7488.0187419847
 20
4124.89933326
  0
LWPOLYLINE
  5
682
330
1F
100
AcDbEntity
  8
0
  6
Continuous
 62
     7
100
AcDbPolyline
 90
        3
 70
   128
 43
0.0
 10
7460.018157959
 20
4124.8252446865
 10
7458.3236569809
 20
4126.0175169495
 10
7457.1106342271
 20
4127.1331961369
  0
LWPOLYLINE
  5
683
330
1F
100
AcDbEntity
  8
0
  6
Continuous
 62
     7
100
AcDbPolyline
 90
        3
 70
   128
 43
0.0
 10
6290.9698486328
 20
4127.1331961369
 10
6289.400757663
 20
4125.7642732929
 10
6288.0187557682
 20
4124.89933326
  0
LWPOLYLINE
  5
684
330
1F
100
AcDbEntity
  8
0
  6
Continuous
 62
     7
100
AcDbPolyline
 90
        3
 70
   128
 43
0.0
 10
6260.0173950195
 20
4124.8252446865
 10
6258.322883056
 20
4126.0161207647
 10
6257.110588406
 20
4127.1331961369
  0
LWPOLYLINE
  5
685
330
1F
100
AcDbEntity
  8
0
  6
Continuous
 62
     7
100
AcDbPolyline
 90
        3
 70
   128
 43
0.0
 10
5090.9690856934
 20
4127.1331961369
 10
5089.4007834102
 20
4125.7642493155
 10
5088.0187658265
 20
4124.89933326
  0
LWPOLYLINE
  5
686
330
1F
100
AcDbEntity
  8
0
  6
Continuous
 62
     7
100
AcDbPolyline
 90
        3
 70
   128
 43
0.0
 10
5060.0166320801
 20
4124.8252446865
 10
5058.3217782581
 20
4126.0140981052
 10
5057.1105388597
 20
4127.1331961369
  0
LWPOLYLINE
  5
687
330
1F
100
AcDbEntity
  8
0
  6
Continuous
 62
     7
100
AcDbPolyline
 90
        3
 70
   128
 43
0.0
 10
6890.9683227539
 20
4127.1331961369
 10
6889.4007730177
 20
4125.7642834169
 10
6888.0187777474
 20
4124.89933326
  0
LWPOLYLINE
  5
688
330
1F
100
AcDbEntity
  8
0
  6
Continuous
 62
     7
100
AcDbPolyline
 90
        3
 70
   128
 43
0.0
 10
6860.0158691406
 20
4124.8252446865
 10
6858.322733897
 20
4126.0157994856
 10
6857.1106103852
 20
4127.1331961369
  0
ENDSEC
  0
SECTION
  2
OBJECTS
  0
DICTIONARY
  5
C
330
0
100
AcDbDictionary
281
     1
  3
ACAD_GROUP
350
D
  3
ACAD_LAYOUT
350
1A
  3
ACAD_MLINESTYLE
350
17
  3
ACAD_PLOTSETTINGS
350
19
  3
ACAD_PLOTSTYLENAME
350
E
  3
ACAD_SCALELIST
350
47
  3
DWGPROPS
350
689
  0
DICTIONARY
  5
D
102
{ACAD_REACTORS
330
C
102
}
330
C
100
AcDbDictionary
281
     1
  0
DICTIONARY
  5
1A
102
{ACAD_REACTORS
330
C
102
}
330
C
100
AcDbDictionary
281
     1
  3
Layout1
350
1E
  3
Layout2
350
26
  3
Model
350
22
  0
DICTIONARY
  5
17
102
{ACAD_REACTORS
330
C
102
}
330
C
100
AcDbDictionary
281
     1
  3
Standard
350
18
  0
DICTIONARY
  5
19
102
{ACAD_REACTORS
330
C
102
}
330
C
100
AcDbDictionary
281
     1
  0
ACDBDICTIONARYWDFLT
  5
E
102
{ACAD_REACTORS
330
C
102
}
330
C
100
AcDbDictionary
281
     1
  3
Normal
350
F
100
AcDbDictionaryWithDefault
340
F
  0
DICTIONARY
  5
47
102
{ACAD_REACTORS
330
C
102
}
330
C
100
AcDbDictionary
281
     1
  3
A0
350
48
  3
A1
350
49
  3
A2
350
4A
  3
A3
350
4B
  3
A4
350
4C
  3
A5
350
4D
  3
A6
350
4E
  3
A7
350
4F
  3
A8
350
50
  3
A9
350
51
  3
B0
350
52
  3
B1
350
53
  3
B2
350
54
  3
B3
350
55
  3
B4
350
56
  3
B5
350
57
  3
B6
350
58
  3
B7
350
59
  3
B8
350
5A
  3
B9
350
5B
  3
C0
350
5C
  3
C1
350
5D
  3
C2
350
5E
  3
C3
350
5F
  3
C4
350
60
  3
C5
350
61
  3
C6
350
62
  3
C7
350
63
  3
C8
350
64
  3
C9
350
65
  3
D0
350
66
  3
D1
350
67
  3
D2
350
68
  0
XRECORD
  5
689
102
{ACAD_REACTORS
330
C
102
}
330
C
100
AcDbXrecord
280
     1
  1
DWGPROPS COOKIE
  2

  3

  4

  6

  7

  8
radek.stransky
  9

300
=
301
=
302
=
303
=
304
=
305
=
306
=
307
=
308
=
309
=
 40
0.0
 41
2459096.386023264
 42
2459096.386137141
  1

 90
        0
  0
LAYOUT
  5
1E
102
{ACAD_REACTORS
330
1A
102
}
330
1A
100
AcDbPlotSettings
  1

  2
none_device
  4

  6

 40
0.0
 41
0.0
 42
0.0
 43
0.0
 44
0.0
 45
0.0
 46
0.0
 47
0.0
 48
0.0
 49
0.0
140
0.0
141
0.0
142
1.0
143
1.0
 70
   688
 72
     1
 73
     0
 74
     5
  7

 75
    16
147
1.0
148
0.0
149
0.0
100
AcDbLayout
  1
Layout1
 70
     1
 71
     1
 10
0.0
 20
0.0
 11
420.0
 21
297.0
 12
0.0
 22
0.0
 32
0.0
 14
1.0000000000E+20
 24
1.0000000000E+20
 34
1.0000000000E+20
 15
-1.0000000000E+20
 25
-1.0000000000E+20
 35
-1.0000000000E+20
146
0.0
 13
0.0
 23
0.0
 33
0.0
 16
1.0
 26
0.0
 36
0.0
 17
0.0
 27
1.0
 37
0.0
 76
     0
330
1B
  0
LAYOUT
  5
26
102
{ACAD_REACTORS
330
1A
102
}
330
1A
100
AcDbPlotSettings
  1

  2
none_device
  4

  6

 40
0.0
 41
0.0
 42
0.0
 43
0.0
 44
0.0
 45
0.0
 46
0.0
 47
0.0
 48
0.0
 49
0.0
140
0.0
141
0.0
142
1.0
143
1.0
 70
   688
 72
     1
 73
     0
 74
     5
  7

 75
    16
147
1.0
148
0.0
149
0.0
100
AcDbLayout
  1
Layout2
 70
     1
 71
     2
 10
0.0
 20
0.0
 11
0.0
 21
0.0
 12
0.0
 22
0.0
 32
0.0
 14
0.0
 24
0.0
 34
0.0
 15
0.0
 25
0.0
 35
0.0
146
0.0
 13
0.0
 23
0.0
 33
0.0
 16
1.0
 26
0.0
 36
0.0
 17
0.0
 27
1.0
 37
0.0
 76
     0
330
23
  0
LAYOUT
  5
22
102
{ACAD_REACTORS
330
1A
102
}
330
1A
100
AcDbPlotSettings
  1

  2
none_device
  4
ANSI_A_(11.00_x_8.50_Inches)
  6

 40
6.35
 41
19.05
 42
6.35000508
 43
19.05000254
 44
279.4
 45
215.9
 46
-345.566099125
 47
-251.728678502
 48
0.0
 49
0.0
140
0.0
141
0.0
142
0.0028089467
143
1.0
 70
  1696
 72
     0
 73
     0
 74
     0
  7

 75
     0
147
0.0179189148
148
-1300.4909072572
149
0.0
100
AcDbLayout
  1
Model
 70
     1
 71
     0
 10
0.0
 20
0.0
 11
420.0
 21
297.0
 12
0.0
 22
0.0
 32
0.0
 14
4774.0187553361
 24
3700.0332099677
 34
0.0
 15
8650.9167521482
 25
5848.4410560817
 35
0.0
146
0.0
 13
0.0
 23
0.0
 33
0.0
 16
1.0
 26
0.0
 36
0.0
 17
0.0
 27
1.0
 37
0.0
 76
     0
330
1F
331
29
  0
MLINESTYLE
  5
18
102
{ACAD_REACTORS
330
17
102
}
330
17
100
AcDbMlineStyle
  2
Standard
 70
     0
  3

 62
   256
 51
90.0
 52
90.0
 71
     2
 49
0.5
 62
   256
  6
BYLAYER
 49
-0.5
 62
   256
  6
BYLAYER
  0
ACDBPLACEHOLDER
  5
F
102
{ACAD_REACTORS
330
E
102
}
330
E
  0
SCALE
  5
48
102
{ACAD_REACTORS
330
47
102
}
330
47
100
AcDbScale
 70
     0
300
1:1
140
1.0
141
1.0
290
     1
  0
SCALE
  5
49
102
{ACAD_REACTORS
330
47
102
}
330
47
100
AcDbScale
 70
     0
300
1:2
140
1.0
141
2.0
290
     0
  0
SCALE
  5
4A
102
{ACAD_REACTORS
330
47
102
}
330
47
100
AcDbScale
 70
     0
300
1:4
140
1.0
141
4.0
290
     0
  0
SCALE
  5
4B
102
{ACAD_REACTORS
330
47
102
}
330
47
100
AcDbScale
 70
     0
300
1:5
140
1.0
141
5.0
290
     0
  0
SCALE
  5
4C
102
{ACAD_REACTORS
330
47
102
}
330
47
100
AcDbScale
 70
     0
300
1:8
140
1.0
141
8.0
290
     0
  0
SCALE
  5
4D
102
{ACAD_REACTORS
330
47
102
}
330
47
100
AcDbScale
 70
     0
300
1:10
140
1.0
141
10.0
290
     0
  0
SCALE
  5
4E
102
{ACAD_REACTORS
330
47
102
}
330
47
100
AcDbScale
 70
     0
300
1:16
140
1.0
141
16.0
290
     0
  0
SCALE
  5
4F
102
{ACAD_REACTORS
330
47
102
}
330
47
100
AcDbScale
 70
     0
300
1:20
140
1.0
141
20.0
290
     0
  0
SCALE
  5
50
102
{ACAD_REACTORS
330
47
102
}
330
47
100
AcDbScale
 70
     0
300
1:30
140
1.0
141
30.0
290
     0
  0
SCALE
  5
51
102
{ACAD_REACTORS
330
47
102
}
330
47
100
AcDbScale
 70
     0
300
1:40
140
1.0
141
40.0
290
     0
  0
SCALE
  5
52
102
{ACAD_REACTORS
330
47
102
}
330
47
100
AcDbScale
 70
     0
300
1:50
140
1.0
141
50.0
290
     0
  0
SCALE
  5
53
102
{ACAD_REACTORS
330
47
102
}
330
47
100
AcDbScale
 70
     0
300
1:100
140
1.0
141
100.0
290
     0
  0
SCALE
  5
54
102
{ACAD_REACTORS
330
47
102
}
330
47
100
AcDbScale
 70
     0
300
2:1
140
2.0
141
1.0
290
     0
  0
SCALE
  5
55
102
{ACAD_REACTORS
330
47
102
}
330
47
100
AcDbScale
 70
     0
300
4:1
140
4.0
141
1.0
290
     0
  0
SCALE
  5
56
102
{ACAD_REACTORS
330
47
102
}
330
47
100
AcDbScale
 70
     0
300
8:1
140
8.0
141
1.0
290
     0
  0
SCALE
  5
57
102
{ACAD_REACTORS
330
47
102
}
330
47
100
AcDbScale
 70
     0
300
10:1
140
10.0
141
1.0
290
     0
  0
SCALE
  5
58
102
{ACAD_REACTORS
330
47
102
}
330
47
100
AcDbScale
 70
     0
300
100:1
140
100.0
141
1.0
290
     0
  0
SCALE
  5
59
102
{ACAD_REACTORS
330
47
102
}
330
47
100
AcDbScale
 70
     0
300
1/128" = 1'-0"
140
0.0078125
141
12.0
290
     0
  0
SCALE
  5
5A
102
{ACAD_REACTORS
330
47
102
}
330
47
100
AcDbScale
 70
     0
300
1/64" = 1'-0"
140
0.015625
141
12.0
290
     0
  0
SCALE
  5
5B
102
{ACAD_REACTORS
330
47
102
}
330
47
100
AcDbScale
 70
     0
300
1/32" = 1'-0"
140
0.03125
141
12.0
290
     0
  0
SCALE
  5
5C
102
{ACAD_REACTORS
330
47
102
}
330
47
100
AcDbScale
 70
     0
300
1/16" = 1'-0"
140
0.0625
141
12.0
290
     0
  0
SCALE
  5
5D
102
{ACAD_REACTORS
330
47
102
}
330
47
100
AcDbScale
 70
     0
300
3/32" = 1'-0"
140
0.09375
141
12.0
290
     0
  0
SCALE
  5
5E
102
{ACAD_REACTORS
330
47
102
}
330
47
100
AcDbScale
 70
     0
300
1/8" = 1'-0"
140
0.125
141
12.0
290
     0
  0
SCALE
  5
5F
102
{ACAD_REACTORS
330
47
102
}
330
47
100
AcDbScale
 70
     0
300
3/16" = 1'-0"
140
0.1875
141
12.0
290
     0
  0
SCALE
  5
60
102
{ACAD_REACTORS
330
47
102
}
330
47
100
AcDbScale
 70
     0
300
1/4" = 1'-0"
140
0.25
141
12.0
290
     0
  0
SCALE
  5
61
102
{ACAD_REACTORS
330
47
102
}
330
47
100
AcDbScale
 70
     0
300
3/8" = 1'-0"
140
0.375
141
12.0
290
     0
  0
SCALE
  5
62
102
{ACAD_REACTORS
330
47
102
}
330
47
100
AcDbScale
 70
     0
300
1/2" = 1'-0"
140
0.5
141
12.0
290
     0
  0
SCALE
  5
63
102
{ACAD_REACTORS
330
47
102
}
330
47
100
AcDbScale
 70
     0
300
3/4" = 1'-0"
140
0.75
141
12.0
290
     0
  0
SCALE
  5
64
102
{ACAD_REACTORS
330
47
102
}
330
47
100
AcDbScale
 70
     0
300
1" = 1'-0"
140
1.0
141
12.0
290
     0
  0
SCALE
  5
65
102
{ACAD_REACTORS
330
47
102
}
330
47
100
AcDbScale
 70
     0
300
1-1/2" = 1'-0"
140
1.5
141
12.0
290
     0
  0
SCALE
  5
66
102
{ACAD_REACTORS
330
47
102
}
330
47
100
AcDbScale
 70
     0
300
3" = 1'-0"
140
3.0
141
12.0
290
     0
  0
SCALE
  5
67
102
{ACAD_REACTORS
330
47
102
}
330
47
100
AcDbScale
 70
     0
300
6" = 1'-0"
140
6.0
141
12.0
290
     0
  0
SCALE
  5
68
102
{ACAD_REACTORS
330
47
102
}
330
47
100
AcDbScale
 70
     0
300
1'-0" = 1'-0"
140
12.0
141
12.0
290
     0
  0
ENDSEC
  0
EOF
