  0
SECTION
  2
HEADER
  9
$ACADVER
  1
AC1015
  9
$ACADMAINTVER
 70
     6
  9
$DWGCODEPAGE
  3
ANSI_1250
  9
$INSBASE
 10
0.0
 20
0.0
 30
0.0
  9
$EXTMIN
 10
5324.018767257
 20
3678.7395479997
 30
0.0
  9
$EXTMAX
 10
8112.5353999589
 20
5848.4410560817
 30
0.0
  9
$LIMMIN
 10
0.0
 20
0.0
  9
$LIMMAX
 10
420.0
 20
297.0
  9
$ORTHOMODE
 70
     0
  9
$REGENMODE
 70
     1
  9
$FILLMODE
 70
     1
  9
$QTEXTMODE
 70
     0
  9
$MIRRTEXT
 70
     1
  9
$LTSCALE
 40
1.0
  9
$ATTMODE
 70
     1
  9
$TEXTSIZE
 40
3.5
  9
$TRACEWID
 40
1.0
  9
$TEXTSTYLE
  7
Standard
  9
$CLAYER
  8
0
  9
$CELTYPE
  6
ByLayer
  9
$CECOLOR
 62
   256
  9
$CELTSCALE
 40
1.0
  9
$DISPSILH
 70
     0
  9
$DIMSCALE
 40
1.0
  9
$DIMASZ
 40
3.302
  9
$DIMEXO
 40
0.0
  9
$DIMDLI
 40
3.75
  9
$DIMRND
 40
0.0
  9
$DIMDLE
 40
0.0
  9
$DIMEXE
 40
1.0
  9
$DIMTP
 40
0.0
  9
$DIMTM
 40
0.0
  9
$DIMTXT
 40
3.5
  9
$DIMCEN
 40
2.5
  9
$DIMTSZ
 40
0.0
  9
$DIMTOL
 70
     0
  9
$DIMLIM
 70
     0
  9
$DIMTIH
 70
     1
  9
$DIMTOH
 70
     1
  9
$DIMSE1
 70
     0
  9
$DIMSE2
 70
     0
  9
$DIMTAD
 70
     1
  9
$DIMZIN
 70
     0
  9
$DIMBLK
  1

  9
$DIMASO
 70
     1
  9
$DIMSHO
 70
     1
  9
$DIMPOST
  1

  9
$DIMAPOST
  1

  9
$DIMALT
 70
     0
  9
$DIMALTD
 70
     3
  9
$DIMALTF
 40
0.0393700787
  9
$DIMLFAC
 40
1.0
  9
$DIMTOFL
 70
     1
  9
$DIMTVP
 40
0.0
  9
$DIMTIX
 70
     0
  9
$DIMSOXD
 70
     0
  9
$DIMSAH
 70
     0
  9
$DIMBLK1
  1

  9
$DIMBLK2
  1

  9
$DIMSTYLE
  2
ISO-25
  9
$DIMCLRD
 70
     0
  9
$DIMCLRE
 70
     0
  9
$DIMCLRT
 70
     0
  9
$DIMTFAC
 40
1.0
  9
$DIMGAP
 40
1.524
  9
$DIMJUST
 70
     0
  9
$DIMSD1
 70
     0
  9
$DIMSD2
 70
     0
  9
$DIMTOLJ
 70
     0
  9
$DIMTZIN
 70
     0
  9
$DIMALTZ
 70
     0
  9
$DIMALTTZ
 70
     0
  9
$DIMUPT
 70
     0
  9
$DIMDEC
 70
     2
  9
$DIMTDEC
 70
     2
  9
$DIMALTU
 70
     2
  9
$DIMALTTD
 70
     3
  9
$DIMTXSTY
  7
Standard
  9
$DIMAUNIT
 70
     0
  9
$DIMADEC
 70
     2
  9
$DIMALTRND
 40
0.0
  9
$DIMAZIN
 70
     0
  9
$DIMDSEP
 70
    44
  9
$DIMATFIT
 70
     3
  9
$DIMFRAC
 70
     0
  9
$DIMLDRBLK
  1

  9
$DIMLUNIT
 70
     2
  9
$DIMLWD
 70
    -2
  9
$DIMLWE
 70
    -2
  9
$DIMTMOVE
 70
     0
  9
$LUNITS
 70
     2
  9
$LUPREC
 70
     2
  9
$SKETCHINC
 40
1.0
  9
$FILLETRAD
 40
10.0
  9
$AUNITS
 70
     0
  9
$AUPREC
 70
     2
  9
$MENU
  1
.
  9
$ELEVATION
 40
0.0
  9
$PELEVATION
 40
0.0
  9
$THICKNESS
 40
0.0
  9
$LIMCHECK
 70
     0
  9
$CHAMFERA
 40
0.0
  9
$CHAMFERB
 40
0.0
  9
$CHAMFERC
 40
0.0
  9
$CHAMFERD
 40
0.0
  9
$SKPOLY
 70
     0
  9
$TDCREATE
 40
2459096.463305926
  9
$TDUCREATE
 40
2459096.379972592
  9
$TDUPDATE
 40
2459096.463407442
  9
$TDUUPDATE
 40
2459096.380074109
  9
$TDINDWG
 40
0.0000000116
  9
$TDUSRTIMER
 40
0.0000000116
  9
$USRTIMER
 70
     1
  9
$ANGBASE
 50
0.0
  9
$ANGDIR
 70
     0
  9
$PDMODE
 70
     0
  9
$PDSIZE
 40
-1.0
  9
$PLINEWID
 40
0.0
  9
$SPLFRAME
 70
     0
  9
$SPLINETYPE
 70
     6
  9
$SPLINESEGS
 70
     8
  9
$HANDSEED
  5
4E3
  9
$SURFTAB1
 70
     6
  9
$SURFTAB2
 70
     6
  9
$SURFTYPE
 70
     6
  9
$SURFU
 70
     6
  9
$SURFV
 70
     6
  9
$UCSBASE
  2

  9
$UCSNAME
  2

  9
$UCSORG
 10
0.0
 20
0.0
 30
0.0
  9
$UCSXDIR
 10
1.0
 20
0.0
 30
0.0
  9
$UCSYDIR
 10
0.0
 20
1.0
 30
0.0
  9
$UCSORTHOREF
  2

  9
$UCSORTHOVIEW
 70
     0
  9
$UCSORGTOP
 10
0.0
 20
0.0
 30
0.0
  9
$UCSORGBOTTOM
 10
0.0
 20
0.0
 30
0.0
  9
$UCSORGLEFT
 10
0.0
 20
0.0
 30
0.0
  9
$UCSORGRIGHT
 10
0.0
 20
0.0
 30
0.0
  9
$UCSORGFRONT
 10
0.0
 20
0.0
 30
0.0
  9
$UCSORGBACK
 10
0.0
 20
0.0
 30
0.0
  9
$PUCSBASE
  2

  9
$PUCSNAME
  2

  9
$PUCSORG
 10
0.0
 20
0.0
 30
0.0
  9
$PUCSXDIR
 10
1.0
 20
0.0
 30
0.0
  9
$PUCSYDIR
 10
0.0
 20
1.0
 30
0.0
  9
$PUCSORTHOREF
  2

  9
$PUCSORTHOVIEW
 70
     0
  9
$PUCSORGTOP
 10
0.0
 20
0.0
 30
0.0
  9
$PUCSORGBOTTOM
 10
0.0
 20
0.0
 30
0.0
  9
$PUCSORGLEFT
 10
0.0
 20
0.0
 30
0.0
  9
$PUCSORGRIGHT
 10
0.0
 20
0.0
 30
0.0
  9
$PUCSORGFRONT
 10
0.0
 20
0.0
 30
0.0
  9
$PUCSORGBACK
 10
0.0
 20
0.0
 30
0.0
  9
$USERI1
 70
     0
  9
$USERI2
 70
     0
  9
$USERI3
 70
     0
  9
$USERI4
 70
     0
  9
$USERI5
 70
     0
  9
$USERR1
 40
0.0
  9
$USERR2
 40
0.0
  9
$USERR3
 40
0.0
  9
$USERR4
 40
0.0
  9
$USERR5
 40
0.0
  9
$WORLDVIEW
 70
     1
  9
$SHADEDGE
 70
     3
  9
$SHADEDIF
 70
    70
  9
$TILEMODE
 70
     1
  9
$MAXACTVP
 70
    64
  9
$PINSBASE
 10
0.0
 20
0.0
 30
0.0
  9
$PLIMCHECK
 70
     0
  9
$PEXTMIN
 10
1.0000000000E+20
 20
1.0000000000E+20
 30
1.0000000000E+20
  9
$PEXTMAX
 10
-1.0000000000E+20
 20
-1.0000000000E+20
 30
-1.0000000000E+20
  9
$PLIMMIN
 10
0.0
 20
0.0
  9
$PLIMMAX
 10
420.0
 20
297.0
  9
$UNITMODE
 70
     0
  9
$VISRETAIN
 70
     1
  9
$PLINEGEN
 70
     0
  9
$PSLTSCALE
 70
     1
  9
$TREEDEPTH
 70
  3020
  9
$CMLSTYLE
  2
Standard
  9
$CMLJUST
 70
     0
  9
$CMLSCALE
 40
20.0
  9
$PROXYGRAPHICS
 70
     1
  9
$MEASUREMENT
 70
     1
  9
$CELWEIGHT
370
    -1
  9
$ENDCAPS
280
     0
  9
$JOINSTYLE
280
     0
  9
$LWDISPLAY
290
     1
  9
$INSUNITS
 70
     4
  9
$HYPERLINKBASE
  1

  9
$STYLESHEET
  1

  9
$XEDIT
290
     1
  9
$CEPSNTYPE
380
     0
  9
$PSTYLEMODE
290
     1
  9
$FINGERPRINTGUID
  2
{c27eb6d7-c930-465f-bd87-b636c062e760}
  9
$VERSIONGUID
  2
{FAEB1C32-E019-11D5-929B-00C0DF256EC4}
  9
$EXTNAMES
290
     1
  9
$PSVPSCALE
 40
0.0
  9
$OLESTARTUP
290
     0
  0
ENDSEC
  0
SECTION
  2
CLASSES
  0
CLASS
  1
ACDBDICTIONARYWDFLT
  2
AcDbDictionaryWithDefault
  3
ObjectDBX Classes
 90
        0
280
     0
281
     0
  0
CLASS
  1
VISUALSTYLE
  2
AcDbVisualStyle
  3
ObjectDBX Classes
 90
     4095
280
     0
281
     0
  0
CLASS
  1
MATERIAL
  2
AcDbMaterial
  3
ObjectDBX Classes
 90
     1153
280
     0
281
     0
  0
CLASS
  1
SCALE
  2
AcDbScale
  3
ObjectDBX Classes
 90
     1153
280
     0
281
     0
  0
CLASS
  1
TABLESTYLE
  2
AcDbTableStyle
  3
ObjectDBX Classes
 90
     4095
280
     0
281
     0
  0
CLASS
  1
MLEADERSTYLE
  2
AcDbMLeaderStyle
  3
ACDB_MLEADERSTYLE_CLASS
 90
     4095
280
     0
281
     0
  0
CLASS
  1
SUN
  2
AcDbSun
  3
SCENEOE
 90
     1153
280
     0
281
     0
  0
CLASS
  1
ACDBPLACEHOLDER
  2
AcDbPlaceHolder
  3
ObjectDBX Classes
 90
        0
280
     0
281
     0
  0
CLASS
  1
LAYOUT
  2
AcDbLayout
  3
ObjectDBX Classes
 90
        0
280
     0
281
     0
  0
ENDSEC
  0
SECTION
  2
TABLES
  0
TABLE
  2
VPORT
  5
8
330
0
100
AcDbSymbolTable
 70
     1
  0
VPORT
  5
29
330
8
100
AcDbSymbolTableRecord
100
AcDbViewportTableRecord
  2
*Active
 70
     0
 10
0.0
 20
0.0
 11
1.0
 21
1.0
 12
6718.2770836079
 22
4763.5903020407
 13
0.0
 23
0.0
 14
10.0
 24
10.0
 15
10.0
 25
10.0
 16
0.0
 26
0.0
 36
1.0
 17
0.0
 27
0.0
 37
0.0
 40
2213.0955382436
 41
1.2852074916
 42
50.0
 43
0.0
 44
0.0
 50
0.0
 51
0.0
 71
     0
 72
   100
 73
     1
 74
     3
 75
     0
 76
     0
 77
     0
 78
     0
281
     0
 65
     1
110
0.0
120
0.0
130
0.0
111
1.0
121
0.0
131
0.0
112
0.0
122
1.0
132
0.0
 79
     0
146
0.0
  0
ENDTAB
  0
TABLE
  2
LTYPE
  5
5
330
0
100
AcDbSymbolTable
 70
     6
  0
LTYPE
  5
14
330
5
100
AcDbSymbolTableRecord
100
AcDbLinetypeTableRecord
  2
ByBlock
 70
     0
  3

 72
    65
 73
     0
 40
0.0
  0
LTYPE
  5
15
330
5
100
AcDbSymbolTableRecord
100
AcDbLinetypeTableRecord
  2
ByLayer
 70
     0
  3

 72
    65
 73
     0
 40
0.0
  0
LTYPE
  5
16
330
5
100
AcDbSymbolTableRecord
100
AcDbLinetypeTableRecord
  2
Continuous
 70
     0
  3
Solid line
 72
    65
 73
     0
 40
0.0
  0
LTYPE
  5
6E
330
5
100
AcDbSymbolTableRecord
100
AcDbLinetypeTableRecord
  2
HIDDEN
 70
     0
  3
Hidden __ __ __ __ __ __ __ __ __ __ __ __ __ __
 72
    65
 73
     2
 40
1.905
 49
1.27
 74
     0
 49
-0.635
 74
     0
  0
LTYPE
  5
6F
330
5
100
AcDbSymbolTableRecord
100
AcDbLinetypeTableRecord
  2
PHANTOM
 70
     0
  3
Phantom ______  __  __  ______  __  __  ______
 72
    65
 73
     6
 40
12.7
 49
6.35
 74
     0
 49
-1.27
 74
     0
 49
1.27
 74
     0
 49
-1.27
 74
     0
 49
1.27
 74
     0
 49
-1.27
 74
     0
  0
LTYPE
  5
70
330
5
100
AcDbSymbolTableRecord
100
AcDbLinetypeTableRecord
  2
CENTER
 70
     0
  3
Center ____ _ ____ _ ____ _ ____ _ ____ _ ____
 72
    65
 73
     4
 40
10.16
 49
6.35
 74
     0
 49
-1.27
 74
     0
 49
1.27
 74
     0
 49
-1.27
 74
     0
  0
LTYPE
  5
71
330
5
100
AcDbSymbolTableRecord
100
AcDbLinetypeTableRecord
  2
CENTERX2
 70
     0
  3
Center (2x) ________  __  ________  __  _____
 72
    65
 73
     4
 40
20.32
 49
12.7
 74
     0
 49
-2.54
 74
     0
 49
2.54
 74
     0
 49
-2.54
 74
     0
  0
LTYPE
  5
72
330
5
100
AcDbSymbolTableRecord
100
AcDbLinetypeTableRecord
  2
DOT2
 70
     0
  3
Dot (.5x) ........................................
 72
    65
 73
     2
 40
0.635
 49
0.0
 74
     0
 49
-0.635
 74
     0
  0
ENDTAB
  0
TABLE
  2
LAYER
  5
2
330
0
100
AcDbSymbolTable
 70
     1
  0
LAYER
  5
10
330
2
100
AcDbSymbolTableRecord
100
AcDbLayerTableRecord
  2
0
 70
     0
 62
     7
  6
Continuous
370
    -3
390
F
  0
ENDTAB
  0
TABLE
  2
STYLE
  5
3
330
0
100
AcDbSymbolTable
 70
     1
  0
STYLE
  5
11
330
3
100
AcDbSymbolTableRecord
100
AcDbTextStyleTableRecord
  2
Standard
 70
     0
 40
0.0
 41
1.0
 50
0.0
 71
     0
 42
3.5
  3
txt
  4

  0
ENDTAB
  0
TABLE
  2
VIEW
  5
6
330
0
100
AcDbSymbolTable
 70
     0
  0
ENDTAB
  0
TABLE
  2
UCS
  5
7
330
0
100
AcDbSymbolTable
 70
     0
  0
ENDTAB
  0
TABLE
  2
APPID
  5
9
330
0
100
AcDbSymbolTable
 70
     1
  0
APPID
  5
12
330
9
100
AcDbSymbolTableRecord
100
AcDbRegAppTableRecord
  2
ACAD
 70
     0
  0
ENDTAB
  0
TABLE
  2
DIMSTYLE
  5
A
330
0
100
AcDbSymbolTable
 70
     1
100
AcDbDimStyleTable
  0
DIMSTYLE
105
27
330
A
100
AcDbSymbolTableRecord
100
AcDbDimStyleTableRecord
  2
ISO-25
 70
     0
 41
2.5
 42
0.625
 43
3.75
 44
1.25
 73
     0
 74
     0
 77
     1
 78
     8
140
2.5
141
2.5
143
0.0393700787
147
0.625
171
     3
172
     1
178
     0
271
     2
272
     2
274
     3
278
    44
283
     0
284
     8
340
11
  0
ENDTAB
  0
TABLE
  2
BLOCK_RECORD
  5
1
330
0
100
AcDbSymbolTable
 70
     1
  0
BLOCK_RECORD
  5
1F
330
1
100
AcDbSymbolTableRecord
100
AcDbBlockTableRecord
  2
*Model_Space
340
22
  0
BLOCK_RECORD
  5
1B
330
1
100
AcDbSymbolTableRecord
100
AcDbBlockTableRecord
  2
*Paper_Space
340
1E
  0
BLOCK_RECORD
  5
23
330
1
100
AcDbSymbolTableRecord
100
AcDbBlockTableRecord
  2
*Paper_Space0
340
26
  0
ENDTAB
  0
ENDSEC
  0
SECTION
  2
BLOCKS
  0
BLOCK
  5
20
330
1F
100
AcDbEntity
  8
0
100
AcDbBlockBegin
  2
*Model_Space
 70
     0
 10
0.0
 20
0.0
 30
0.0
  3
*Model_Space
  1

  0
ENDBLK
  5
21
330
1F
100
AcDbEntity
  8
0
100
AcDbBlockEnd
  0
BLOCK
  5
1C
330
1B
100
AcDbEntity
 67
     1
  8
0
100
AcDbBlockBegin
  2
*Paper_Space
 70
     0
 10
0.0
 20
0.0
 30
0.0
  3
*Paper_Space
  1

  0
ENDBLK
  5
1D
330
1B
100
AcDbEntity
 67
     1
  8
0
100
AcDbBlockEnd
  0
BLOCK
  5
24
330
23
100
AcDbEntity
  8
0
100
AcDbBlockBegin
  2
*Paper_Space0
 70
     0
 10
0.0
 20
0.0
 30
0.0
  3
*Paper_Space0
  1

  0
ENDBLK
  5
25
330
23
100
AcDbEntity
  8
0
100
AcDbBlockEnd
  0
ENDSEC
  0
SECTION
  2
ENTITIES
  0
ARC
  5
73
330
1F
100
AcDbEntity
  8
0
  6
Continuous
 62
     7
100
AcDbCircle
 10
5452.1891114621
 20
5157.9419203492
 30
0.0
 40
3.000000000002462
100
AcDbArc
 50
90.000625557
 51
173.3453670336
  0
ARC
  5
74
330
1F
100
AcDbEntity
  8
0
  6
Continuous
 62
     7
100
AcDbCircle
 10
5500.8484302045
 20
5157.9419203491
 30
0.0
 40
2.99999999999906
100
AcDbArc
 50
6.6546329675
 51
90.0005128072
  0
ARC
  5
75
330
1F
100
AcDbEntity
  8
0
  6
Continuous
 62
     7
100
AcDbCircle
 10
5452.3969034314
 20
5033.9419251174
 30
0.0
 40
3.000000000000419
100
AcDbArc
 50
185.8478511548
 51
270.0003184282
  0
ARC
  5
76
330
1F
100
AcDbEntity
  8
0
  6
Continuous
 62
     7
100
AcDbCircle
 10
5500.6405786306
 20
5033.9419251174
 30
0.0
 40
2.999999999999946
100
AcDbArc
 50
269.9996815718
 51
354.1521488452
  0
ARC
  5
77
330
1F
100
AcDbEntity
  8
0
  6
Continuous
 62
     7
100
AcDbCircle
 10
5456.5187391236
 20
5174.4419165344
 30
0.0
 40
2.999999999999698
100
AcDbArc
 50
89.9995992941
 51
179.9998315232
  0
ARC
  5
78
330
1F
100
AcDbEntity
  8
0
  6
Continuous
 62
     7
100
AcDbCircle
 10
5496.5187429383
 20
5174.4419165345
 30
0.0
 40
3.000000000000236
100
AcDbArc
 50
0.0001684735
 51
89.99926234
  0
ARC
  5
79
330
1F
100
AcDbEntity
  8
0
  6
Continuous
 62
     7
100
AcDbCircle
 10
7187.5187839463
 20
4596.9578419417
 30
0.0
 40
6.000000000001383
100
AcDbArc
 50
180.000168477
 51
269.999831523
  0
ARC
  5
7A
330
1F
100
AcDbEntity
  8
0
  6
Continuous
 62
     7
100
AcDbCircle
 10
7216.5187329248
 20
4596.9578417033
 30
0.0
 40
6.000000238408593
100
AcDbArc
 50
270.0002140119
 51
359.9998337996
  0
ARC
  5
7B
330
1F
100
AcDbEntity
  8
0
  6
Continuous
 62
     7
100
AcDbCircle
 10
5360.5187269643
 20
4596.9578421801
 30
0.0
 40
6.000000000000473
100
AcDbArc
 50
270.000168477
 51
359.9998292463
  0
ARC
  5
7C
330
1F
100
AcDbEntity
  8
0
  6
Continuous
 62
     7
100
AcDbCircle
 10
5331.5187779858
 20
4596.9578419417
 30
0.0
 40
6.000000238409048
100
AcDbArc
 50
180.000168477
 51
269.9997859881
  0
ARC
  5
7D
330
1F
100
AcDbEntity
  8
0
  6
Continuous
 62
     7
100
AcDbCircle
 10
5476.518755336
 20
5138.941930865
 30
0.0
 40
40.00000000000127
100
AcDbArc
 50
22.5226735859
 51
54.9003678044
  0
ARC
  5
7E
330
1F
100
AcDbEntity
  8
0
  6
Continuous
 62
     7
100
AcDbCircle
 10
5476.518755336
 20
5138.941930865
 30
0.0
 40
40.00000000000023
100
AcDbArc
 50
125.0996321952
 51
216.1070114061
  0
ARC
  5
7F
330
1F
100
AcDbEntity
  8
0
  6
Continuous
 62
     7
100
AcDbCircle
 10
5476.518755336
 20
5138.941930865
 30
0.0
 40
40.00000000000058
100
AcDbArc
 50
323.8929885945
 51
22.5226735859
  0
ARC
  5
80
330
1F
100
AcDbEntity
  8
0
  6
Continuous
 62
     7
100
AcDbCircle
 10
6274.0187553361
 20
5538.9578374284
 30
0.0
 40
19.9999999999999
100
AcDbArc
 50
24.7216650031
 51
155.2783349969
  0
ARC
  5
81
330
1F
100
AcDbEntity
  8
0
  6
Continuous
 62
     7
100
AcDbCircle
 10
6274.0187553361
 20
5538.9578374284
 30
0.0
 40
19.99999712236144
100
AcDbArc
 50
204.7216470975
 51
335.2783529025
  0
ARC
  5
82
330
1F
100
AcDbEntity
  8
0
  6
Continuous
 62
     7
100
AcDbCircle
 10
6874.0187493756
 20
5538.9578091089
 30
0.0
 40
20.00000000000015
100
AcDbArc
 50
24.7217543182
 51
155.2782456818
  0
ARC
  5
83
330
1F
100
AcDbEntity
  8
0
  6
Continuous
 62
     7
100
AcDbCircle
 10
6874.0187493756
 20
5538.9578726288
 30
0.0
 40
20.00000000000092
100
AcDbArc
 50
204.7217543182
 51
335.2782456818
  0
ARC
  5
84
330
1F
100
AcDbEntity
  8
0
  6
Continuous
 62
     7
100
AcDbCircle
 10
5674.0187612966
 20
5538.9578091089
 30
0.0
 40
20.00000000000015
100
AcDbArc
 50
24.7217543182
 51
155.2782456818
  0
ARC
  5
85
330
1F
100
AcDbEntity
  8
0
  6
Continuous
 62
     7
100
AcDbCircle
 10
5674.0187612966
 20
5538.9578726288
 30
0.0
 40
20.00000000000168
100
AcDbArc
 50
204.7217543182
 51
335.2782456818
  0
ARC
  5
86
330
1F
100
AcDbEntity
  8
0
  6
Continuous
 62
     7
100
AcDbCircle
 10
6874.1295424462
 20
5761.0676475045
 30
0.0
 40
32.30016155891684
100
AcDbArc
 50
270.3177942276
 51
277.0592179239
  0
ARC
  5
87
330
1F
100
AcDbEntity
  8
0
  6
Continuous
 62
     7
100
AcDbCircle
 10
6875.9284765909
 20
5746.6830220646
 30
0.0
 40
18.76020545071008
100
AcDbArc
 50
277.5088603204
 51
284.9283680882
  0
ARC
  5
88
330
1F
100
AcDbEntity
  8
0
  6
Continuous
 62
     7
100
AcDbCircle
 10
6878.8866069658
 20
5736.8976976192
 30
0.0
 40
7.610295760081246
100
AcDbArc
 50
284.2609517605
 51
297.2233789925
  0
ARC
  5
89
330
1F
100
AcDbEntity
  8
0
  6
Continuous
 62
     7
100
AcDbCircle
 10
6882.3616176992
 20
5730.2459792546
 30
0.0
 40
0.9029360463596874
100
AcDbArc
 50
304.3214255591
 51
1.5237830211
  0
ARC
  5
8A
330
1F
100
AcDbEntity
  8
0
  6
Continuous
 62
     7
100
AcDbCircle
 10
6878.2880386293
 20
5722.8216583841
 30
0.0
 40
9.348898174092572
100
AcDbArc
 50
65.4254284304
 51
77.2505041481
  0
ARC
  5
8B
330
1F
100
AcDbEntity
  8
0
  6
Continuous
 62
     7
100
AcDbCircle
 10
6874.0310990737
 20
5697.9361464425
 30
0.0
 40
34.65303778707744
100
AcDbArc
 50
85.57802871
 51
90.4998272585
  0
ARC
  5
8C
330
1F
100
AcDbEntity
  8
0
  6
Continuous
 62
     7
100
AcDbCircle
 10
6872.1093708263
 20
5713.7057553591
 30
0.0
 40
18.76138912613998
100
AcDbArc
 50
97.5094578557
 51
104.9283179396
  0
ARC
  5
8D
330
1F
100
AcDbEntity
  8
0
  6
Continuous
 62
     7
100
AcDbCircle
 10
6865.6758027338
 20
5730.1440551141
 30
0.0
 40
0.9028018742017021
100
AcDbArc
 50
124.3212205885
 51
181.5328210467
  0
ARC
  5
8E
330
1F
100
AcDbEntity
  8
0
  6
Continuous
 62
     7
100
AcDbCircle
 10
6867.370355481
 20
5733.2459725759
 30
0.0
 40
3.550473808255491
100
AcDbArc
 50
233.8520563974
 51
244.8504453819
  0
ARC
  5
8F
330
1F
100
AcDbEntity
  8
0
  6
Continuous
 62
     7
100
AcDbCircle
 10
6869.7503788215
 20
5737.5713983872
 30
0.0
 40
9.352155108946214
100
AcDbArc
 50
245.4283641438
 51
257.2492483122
  0
ARC
  5
90
330
1F
100
AcDbEntity
  8
0
  6
Continuous
 62
     7
100
AcDbCircle
 10
6873.1061060427
 20
5753.4306131071
 30
0.0
 40
24.62459972690392
100
AcDbArc
 50
258.5587891225
 51
265.8745566682
  0
ARC
  5
91
330
1F
100
AcDbEntity
  8
0
  6
Continuous
 62
     7
100
AcDbCircle
 10
6874.0050487421
 20
5762.4143246628
 30
0.0
 40
34.61359684142239
100
AcDbArc
 50
265.5752228754
 51
270.5026330929
  0
ARC
  5
92
330
1F
100
AcDbEntity
  8
0
  6
Continuous
 62
     7
100
AcDbCircle
 10
6881.7780001059
 20
5731.3049065429
 30
0.0
 40
1.011452879789719
100
AcDbArc
 50
305.6856637875
 51
346.4909766869
  0
ARC
  5
93
330
1F
100
AcDbEntity
  8
0
  6
Continuous
 62
     7
100
AcDbCircle
 10
6875.8195394482
 20
5746.7480115703
 30
0.0
 40
17.73776152261583
100
AcDbArc
 50
277.2943838809
 51
285.1420120128
  0
ARC
  5
94
330
1F
100
AcDbEntity
  8
0
  6
Continuous
 62
     7
100
AcDbCircle
 10
6874.0067616832
 20
5761.6177002742
 30
0.0
 40
32.7216750430374
100
AcDbArc
 50
265.4326792326
 51
270.6451767357
  0
ARC
  5
95
330
1F
100
AcDbEntity
  8
0
  6
Continuous
 62
     7
100
AcDbCircle
 10
6869.9866025003
 20
5738.124374493
 30
0.0
 40
8.83500963681201
100
AcDbArc
 50
245.08018978
 51
257.5957427986
  0
ARC
  5
96
330
1F
100
AcDbEntity
  8
0
  6
Continuous
 62
     7
100
AcDbCircle
 10
6874.0307577605
 20
5699.7385368451
 30
0.0
 40
32.72128595973017
100
AcDbArc
 50
85.4326611563
 51
90.6451162671
  0
ARC
  5
97
330
1F
100
AcDbEntity
  8
0
  6
Continuous
 62
     7
100
AcDbCircle
 10
6872.2175255218
 20
5714.6097398154
 30
0.0
 40
17.73581134488451
100
AcDbArc
 50
97.2935834173
 51
105.1422651216
  0
ARC
  5
98
330
1F
100
AcDbEntity
  8
0
  6
Continuous
 62
     7
100
AcDbCircle
 10
6878.0519137881
 20
5723.2342530418
 30
0.0
 40
8.83206055374571
100
AcDbArc
 50
65.0785798839
 51
77.5978978602
  0
ARC
  5
99
330
1F
100
AcDbEntity
  8
0
  6
Continuous
 62
     7
100
AcDbCircle
 10
6866.1340477962
 20
5730.1495563274
 30
0.0
 40
0.8592962439798507
100
AcDbArc
 50
122.7270686587
 51
183.1251749862
  0
ARC
  5
9A
330
1F
100
AcDbEntity
  8
0
  6
Continuous
 62
     7
100
AcDbCircle
 10
6881.9033467898
 20
5730.2403943052
 30
0.0
 40
0.8593988780299938
100
AcDbArc
 50
302.7309264352
 51
3.1231152177
  0
ARC
  5
9B
330
1F
100
AcDbEntity
  8
0
  6
Continuous
 62
     7
100
AcDbCircle
 10
6869.9866025003
 20
5737.1584514221
 30
0.0
 40
8.835009636811797
100
AcDbArc
 50
245.08018978
 51
257.5957427985
  0
ARC
  5
9C
330
1F
100
AcDbEntity
  8
0
  6
Continuous
 62
     7
100
AcDbCircle
 10
6875.8195394482
 20
5745.7820884994
 30
0.0
 40
17.73776152261664
100
AcDbArc
 50
277.2943838809
 51
285.1420120129
  0
ARC
  5
9D
330
1F
100
AcDbEntity
  8
0
  6
Continuous
 62
     7
100
AcDbCircle
 10
6874.0067616832
 20
5760.6517772033
 30
0.0
 40
32.72167504303751
100
AcDbArc
 50
265.4326792326
 51
270.6451767357
  0
ARC
  5
9E
330
1F
100
AcDbEntity
  8
0
  6
Continuous
 62
     7
100
AcDbCircle
 10
6274.1295607184
 20
5761.0676483203
 30
0.0
 40
32.30016222890872
100
AcDbArc
 50
270.3177476007
 51
277.0592157465
  0
ARC
  5
9F
330
1F
100
AcDbEntity
  8
0
  6
Continuous
 62
     7
100
AcDbCircle
 10
6275.9285746971
 20
5746.682148544
 30
0.0
 40
18.75933011765614
100
AcDbArc
 50
277.5089933965
 51
284.9286968681
  0
ARC
  5
A0
330
1F
100
AcDbEntity
  8
0
  6
Continuous
 62
     7
100
AcDbCircle
 10
6278.8865953446
 20
5736.8978770599
 30
0.0
 40
7.610466775605312
100
AcDbArc
 50
284.2605332038
 51
297.2229285768
  0
ARC
  5
A1
330
1F
100
AcDbEntity
  8
0
  6
Continuous
 62
     7
100
AcDbCircle
 10
6282.3616627699
 20
5730.2459107643
 30
0.0
 40
0.9028689821036882
100
AcDbArc
 50
304.3229002516
 51
1.5282441492
  0
ARC
  5
A2
330
1F
100
AcDbEntity
  8
0
  6
Continuous
 62
     7
100
AcDbCircle
 10
6278.2876723901
 20
5722.820600626
 30
0.0
 40
9.350017234999816
100
AcDbArc
 50
65.4260187266
 51
77.249568111
  0
ARC
  5
A3
330
1F
100
AcDbEntity
  8
0
  6
Continuous
 62
     7
100
AcDbCircle
 10
6274.0311212424
 20
5697.9363889668
 30
0.0
 40
34.65279529146868
100
AcDbArc
 50
85.5780126135
 51
90.4998344574
  0
ARC
  5
A4
330
1F
100
AcDbEntity
  8
0
  6
Continuous
 62
     7
100
AcDbCircle
 10
6272.110069937
 20
5713.7020597785
 30
0.0
 40
18.76514633844127
100
AcDbArc
 50
97.5101448667
 51
104.9275453978
  0
ARC
  5
A5
330
1F
100
AcDbEntity
  8
0
  6
Continuous
 62
     7
100
AcDbCircle
 10
6265.6758538526
 20
5730.14401064
 30
0.0
 40
0.9028756194765294
100
AcDbArc
 50
124.3230698949
 51
181.5298725211
  0
ARC
  5
A6
330
1F
100
AcDbEntity
  8
0
  6
Continuous
 62
     7
100
AcDbCircle
 10
6267.3886118374
 20
5733.2797620091
 30
0.0
 40
3.588819182923069
100
AcDbArc
 50
234.2865078137
 51
244.8158741514
  0
ARC
  5
A7
330
1F
100
AcDbEntity
  8
0
  6
Continuous
 62
     7
100
AcDbCircle
 10
6269.7507571868
 20
5737.5724567764
 30
0.0
 40
9.353274834067003
100
AcDbArc
 50
245.4289543487
 51
257.2483123796
  0
ARC
  5
A8
330
1F
100
AcDbEntity
  8
0
  6
Continuous
 62
     7
100
AcDbCircle
 10
6273.0784552201
 20
5753.1842458232
 30
0.0
 40
24.37688366852926
100
AcDbArc
 50
258.1886413614
 51
265.8977180519
  0
ARC
  5
A9
330
1F
100
AcDbEntity
  8
0
  6
Continuous
 62
     7
100
AcDbCircle
 10
6274.0050384941
 20
5762.4140822192
 30
0.0
 40
34.61335442680885
100
AcDbArc
 50
265.5752067517
 51
270.5026403191
  0
ARC
  5
AA
330
1F
100
AcDbEntity
  8
0
  6
Continuous
 62
     7
100
AcDbCircle
 10
6281.7779305643
 20
5731.3049779607
 30
0.0
 40
1.011559277171922
100
AcDbArc
 50
305.6871203588
 51
346.4882642198
  0
ARC
  5
AB
330
1F
100
AcDbEntity
  8
0
  6
Continuous
 62
     7
100
AcDbCircle
 10
6275.8200257759
 20
5746.745516712
 30
0.0
 40
17.73522184506149
100
AcDbArc
 50
277.2937664359
 51
285.1425482087
  0
ARC
  5
AC
330
1F
100
AcDbEntity
  8
0
  6
Continuous
 62
     7
100
AcDbCircle
 10
6274.0067698163
 20
5761.6183253444
 30
0.0
 40
32.72229976601686
100
AcDbArc
 50
265.4327304898
 51
270.6451165811
  0
ARC
  5
AD
330
1F
100
AcDbEntity
  8
0
  6
Continuous
 62
     7
100
AcDbCircle
 10
6269.9868718203
 20
5738.1251369851
 30
0.0
 40
8.835817403933834
100
AcDbArc
 50
245.0806503926
 51
257.594945311
  0
ARC
  5
AE
330
1F
100
AcDbEntity
  8
0
  6
Continuous
 62
     7
100
AcDbCircle
 10
6274.0307408559
 20
5699.7375231051
 30
0.0
 40
32.72229976601596
100
AcDbArc
 50
85.4327304898
 51
90.6451165811
  0
ARC
  5
AF
330
1F
100
AcDbEntity
  8
0
  6
Continuous
 62
     7
100
AcDbCircle
 10
6272.2174848963
 20
5714.6103317376
 30
0.0
 40
17.73522184506005
100
AcDbArc
 50
97.2937664359
 51
105.1425482087
  0
ARC
  5
B0
330
1F
100
AcDbEntity
  8
0
  6
Continuous
 62
     7
100
AcDbCircle
 10
6278.0516867412
 20
5723.2333968992
 30
0.0
 40
8.83294046030147
100
AcDbArc
 50
65.0794753182
 51
77.5978002814
  0
ARC
  5
B1
330
1F
100
AcDbEntity
  8
0
  6
Continuous
 62
     7
100
AcDbCircle
 10
6266.1341269623
 20
5730.1495047175
 30
0.0
 40
0.8593832677679907
100
AcDbArc
 50
122.7297321714
 51
183.1214122177
  0
ARC
  5
B2
330
1F
100
AcDbEntity
  8
0
  6
Continuous
 62
     7
100
AcDbCircle
 10
6281.9032795301
 20
5730.2404459219
 30
0.0
 40
0.8594859181309793
100
AcDbArc
 50
302.7335898108
 51
3.1193525996
  0
ARC
  5
B3
330
1F
100
AcDbEntity
  8
0
  6
Continuous
 62
     7
100
AcDbCircle
 10
6269.9868718203
 20
5737.1592139142
 30
0.0
 40
8.835817403932536
100
AcDbArc
 50
245.0806503925
 51
257.594945311
  0
ARC
  5
B4
330
1F
100
AcDbEntity
  8
0
  6
Continuous
 62
     7
100
AcDbCircle
 10
6275.8200257759
 20
5745.7795936411
 30
0.0
 40
17.7352218450614
100
AcDbArc
 50
277.2937664359
 51
285.1425482087
  0
ARC
  5
B5
330
1F
100
AcDbEntity
  8
0
  6
Continuous
 62
     7
100
AcDbCircle
 10
6274.0067698163
 20
5760.6524022735
 30
0.0
 40
32.72229976601697
100
AcDbArc
 50
265.4327304898
 51
270.6451165811
  0
ARC
  5
B6
330
1F
100
AcDbEntity
  8
0
  6
Continuous
 62
     7
100
AcDbCircle
 10
5674.1282391528
 20
5761.1009927108
 30
0.0
 40
32.33351356696974
100
AcDbArc
 50
270.3197970479
 51
277.0051876671
  0
ARC
  5
B7
330
1F
100
AcDbEntity
  8
0
  6
Continuous
 62
     7
100
AcDbCircle
 10
5675.9292730622
 20
5746.6784567448
 30
0.0
 40
18.75557675627508
100
AcDbArc
 50
277.5083066905
 51
284.9294691048
  0
ARC
  5
B8
330
1F
100
AcDbEntity
  8
0
  6
Continuous
 62
     7
100
AcDbCircle
 10
5678.8866358447
 20
5736.8978364792
 30
0.0
 40
7.610411481460559
100
AcDbArc
 50
284.2601355857
 51
297.2227872244
  0
ARC
  5
B9
330
1F
100
AcDbEntity
  8
0
  6
Continuous
 62
     7
100
AcDbCircle
 10
5682.3617138972
 20
5730.2458662842
 30
0.0
 40
0.9027952271405204
100
AcDbArc
 50
304.3210506856
 51
1.5311929592
  0
ARC
  5
BA
330
1F
100
AcDbEntity
  8
0
  6
Continuous
 62
     7
100
AcDbCircle
 10
5678.2880505503
 20
5722.8216583841
 30
0.0
 40
9.348898174092572
100
AcDbArc
 50
65.4254284304
 51
77.2505041481
  0
ARC
  5
BB
330
1F
100
AcDbEntity
  8
0
  6
Continuous
 62
     7
100
AcDbCircle
 10
5674.0311109946
 20
5697.9361464425
 30
0.0
 40
34.65303778707754
100
AcDbArc
 50
85.57802871
 51
90.4998272583
  0
ARC
  5
BC
330
1F
100
AcDbEntity
  8
0
  6
Continuous
 62
     7
100
AcDbCircle
 10
5672.1101680854
 20
5713.7011859241
 30
0.0
 40
18.76602200705491
100
AcDbArc
 50
97.5100117729
 51
104.9272166357
  0
ARC
  5
BD
330
1F
100
AcDbEntity
  8
0
  6
Continuous
 62
     7
100
AcDbCircle
 10
5665.6758989095
 20
5730.143942159
 30
0.0
 40
0.9029426681981428
100
AcDbArc
 50
124.3215948111
 51
181.5254119189
  0
ARC
  5
BE
330
1F
100
AcDbEntity
  8
0
  6
Continuous
 62
     7
100
AcDbCircle
 10
5667.3703674018
 20
5733.2459725761
 30
0.0
 40
3.550473808254558
100
AcDbArc
 50
233.852056401
 51
244.8504453869
  0
ARC
  5
BF
330
1F
100
AcDbEntity
  8
0
  6
Continuous
 62
     7
100
AcDbCircle
 10
5669.7503907425
 20
5737.5713983872
 30
0.0
 40
9.352155108946214
100
AcDbArc
 50
245.4283641438
 51
257.2492483122
  0
ARC
  5
C0
330
1F
100
AcDbEntity
  8
0
  6
Continuous
 62
     7
100
AcDbCircle
 10
5673.0786281599
 20
5753.1857908822
 30
0.0
 40
24.37843619794551
100
AcDbArc
 50
258.1889330269
 51
265.8976033046
  0
ARC
  5
C1
330
1F
100
AcDbEntity
  8
0
  6
Continuous
 62
     7
100
AcDbCircle
 10
5674.005060663
 20
5762.4143246628
 30
0.0
 40
34.61359684142226
100
AcDbArc
 50
265.5752228754
 51
270.502633093
  0
ARC
  5
C2
330
1F
100
AcDbEntity
  8
0
  6
Continuous
 62
     7
100
AcDbCircle
 10
5681.7780120268
 20
5731.3049065429
 30
0.0
 40
1.011452879789506
100
AcDbArc
 50
305.6856637876
 51
346.490976687
  0
ARC
  5
C3
330
1F
100
AcDbEntity
  8
0
  6
Continuous
 62
     7
100
AcDbCircle
 10
5675.8199851505
 20
5746.7461086341
 30
0.0
 40
17.73581134488523
100
AcDbArc
 50
277.2935834173
 51
285.1422651216
  0
ARC
  5
C4
330
1F
100
AcDbEntity
  8
0
  6
Continuous
 62
     7
100
AcDbCircle
 10
5674.0067529117
 20
5761.6173116044
 30
0.0
 40
32.72128595973111
100
AcDbArc
 50
265.4326611563
 51
270.6451162671
  0
ARC
  5
C5
330
1F
100
AcDbEntity
  8
0
  6
Continuous
 62
     7
100
AcDbCircle
 10
5669.9866446387
 20
5738.1242804138
 30
0.0
 40
8.834937048911314
100
AcDbArc
 50
245.0797549876
 51
257.5950428298
  0
ARC
  5
C6
330
1F
100
AcDbEntity
  8
0
  6
Continuous
 62
     7
100
AcDbCircle
 10
5674.030748989
 20
5699.7381481753
 30
0.0
 40
32.7216750430374
100
AcDbArc
 50
85.4326792326
 51
90.6451767357
  0
ARC
  5
C7
330
1F
100
AcDbEntity
  8
0
  6
Continuous
 62
     7
100
AcDbCircle
 10
5672.2179712241
 20
5714.6078368792
 30
0.0
 40
17.73776152261619
100
AcDbArc
 50
97.2943838809
 51
105.1420120129
  0
ARC
  5
C8
330
1F
100
AcDbEntity
  8
0
  6
Continuous
 62
     7
100
AcDbCircle
 10
5678.051955979
 20
5723.2341592148
 30
0.0
 40
8.832132889406466
100
AcDbArc
 50
65.0790144469
 51
77.5985980147
  0
ARC
  5
C9
330
1F
100
AcDbEntity
  8
0
  6
Continuous
 62
     7
100
AcDbCircle
 10
5666.1340597172
 20
5730.1495563274
 30
0.0
 40
0.8592962439804979
100
AcDbArc
 50
122.7270686664
 51
183.1251749904
  0
ARC
  5
CA
330
1F
100
AcDbEntity
  8
0
  6
Continuous
 62
     7
100
AcDbCircle
 10
5681.9033587108
 20
5730.2403943053
 30
0.0
 40
0.8593988780303066
100
AcDbArc
 50
302.7309264277
 51
3.1231152136
  0
ARC
  5
CB
330
1F
100
AcDbEntity
  8
0
  6
Continuous
 62
     7
100
AcDbCircle
 10
5669.9866446387
 20
5737.1583573429
 30
0.0
 40
8.834937048911101
100
AcDbArc
 50
245.0797549876
 51
257.5950428298
  0
ARC
  5
CC
330
1F
100
AcDbEntity
  8
0
  6
Continuous
 62
     7
100
AcDbCircle
 10
5675.8199851505
 20
5745.7801855632
 30
0.0
 40
17.73581134488423
100
AcDbArc
 50
277.2935834173
 51
285.1422651216
  0
ARC
  5
CD
330
1F
100
AcDbEntity
  8
0
  6
Continuous
 62
     7
100
AcDbCircle
 10
5674.0067529117
 20
5760.6513885335
 30
0.0
 40
32.7212859597303
100
AcDbArc
 50
265.4326611563
 51
270.6451162671
  0
CIRCLE
  5
CE
330
1F
100
AcDbEntity
  8
0
  6
Continuous
 62
     7
100
AcDbCircle
 10
5674.0187553361
 20
5738.9578414649
 30
0.0
 40
29.5
  0
CIRCLE
  5
CF
330
1F
100
AcDbEntity
  8
0
  6
Continuous
 62
     7
100
AcDbCircle
 10
5674.0187553361
 20
5738.9578414649
 30
0.0
 40
30.00000000000091
  0
CIRCLE
  5
D0
330
1F
100
AcDbEntity
  8
0
  6
Continuous
 62
     7
100
AcDbCircle
 10
6874.0187553361
 20
5738.9578414649
 30
0.0
 40
29.5
  0
CIRCLE
  5
D1
330
1F
100
AcDbEntity
  8
0
  6
Continuous
 62
     7
100
AcDbCircle
 10
6874.0187553361
 20
5738.9578414649
 30
0.0
 40
30.00000000000091
  0
CIRCLE
  5
D2
330
1F
100
AcDbEntity
  8
0
  6
Continuous
 62
     7
100
AcDbCircle
 10
6274.0187553361
 20
5738.9578414649
 30
0.0
 40
29.5
  0
CIRCLE
  5
D3
330
1F
100
AcDbEntity
  8
0
  6
Continuous
 62
     7
100
AcDbCircle
 10
6274.0187553361
 20
5738.9578414649
 30
0.0
 40
29.99999999999909
  0
ARC
  5
D4
330
1F
100
AcDbEntity
  8
0
  6
Continuous
 62
     7
100
AcDbCircle
 10
5674.0187612965
 20
5738.9578764237
 30
0.0
 40
13.00000000000019
100
AcDbArc
 50
339.1744632394
 51
200.8255367606
  0
ARC
  5
D5
330
1F
100
AcDbEntity
  8
0
  6
Continuous
 62
     7
100
AcDbCircle
 10
5674.0187553361
 20
5738.9578414649
 30
0.0
 40
13.99999999999986
100
AcDbArc
 50
200.4424420745
 51
339.5575579255
  0
ARC
  5
D6
330
1F
100
AcDbEntity
  8
0
  6
Continuous
 62
     7
100
AcDbCircle
 10
5674.0187553361
 20
5738.9578414649
 30
0.0
 40
13.99999999999986
100
AcDbArc
 50
339.5575579255
 51
200.4424420745
  0
ARC
  5
D7
330
1F
100
AcDbEntity
  8
0
  6
Continuous
 62
     7
100
AcDbCircle
 10
5674.1491336339
 20
5760.7616170619
 30
0.0
 40
32.50916579064504
100
AcDbArc
 50
270.3983761936
 51
276.9300513714
  0
ARC
  5
D8
330
1F
100
AcDbEntity
  8
0
  6
Continuous
 62
     7
100
AcDbCircle
 10
5673.1488107279
 20
5753.6194847058
 30
0.0
 40
25.33145815539623
100
AcDbArc
 50
258.4773668058
 51
265.8930585278
  0
ARC
  5
D9
330
1F
100
AcDbEntity
  8
0
  6
Continuous
 62
     7
100
AcDbCircle
 10
6874.0187553361
 20
5738.9578414649
 30
0.0
 40
14.00000000000039
100
AcDbArc
 50
200.4424420745
 51
339.5575579255
  0
ARC
  5
DA
330
1F
100
AcDbEntity
  8
0
  6
Continuous
 62
     7
100
AcDbCircle
 10
6874.0187493757
 20
5738.9578764237
 30
0.0
 40
12.99999999999967
100
AcDbArc
 50
339.1744632394
 51
200.8255367606
  0
ARC
  5
DB
330
1F
100
AcDbEntity
  8
0
  6
Continuous
 62
     7
100
AcDbCircle
 10
6874.0187553361
 20
5738.9578414649
 30
0.0
 40
14.00000000000039
100
AcDbArc
 50
339.5575579255
 51
200.4424420745
  0
ARC
  5
DC
330
1F
100
AcDbEntity
  8
0
  6
Continuous
 62
     7
100
AcDbCircle
 10
6874.1489102484
 20
5760.7658498785
 30
0.0
 40
32.51340039057686
100
AcDbArc
 50
270.398802003
 51
276.9296255621
  0
ARC
  5
DD
330
1F
100
AcDbEntity
  8
0
  6
Continuous
 62
     7
100
AcDbCircle
 10
6873.1483480844
 20
5753.615523693
 30
0.0
 40
25.32747503465537
100
AcDbArc
 50
258.476708076
 51
265.8934337911
  0
ARC
  5
DE
330
1F
100
AcDbEntity
  8
0
  6
Continuous
 62
     7
100
AcDbCircle
 10
6274.0187553361
 20
5738.9578414649
 30
0.0
 40
13.99999999999954
100
AcDbArc
 50
200.4424420745
 51
339.5575579255
  0
ARC
  5
DF
330
1F
100
AcDbEntity
  8
0
  6
Continuous
 62
     7
100
AcDbCircle
 10
6274.0187553361
 20
5738.9578414649
 30
0.0
 40
13.99999999999954
100
AcDbArc
 50
339.5575579255
 51
200.4424420745
  0
ARC
  5
E0
330
1F
100
AcDbEntity
  8
0
  6
Continuous
 62
     7
100
AcDbCircle
 10
6274.0187553361
 20
5738.9578414649
 30
0.0
 40
12.99999801708533
100
AcDbArc
 50
339.1746247611
 51
200.8253752389
  0
ARC
  5
E1
330
1F
100
AcDbEntity
  8
0
  6
Continuous
 62
     7
100
AcDbCircle
 10
6274.1491410723
 20
5760.761837895
 30
0.0
 40
32.50938676488857
100
AcDbArc
 50
270.3984106037
 51
276.930029851
  0
ARC
  5
E2
330
1F
100
AcDbEntity
  8
0
  6
Continuous
 62
     7
100
AcDbCircle
 10
6273.148432587
 20
5753.6164103417
 30
0.0
 40
25.32836554834577
100
AcDbArc
 50
258.4768675681
 51
265.893383922
  0
ARC
  5
E3
330
1F
100
AcDbEntity
  8
0
  6
Continuous
 62
     7
100
AcDbCircle
 10
7634.1206901884
 20
5743.9717741371
 30
0.0
 40
4.32496932831499
100
AcDbArc
 50
206.0594629037
 51
241.4760001529
  0
ARC
  5
E4
330
1F
100
AcDbEntity
  8
0
  6
Continuous
 62
     7
100
AcDbCircle
 10
7634.1206703386
 20
5743.9717882099
 30
0.0
 40
4.32496932831551
100
AcDbArc
 50
118.5237005553
 51
153.9399385117
  0
ARC
  5
E5
330
1F
100
AcDbEntity
  8
0
  6
Continuous
 62
     7
100
AcDbCircle
 10
7634.1206901884
 20
5833.9717777134
 30
0.0
 40
4.324969328314971
100
AcDbArc
 50
206.0594629038
 51
241.476000153
  0
ARC
  5
E6
330
1F
100
AcDbEntity
  8
0
  6
Continuous
 62
     7
100
AcDbCircle
 10
7634.1206901884
 20
5833.9718025744
 30
0.0
 40
4.324969328313773
100
AcDbArc
 50
118.523999847
 51
153.9405370963
  0
ARC
  5
E7
330
1F
100
AcDbEntity
  8
0
  6
Continuous
 62
     7
100
AcDbCircle
 10
7899.2650474117
 20
5157.941920349
 30
0.0
 40
2.999999999999633
100
AcDbArc
 50
6.6546329698
 51
89.9999436254
  0
ARC
  5
E8
330
1F
100
AcDbEntity
  8
0
  6
Continuous
 62
     7
100
AcDbCircle
 10
7850.8135802432
 20
5033.9419251174
 30
0.0
 40
3.000000000001367
100
AcDbArc
 50
185.8478511552
 51
269.9997492462
  0
ARC
  5
E9
330
1F
100
AcDbEntity
  8
0
  6
Continuous
 62
     7
100
AcDbCircle
 10
7899.05722564
 20
5033.9419251174
 30
0.0
 40
3.000000000000523
100
AcDbArc
 50
269.9999661637
 51
354.1521488443
  0
ARC
  5
EA
330
1F
100
AcDbEntity
  8
0
  6
Continuous
 62
     7
100
AcDbCircle
 10
7817.9353856563
 20
5161.9419284554
 30
0.0
 40
3.000000000000606
100
AcDbArc
 50
89.999599296
 51
179.9998315231
  0
ARC
  5
EB
330
1F
100
AcDbEntity
  8
0
  6
Continuous
 62
     7
100
AcDbCircle
 10
7817.9353856563
 20
5115.9419422834
 30
0.0
 40
3.000000000000606
100
AcDbArc
 50
180.0001684749
 51
270.000400704
  0
ARC
  5
EC
330
1F
100
AcDbEntity
  8
0
  6
Continuous
 62
     7
100
AcDbCircle
 10
7854.9353861331
 20
5174.4419165344
 30
0.0
 40
3.000000000000607
100
AcDbArc
 50
89.9995992941
 51
179.9998315231
  0
ARC
  5
ED
330
1F
100
AcDbEntity
  8
0
  6
Continuous
 62
     7
100
AcDbCircle
 10
7894.935404849
 20
5174.4419165343
 30
0.0
 40
2.999999999999327
100
AcDbArc
 50
0.0001684781
 51
90.000116114
  0
ARC
  5
EE
330
1F
100
AcDbEntity
  8
0
  6
Continuous
 62
     7
100
AcDbCircle
 10
7664.8394849812
 20
5538.9578307575
 30
0.0
 40
28.00000000000104
100
AcDbArc
 50
15.4636342606
 51
45.5847087676
  0
ARC
  5
EF
330
1F
100
AcDbEntity
  8
0
  6
Continuous
 62
     7
100
AcDbCircle
 10
7664.8394845292
 20
5538.9578505373
 30
0.0
 40
28.00000000000105
100
AcDbArc
 50
314.4152925274
 51
344.5348076017
  0
ARC
  5
F0
330
1F
100
AcDbEntity
  8
0
  6
Continuous
 62
     7
100
AcDbCircle
 10
7643.9432973384
 20
4596.9578419417
 30
0.0
 40
6.000000238402575
100
AcDbArc
 50
180.0001684772
 51
270.0001389635
  0
ARC
  5
F1
330
1F
100
AcDbEntity
  8
0
  6
Continuous
 62
     7
100
AcDbCircle
 10
7672.9433118906
 20
4596.9578389572
 30
0.0
 40
5.999996777068816
100
AcDbArc
 50
270.0001114766
 51
359.9998600229
  0
ARC
  5
F2
330
1F
100
AcDbEntity
  8
0
  6
Continuous
 62
     7
100
AcDbCircle
 10
8076.0354005842
 20
4596.9578414649
 30
0.0
 40
5.999999377161657
100
AcDbArc
 50
180.0001639242
 51
270.0
  0
ARC
  5
F3
330
1F
100
AcDbEntity
  8
0
  6
Continuous
 62
     7
100
AcDbCircle
 10
8105.0354005842
 20
4596.9578421127
 30
0.0
 40
6.000000024961151
100
AcDbArc
 50
270.0
 51
359.9998298898
  0
ARC
  5
F4
330
1F
100
AcDbEntity
  8
0
  6
Continuous
 62
     7
100
AcDbCircle
 10
7634.6354106901
 20
5846.2410555296
 30
0.0
 40
2.200000000000202
100
AcDbArc
 50
78.0005868032
 51
179.9994031944
  0
ARC
  5
F5
330
1F
100
AcDbEntity
  8
0
  6
Continuous
 62
     7
100
AcDbCircle
 10
7680.2353928089
 20
5836.548479194
 30
0.0
 40
2.20000000000019
100
AcDbArc
 50
0.0005141914
 51
78.0001894258
  0
ARC
  5
F6
330
1F
100
AcDbEntity
  8
0
  6
Continuous
 62
     7
100
AcDbCircle
 10
8110.2353999614
 20
5426.7578414649
 30
0.0
 40
2.200000000000728
100
AcDbArc
 50
0.0000003099
 51
89.9999996901
  0
ARC
  5
F7
330
1F
100
AcDbEntity
  8
0
  6
Continuous
 62
     7
100
AcDbCircle
 10
7852.5666195971
 20
5158.0832889144
 30
0.0
 40
2.860414789647699
100
AcDbArc
 50
92.0233201081
 51
175.8644139482
  0
ARC
  5
F8
330
1F
100
AcDbEntity
  8
0
  6
Continuous
 62
     7
100
AcDbCircle
 10
7692.4354710976
 20
5711.0097639942
 30
0.0
 40
14.04532662979702
100
AcDbArc
 50
83.2538341642
 51
96.661811633
  0
ARC
  5
F9
330
1F
100
AcDbEntity
  8
0
  6
Continuous
 62
     7
100
AcDbCircle
 10
5337.5187598333
 20
4157.1542577702
 30
0.0
 40
4.32496932831499
100
AcDbArc
 50
116.0594629037
 51
151.4760001529
  0
ARC
  5
FA
330
1F
100
AcDbEntity
  8
0
  6
Continuous
 62
     7
100
AcDbCircle
 10
5337.5187846943
 20
4157.1542577702
 30
0.0
 40
4.324969328315389
100
AcDbArc
 50
28.5239998471
 51
63.9405370963
  0
ARC
  5
FB
330
1F
100
AcDbEntity
  8
0
  6
Continuous
 62
     7
100
AcDbCircle
 10
5477.5187455282
 20
4157.1542577702
 30
0.0
 40
4.32496932831573
100
AcDbArc
 50
116.0594629037
 51
151.4760001529
  0
ARC
  5
FC
330
1F
100
AcDbEntity
  8
0
  6
Continuous
 62
     7
100
AcDbCircle
 10
5477.5187703892
 20
4157.1542577702
 30
0.0
 40
4.324969328315389
100
AcDbArc
 50
28.5239998471
 51
63.9405370963
  0
ARC
  5
FD
330
1F
100
AcDbEntity
  8
0
  6
Continuous
 62
     7
100
AcDbCircle
 10
5476.5187553361
 20
3916.3395479971
 30
0.0
 40
5.250000000000043
100
AcDbArc
 50
278.2132107017
 51
81.7867892983
  0
ARC
  5
FE
330
1F
100
AcDbEntity
  8
0
  6
Continuous
 62
     7
100
AcDbCircle
 10
5476.5187553361
 20
3916.3395479971
 30
0.0
 40
5.249999999999913
100
AcDbArc
 50
98.2132107017
 51
261.7867892983
  0
ARC
  5
FF
330
1F
100
AcDbEntity
  8
0
  6
Continuous
 62
     7
100
AcDbCircle
 10
5476.5187553361
 20
3916.3395479971
 30
0.0
 40
5.250000000000043
100
AcDbArc
 50
81.7867892983
 51
98.2132107017
  0
ARC
  5
100
330
1F
100
AcDbEntity
  8
0
  6
Continuous
 62
     7
100
AcDbCircle
 10
5476.5187553361
 20
3916.3395479971
 30
0.0
 40
5.250000000000043
100
AcDbArc
 50
261.7867892983
 51
278.2132107017
  0
CIRCLE
  5
101
330
1F
100
AcDbEntity
  8
0
  6
Continuous
 62
     7
100
AcDbCircle
 10
5476.5187553361
 20
3916.3395479971
 30
0.0
 40
24.96512544439429
  0
CIRCLE
  5
102
330
1F
100
AcDbEntity
  8
0
  6
Continuous
 62
     7
100
AcDbCircle
 10
5476.5187553361
 20
3916.3395479971
 30
0.0
 40
35.0
  0
CIRCLE
  5
103
330
1F
100
AcDbEntity
  8
0
  6
Continuous
 62
     7
100
AcDbCircle
 10
5476.5187553361
 20
3916.3395479971
 30
0.0
 40
35.16921944985825
  0
CIRCLE
  5
104
330
1F
100
AcDbEntity
  8
0
  6
Continuous
 62
     7
100
AcDbCircle
 10
5476.5187553361
 20
3916.3395479971
 30
0.0
 40
22.0
  0
CIRCLE
  5
105
330
1F
100
AcDbEntity
  8
0
  6
Continuous
 62
     7
100
AcDbCircle
 10
5476.5187553361
 20
3916.3395479971
 30
0.0
 40
20.5
  0
CIRCLE
  5
106
330
1F
100
AcDbEntity
  8
0
  6
Continuous
 62
     7
100
AcDbCircle
 10
5476.5187553361
 20
3916.3395479971
 30
0.0
 40
19.48700763430406
  0
CIRCLE
  5
107
330
1F
100
AcDbEntity
  8
0
  6
Continuous
 62
     7
100
AcDbCircle
 10
5476.5187553361
 20
3916.3395479971
 30
0.0
 40
5.699999999999818
  0
CIRCLE
  5
108
330
1F
100
AcDbEntity
  8
0
  6
Continuous
 62
     7
100
AcDbCircle
 10
5476.5187553361
 20
3930.3395479971
 30
0.0
 40
5.000000000000909
  0
CIRCLE
  5
109
330
1F
100
AcDbEntity
  8
0
  6
Continuous
 62
     7
100
AcDbCircle
 10
5488.6431109891
 20
3923.3395479971
 30
0.0
 40
5.0
  0
CIRCLE
  5
10A
330
1F
100
AcDbEntity
  8
0
  6
Continuous
 62
     7
100
AcDbCircle
 10
5488.6431109891
 20
3909.3395479971
 30
0.0
 40
5.0
  0
CIRCLE
  5
10B
330
1F
100
AcDbEntity
  8
0
  6
Continuous
 62
     7
100
AcDbCircle
 10
5476.5187553361
 20
3902.3395479971
 30
0.0
 40
5.000000000000909
  0
CIRCLE
  5
10C
330
1F
100
AcDbEntity
  8
0
  6
Continuous
 62
     7
100
AcDbCircle
 10
5464.3943996831
 20
3909.3395479971
 30
0.0
 40
5.0
  0
CIRCLE
  5
10D
330
1F
100
AcDbEntity
  8
0
  6
Continuous
 62
     7
100
AcDbCircle
 10
5464.3943996831
 20
3923.3395479971
 30
0.0
 40
5.0
  0
ARC
  5
10E
330
1F
100
AcDbEntity
  8
0
  6
Continuous
 62
     7
100
AcDbCircle
 10
5476.5187553361
 20
3916.3395479971
 30
0.0
 40
14.50000000000031
100
AcDbArc
 50
249.8908584034
 51
290.1091415968
  0
ARC
  5
10F
330
1F
100
AcDbEntity
  8
0
  6
Continuous
 62
     7
100
AcDbCircle
 10
5476.5187786797
 20
3916.3395828161
 30
0.0
 40
16.33403069561481
100
AcDbArc
 50
326.6129257652
 51
333.3868042559
  0
ARC
  5
110
330
1F
100
AcDbEntity
  8
0
  6
Continuous
 62
     7
100
AcDbCircle
 10
5476.5187553361
 20
3916.3395479971
 30
0.0
 40
14.50000000000114
100
AcDbArc
 50
9.8908583956
 51
50.1091416045
  0
ARC
  5
111
330
1F
100
AcDbEntity
  8
0
  6
Continuous
 62
     7
100
AcDbCircle
 10
5476.518741031
 20
3916.3395479497
 30
0.0
 40
16.33403069561404
100
AcDbArc
 50
86.6130469173
 51
93.3869530827
  0
ARC
  5
112
330
1F
100
AcDbEntity
  8
0
  6
Continuous
 62
     7
100
AcDbCircle
 10
5476.5187553361
 20
3916.3395479971
 30
0.0
 40
14.50000000000006
100
AcDbArc
 50
129.8908583991
 51
170.1091416011
  0
ARC
  5
113
330
1F
100
AcDbEntity
  8
0
  6
Continuous
 62
     7
100
AcDbCircle
 10
5476.5187629869
 20
3916.3395828161
 30
0.0
 40
16.33403069561489
100
AcDbArc
 50
206.6131957441
 51
213.3870742349
  0
ELLIPSE
  5
114
330
1F
100
AcDbEntity
  8
0
  6
Continuous
 62
     7
100
AcDbEllipse
 10
7187.5187553361
 20
4596.9578414649
 30
0.0
 11
0.0
 21
5.999999999999091
 31
0.0
210
0.0
220
0.0
230
1.0
 40
0.5833333333
 41
1.570796326794897
 42
3.141592653589793
  0
ELLIPSE
  5
115
330
1F
100
AcDbEntity
  8
0
  6
Continuous
 62
     7
100
AcDbEllipse
 10
7216.5187553361
 20
4596.9578414649
 30
0.0
 11
0.0
 21
5.999999999999091
 31
0.0
210
0.0
220
0.0
230
1.0
 40
0.5833333333
 41
3.141592653589793
 42
4.712388980384698
  0
ELLIPSE
  5
116
330
1F
100
AcDbEntity
  8
0
  6
Continuous
 62
     7
100
AcDbEllipse
 10
5360.5187553361
 20
4596.9578414649
 30
0.0
 11
0.0
 21
5.999999999999091
 31
0.0
210
0.0
220
0.0
230
1.0
 40
0.5833333333
 41
3.141592653589793
 42
4.712388980384698
  0
ELLIPSE
  5
117
330
1F
100
AcDbEntity
  8
0
  6
Continuous
 62
     7
100
AcDbEllipse
 10
5331.5187555745
 20
4596.9578417033
 30
0.0
 11
0.0
 21
5.999999999999091
 31
0.0
210
0.0
220
0.0
230
1.0
 40
0.5833333333
 41
1.570796326794897
 42
3.141592653589793
  0
ELLIPSE
  5
118
330
1F
100
AcDbEntity
  8
0
  6
Continuous
 62
     7
100
AcDbEllipse
 10
7643.9433118906
 20
4596.9578417033
 30
0.0
 11
0.0
 21
6.0
 31
0.0
210
0.0
220
0.0
230
1.0
 40
0.5833333333
 41
1.570796326794897
 42
3.141592653589793
  0
ELLIPSE
  5
119
330
1F
100
AcDbEntity
  8
0
  6
Continuous
 62
     7
100
AcDbEllipse
 10
7672.9433118906
 20
4596.9578389572
 30
0.0
 11
0.0
 21
6.0
 31
0.0
210
0.0
220
0.0
230
1.0
 40
0.5833333333
 41
3.141592653589793
 42
4.712388980384698
  0
ELLIPSE
  5
11A
330
1F
100
AcDbEntity
  8
0
  6
Continuous
 62
     7
100
AcDbEllipse
 10
8105.0354005842
 20
4596.9578421127
 30
0.0
 11
0.0
 21
6.000000024961992
 31
0.0
210
0.0
220
0.0
230
1.0
 40
0.5833333333
 41
3.141592653589793
 42
4.712388980384698
  0
ELLIPSE
  5
11B
330
1F
100
AcDbEntity
  8
0
  6
Continuous
 62
     7
100
AcDbEllipse
 10
8076.0354005842
 20
4596.9578414649
 30
0.0
 11
0.0
 21
5.999999377161657
 31
0.0
210
0.0
220
0.0
230
1.0
 40
0.5833333333
 41
1.570796326794897
 42
3.141592653589793
  0
LINE
  5
11C
330
1F
100
AcDbEntity
  8
0
  6
Continuous
 62
     7
100
AcDbLine
 10
7197.0187334016
 20
4590.9578419417
 30
0.0
 11
7197.0187334016
 21
4586.9578338355
 31
0.0
  0
LINE
  5
11D
330
1F
100
AcDbEntity
  8
0
  6
Continuous
 62
     7
100
AcDbLine
 10
7207.0187834695
 20
4586.9578338355
 30
0.0
 11
7207.0187834695
 21
4590.9578419417
 31
0.0
  0
LINE
  5
11E
330
1F
100
AcDbEntity
  8
0
  6
Continuous
 62
     7
100
AcDbLine
 10
5341.0187272027
 20
4590.9578419417
 30
0.0
 11
5341.0187272027
 21
4586.9578338355
 31
0.0
  0
LINE
  5
11F
330
1F
100
AcDbEntity
  8
0
  6
Continuous
 62
     7
100
AcDbLine
 10
5351.0187772706
 20
4586.9578338355
 30
0.0
 11
5351.0187772706
 21
4590.9578419417
 31
0.0
  0
LINE
  5
120
330
1F
100
AcDbEntity
  8
0
  6
Continuous
 62
     7
100
AcDbLine
 10
7224.0187434152
 20
5848.4410560817
 30
0.0
 11
7222.0187691644
 21
5848.4410560817
 31
0.0
  0
LINE
  5
121
330
1F
100
AcDbEntity
  8
0
  6
Continuous
 62
     7
100
AcDbLine
 10
5326.0187415078
 20
5848.4410560817
 30
0.0
 11
5324.018767257
 21
5848.4410560817
 31
0.0
  0
LINE
  5
122
330
1F
100
AcDbEntity
  8
0
  6
Continuous
 62
     7
100
AcDbLine
 10
7222.0187691644
 20
5848.4410560817
 30
0.0
 11
5326.0187415078
 21
5848.4410560817
 31
0.0
  0
LINE
  5
123
330
1F
100
AcDbEntity
  8
0
  6
Continuous
 62
     7
100
AcDbLine
 10
5460.5187682107
 20
5178.9578414649
 30
0.0
 11
5460.5187682107
 21
5177.4419165343
 31
0.0
  0
LINE
  5
124
330
1F
100
AcDbEntity
  8
0
  6
Continuous
 62
     7
100
AcDbLine
 10
5460.5187682107
 20
5163.4419179648
 30
0.0
 11
5460.5187682107
 21
5160.941920349
 31
0.0
  0
LINE
  5
125
330
1F
100
AcDbEntity
  8
0
  6
Continuous
 62
     7
100
AcDbLine
 10
5492.5187734559
 20
5160.941920349
 30
0.0
 11
5492.5187734559
 21
5163.4419179648
 31
0.0
  0
LINE
  5
126
330
1F
100
AcDbEntity
  8
0
  6
Continuous
 62
     7
100
AcDbLine
 10
5492.5187734559
 20
5177.4419165343
 30
0.0
 11
5492.5187734559
 21
5178.9578414649
 31
0.0
  0
LINE
  5
127
330
1F
100
AcDbEntity
  8
0
  6
Continuous
 62
     7
100
AcDbLine
 10
5510.5187801316
 20
5100.9419179648
 30
0.0
 11
5503.8282183602
 21
5158.2895732612
 31
0.0
  0
LINE
  5
128
330
1F
100
AcDbEntity
  8
0
  6
Continuous
 62
     7
100
AcDbLine
 10
5449.2093233064
 20
5158.2895732612
 30
0.0
 11
5442.518761535
 21
5100.9419179648
 31
0.0
  0
LINE
  5
129
330
1F
100
AcDbEntity
  8
0
  6
Continuous
 62
     7
100
AcDbLine
 10
5442.518761535
 20
5100.9419179648
 30
0.0
 11
5449.4125155404
 21
5033.6362636775
 31
0.0
  0
LINE
  5
12A
330
1F
100
AcDbEntity
  8
0
  6
Continuous
 62
     7
100
AcDbLine
 10
5503.6249665216
 20
5033.6362636775
 30
0.0
 11
5510.5187801316
 21
5100.9419179648
 31
0.0
  0
LINE
  5
12B
330
1F
100
AcDbEntity
  8
0
  6
Continuous
 62
     7
100
AcDbLine
 10
5501.5187767938
 20
5163.4419179648
 30
0.0
 11
5499.5187429383
 21
5167.4419260711
 31
0.0
  0
LINE
  5
12C
330
1F
100
AcDbEntity
  8
0
  6
Continuous
 62
     7
100
AcDbLine
 10
5453.5187391236
 20
5167.4419260711
 30
0.0
 11
5451.5187648728
 21
5163.4419179648
 31
0.0
  0
LINE
  5
12D
330
1F
100
AcDbEntity
  8
0
  6
Continuous
 62
     7
100
AcDbLine
 10
5453.5187391236
 20
5174.4419253558
 30
0.0
 11
5453.5187391236
 21
5167.4419260711
 31
0.0
  0
LINE
  5
12E
330
1F
100
AcDbEntity
  8
0
  6
Continuous
 62
     7
100
AcDbLine
 10
5499.5187429383
 20
5167.4419260711
 30
0.0
 11
5499.5187429383
 21
5174.4419253558
 31
0.0
  0
LINE
  5
12F
330
1F
100
AcDbEntity
  8
0
  6
Continuous
 62
     7
100
AcDbLine
 10
5460.5187682107
 20
5163.4419179648
 30
0.0
 11
5460.5187682107
 21
5160.941920349
 31
0.0
  0
LINE
  5
130
330
1F
100
AcDbEntity
  8
0
  6
Continuous
 62
     7
100
AcDbLine
 10
5492.5187734559
 20
5160.941920349
 30
0.0
 11
5492.5187734559
 21
5163.4419179648
 31
0.0
  0
LINE
  5
131
330
1F
100
AcDbEntity
  8
0
  6
Continuous
 62
     7
100
AcDbLine
 10
6872.4281100228
 20
5725.0485039443
 30
0.0
 11
6872.5187686875
 21
5724.9578452796
 31
0.0
  0
LINE
  5
132
330
1F
100
AcDbEntity
  8
0
  6
Continuous
 62
     7
100
AcDbLine
 10
6875.5187300637
 20
5724.9578452796
 30
0.0
 11
6875.6093887284
 21
5725.0485039443
 31
0.0
  0
LINE
  5
133
330
1F
100
AcDbEntity
  8
0
  6
Continuous
 62
     7
100
AcDbLine
 10
5672.4281219438
 20
5725.0485039443
 30
0.0
 11
5672.5187806085
 21
5724.9578452796
 31
0.0
  0
LINE
  5
134
330
1F
100
AcDbEntity
  8
0
  6
Continuous
 62
     7
100
AcDbLine
 10
5675.5187419847
 20
5724.9578452796
 30
0.0
 11
5675.6094006494
 21
5725.0485039443
 31
0.0
  0
LINE
  5
135
330
1F
100
AcDbEntity
  8
0
  6
Continuous
 62
     7
100
AcDbLine
 10
6272.4280978225
 20
5725.0485039443
 30
0.0
 11
6272.5187553231
 21
5724.9578452796
 31
0.0
  0
LINE
  5
136
330
1F
100
AcDbEntity
  8
0
  6
Continuous
 62
     7
100
AcDbLine
 10
6275.5187553491
 20
5724.9578452796
 30
0.0
 11
6275.6094128497
 21
5725.0485039443
 31
0.0
  0
LINE
  5
137
330
1F
100
AcDbEntity
  8
0
  6
Continuous
 62
     7
100
AcDbLine
 10
6864.7687343553
 20
5730.7986534328
 30
0.0
 11
6864.7687343553
 21
5730.1949477881
 31
0.0
  0
LINE
  5
138
330
1F
100
AcDbEntity
  8
0
  6
Continuous
 62
     7
100
AcDbLine
 10
6883.268764396
 20
5730.1949477881
 30
0.0
 11
6883.268764396
 21
5730.7986534328
 31
0.0
  0
LINE
  5
139
330
1F
100
AcDbEntity
  8
0
  6
Continuous
 62
     7
100
AcDbLine
 10
6881.5187720254
 20
5731.1608708591
 30
0.0
 11
6881.5187720254
 21
5731.3614404887
 31
0.0
  0
LINE
  5
13A
330
1F
100
AcDbEntity
  8
0
  6
Continuous
 62
     7
100
AcDbLine
 10
6866.5187267259
 20
5731.8575597495
 30
0.0
 11
6866.5187267259
 21
5731.1608708591
 31
0.0
  0
LINE
  5
13B
330
1F
100
AcDbEntity
  8
0
  6
Continuous
 62
     7
100
AcDbLine
 10
6264.7687552169
 20
5730.7986534328
 30
0.0
 11
6264.7687552169
 21
5730.1949477881
 31
0.0
  0
LINE
  5
13C
330
1F
100
AcDbEntity
  8
0
  6
Continuous
 62
     7
100
AcDbLine
 10
6283.2687554553
 20
5730.1949477881
 30
0.0
 11
6283.2687554553
 21
5730.7986534328
 31
0.0
  0
LINE
  5
13D
330
1F
100
AcDbEntity
  8
0
  6
Continuous
 62
     7
100
AcDbLine
 10
6281.5187551685
 20
5731.1608708591
 30
0.0
 11
6281.5187551685
 21
5731.3614404887
 31
0.0
  0
LINE
  5
13E
330
1F
100
AcDbEntity
  8
0
  6
Continuous
 62
     7
100
AcDbLine
 10
6266.5187555037
 20
5731.8575597495
 30
0.0
 11
6266.5187555037
 21
5731.1608708591
 31
0.0
  0
LINE
  5
13F
330
1F
100
AcDbEntity
  8
0
  6
Continuous
 62
     7
100
AcDbLine
 10
5664.7687462762
 20
5730.7986534328
 30
0.0
 11
5664.7687462762
 21
5730.1949477881
 31
0.0
  0
LINE
  5
140
330
1F
100
AcDbEntity
  8
0
  6
Continuous
 62
     7
100
AcDbLine
 10
5683.2687763169
 20
5730.1949477881
 30
0.0
 11
5683.2687763169
 21
5730.7986534328
 31
0.0
  0
LINE
  5
141
330
1F
100
AcDbEntity
  8
0
  6
Continuous
 62
     7
100
AcDbLine
 10
5681.5187839463
 20
5731.1608708591
 30
0.0
 11
5681.5187839463
 21
5731.3614404887
 31
0.0
  0
LINE
  5
142
330
1F
100
AcDbEntity
  8
0
  6
Continuous
 62
     7
100
AcDbLine
 10
5666.5187386468
 20
5731.8575597495
 30
0.0
 11
5666.5187386468
 21
5731.1608708591
 31
0.0
  0
LINE
  5
143
330
1F
100
AcDbEntity
  8
0
  6
Continuous
 62
     7
100
AcDbLine
 10
5675.6687668756
 20
5725.0529742927
 30
0.0
 11
5675.6687668756
 21
5725.0554180831
 31
0.0
  0
LINE
  5
144
330
1F
100
AcDbEntity
  8
0
  6
Continuous
 62
     7
100
AcDbLine
 10
6875.6687549546
 20
5725.0529742927
 30
0.0
 11
6875.6687549546
 21
5725.0554180831
 31
0.0
  0
LINE
  5
145
330
1F
100
AcDbEntity
  8
0
  6
Continuous
 62
     7
100
AcDbLine
 10
6275.6687553272
 20
5725.0529742927
 30
0.0
 11
6275.6687553272
 21
5725.0554180831
 31
0.0
  0
LINE
  5
146
330
1F
100
AcDbEntity
  8
0
  6
Continuous
 62
     7
100
AcDbLine
 10
5366.0187629655
 20
4773.9578700751
 30
0.0
 11
7182.0187477067
 21
4773.9578700751
 31
0.0
  0
LINE
  5
147
330
1F
100
AcDbEntity
  8
0
  6
Continuous
 62
     7
100
AcDbLine
 10
5366.0187629655
 20
4771.9578362197
 30
0.0
 11
7182.0187477067
 21
4771.9578362197
 31
0.0
  0
LINE
  5
148
330
1F
100
AcDbEntity
  8
0
  6
Continuous
 62
     7
100
AcDbLine
 10
5366.0187629655
 20
4735.9578228683
 30
0.0
 11
7182.0187477067
 21
4735.9578228683
 31
0.0
  0
LINE
  5
149
330
1F
100
AcDbEntity
  8
0
  6
Continuous
 62
     7
100
AcDbLine
 10
5366.0187629655
 20
4733.9578486175
 30
0.0
 11
7182.0187477067
 21
4733.9578486175
 31
0.0
  0
LINE
  5
14A
330
1F
100
AcDbEntity
  8
0
  6
Continuous
 62
     7
100
AcDbLine
 10
7187.5187663034
 20
4590.9578419417
 30
0.0
 11
7216.5187553361
 21
4590.9578414649
 31
0.0
  0
LINE
  5
14B
330
1F
100
AcDbEntity
  8
0
  6
Continuous
 62
     7
100
AcDbLine
 10
7220.0187353089
 20
4596.9578242988
 30
0.0
 11
7184.0187815621
 21
4596.9578242988
 31
0.0
  0
LINE
  5
14C
330
1F
100
AcDbEntity
  8
0
  6
Continuous
 62
     7
100
AcDbLine
 10
7184.0187815621
 20
4596.9578242988
 30
0.0
 11
7184.0187815621
 21
4598.9578581542
 31
0.0
  0
LINE
  5
14D
330
1F
100
AcDbEntity
  8
0
  6
Continuous
 62
     7
100
AcDbLine
 10
7184.0187815621
 20
4598.9578581542
 30
0.0
 11
7220.0187353089
 21
4598.9578581542
 31
0.0
  0
LINE
  5
14E
330
1F
100
AcDbEntity
  8
0
  6
Continuous
 62
     7
100
AcDbLine
 10
7220.0187353089
 20
4596.9578242988
 30
0.0
 11
7220.0187353089
 21
4598.9578581542
 31
0.0
  0
LINE
  5
14F
330
1F
100
AcDbEntity
  8
0
  6
Continuous
 62
     7
100
AcDbLine
 10
7184.0187815621
 20
4596.9578242988
 30
0.0
 11
7181.5187839463
 21
4596.9578242988
 31
0.0
  0
LINE
  5
150
330
1F
100
AcDbEntity
  8
0
  6
Continuous
 62
     7
100
AcDbLine
 10
7181.5187839463
 20
4596.9578242988
 30
0.0
 11
7181.5187839463
 21
4598.9578581542
 31
0.0
  0
LINE
  5
151
330
1F
100
AcDbEntity
  8
0
  6
Continuous
 62
     7
100
AcDbLine
 10
7181.5187839463
 20
4598.9578581542
 30
0.0
 11
7184.0187815621
 21
4598.9578581542
 31
0.0
  0
LINE
  5
152
330
1F
100
AcDbEntity
  8
0
  6
Continuous
 62
     7
100
AcDbLine
 10
7222.5187331632
 20
4596.9578242988
 30
0.0
 11
7220.0187353089
 21
4596.9578242988
 31
0.0
  0
LINE
  5
153
330
1F
100
AcDbEntity
  8
0
  6
Continuous
 62
     7
100
AcDbLine
 10
7222.5187331632
 20
4596.9578242988
 30
0.0
 11
7222.5187331632
 21
4598.9578581542
 31
0.0
  0
LINE
  5
154
330
1F
100
AcDbEntity
  8
0
  6
Continuous
 62
     7
100
AcDbLine
 10
7220.0187353089
 20
4598.9578581542
 30
0.0
 11
7222.5187331632
 21
4598.9578581542
 31
0.0
  0
LINE
  5
155
330
1F
100
AcDbEntity
  8
0
  6
Continuous
 62
     7
100
AcDbLine
 10
7210.6789854959
 20
4578.957817623
 30
0.0
 11
7210.6789854959
 21
4586.9578338355
 31
0.0
  0
LINE
  5
156
330
1F
100
AcDbEntity
  8
0
  6
Continuous
 62
     7
100
AcDbLine
 10
7193.3584717706
 20
4578.957817623
 30
0.0
 11
7210.6789854959
 21
4578.957817623
 31
0.0
  0
LINE
  5
157
330
1F
100
AcDbEntity
  8
0
  6
Continuous
 62
     7
100
AcDbLine
 10
7193.3584717706
 20
4578.957817623
 30
0.0
 11
7193.3584717706
 21
4586.9578338355
 31
0.0
  0
LINE
  5
158
330
1F
100
AcDbEntity
  8
0
  6
Continuous
 62
     7
100
AcDbLine
 10
7193.3584717706
 20
4586.9578338355
 30
0.0
 11
7210.6789854959
 21
4586.9578338355
 31
0.0
  0
LINE
  5
159
330
1F
100
AcDbEntity
  8
0
  6
Continuous
 62
     7
100
AcDbLine
 10
7219.3392423585
 20
4578.957817623
 30
0.0
 11
7219.3392423585
 21
4586.9578338355
 31
0.0
  0
LINE
  5
15A
330
1F
100
AcDbEntity
  8
0
  6
Continuous
 62
     7
100
AcDbLine
 10
7210.6789854959
 20
4578.957817623
 30
0.0
 11
7219.3392423585
 21
4578.957817623
 31
0.0
  0
LINE
  5
15B
330
1F
100
AcDbEntity
  8
0
  6
Continuous
 62
     7
100
AcDbLine
 10
7210.6789854959
 20
4586.9578338355
 30
0.0
 11
7219.3392423585
 21
4586.9578338355
 31
0.0
  0
LINE
  5
15C
330
1F
100
AcDbEntity
  8
0
  6
Continuous
 62
     7
100
AcDbLine
 10
7184.6982745126
 20
4578.957817623
 30
0.0
 11
7184.6982745126
 21
4586.9578338355
 31
0.0
  0
LINE
  5
15D
330
1F
100
AcDbEntity
  8
0
  6
Continuous
 62
     7
100
AcDbLine
 10
7184.6982745126
 20
4586.9578338355
 30
0.0
 11
7193.3584717706
 21
4586.9578338355
 31
0.0
  0
LINE
  5
15E
330
1F
100
AcDbEntity
  8
0
  6
Continuous
 62
     7
100
AcDbLine
 10
7184.6982745126
 20
4578.957817623
 30
0.0
 11
7193.3584717706
 21
4578.957817623
 31
0.0
  0
LINE
  5
15F
330
1F
100
AcDbEntity
  8
0
  6
Continuous
 62
     7
100
AcDbLine
 10
7182.0187477067
 20
4598.9578581542
 30
0.0
 11
7182.0187477067
 21
5178.9578414649
 31
0.0
  0
LINE
  5
160
330
1F
100
AcDbEntity
  8
0
  6
Continuous
 62
     7
100
AcDbLine
 10
7222.0187691644
 20
4598.9578581542
 30
0.0
 11
7222.0187691644
 21
5178.9578414649
 31
0.0
  0
LINE
  5
161
330
1F
100
AcDbEntity
  8
0
  6
Continuous
 62
     7
100
AcDbLine
 10
5364.0187291101
 20
4598.9578581542
 30
0.0
 11
5328.0187753633
 21
4598.9578581542
 31
0.0
  0
LINE
  5
162
330
1F
100
AcDbEntity
  8
0
  6
Continuous
 62
     7
100
AcDbLine
 10
5364.0187291101
 20
4596.9578242988
 30
0.0
 11
5364.0187291101
 21
4598.9578581542
 31
0.0
  0
LINE
  5
163
330
1F
100
AcDbEntity
  8
0
  6
Continuous
 62
     7
100
AcDbLine
 10
5328.0187753633
 20
4596.9578242988
 30
0.0
 11
5364.0187291101
 21
4596.9578242988
 31
0.0
  0
LINE
  5
164
330
1F
100
AcDbEntity
  8
0
  6
Continuous
 62
     7
100
AcDbLine
 10
5328.0187753633
 20
4596.9578242988
 30
0.0
 11
5328.0187753633
 21
4598.9578581542
 31
0.0
  0
LINE
  5
165
330
1F
100
AcDbEntity
  8
0
  6
Continuous
 62
     7
100
AcDbLine
 10
5364.0187291101
 20
4596.9578242988
 30
0.0
 11
5366.5187269643
 21
4596.9578242988
 31
0.0
  0
LINE
  5
166
330
1F
100
AcDbEntity
  8
0
  6
Continuous
 62
     7
100
AcDbLine
 10
5360.5187446072
 20
4590.9578421801
 30
0.0
 11
5331.5187555745
 21
4590.9578417033
 31
0.0
  0
LINE
  5
167
330
1F
100
AcDbEntity
  8
0
  6
Continuous
 62
     7
100
AcDbLine
 10
5366.5187269643
 20
4598.9578581542
 30
0.0
 11
5364.0187291101
 21
4598.9578581542
 31
0.0
  0
LINE
  5
168
330
1F
100
AcDbEntity
  8
0
  6
Continuous
 62
     7
100
AcDbLine
 10
5366.5187269643
 20
4596.9578242988
 30
0.0
 11
5366.5187269643
 21
4598.9578581542
 31
0.0
  0
LINE
  5
169
330
1F
100
AcDbEntity
  8
0
  6
Continuous
 62
     7
100
AcDbLine
 10
5325.5187777474
 20
4596.9578242988
 30
0.0
 11
5328.0187753633
 21
4596.9578242988
 31
0.0
  0
LINE
  5
16A
330
1F
100
AcDbEntity
  8
0
  6
Continuous
 62
     7
100
AcDbLine
 10
5325.5187777474
 20
4596.9578242988
 30
0.0
 11
5325.5187777474
 21
4598.9578581542
 31
0.0
  0
LINE
  5
16B
330
1F
100
AcDbEntity
  8
0
  6
Continuous
 62
     7
100
AcDbLine
 10
5328.0187753633
 20
4598.9578581542
 30
0.0
 11
5325.5187777474
 21
4598.9578581542
 31
0.0
  0
LINE
  5
16C
330
1F
100
AcDbEntity
  8
0
  6
Continuous
 62
     7
100
AcDbLine
 10
5354.6790389016
 20
4578.957817623
 30
0.0
 11
5354.6790389016
 21
4586.9578338355
 31
0.0
  0
LINE
  5
16D
330
1F
100
AcDbEntity
  8
0
  6
Continuous
 62
     7
100
AcDbLine
 10
5337.3585251763
 20
4578.957817623
 30
0.0
 11
5337.3585251763
 21
4586.9578338355
 31
0.0
  0
LINE
  5
16E
330
1F
100
AcDbEntity
  8
0
  6
Continuous
 62
     7
100
AcDbLine
 10
5354.6790389016
 20
4586.9578338355
 30
0.0
 11
5337.3585251763
 21
4586.9578338355
 31
0.0
  0
LINE
  5
16F
330
1F
100
AcDbEntity
  8
0
  6
Continuous
 62
     7
100
AcDbLine
 10
5354.6790389016
 20
4578.957817623
 30
0.0
 11
5337.3585251763
 21
4578.957817623
 31
0.0
  0
LINE
  5
170
330
1F
100
AcDbEntity
  8
0
  6
Continuous
 62
     7
100
AcDbLine
 10
5328.6982683137
 20
4578.957817623
 30
0.0
 11
5328.6982683137
 21
4586.9578338355
 31
0.0
  0
LINE
  5
171
330
1F
100
AcDbEntity
  8
0
  6
Continuous
 62
     7
100
AcDbLine
 10
5337.3585251763
 20
4586.9578338355
 30
0.0
 11
5328.6982683137
 21
4586.9578338355
 31
0.0
  0
LINE
  5
172
330
1F
100
AcDbEntity
  8
0
  6
Continuous
 62
     7
100
AcDbLine
 10
5337.3585251763
 20
4578.957817623
 30
0.0
 11
5328.6982683137
 21
4578.957817623
 31
0.0
  0
LINE
  5
173
330
1F
100
AcDbEntity
  8
0
  6
Continuous
 62
     7
100
AcDbLine
 10
5363.3392361596
 20
4578.957817623
 30
0.0
 11
5363.3392361596
 21
4586.9578338355
 31
0.0
  0
LINE
  5
174
330
1F
100
AcDbEntity
  8
0
  6
Continuous
 62
     7
100
AcDbLine
 10
5363.3392361596
 20
4586.9578338355
 30
0.0
 11
5354.6790389016
 21
4586.9578338355
 31
0.0
  0
LINE
  5
175
330
1F
100
AcDbEntity
  8
0
  6
Continuous
 62
     7
100
AcDbLine
 10
5363.3392361596
 20
4578.957817623
 30
0.0
 11
5354.6790389016
 21
4578.957817623
 31
0.0
  0
LINE
  5
176
330
1F
100
AcDbEntity
  8
0
  6
Continuous
 62
     7
100
AcDbLine
 10
5366.0187629655
 20
4598.9578581542
 30
0.0
 11
5366.0187629655
 21
5178.9578414649
 31
0.0
  0
LINE
  5
177
330
1F
100
AcDbEntity
  8
0
  6
Continuous
 62
     7
100
AcDbLine
 10
5326.0187415078
 20
4598.9578581542
 30
0.0
 11
5326.0187415078
 21
5178.9578414649
 31
0.0
  0
LINE
  5
178
330
1F
100
AcDbEntity
  8
0
  6
Continuous
 62
     7
100
AcDbLine
 10
7177.3687509492
 20
5402.2978405595
 30
0.0
 11
5370.668759723
 21
5402.2978405595
 31
0.0
  0
LINE
  5
179
330
1F
100
AcDbEntity
  8
0
  6
Continuous
 62
     7
100
AcDbLine
 10
5370.668759723
 20
5402.2978405595
 30
0.0
 11
5370.668759723
 21
5403.9478405506
 31
0.0
  0
LINE
  5
17A
330
1F
100
AcDbEntity
  8
0
  6
Continuous
 62
     7
100
AcDbLine
 10
7177.3687509492
 20
5403.9478405506
 30
0.0
 11
5370.668759723
 21
5403.9478405506
 31
0.0
  0
LINE
  5
17B
330
1F
100
AcDbEntity
  8
0
  6
Continuous
 62
     7
100
AcDbLine
 10
7177.3687509492
 20
5402.2978405595
 30
0.0
 11
7177.3687509492
 21
5403.9478405506
 31
0.0
  0
LINE
  5
17C
330
1F
100
AcDbEntity
  8
0
  6
Continuous
 62
     7
100
AcDbLine
 10
7177.3687509492
 20
5402.2978405595
 30
0.0
 11
7179.0187267259
 21
5402.2978405595
 31
0.0
  0
LINE
  5
17D
330
1F
100
AcDbEntity
  8
0
  6
Continuous
 62
     7
100
AcDbLine
 10
7179.0187267259
 20
5180.6078470439
 30
0.0
 11
7179.0187267259
 21
5402.2978405595
 31
0.0
  0
LINE
  5
17E
330
1F
100
AcDbEntity
  8
0
  6
Continuous
 62
     7
100
AcDbLine
 10
7179.0187267259
 20
5180.6078470439
 30
0.0
 11
7177.3687509492
 21
5180.6078470439
 31
0.0
  0
LINE
  5
17F
330
1F
100
AcDbEntity
  8
0
  6
Continuous
 62
     7
100
AcDbLine
 10
7177.3687509492
 20
5180.6078470439
 30
0.0
 11
7177.3687509492
 21
5402.2978405595
 31
0.0
  0
LINE
  5
180
330
1F
100
AcDbEntity
  8
0
  6
Continuous
 62
     7
100
AcDbLine
 10
7177.3687509492
 20
5180.6078470439
 30
0.0
 11
5370.668759723
 21
5180.6078470439
 31
0.0
  0
LINE
  5
181
330
1F
100
AcDbEntity
  8
0
  6
Continuous
 62
     7
100
AcDbLine
 10
5370.668759723
 20
5180.6078470439
 30
0.0
 11
5370.668759723
 21
5402.2978405595
 31
0.0
  0
LINE
  5
182
330
1F
100
AcDbEntity
  8
0
  6
Continuous
 62
     7
100
AcDbLine
 10
7177.3687509492
 20
5178.9578414649
 30
0.0
 11
5370.668759723
 21
5178.9578414649
 31
0.0
  0
LINE
  5
183
330
1F
100
AcDbEntity
  8
0
  6
Continuous
 62
     7
100
AcDbLine
 10
7177.3687509492
 20
5178.9578414649
 30
0.0
 11
7177.3687509492
 21
5180.6078470439
 31
0.0
  0
LINE
  5
184
330
1F
100
AcDbEntity
  8
0
  6
Continuous
 62
     7
100
AcDbLine
 10
5370.668759723
 20
5178.9578414649
 30
0.0
 11
5370.668759723
 21
5180.6078470439
 31
0.0
  0
LINE
  5
185
330
1F
100
AcDbEntity
  8
0
  6
Continuous
 62
     7
100
AcDbLine
 10
5369.0187839463
 20
5180.6078470439
 30
0.0
 11
5369.0187839463
 21
5402.2978405595
 31
0.0
  0
LINE
  5
186
330
1F
100
AcDbEntity
  8
0
  6
Continuous
 62
     7
100
AcDbLine
 10
5369.0187839463
 20
5402.2978405595
 30
0.0
 11
5370.668759723
 21
5402.2978405595
 31
0.0
  0
LINE
  5
187
330
1F
100
AcDbEntity
  8
0
  6
Continuous
 62
     7
100
AcDbLine
 10
5370.668759723
 20
5180.6078470439
 30
0.0
 11
5369.0187839463
 21
5180.6078470439
 31
0.0
  0
LINE
  5
188
330
1F
100
AcDbEntity
  8
0
  6
Continuous
 62
     7
100
AcDbLine
 10
7224.0187434152
 20
5178.9578414649
 30
0.0
 11
7224.0187434152
 21
5403.9478405506
 31
0.0
  0
LINE
  5
189
330
1F
100
AcDbEntity
  8
0
  6
Continuous
 62
     7
100
AcDbLine
 10
7220.918765445
 20
5178.9578414649
 30
0.0
 11
7224.0187434152
 21
5178.9578414649
 31
0.0
  0
LINE
  5
18A
330
1F
100
AcDbEntity
  8
0
  6
Continuous
 62
     7
100
AcDbLine
 10
7220.918765445
 20
5178.9578414649
 30
0.0
 11
7220.918765445
 21
5403.9478405506
 31
0.0
  0
LINE
  5
18B
330
1F
100
AcDbEntity
  8
0
  6
Continuous
 62
     7
100
AcDbLine
 10
7224.0187434152
 20
5403.9478405506
 30
0.0
 11
7220.918765445
 21
5403.9478405506
 31
0.0
  0
LINE
  5
18C
330
1F
100
AcDbEntity
  8
0
  6
Continuous
 62
     7
100
AcDbLine
 10
7182.1187643006
 20
5178.9578414649
 30
0.0
 11
7220.918765445
 21
5178.9578414649
 31
0.0
  0
LINE
  5
18D
330
1F
100
AcDbEntity
  8
0
  6
Continuous
 62
     7
100
AcDbLine
 10
7182.1187643006
 20
5178.9578414649
 30
0.0
 11
7182.1187643006
 21
5403.9478405506
 31
0.0
  0
LINE
  5
18E
330
1F
100
AcDbEntity
  8
0
  6
Continuous
 62
     7
100
AcDbLine
 10
7220.918765445
 20
5403.9478405506
 30
0.0
 11
7182.1187643006
 21
5403.9478405506
 31
0.0
  0
LINE
  5
18F
330
1F
100
AcDbEntity
  8
0
  6
Continuous
 62
     7
100
AcDbLine
 10
7182.1187643006
 20
5178.9578414649
 30
0.0
 11
7179.0187267259
 21
5178.9578414649
 31
0.0
  0
LINE
  5
190
330
1F
100
AcDbEntity
  8
0
  6
Continuous
 62
     7
100
AcDbLine
 10
7179.0187267259
 20
5178.9578414649
 30
0.0
 11
7179.0187267259
 21
5180.6078470439
 31
0.0
  0
LINE
  5
191
330
1F
100
AcDbEntity
  8
0
  6
Continuous
 62
     7
100
AcDbLine
 10
7179.0187267259
 20
5402.2978405595
 30
0.0
 11
7179.0187267259
 21
5403.9478405506
 31
0.0
  0
LINE
  5
192
330
1F
100
AcDbEntity
  8
0
  6
Continuous
 62
     7
100
AcDbLine
 10
7179.0187267259
 20
5403.9478405506
 30
0.0
 11
7182.1187643006
 21
5403.9478405506
 31
0.0
  0
LINE
  5
193
330
1F
100
AcDbEntity
  8
0
  6
Continuous
 62
     7
100
AcDbLine
 10
7224.0187434152
 20
5428.9578414649
 30
0.0
 11
7222.0187691644
 21
5428.9578414649
 31
0.0
  0
LINE
  5
194
330
1F
100
AcDbEntity
  8
0
  6
Continuous
 62
     7
100
AcDbLine
 10
7224.0187434152
 20
5428.9578414649
 30
0.0
 11
7224.0187434152
 21
5426.7578414768
 31
0.0
  0
LINE
  5
195
330
1F
100
AcDbEntity
  8
0
  6
Continuous
 62
     7
100
AcDbLine
 10
7224.0187434152
 20
5426.7578414768
 30
0.0
 11
7222.0187691644
 21
5426.7578414768
 31
0.0
  0
LINE
  5
196
330
1F
100
AcDbEntity
  8
0
  6
Continuous
 62
     7
100
AcDbLine
 10
7222.0187691644
 20
5428.9578414649
 30
0.0
 11
7222.0187691644
 21
5426.7578414768
 31
0.0
  0
LINE
  5
197
330
1F
100
AcDbEntity
  8
0
  6
Continuous
 62
     7
100
AcDbLine
 10
7224.0187434152
 20
5403.9578410924
 30
0.0
 11
7222.0187691644
 21
5403.9578410924
 31
0.0
  0
LINE
  5
198
330
1F
100
AcDbEntity
  8
0
  6
Continuous
 62
     7
100
AcDbLine
 10
7224.0187434152
 20
5426.7578414768
 30
0.0
 11
7224.0187434152
 21
5403.9578410924
 31
0.0
  0
LINE
  5
199
330
1F
100
AcDbEntity
  8
0
  6
Continuous
 62
     7
100
AcDbLine
 10
7222.0187691644
 20
5426.7578414768
 30
0.0
 11
7222.0187691644
 21
5403.9578410924
 31
0.0
  0
LINE
  5
19A
330
1F
100
AcDbEntity
  8
0
  6
Continuous
 62
     7
100
AcDbLine
 10
7224.0187434152
 20
5403.9578410924
 30
0.0
 11
7224.0187434152
 21
5403.9478405506
 31
0.0
  0
LINE
  5
19B
330
1F
100
AcDbEntity
  8
0
  6
Continuous
 62
     7
100
AcDbLine
 10
7222.0187691644
 20
5403.9578410924
 30
0.0
 11
7222.0187691644
 21
5403.9478405506
 31
0.0
  0
LINE
  5
19C
330
1F
100
AcDbEntity
  8
0
  6
Continuous
 62
     7
100
AcDbLine
 10
7224.0187434152
 20
5838.7004054278
 30
0.0
 11
7222.0187691644
 21
5838.7004054278
 31
0.0
  0
LINE
  5
19D
330
1F
100
AcDbEntity
  8
0
  6
Continuous
 62
     7
100
AcDbLine
 10
7224.0187434152
 20
5836.5484989375
 30
0.0
 11
7222.0187691644
 21
5836.5484989375
 31
0.0
  0
LINE
  5
19E
330
1F
100
AcDbEntity
  8
0
  6
Continuous
 62
     7
100
AcDbLine
 10
7224.0187434152
 20
5838.7004054278
 30
0.0
 11
7224.0187434152
 21
5836.5484989375
 31
0.0
  0
LINE
  5
19F
330
1F
100
AcDbEntity
  8
0
  6
Continuous
 62
     7
100
AcDbLine
 10
7222.0187691644
 20
5838.7004054278
 30
0.0
 11
7222.0187691644
 21
5836.5484989375
 31
0.0
  0
LINE
  5
1A0
330
1F
100
AcDbEntity
  8
0
  6
Continuous
 62
     7
100
AcDbLine
 10
7224.0187434152
 20
5836.5484989375
 30
0.0
 11
7224.0187434152
 21
5428.9578414649
 31
0.0
  0
LINE
  5
1A1
330
1F
100
AcDbEntity
  8
0
  6
Continuous
 62
     7
100
AcDbLine
 10
7222.0187691644
 20
5836.5484989375
 30
0.0
 11
7222.0187691644
 21
5428.9578414649
 31
0.0
  0
LINE
  5
1A2
330
1F
100
AcDbEntity
  8
0
  6
Continuous
 62
     7
100
AcDbLine
 10
7224.0187434152
 20
5848.3929849357
 30
0.0
 11
7222.0187691644
 21
5848.3929849357
 31
0.0
  0
LINE
  5
1A3
330
1F
100
AcDbEntity
  8
0
  6
Continuous
 62
     7
100
AcDbLine
 10
7224.0187434152
 20
5848.3929849357
 30
0.0
 11
7224.0187434152
 21
5838.7004054278
 31
0.0
  0
LINE
  5
1A4
330
1F
100
AcDbEntity
  8
0
  6
Continuous
 62
     7
100
AcDbLine
 10
7222.0187691644
 20
5848.3929849357
 30
0.0
 11
7222.0187691644
 21
5838.7004054278
 31
0.0
  0
LINE
  5
1A5
330
1F
100
AcDbEntity
  8
0
  6
Continuous
 62
     7
100
AcDbLine
 10
7224.0187434152
 20
5848.4410560817
 30
0.0
 11
7224.0187434152
 21
5848.3929849357
 31
0.0
  0
LINE
  5
1A6
330
1F
100
AcDbEntity
  8
0
  6
Continuous
 62
     7
100
AcDbLine
 10
7222.0187691644
 20
5848.4410560817
 30
0.0
 11
7222.0187691644
 21
5848.3929849357
 31
0.0
  0
LINE
  5
1A7
330
1F
100
AcDbEntity
  8
0
  6
Continuous
 62
     7
100
AcDbLine
 10
5327.1187452272
 20
5178.9578414649
 30
0.0
 11
5327.1187452272
 21
5403.9478405506
 31
0.0
  0
LINE
  5
1A8
330
1F
100
AcDbEntity
  8
0
  6
Continuous
 62
     7
100
AcDbLine
 10
5327.1187452272
 20
5178.9578414649
 30
0.0
 11
5324.018767257
 21
5178.9578414649
 31
0.0
  0
LINE
  5
1A9
330
1F
100
AcDbEntity
  8
0
  6
Continuous
 62
     7
100
AcDbLine
 10
5324.018767257
 20
5178.9578414649
 30
0.0
 11
5324.018767257
 21
5403.9478405506
 31
0.0
  0
LINE
  5
1AA
330
1F
100
AcDbEntity
  8
0
  6
Continuous
 62
     7
100
AcDbLine
 10
5324.018767257
 20
5403.9478405506
 30
0.0
 11
5327.1187452272
 21
5403.9478405506
 31
0.0
  0
LINE
  5
1AB
330
1F
100
AcDbEntity
  8
0
  6
Continuous
 62
     7
100
AcDbLine
 10
5365.9187463716
 20
5178.9578414649
 30
0.0
 11
5365.9187463716
 21
5403.9478405506
 31
0.0
  0
LINE
  5
1AC
330
1F
100
AcDbEntity
  8
0
  6
Continuous
 62
     7
100
AcDbLine
 10
5365.9187463716
 20
5178.9578414649
 30
0.0
 11
5327.1187452272
 21
5178.9578414649
 31
0.0
  0
LINE
  5
1AD
330
1F
100
AcDbEntity
  8
0
  6
Continuous
 62
     7
100
AcDbLine
 10
5327.1187452272
 20
5403.9478405506
 30
0.0
 11
5365.9187463716
 21
5403.9478405506
 31
0.0
  0
LINE
  5
1AE
330
1F
100
AcDbEntity
  8
0
  6
Continuous
 62
     7
100
AcDbLine
 10
5365.9187463716
 20
5178.9578414649
 30
0.0
 11
5369.0187839463
 21
5178.9578414649
 31
0.0
  0
LINE
  5
1AF
330
1F
100
AcDbEntity
  8
0
  6
Continuous
 62
     7
100
AcDbLine
 10
5369.0187839463
 20
5403.9478405506
 30
0.0
 11
5365.9187463716
 21
5403.9478405506
 31
0.0
  0
LINE
  5
1B0
330
1F
100
AcDbEntity
  8
0
  6
Continuous
 62
     7
100
AcDbLine
 10
5369.0187839463
 20
5178.9578414649
 30
0.0
 11
5369.0187839463
 21
5180.6078470439
 31
0.0
  0
LINE
  5
1B1
330
1F
100
AcDbEntity
  8
0
  6
Continuous
 62
     7
100
AcDbLine
 10
5369.0187839463
 20
5402.2978405595
 30
0.0
 11
5369.0187839463
 21
5403.9478405506
 31
0.0
  0
LINE
  5
1B2
330
1F
100
AcDbEntity
  8
0
  6
Continuous
 62
     7
100
AcDbLine
 10
5324.018767257
 20
5426.7578414768
 30
0.0
 11
5326.0187415078
 21
5426.7578414768
 31
0.0
  0
LINE
  5
1B3
330
1F
100
AcDbEntity
  8
0
  6
Continuous
 62
     7
100
AcDbLine
 10
5324.018767257
 20
5428.9578414649
 30
0.0
 11
5326.0187415078
 21
5428.9578414649
 31
0.0
  0
LINE
  5
1B4
330
1F
100
AcDbEntity
  8
0
  6
Continuous
 62
     7
100
AcDbLine
 10
5326.0187415078
 20
5428.9578414649
 30
0.0
 11
5326.0187415078
 21
5426.7578414768
 31
0.0
  0
LINE
  5
1B5
330
1F
100
AcDbEntity
  8
0
  6
Continuous
 62
     7
100
AcDbLine
 10
5324.018767257
 20
5428.9578414649
 30
0.0
 11
5324.018767257
 21
5426.7578414768
 31
0.0
  0
LINE
  5
1B6
330
1F
100
AcDbEntity
  8
0
  6
Continuous
 62
     7
100
AcDbLine
 10
5324.018767257
 20
5403.9578410924
 30
0.0
 11
5326.0187415078
 21
5403.9578410924
 31
0.0
  0
LINE
  5
1B7
330
1F
100
AcDbEntity
  8
0
  6
Continuous
 62
     7
100
AcDbLine
 10
5326.0187415078
 20
5426.7578414768
 30
0.0
 11
5326.0187415078
 21
5403.9578410924
 31
0.0
  0
LINE
  5
1B8
330
1F
100
AcDbEntity
  8
0
  6
Continuous
 62
     7
100
AcDbLine
 10
5324.018767257
 20
5426.7578414768
 30
0.0
 11
5324.018767257
 21
5403.9578410924
 31
0.0
  0
LINE
  5
1B9
330
1F
100
AcDbEntity
  8
0
  6
Continuous
 62
     7
100
AcDbLine
 10
5326.0187415078
 20
5403.9578410924
 30
0.0
 11
5326.0187415078
 21
5403.9478405506
 31
0.0
  0
LINE
  5
1BA
330
1F
100
AcDbEntity
  8
0
  6
Continuous
 62
     7
100
AcDbLine
 10
5324.018767257
 20
5403.9578410924
 30
0.0
 11
5324.018767257
 21
5403.9478405506
 31
0.0
  0
LINE
  5
1BB
330
1F
100
AcDbEntity
  8
0
  6
Continuous
 62
     7
100
AcDbLine
 10
5324.018767257
 20
5836.5484989375
 30
0.0
 11
5326.0187415078
 21
5836.5484989375
 31
0.0
  0
LINE
  5
1BC
330
1F
100
AcDbEntity
  8
0
  6
Continuous
 62
     7
100
AcDbLine
 10
5324.018767257
 20
5838.7004054278
 30
0.0
 11
5326.0187415078
 21
5838.7004054278
 31
0.0
  0
LINE
  5
1BD
330
1F
100
AcDbEntity
  8
0
  6
Continuous
 62
     7
100
AcDbLine
 10
5326.0187415078
 20
5838.7004054278
 30
0.0
 11
5326.0187415078
 21
5836.5484989375
 31
0.0
  0
LINE
  5
1BE
330
1F
100
AcDbEntity
  8
0
  6
Continuous
 62
     7
100
AcDbLine
 10
5324.018767257
 20
5838.7004054278
 30
0.0
 11
5324.018767257
 21
5836.5484989375
 31
0.0
  0
LINE
  5
1BF
330
1F
100
AcDbEntity
  8
0
  6
Continuous
 62
     7
100
AcDbLine
 10
5326.0187415078
 20
5836.5484989375
 30
0.0
 11
5326.0187415078
 21
5428.9578414649
 31
0.0
  0
LINE
  5
1C0
330
1F
100
AcDbEntity
  8
0
  6
Continuous
 62
     7
100
AcDbLine
 10
5324.018767257
 20
5836.5484989375
 30
0.0
 11
5324.018767257
 21
5428.9578414649
 31
0.0
  0
LINE
  5
1C1
330
1F
100
AcDbEntity
  8
0
  6
Continuous
 62
     7
100
AcDbLine
 10
5324.018767257
 20
5848.3929849357
 30
0.0
 11
5326.0187415078
 21
5848.3929849357
 31
0.0
  0
LINE
  5
1C2
330
1F
100
AcDbEntity
  8
0
  6
Continuous
 62
     7
100
AcDbLine
 10
5326.0187415078
 20
5848.3929849357
 30
0.0
 11
5326.0187415078
 21
5838.7004054278
 31
0.0
  0
LINE
  5
1C3
330
1F
100
AcDbEntity
  8
0
  6
Continuous
 62
     7
100
AcDbLine
 10
5324.018767257
 20
5848.3929849357
 30
0.0
 11
5324.018767257
 21
5838.7004054278
 31
0.0
  0
LINE
  5
1C4
330
1F
100
AcDbEntity
  8
0
  6
Continuous
 62
     7
100
AcDbLine
 10
5326.0187415078
 20
5848.4410560817
 30
0.0
 11
5326.0187415078
 21
5848.3929849357
 31
0.0
  0
LINE
  5
1C5
330
1F
100
AcDbEntity
  8
0
  6
Continuous
 62
     7
100
AcDbLine
 10
5324.018767257
 20
5848.4410560817
 30
0.0
 11
5324.018767257
 21
5848.3929849357
 31
0.0
  0
LINE
  5
1C6
330
1F
100
AcDbEntity
  8
0
  6
Continuous
 62
     7
100
AcDbLine
 10
5326.0187415078
 20
5426.7578414768
 30
0.0
 11
7222.0187691644
 21
5426.7578414768
 31
0.0
  0
LINE
  5
1C7
330
1F
100
AcDbEntity
  8
0
  6
Continuous
 62
     7
100
AcDbLine
 10
5326.0187415078
 20
5403.9578410924
 30
0.0
 11
7222.0187691644
 21
5403.9578410924
 31
0.0
  0
LINE
  5
1C8
330
1F
100
AcDbEntity
  8
0
  6
Continuous
 62
     7
100
AcDbLine
 10
7222.0187691644
 20
5428.9578414649
 30
0.0
 11
5326.0187415078
 21
5428.9578414649
 31
0.0
  0
LINE
  5
1C9
330
1F
100
AcDbEntity
  8
0
  6
Continuous
 62
     7
100
AcDbLine
 10
5326.0187415078
 20
5836.5484989375
 30
0.0
 11
7222.0187691644
 21
5836.5484989375
 31
0.0
  0
LINE
  5
1CA
330
1F
100
AcDbEntity
  8
0
  6
Continuous
 62
     7
100
AcDbLine
 10
7222.0187691644
 20
5838.7004054278
 30
0.0
 11
5326.0187415078
 21
5838.7004054278
 31
0.0
  0
LINE
  5
1CB
330
1F
100
AcDbEntity
  8
0
  6
Continuous
 62
     7
100
AcDbLine
 10
5326.0187415078
 20
5848.3929849357
 30
0.0
 11
7222.0187691644
 21
5848.3929849357
 31
0.0
  0
LINE
  5
1CC
330
1F
100
AcDbEntity
  8
0
  6
Continuous
 62
     7
100
AcDbLine
 10
5442.518761535
 20
5100.9419179648
 30
0.0
 11
5510.5187801316
 21
5100.9419179648
 31
0.0
  0
LINE
  5
1CD
330
1F
100
AcDbEntity
  8
0
  6
Continuous
 62
     7
100
AcDbLine
 10
5452.189078708
 20
5160.941920349
 30
0.0
 11
5500.848403354
 21
5160.941920349
 31
0.0
  0
LINE
  5
1CE
330
1F
100
AcDbEntity
  8
0
  6
Continuous
 62
     7
100
AcDbLine
 10
5452.3969201043
 20
5030.9419251174
 30
0.0
 11
5500.6405619577
 21
5030.9419251174
 31
0.0
  0
LINE
  5
1CF
330
1F
100
AcDbEntity
  8
0
  6
Continuous
 62
     7
100
AcDbLine
 10
5453.5187391236
 20
5167.4419260711
 30
0.0
 11
5499.5187429383
 21
5167.4419260711
 31
0.0
  0
LINE
  5
1D0
330
1F
100
AcDbEntity
  8
0
  6
Continuous
 62
     7
100
AcDbLine
 10
5451.5187648728
 20
5163.4419179648
 30
0.0
 11
5501.5187767938
 21
5163.4419179648
 31
0.0
  0
LINE
  5
1D1
330
1F
100
AcDbEntity
  8
0
  6
Continuous
 62
     7
100
AcDbLine
 10
5456.5187601045
 20
5177.4419165343
 30
0.0
 11
5496.5187815621
 21
5177.4419165343
 31
0.0
  0
LINE
  5
1D2
330
1F
100
AcDbEntity
  8
0
  6
Continuous
 62
     7
100
AcDbLine
 10
5493.0187372163
 20
5160.941920349
 30
0.0
 11
5492.5187734559
 21
5161.3081908912
 31
0.0
  0
LINE
  5
1D3
330
1F
100
AcDbEntity
  8
0
  6
Continuous
 62
     7
100
AcDbLine
 10
5460.5187682107
 20
5161.3081908912
 30
0.0
 11
5460.0187448457
 21
5160.941920349
 31
0.0
  0
LINE
  5
1D4
330
1F
100
AcDbEntity
  8
0
  6
Continuous
 62
     7
100
AcDbLine
 10
6281.5687555492
 20
5542.9578415245
 30
0.0
 11
6266.468755123
 21
5542.9578415245
 31
0.0
  0
LINE
  5
1D5
330
1F
100
AcDbEntity
  8
0
  6
Continuous
 62
     7
100
AcDbLine
 10
6281.5687555492
 20
5532.3578409046
 30
0.0
 11
6266.468755123
 21
5532.3578409046
 31
0.0
  0
LINE
  5
1D6
330
1F
100
AcDbEntity
  8
0
  6
Continuous
 62
     7
100
AcDbLine
 10
6881.5687803224
 20
5542.9578415245
 30
0.0
 11
6866.4687780335
 21
5542.9578415245
 31
0.0
  0
LINE
  5
1D7
330
1F
100
AcDbEntity
  8
0
  6
Continuous
 62
     7
100
AcDbLine
 10
6881.5687803224
 20
5532.3578409046
 30
0.0
 11
6866.4687780335
 21
5532.3578409046
 31
0.0
  0
LINE
  5
1D8
330
1F
100
AcDbEntity
  8
0
  6
Continuous
 62
     7
100
AcDbLine
 10
5681.5687326387
 20
5542.9578415245
 30
0.0
 11
5666.4687303498
 21
5542.9578415245
 31
0.0
  0
LINE
  5
1D9
330
1F
100
AcDbEntity
  8
0
  6
Continuous
 62
     7
100
AcDbLine
 10
5681.5687326387
 20
5532.3578409046
 30
0.0
 11
5666.4687303498
 21
5532.3578409046
 31
0.0
  0
LINE
  5
1DA
330
1F
100
AcDbEntity
  8
0
  6
Continuous
 62
     7
100
AcDbLine
 10
6281.5187551685
 20
5543.2578391522
 30
0.0
 11
6266.5187555037
 21
5543.2578391522
 31
0.0
  0
LINE
  5
1DB
330
1F
100
AcDbEntity
  8
0
  6
Continuous
 62
     7
100
AcDbLine
 10
6266.5187555037
 20
5532.2578392119
 30
0.0
 11
6281.5187551685
 21
5532.2578392119
 31
0.0
  0
LINE
  5
1DC
330
1F
100
AcDbEntity
  8
0
  6
Continuous
 62
     7
100
AcDbLine
 10
6881.5187720254
 20
5543.2578391522
 30
0.0
 11
6866.5187267259
 21
5543.2578391522
 31
0.0
  0
LINE
  5
1DD
330
1F
100
AcDbEntity
  8
0
  6
Continuous
 62
     7
100
AcDbLine
 10
6866.5187267259
 20
5532.2578392119
 30
0.0
 11
6881.5187720254
 21
5532.2578392119
 31
0.0
  0
LINE
  5
1DE
330
1F
100
AcDbEntity
  8
0
  6
Continuous
 62
     7
100
AcDbLine
 10
5681.5187839463
 20
5543.2578391522
 30
0.0
 11
5666.5187386468
 21
5543.2578391522
 31
0.0
  0
LINE
  5
1DF
330
1F
100
AcDbEntity
  8
0
  6
Continuous
 62
     7
100
AcDbLine
 10
5666.5187386468
 20
5532.2578392119
 30
0.0
 11
5681.5187839463
 21
5532.2578392119
 31
0.0
  0
LINE
  5
1E0
330
1F
100
AcDbEntity
  8
0
  6
Continuous
 62
     7
100
AcDbLine
 10
6288.0187557682
 20
5178.8578546733
 30
0.0
 11
6288.0187557682
 21
5178.9578414649
 31
0.0
  0
LINE
  5
1E1
330
1F
100
AcDbEntity
  8
0
  6
Continuous
 62
     7
100
AcDbLine
 10
6288.0187557682
 20
5178.8578546733
 30
0.0
 11
6260.018754904
 21
5178.8578546733
 31
0.0
  0
LINE
  5
1E2
330
1F
100
AcDbEntity
  8
0
  6
Continuous
 62
     7
100
AcDbLine
 10
6260.018754904
 20
5178.8578546733
 30
0.0
 11
6260.018754904
 21
5178.9578414649
 31
0.0
  0
LINE
  5
1E3
330
1F
100
AcDbEntity
  8
0
  6
Continuous
 62
     7
100
AcDbLine
 10
6888.0187777474
 20
5178.8578546733
 30
0.0
 11
6888.0187777474
 21
5178.9578414649
 31
0.0
  0
LINE
  5
1E4
330
1F
100
AcDbEntity
  8
0
  6
Continuous
 62
     7
100
AcDbLine
 10
6860.0187806085
 20
5178.8578546733
 30
0.0
 11
6860.0187806085
 21
5178.9578414649
 31
0.0
  0
LINE
  5
1E5
330
1F
100
AcDbEntity
  8
0
  6
Continuous
 62
     7
100
AcDbLine
 10
6888.0187777474
 20
5178.8578546733
 30
0.0
 11
6860.0187806085
 21
5178.8578546733
 31
0.0
  0
LINE
  5
1E6
330
1F
100
AcDbEntity
  8
0
  6
Continuous
 62
     7
100
AcDbLine
 10
5660.0187329248
 20
5178.8578546733
 30
0.0
 11
5660.0187329248
 21
5178.9578414649
 31
0.0
  0
LINE
  5
1E7
330
1F
100
AcDbEntity
  8
0
  6
Continuous
 62
     7
100
AcDbLine
 10
5688.0187300637
 20
5178.8578546733
 30
0.0
 11
5660.0187329248
 21
5178.8578546733
 31
0.0
  0
LINE
  5
1E8
330
1F
100
AcDbEntity
  8
0
  6
Continuous
 62
     7
100
AcDbLine
 10
5688.0187300637
 20
5178.8578546733
 30
0.0
 11
5688.0187300637
 21
5178.9578414649
 31
0.0
  0
LINE
  5
1E9
330
1F
100
AcDbEntity
  8
0
  6
Continuous
 62
     7
100
AcDbLine
 10
6875.5187300637
 20
5724.9578452796
 30
0.0
 11
6872.5187686875
 21
5724.9578452796
 31
0.0
  0
LINE
  5
1EA
330
1F
100
AcDbEntity
  8
0
  6
Continuous
 62
     7
100
AcDbLine
 10
5675.5187419847
 20
5724.9578452796
 30
0.0
 11
5672.5187806085
 21
5724.9578452796
 31
0.0
  0
LINE
  5
1EB
330
1F
100
AcDbEntity
  8
0
  6
Continuous
 62
     7
100
AcDbLine
 10
6275.5187553491
 20
5724.9578452796
 30
0.0
 11
6272.5187553231
 21
5724.9578452796
 31
0.0
  0
LINE
  5
1EC
330
1F
100
AcDbEntity
  8
0
  6
Continuous
 62
     7
100
AcDbLine
 10
6880.7613161996
 20
5729.5219219417
 30
0.0
 11
6880.7613161996
 21
5728.5559988708
 31
0.0
  0
LINE
  5
1ED
330
1F
100
AcDbEntity
  8
0
  6
Continuous
 62
     7
100
AcDbLine
 10
6883.264234443
 20
5730.8736956805
 30
0.0
 11
6883.264234443
 21
5730.2699900359
 31
0.0
  0
LINE
  5
1EE
330
1F
100
AcDbEntity
  8
0
  6
Continuous
 62
     7
100
AcDbLine
 10
6882.1760324433
 20
5731.6354132384
 30
0.0
 11
6882.1760324433
 21
5731.3237405509
 31
0.0
  0
LINE
  5
1EF
330
1F
100
AcDbEntity
  8
0
  6
Continuous
 62
     7
100
AcDbLine
 10
6880.3512362435
 20
5732.1560896129
 30
0.0
 11
6880.3512362435
 21
5731.9400525779
 31
0.0
  0
LINE
  5
1F0
330
1F
100
AcDbEntity
  8
0
  6
Continuous
 62
     7
100
AcDbLine
 10
6876.7028955415
 20
5732.6545632571
 30
0.0
 11
6876.7028955415
 21
5732.486031124
 31
0.0
  0
LINE
  5
1F1
330
1F
100
AcDbEntity
  8
0
  6
Continuous
 62
     7
100
AcDbLine
 10
6873.7288025811
 20
5732.7496922702
 30
0.0
 11
6873.7288025811
 21
5732.5878656596
 31
0.0
  0
LINE
  5
1F2
330
1F
100
AcDbEntity
  8
0
  6
Continuous
 62
     7
100
AcDbLine
 10
6869.6574477151
 20
5732.4880278796
 30
0.0
 11
6869.6574477151
 21
5732.3062337131
 31
0.0
  0
LINE
  5
1F3
330
1F
100
AcDbEntity
  8
0
  6
Continuous
 62
     7
100
AcDbLine
 10
6867.2762421563
 20
5732.0623017043
 30
0.0
 11
6867.2762421563
 21
5731.8339265079
 31
0.0
  0
LINE
  5
1F4
330
1F
100
AcDbEntity
  8
0
  6
Continuous
 62
     7
100
AcDbLine
 10
6865.1667741731
 20
5731.3277936668
 30
0.0
 11
6865.1667741731
 21
5730.8896697253
 31
0.0
  0
LINE
  5
1F5
330
1F
100
AcDbEntity
  8
0
  6
Continuous
 62
     7
100
AcDbLine
 10
6865.8614663079
 20
5730.0320780963
 30
0.0
 11
6865.8614663079
 21
5729.0661550254
 31
0.0
  0
LINE
  5
1F6
330
1F
100
AcDbEntity
  8
0
  6
Continuous
 62
     7
100
AcDbLine
 10
6871.3346032098
 20
5728.8698173255
 30
0.0
 11
6871.3346032098
 21
5727.9038942546
 31
0.0
  0
LINE
  5
1F7
330
1F
100
AcDbEntity
  8
0
  6
Continuous
 62
     7
100
AcDbLine
 10
6867.470434089
 20
5729.8620856494
 30
0.0
 11
6866.5701655343
 21
5730.2428401202
 31
0.0
  0
LINE
  5
1F8
330
1F
100
AcDbEntity
  8
0
  6
Continuous
 62
     7
100
AcDbLine
 10
6866.5701655343
 20
5730.2428401202
 30
0.0
 11
6865.9954575494
 21
5730.6637383193
 31
0.0
  0
LINE
  5
1F9
330
1F
100
AcDbEntity
  8
0
  6
Continuous
 62
     7
100
AcDbLine
 10
6865.9954575494
 20
5730.6637383193
 30
0.0
 11
6865.7714632943
 21
5731.1063326091
 31
0.0
  0
LINE
  5
1FA
330
1F
100
AcDbEntity
  8
0
  6
Continuous
 62
     7
100
AcDbLine
 10
6865.7714632943
 20
5731.1063326091
 30
0.0
 11
6865.9078387216
 21
5731.551340887
 31
0.0
  0
LINE
  5
1FB
330
1F
100
AcDbEntity
  8
0
  6
Continuous
 62
     7
100
AcDbLine
 10
6865.9078387216
 20
5731.551340887
 30
0.0
 11
6866.0352734521
 21
5731.6992200107
 31
0.0
  0
LINE
  5
1FC
330
1F
100
AcDbEntity
  8
0
  6
Continuous
 62
     7
100
AcDbLine
 10
6882.193377395
 20
5731.448820898
 30
0.0
 11
6882.2660354569
 21
5731.2154389113
 31
0.0
  0
LINE
  5
1FD
330
1F
100
AcDbEntity
  8
0
  6
Continuous
 62
     7
100
AcDbLine
 10
6882.2660354569
 20
5731.2154389113
 30
0.0
 11
6882.1296600297
 21
5730.7704306335
 31
0.0
  0
LINE
  5
1FE
330
1F
100
AcDbEntity
  8
0
  6
Continuous
 62
     7
100
AcDbLine
 10
6882.1296600297
 20
5730.7704306335
 30
0.0
 11
6881.6387561753
 21
5730.3424990863
 31
0.0
  0
LINE
  5
1FF
330
1F
100
AcDbEntity
  8
0
  6
Continuous
 62
     7
100
AcDbLine
 10
6881.6387561753
 20
5730.3424990863
 30
0.0
 11
6880.8148411706
 21
5729.9503601283
 31
0.0
  0
LINE
  5
200
330
1F
100
AcDbEntity
  8
0
  6
Continuous
 62
     7
100
AcDbLine
 10
6880.8148411706
 20
5729.9503601283
 30
0.0
 11
6879.693916221
 21
5729.6110904903
 31
0.0
  0
LINE
  5
201
330
1F
100
AcDbEntity
  8
0
  6
Continuous
 62
     7
100
AcDbLine
 10
6879.693916221
 20
5729.6110904903
 30
0.0
 11
6878.3249167398
 21
5729.339561531
 31
0.0
  0
LINE
  5
202
330
1F
100
AcDbEntity
  8
0
  6
Continuous
 62
     7
100
AcDbLine
 10
6878.3249167398
 20
5729.339561531
 30
0.0
 11
6876.767745395
 21
5729.1476643771
 31
0.0
  0
LINE
  5
203
330
1F
100
AcDbEntity
  8
0
  6
Continuous
 62
     7
100
AcDbLine
 10
6876.767745395
 20
5729.1476643771
 30
0.0
 11
6875.0904110864
 21
5729.0437138766
 31
0.0
  0
LINE
  5
204
330
1F
100
AcDbEntity
  8
0
  6
Continuous
 62
     7
100
AcDbLine
 10
6875.0904110864
 20
5729.0437138766
 30
0.0
 11
6873.3662871316
 21
5729.0323293895
 31
0.0
  0
LINE
  5
205
330
1F
100
AcDbEntity
  8
0
  6
Continuous
 62
     7
100
AcDbLine
 10
6873.3662871316
 20
5729.0323293895
 30
0.0
 11
6871.670654197
 21
5729.1139281482
 31
0.0
  0
LINE
  5
206
330
1F
100
AcDbEntity
  8
0
  6
Continuous
 62
     7
100
AcDbLine
 10
6871.670654197
 20
5729.1139281482
 30
0.0
 11
6870.0776008561
 21
5729.285023281
 31
0.0
  0
LINE
  5
207
330
1F
100
AcDbEntity
  8
0
  6
Continuous
 62
     7
100
AcDbLine
 10
6870.0776008561
 20
5729.285023281
 30
0.0
 11
6868.6568645433
 21
5729.5381046027
 31
0.0
  0
LINE
  5
208
330
1F
100
AcDbEntity
  8
0
  6
Continuous
 62
     7
100
AcDbLine
 10
6868.6568645433
 20
5729.5381046027
 30
0.0
 11
6867.470434089
 21
5729.8620856494
 31
0.0
  0
LINE
  5
209
330
1F
100
AcDbEntity
  8
0
  6
Continuous
 62
     7
100
AcDbLine
 10
6882.7614692643
 20
5731.2531388492
 30
0.0
 11
6883.0233124688
 21
5731.2441683501
 31
0.0
  0
LINE
  5
20A
330
1F
100
AcDbEntity
  8
0
  6
Continuous
 62
     7
100
AcDbLine
 10
6880.7613161996
 20
5729.5219219417
 30
0.0
 11
6880.4528621629
 21
5729.6260810584
 31
0.0
  0
LINE
  5
20B
330
1F
100
AcDbEntity
  8
0
  6
Continuous
 62
     7
100
AcDbLine
 10
6871.4011219934
 20
5728.999934265
 30
0.0
 11
6871.3346032098
 21
5728.8698173255
 31
0.0
  0
LINE
  5
20C
330
1F
100
AcDbEntity
  8
0
  6
Continuous
 62
     7
100
AcDbLine
 10
6865.8614663079
 20
5730.0320780963
 30
0.0
 11
6866.2639764741
 21
5730.111918518
 31
0.0
  0
LINE
  5
20D
330
1F
100
AcDbEntity
  8
0
  6
Continuous
 62
     7
100
AcDbLine
 10
6866.5187267259
 20
5731.2372542113
 30
0.0
 11
6865.9954575494
 21
5731.6296613902
 31
0.0
  0
LINE
  5
20E
330
1F
100
AcDbEntity
  8
0
  6
Continuous
 62
     7
100
AcDbLine
 10
6865.9954575494
 20
5731.6296613902
 30
0.0
 11
6865.958443065
 21
5731.6715336532
 31
0.0
  0
LINE
  5
20F
330
1F
100
AcDbEntity
  8
0
  6
Continuous
 62
     7
100
AcDbLine
 10
6881.6384581521
 20
5731.3082433433
 30
0.0
 11
6881.5187720254
 21
5731.2372542113
 31
0.0
  0
LINE
  5
210
330
1F
100
AcDbEntity
  8
0
  6
Continuous
 62
     7
100
AcDbLine
 10
6876.6363767579
 20
5732.3559141845
 30
0.0
 11
6876.7028955415
 21
5732.486031124
 31
0.0
  0
LINE
  5
211
330
1F
100
AcDbEntity
  8
0
  6
Continuous
 62
     7
100
AcDbLine
 10
6873.6623434022
 20
5732.4577487201
 30
0.0
 11
6873.7288025811
 21
5732.5878656596
 31
0.0
  0
LINE
  5
212
330
1F
100
AcDbEntity
  8
0
  6
Continuous
 62
     7
100
AcDbLine
 10
6868.0657056764
 20
5729.9801624507
 30
0.0
 11
6867.2242073014
 21
5730.3389824122
 31
0.0
  0
LINE
  5
213
330
1F
100
AcDbEntity
  8
0
  6
Continuous
 62
     7
100
AcDbLine
 10
6867.2242073014
 20
5730.3389824122
 30
0.0
 11
6866.7004016831
 21
5730.7362473697
 31
0.0
  0
LINE
  5
214
330
1F
100
AcDbEntity
  8
0
  6
Continuous
 62
     7
100
AcDbLine
 10
6866.7004016831
 20
5730.7362473697
 30
0.0
 11
6866.5187863305
 21
5731.1533606738
 31
0.0
  0
LINE
  5
215
330
1F
100
AcDbEntity
  8
0
  6
Continuous
 62
     7
100
AcDbLine
 10
6866.5187863305
 20
5731.1533606738
 30
0.0
 11
6866.6878847077
 21
5731.5708018035
 31
0.0
  0
LINE
  5
216
330
1F
100
AcDbEntity
  8
0
  6
Continuous
 62
     7
100
AcDbLine
 10
6866.6878847077
 20
5731.5708018035
 30
0.0
 11
6867.1997693971
 21
5731.9691098422
 31
0.0
  0
LINE
  5
217
330
1F
100
AcDbEntity
  8
0
  6
Continuous
 62
     7
100
AcDbLine
 10
6867.1997693971
 20
5731.9691098422
 30
0.0
 11
6867.2762421563
 21
5732.0109821052
 31
0.0
  0
LINE
  5
218
330
1F
100
AcDbEntity
  8
0
  6
Continuous
 62
     7
100
AcDbLine
 10
6881.469836612
 20
5731.3822723121
 30
0.0
 11
6881.4715651467
 21
5731.3782489986
 31
0.0
  0
LINE
  5
219
330
1F
100
AcDbEntity
  8
0
  6
Continuous
 62
     7
100
AcDbLine
 10
6881.4715651467
 20
5731.3782489986
 30
0.0
 11
6881.4778832391
 21
5730.95851309
 31
0.0
  0
LINE
  5
21A
330
1F
100
AcDbEntity
  8
0
  6
Continuous
 62
     7
100
AcDbLine
 10
6881.4778832391
 20
5730.95851309
 30
0.0
 11
6881.1353949502
 21
5730.5482245177
 31
0.0
  0
LINE
  5
21B
330
1F
100
AcDbEntity
  8
0
  6
Continuous
 62
     7
100
AcDbLine
 10
6881.1353949502
 20
5730.5482245177
 30
0.0
 11
6880.4601339295
 21
5730.1665759772
 31
0.0
  0
LINE
  5
21C
330
1F
100
AcDbEntity
  8
0
  6
Continuous
 62
     7
100
AcDbLine
 10
6880.4601339295
 20
5730.1665759772
 30
0.0
 11
6879.4836906388
 21
5729.831448862
 31
0.0
  0
LINE
  5
21D
330
1F
100
AcDbEntity
  8
0
  6
Continuous
 62
     7
100
AcDbLine
 10
6879.4836906388
 20
5729.831448862
 30
0.0
 11
6878.251722236
 21
5729.5584595889
 31
0.0
  0
LINE
  5
21E
330
1F
100
AcDbEntity
  8
0
  6
Continuous
 62
     7
100
AcDbLine
 10
6878.251722236
 20
5729.5584595889
 30
0.0
 11
6876.8218068078
 21
5729.3604231566
 31
0.0
  0
LINE
  5
21F
330
1F
100
AcDbEntity
  8
0
  6
Continuous
 62
     7
100
AcDbLine
 10
6876.8218068078
 20
5729.3604231566
 30
0.0
 11
6875.2608207658
 21
5729.2465484828
 31
0.0
  0
LINE
  5
220
330
1F
100
AcDbEntity
  8
0
  6
Continuous
 62
     7
100
AcDbLine
 10
6875.2608207658
 20
5729.2465484828
 30
0.0
 11
6873.6417797998
 21
5729.2221999854
 31
0.0
  0
LINE
  5
221
330
1F
100
AcDbEntity
  8
0
  6
Continuous
 62
     7
100
AcDbLine
 10
6873.6417797998
 20
5729.2221999854
 30
0.0
 11
6872.0403818086
 21
5729.2884803504
 31
0.0
  0
LINE
  5
222
330
1F
100
AcDbEntity
  8
0
  6
Continuous
 62
     7
100
AcDbLine
 10
6872.0403818086
 20
5729.2884803504
 30
0.0
 11
6870.5314306214
 21
5729.4423497409
 31
0.0
  0
LINE
  5
223
330
1F
100
AcDbEntity
  8
0
  6
Continuous
 62
     7
100
AcDbLine
 10
6870.5314306214
 20
5729.4423497409
 30
0.0
 11
6869.1855577424
 21
5729.6765661925
 31
0.0
  0
LINE
  5
224
330
1F
100
AcDbEntity
  8
0
  6
Continuous
 62
     7
100
AcDbLine
 10
6869.1855577424
 20
5729.6765661925
 30
0.0
 11
6868.0657056764
 21
5729.9801624507
 31
0.0
  0
LINE
  5
225
330
1F
100
AcDbEntity
  8
0
  6
Continuous
 62
     7
100
AcDbLine
 10
6873.6623434022
 20
5732.7491260261
 30
0.0
 11
6873.6623434022
 21
5732.4577487201
 31
0.0
  0
LINE
  5
226
330
1F
100
AcDbEntity
  8
0
  6
Continuous
 62
     7
100
AcDbLine
 10
6869.6574477151
 20
5732.3062337131
 30
0.0
 11
6869.9659017518
 21
5732.202044794
 31
0.0
  0
LINE
  5
227
330
1F
100
AcDbEntity
  8
0
  6
Continuous
 62
     7
100
AcDbLine
 10
6867.2762421563
 20
5731.8339265079
 30
0.0
 11
6867.5846365884
 21
5731.7297673911
 31
0.0
  0
LINE
  5
228
330
1F
100
AcDbEntity
  8
0
  6
Continuous
 62
     7
100
AcDbLine
 10
6869.9659017518
 20
5732.5256086082
 30
0.0
 11
6869.9659017518
 21
5732.202044794
 31
0.0
  0
LINE
  5
229
330
1F
100
AcDbEntity
  8
0
  6
Continuous
 62
     7
100
AcDbLine
 10
6880.3512362435
 20
5731.9400525779
 30
0.0
 11
6879.948785682
 21
5731.8602121562
 31
0.0
  0
LINE
  5
22A
330
1F
100
AcDbEntity
  8
0
  6
Continuous
 62
     7
100
AcDbLine
 10
6882.1760324433
 20
5731.3237405509
 30
0.0
 11
6881.7735222772
 21
5731.2439299316
 31
0.0
  0
LINE
  5
22B
330
1F
100
AcDbEntity
  8
0
  6
Continuous
 62
     7
100
AcDbLine
 10
6879.948785682
 20
5732.2386420459
 30
0.0
 11
6879.948785682
 21
5731.8602121562
 31
0.0
  0
LINE
  5
22C
330
1F
100
AcDbEntity
  8
0
  6
Continuous
 62
     7
100
AcDbLine
 10
6865.6694797471
 20
5731.5597153396
 30
0.0
 11
6865.6694797471
 21
5730.872443983
 31
0.0
  0
LINE
  5
22D
330
1F
100
AcDbEntity
  8
0
  6
Continuous
 62
     7
100
AcDbLine
 10
6865.6694797471
 20
5730.872443983
 30
0.0
 11
6865.1667741731
 21
5730.8896697253
 31
0.0
  0
LINE
  5
22E
330
1F
100
AcDbEntity
  8
0
  6
Continuous
 62
     7
100
AcDbLine
 10
6865.2760294869
 20
5730.1027096004
 30
0.0
 11
6864.7733239129
 21
5730.1199055404
 31
0.0
  0
LINE
  5
22F
330
1F
100
AcDbEntity
  8
0
  6
Continuous
 62
     7
100
AcDbLine
 10
6865.2760294869
 20
5730.2872157783
 30
0.0
 11
6865.2760294869
 21
5730.1027096004
 31
0.0
  0
LINE
  5
230
330
1F
100
AcDbEntity
  8
0
  6
Continuous
 62
     7
100
AcDbLine
 10
6882.7614692643
 20
5731.2531388492
 30
0.0
 11
6882.7614692643
 21
5730.2872157783
 31
0.0
  0
LINE
  5
231
330
1F
100
AcDbEntity
  8
0
  6
Continuous
 62
     7
100
AcDbLine
 10
6882.7614692643
 20
5730.2872157783
 30
0.0
 11
6883.264234443
 21
5730.2699900359
 31
0.0
  0
LINE
  5
232
330
1F
100
AcDbEntity
  8
0
  6
Continuous
 62
     7
100
AcDbLine
 10
6882.3680190042
 20
5729.5174515933
 30
0.0
 11
6882.8707245782
 21
5729.5002556533
 31
0.0
  0
LINE
  5
233
330
1F
100
AcDbEntity
  8
0
  6
Continuous
 62
     7
100
AcDbLine
 10
6882.3680190042
 20
5730.4833746642
 30
0.0
 11
6882.3680190042
 21
5729.5174515933
 31
0.0
  0
LINE
  5
234
330
1F
100
AcDbEntity
  8
0
  6
Continuous
 62
     7
100
AcDbLine
 10
6866.2639764741
 20
5730.111918518
 30
0.0
 11
6866.2639764741
 21
5729.1459954471
 31
0.0
  0
LINE
  5
235
330
1F
100
AcDbEntity
  8
0
  6
Continuous
 62
     7
100
AcDbLine
 10
6865.8614663079
 20
5729.0661550254
 30
0.0
 11
6866.2639764741
 21
5729.1459954471
 31
0.0
  0
LINE
  5
236
330
1F
100
AcDbEntity
  8
0
  6
Continuous
 62
     7
100
AcDbLine
 10
6867.6862625077
 20
5728.4498728007
 30
0.0
 11
6868.0887726739
 21
5728.5296834201
 31
0.0
  0
LINE
  5
237
330
1F
100
AcDbEntity
  8
0
  6
Continuous
 62
     7
100
AcDbLine
 10
6868.0887726739
 20
5729.495606491
 30
0.0
 11
6868.0887726739
 21
5728.5296834201
 31
0.0
  0
LINE
  5
238
330
1F
100
AcDbEntity
  8
0
  6
Continuous
 62
     7
100
AcDbLine
 10
6880.4528621629
 20
5729.6260810584
 30
0.0
 11
6880.4528621629
 21
5728.6601579875
 31
0.0
  0
LINE
  5
239
330
1F
100
AcDbEntity
  8
0
  6
Continuous
 62
     7
100
AcDbLine
 10
6878.0716566041
 20
5729.1538036555
 30
0.0
 11
6878.0716566041
 21
5728.1878805846
 31
0.0
  0
LINE
  5
23A
330
1F
100
AcDbEntity
  8
0
  6
Continuous
 62
     7
100
AcDbLine
 10
6880.7613161996
 20
5728.5559988708
 30
0.0
 11
6880.4528621629
 21
5728.6601579875
 31
0.0
  0
LINE
  5
23B
330
1F
100
AcDbEntity
  8
0
  6
Continuous
 62
     7
100
AcDbLine
 10
6878.3800510362
 20
5728.0836916656
 30
0.0
 11
6878.0716566041
 21
5728.1878805846
 31
0.0
  0
LINE
  5
23C
330
1F
100
AcDbEntity
  8
0
  6
Continuous
 62
     7
100
AcDbLine
 10
6871.4011219934
 20
5728.999934265
 30
0.0
 11
6871.4011219934
 21
5728.0340111941
 31
0.0
  0
LINE
  5
23D
330
1F
100
AcDbEntity
  8
0
  6
Continuous
 62
     7
100
AcDbLine
 10
6874.3752149537
 20
5728.8980997294
 30
0.0
 11
6874.3752149537
 21
5727.9321766585
 31
0.0
  0
LINE
  5
23E
330
1F
100
AcDbEntity
  8
0
  6
Continuous
 62
     7
100
AcDbLine
 10
6871.4011219934
 20
5728.0340111941
 30
0.0
 11
6871.3346032098
 21
5727.9038942546
 31
0.0
  0
LINE
  5
23F
330
1F
100
AcDbEntity
  8
0
  6
Continuous
 62
     7
100
AcDbLine
 10
6874.3752149537
 20
5727.9321766585
 30
0.0
 11
6874.3086961701
 21
5727.802059719
 31
0.0
  0
LINE
  5
240
330
1F
100
AcDbEntity
  8
0
  6
Continuous
 62
     7
100
AcDbLine
 10
6280.7612928234
 20
5729.5219219417
 30
0.0
 11
6280.7612928234
 21
5728.5559988708
 31
0.0
  0
LINE
  5
241
330
1F
100
AcDbEntity
  8
0
  6
Continuous
 62
     7
100
AcDbLine
 10
6283.2642106011
 20
5730.8736956805
 30
0.0
 11
6283.2642106011
 21
5730.2699900359
 31
0.0
  0
LINE
  5
242
330
1F
100
AcDbEntity
  8
0
  6
Continuous
 62
     7
100
AcDbLine
 10
6282.1760439917
 20
5731.6354132384
 30
0.0
 11
6282.1760439917
 21
5731.3237405509
 31
0.0
  0
LINE
  5
243
330
1F
100
AcDbEntity
  8
0
  6
Continuous
 62
     7
100
AcDbLine
 10
6280.3512659527
 20
5732.1560896129
 30
0.0
 11
6280.3512659527
 21
5731.9400525779
 31
0.0
  0
LINE
  5
244
330
1F
100
AcDbEntity
  8
0
  6
Continuous
 62
     7
100
AcDbLine
 10
6276.7029087197
 20
5732.6545632571
 30
0.0
 11
6276.7029087197
 21
5732.486031124
 31
0.0
  0
LINE
  5
245
330
1F
100
AcDbEntity
  8
0
  6
Continuous
 62
     7
100
AcDbLine
 10
6273.7288225114
 20
5732.7496922702
 30
0.0
 11
6273.7288225114
 21
5732.5878656596
 31
0.0
  0
LINE
  5
246
330
1F
100
AcDbEntity
  8
0
  6
Continuous
 62
     7
100
AcDbLine
 10
6269.6574327208
 20
5732.4880278796
 30
0.0
 11
6269.6574327208
 21
5732.3062337131
 31
0.0
  0
LINE
  5
247
330
1F
100
AcDbEntity
  8
0
  6
Continuous
 62
     7
100
AcDbLine
 10
6267.2762178488
 20
5732.0623017043
 30
0.0
 11
6267.2762178488
 21
5731.8339265079
 31
0.0
  0
LINE
  5
248
330
1F
100
AcDbEntity
  8
0
  6
Continuous
 62
     7
100
AcDbLine
 10
6265.1667596444
 20
5731.3277936668
 30
0.0
 11
6265.1667596444
 21
5730.8896697253
 31
0.0
  0
LINE
  5
249
330
1F
100
AcDbEntity
  8
0
  6
Continuous
 62
     7
100
AcDbLine
 10
6265.8614666805
 20
5730.0320780963
 30
0.0
 11
6265.8614666805
 21
5729.0661550254
 31
0.0
  0
LINE
  5
24A
330
1F
100
AcDbEntity
  8
0
  6
Continuous
 62
     7
100
AcDbLine
 10
6271.3346019525
 20
5728.8698173255
 30
0.0
 11
6271.3346019525
 21
5727.9038942546
 31
0.0
  0
LINE
  5
24B
330
1F
100
AcDbEntity
  8
0
  6
Continuous
 62
     7
100
AcDbLine
 10
6267.4704149038
 20
5729.8620856494
 30
0.0
 11
6266.5701817393
 21
5730.2428401202
 31
0.0
  0
LINE
  5
24C
330
1F
100
AcDbEntity
  8
0
  6
Continuous
 62
     7
100
AcDbLine
 10
6266.5701817393
 20
5730.2428401202
 30
0.0
 11
6265.9954867929
 21
5730.6637383193
 31
0.0
  0
LINE
  5
24D
330
1F
100
AcDbEntity
  8
0
  6
Continuous
 62
     7
100
AcDbLine
 10
6265.9954867929
 20
5730.6637383193
 30
0.0
 11
6265.7714478344
 21
5731.1063326091
 31
0.0
  0
LINE
  5
24E
330
1F
100
AcDbEntity
  8
0
  6
Continuous
 62
     7
100
AcDbLine
 10
6265.7714478344
 20
5731.1063326091
 30
0.0
 11
6265.9078549266
 21
5731.551340887
 31
0.0
  0
LINE
  5
24F
330
1F
100
AcDbEntity
  8
0
  6
Continuous
 62
     7
100
AcDbLine
 10
6265.9078549266
 20
5731.551340887
 30
0.0
 11
6266.0352514729
 21
5731.6992200107
 31
0.0
  0
LINE
  5
250
330
1F
100
AcDbEntity
  8
0
  6
Continuous
 62
     7
100
AcDbLine
 10
6282.1933963939
 20
5731.448820898
 30
0.0
 11
6282.2660628378
 21
5731.2154389113
 31
0.0
  0
LINE
  5
251
330
1F
100
AcDbEntity
  8
0
  6
Continuous
 62
     7
100
AcDbLine
 10
6282.2660628378
 20
5731.2154389113
 30
0.0
 11
6282.1296557456
 21
5730.7704306335
 31
0.0
  0
LINE
  5
252
330
1F
100
AcDbEntity
  8
0
  6
Continuous
 62
     7
100
AcDbLine
 10
6282.1296557456
 20
5730.7704306335
 30
0.0
 11
6281.6387630671
 21
5730.3424990863
 31
0.0
  0
LINE
  5
253
330
1F
100
AcDbEntity
  8
0
  6
Continuous
 62
     7
100
AcDbLine
 10
6281.6387630671
 20
5730.3424990863
 30
0.0
 11
6280.8148392148
 21
5729.9503601283
 31
0.0
  0
LINE
  5
254
330
1F
100
AcDbEntity
  8
0
  6
Continuous
 62
     7
100
AcDbLine
 10
6280.8148392148
 20
5729.9503601283
 30
0.0
 11
6279.6938942417
 21
5729.6110904903
 31
0.0
  0
LINE
  5
255
330
1F
100
AcDbEntity
  8
0
  6
Continuous
 62
     7
100
AcDbLine
 10
6279.6938942417
 20
5729.6110904903
 30
0.0
 11
6278.3249185093
 21
5729.339561531
 31
0.0
  0
LINE
  5
256
330
1F
100
AcDbEntity
  8
0
  6
Continuous
 62
     7
100
AcDbLine
 10
6278.3249185093
 20
5729.339561531
 30
0.0
 11
6276.7677425079
 21
5729.1476643771
 31
0.0
  0
LINE
  5
257
330
1F
100
AcDbEntity
  8
0
  6
Continuous
 62
     7
100
AcDbLine
 10
6276.7677425079
 20
5729.1476643771
 30
0.0
 11
6275.0904226348
 21
5729.0437138766
 31
0.0
  0
LINE
  5
258
330
1F
100
AcDbEntity
  8
0
  6
Continuous
 62
     7
100
AcDbLine
 10
6275.0904226348
 20
5729.0437138766
 30
0.0
 11
6273.3662658509
 21
5729.0323293895
 31
0.0
  0
LINE
  5
259
330
1F
100
AcDbEntity
  8
0
  6
Continuous
 62
     7
100
AcDbLine
 10
6273.3662658509
 20
5729.0323293895
 30
0.0
 11
6271.6706259314
 21
5729.1139281482
 31
0.0
  0
LINE
  5
25A
330
1F
100
AcDbEntity
  8
0
  6
Continuous
 62
     7
100
AcDbLine
 10
6271.6706259314
 20
5729.1139281482
 30
0.0
 11
6270.0776105419
 21
5729.285023281
 31
0.0
  0
LINE
  5
25B
330
1F
100
AcDbEntity
  8
0
  6
Continuous
 62
     7
100
AcDbLine
 10
6270.0776105419
 20
5729.285023281
 30
0.0
 11
6268.6568420984
 21
5729.5381046027
 31
0.0
  0
LINE
  5
25C
330
1F
100
AcDbEntity
  8
0
  6
Continuous
 62
     7
100
AcDbLine
 10
6268.6568420984
 20
5729.5381046027
 30
0.0
 11
6267.4704149038
 21
5729.8620856494
 31
0.0
  0
LINE
  5
25D
330
1F
100
AcDbEntity
  8
0
  6
Continuous
 62
     7
100
AcDbLine
 10
6282.7614919886
 20
5731.2531388492
 30
0.0
 11
6283.0233035281
 21
5731.2441683501
 31
0.0
  0
LINE
  5
25E
330
1F
100
AcDbEntity
  8
0
  6
Continuous
 62
     7
100
AcDbLine
 10
6280.7612928234
 20
5729.5219219417
 30
0.0
 11
6280.4528453059
 21
5729.6260810584
 31
0.0
  0
LINE
  5
25F
330
1F
100
AcDbEntity
  8
0
  6
Continuous
 62
     7
100
AcDbLine
 10
6271.4011095602
 20
5728.999934265
 30
0.0
 11
6271.3346019525
 21
5728.8698173255
 31
0.0
  0
LINE
  5
260
330
1F
100
AcDbEntity
  8
0
  6
Continuous
 62
     7
100
AcDbLine
 10
6265.8614666805
 20
5730.0320780963
 30
0.0
 11
6266.2639698617
 21
5730.111918518
 31
0.0
  0
LINE
  5
261
330
1F
100
AcDbEntity
  8
0
  6
Continuous
 62
     7
100
AcDbLine
 10
6266.5187555037
 20
5731.2372542113
 30
0.0
 11
6265.9954867929
 21
5731.6296613902
 31
0.0
  0
LINE
  5
262
330
1F
100
AcDbEntity
  8
0
  6
Continuous
 62
     7
100
AcDbLine
 10
6265.9954867929
 20
5731.6296613902
 30
0.0
 11
6265.9584704459
 21
5731.6715336532
 31
0.0
  0
LINE
  5
263
330
1F
100
AcDbEntity
  8
0
  6
Continuous
 62
     7
100
AcDbLine
 10
6281.6384724945
 20
5731.3082433433
 30
0.0
 11
6281.5187551685
 21
5731.2372542113
 31
0.0
  0
LINE
  5
264
330
1F
100
AcDbEntity
  8
0
  6
Continuous
 62
     7
100
AcDbLine
 10
6276.636401112
 20
5732.3559141845
 30
0.0
 11
6276.7029087197
 21
5732.486031124
 31
0.0
  0
LINE
  5
265
330
1F
100
AcDbEntity
  8
0
  6
Continuous
 62
     7
100
AcDbLine
 10
6273.6623149037
 20
5732.4577487201
 30
0.0
 11
6273.7288225114
 21
5732.5878656596
 31
0.0
  0
LINE
  5
266
330
1F
100
AcDbEntity
  8
0
  6
Continuous
 62
     7
100
AcDbLine
 10
6268.0657186218
 20
5729.9801624507
 30
0.0
 11
6267.2242137276
 21
5730.3389824122
 31
0.0
  0
LINE
  5
267
330
1F
100
AcDbEntity
  8
0
  6
Continuous
 62
     7
100
AcDbLine
 10
6267.2242137276
 20
5730.3389824122
 30
0.0
 11
6266.7004141629
 21
5730.7362473697
 31
0.0
  0
LINE
  5
268
330
1F
100
AcDbEntity
  8
0
  6
Continuous
 62
     7
100
AcDbLine
 10
6266.7004141629
 20
5730.7362473697
 30
0.0
 11
6266.5188118488
 21
5731.1533606738
 31
0.0
  0
LINE
  5
269
330
1F
100
AcDbEntity
  8
0
  6
Continuous
 62
     7
100
AcDbLine
 10
6266.5188118488
 20
5731.1533606738
 30
0.0
 11
6266.6878985844
 21
5731.5708018035
 31
0.0
  0
LINE
  5
26A
330
1F
100
AcDbEntity
  8
0
  6
Continuous
 62
     7
100
AcDbLine
 10
6266.6878985844
 20
5731.5708018035
 30
0.0
 11
6267.1997683726
 21
5731.9691098422
 31
0.0
  0
LINE
  5
26B
330
1F
100
AcDbEntity
  8
0
  6
Continuous
 62
     7
100
AcDbLine
 10
6267.1997683726
 20
5731.9691098422
 30
0.0
 11
6267.2762178488
 21
5732.0109821052
 31
0.0
  0
LINE
  5
26C
330
1F
100
AcDbEntity
  8
0
  6
Continuous
 62
     7
100
AcDbLine
 10
6281.4698225491
 20
5731.3822723121
 30
0.0
 11
6281.471586474
 21
5731.3782489986
 31
0.0
  0
LINE
  5
26D
330
1F
100
AcDbEntity
  8
0
  6
Continuous
 62
     7
100
AcDbLine
 10
6281.471586474
 20
5731.3782489986
 30
0.0
 11
6281.4778812833
 21
5730.95851309
 31
0.0
  0
LINE
  5
26E
330
1F
100
AcDbEntity
  8
0
  6
Continuous
 62
     7
100
AcDbLine
 10
6281.4778812833
 20
5730.95851309
 30
0.0
 11
6281.1353953227
 21
5730.5482245177
 31
0.0
  0
LINE
  5
26F
330
1F
100
AcDbEntity
  8
0
  6
Continuous
 62
     7
100
AcDbLine
 10
6281.1353953227
 20
5730.5482245177
 30
0.0
 11
6280.4601431496
 21
5730.1665759772
 31
0.0
  0
LINE
  5
270
330
1F
100
AcDbEntity
  8
0
  6
Continuous
 62
     7
100
AcDbLine
 10
6280.4601431496
 20
5730.1665759772
 30
0.0
 11
6279.4836989276
 21
5729.831448862
 31
0.0
  0
LINE
  5
271
330
1F
100
AcDbEntity
  8
0
  6
Continuous
 62
     7
100
AcDbLine
 10
6279.4836989276
 20
5729.831448862
 30
0.0
 11
6278.2517202802
 21
5729.5584595889
 31
0.0
  0
LINE
  5
272
330
1F
100
AcDbEntity
  8
0
  6
Continuous
 62
     7
100
AcDbLine
 10
6278.2517202802
 20
5729.5584595889
 30
0.0
 11
6276.8218125354
 21
5729.3604231566
 31
0.0
  0
LINE
  5
273
330
1F
100
AcDbEntity
  8
0
  6
Continuous
 62
     7
100
AcDbLine
 10
6276.8218125354
 20
5729.3604231566
 30
0.0
 11
6275.2608372036
 21
5729.2465484828
 31
0.0
  0
LINE
  5
274
330
1F
100
AcDbEntity
  8
0
  6
Continuous
 62
     7
100
AcDbLine
 10
6275.2608372036
 20
5729.2465484828
 30
0.0
 11
6273.6417833737
 21
5729.2221999854
 31
0.0
  0
LINE
  5
275
330
1F
100
AcDbEntity
  8
0
  6
Continuous
 62
     7
100
AcDbLine
 10
6273.6417833737
 20
5729.2221999854
 30
0.0
 11
6272.0403563369
 21
5729.2884803504
 31
0.0
  0
LINE
  5
276
330
1F
100
AcDbEntity
  8
0
  6
Continuous
 62
     7
100
AcDbLine
 10
6272.0403563369
 20
5729.2884803504
 30
0.0
 11
6270.5314370476
 21
5729.4423497409
 31
0.0
  0
LINE
  5
277
330
1F
100
AcDbEntity
  8
0
  6
Continuous
 62
     7
100
AcDbLine
 10
6270.5314370476
 20
5729.4423497409
 30
0.0
 11
6269.1855809323
 21
5729.6765661925
 31
0.0
  0
LINE
  5
278
330
1F
100
AcDbEntity
  8
0
  6
Continuous
 62
     7
100
AcDbLine
 10
6269.1855809323
 20
5729.6765661925
 30
0.0
 11
6268.0657186218
 21
5729.9801624507
 31
0.0
  0
LINE
  5
279
330
1F
100
AcDbEntity
  8
0
  6
Continuous
 62
     7
100
AcDbLine
 10
6273.6623149037
 20
5732.7491260261
 30
0.0
 11
6273.6623149037
 21
5732.4577487201
 31
0.0
  0
LINE
  5
27A
330
1F
100
AcDbEntity
  8
0
  6
Continuous
 62
     7
100
AcDbLine
 10
6269.6574327208
 20
5732.3062337131
 30
0.0
 11
6269.9658797726
 21
5732.202044794
 31
0.0
  0
LINE
  5
27B
330
1F
100
AcDbEntity
  8
0
  6
Continuous
 62
     7
100
AcDbLine
 10
6267.2762178488
 20
5731.8339265079
 30
0.0
 11
6267.5846653663
 21
5731.7297673911
 31
0.0
  0
LINE
  5
27C
330
1F
100
AcDbEntity
  8
0
  6
Continuous
 62
     7
100
AcDbLine
 10
6269.9658797726
 20
5732.5256086082
 30
0.0
 11
6269.9658797726
 21
5732.202044794
 31
0.0
  0
LINE
  5
27D
330
1F
100
AcDbEntity
  8
0
  6
Continuous
 62
     7
100
AcDbLine
 10
6280.3512659527
 20
5731.9400525779
 30
0.0
 11
6279.9487623058
 21
5731.8602121562
 31
0.0
  0
LINE
  5
27E
330
1F
100
AcDbEntity
  8
0
  6
Continuous
 62
     7
100
AcDbLine
 10
6282.1760439917
 20
5731.3237405509
 30
0.0
 11
6281.7735408105
 21
5731.2439299316
 31
0.0
  0
LINE
  5
27F
330
1F
100
AcDbEntity
  8
0
  6
Continuous
 62
     7
100
AcDbLine
 10
6279.9487623058
 20
5732.2386420459
 30
0.0
 11
6279.9487623058
 21
5731.8602121562
 31
0.0
  0
LINE
  5
280
330
1F
100
AcDbEntity
  8
0
  6
Continuous
 62
     7
100
AcDbLine
 10
6265.669478257
 20
5731.5597153396
 30
0.0
 11
6265.669478257
 21
5730.872443983
 31
0.0
  0
LINE
  5
281
330
1F
100
AcDbEntity
  8
0
  6
Continuous
 62
     7
100
AcDbLine
 10
6265.669478257
 20
5730.872443983
 30
0.0
 11
6265.1667596444
 21
5730.8896697253
 31
0.0
  0
LINE
  5
282
330
1F
100
AcDbEntity
  8
0
  6
Continuous
 62
     7
100
AcDbLine
 10
6265.2760186836
 20
5730.1027096004
 30
0.0
 11
6264.7733000711
 21
5730.1199055404
 31
0.0
  0
LINE
  5
283
330
1F
100
AcDbEntity
  8
0
  6
Continuous
 62
     7
100
AcDbLine
 10
6265.2760186836
 20
5730.2872157783
 30
0.0
 11
6265.2760186836
 21
5730.1027096004
 31
0.0
  0
LINE
  5
284
330
1F
100
AcDbEntity
  8
0
  6
Continuous
 62
     7
100
AcDbLine
 10
6282.7614919886
 20
5731.2531388492
 30
0.0
 11
6282.7614919886
 21
5730.2872157783
 31
0.0
  0
LINE
  5
285
330
1F
100
AcDbEntity
  8
0
  6
Continuous
 62
     7
100
AcDbLine
 10
6282.7614919886
 20
5730.2872157783
 30
0.0
 11
6283.2642106011
 21
5730.2699900359
 31
0.0
  0
LINE
  5
286
330
1F
100
AcDbEntity
  8
0
  6
Continuous
 62
     7
100
AcDbLine
 10
6282.3680324152
 20
5729.5174515933
 30
0.0
 11
6282.8707510278
 21
5729.5002556533
 31
0.0
  0
LINE
  5
287
330
1F
100
AcDbEntity
  8
0
  6
Continuous
 62
     7
100
AcDbLine
 10
6282.3680324152
 20
5730.4833746642
 30
0.0
 11
6282.3680324152
 21
5729.5174515933
 31
0.0
  0
LINE
  5
288
330
1F
100
AcDbEntity
  8
0
  6
Continuous
 62
     7
100
AcDbLine
 10
6266.2639698617
 20
5730.111918518
 30
0.0
 11
6266.2639698617
 21
5729.1459954471
 31
0.0
  0
LINE
  5
289
330
1F
100
AcDbEntity
  8
0
  6
Continuous
 62
     7
100
AcDbLine
 10
6265.8614666805
 20
5729.0661550254
 30
0.0
 11
6266.2639698617
 21
5729.1459954471
 31
0.0
  0
LINE
  5
28A
330
1F
100
AcDbEntity
  8
0
  6
Continuous
 62
     7
100
AcDbLine
 10
6267.6862447195
 20
5728.4498728007
 30
0.0
 11
6268.0887483664
 21
5728.5296834201
 31
0.0
  0
LINE
  5
28B
330
1F
100
AcDbEntity
  8
0
  6
Continuous
 62
     7
100
AcDbLine
 10
6268.0887483664
 20
5729.495606491
 30
0.0
 11
6268.0887483664
 21
5728.5296834201
 31
0.0
  0
LINE
  5
28C
330
1F
100
AcDbEntity
  8
0
  6
Continuous
 62
     7
100
AcDbLine
 10
6280.4528453059
 20
5729.6260810584
 30
0.0
 11
6280.4528453059
 21
5728.6601579875
 31
0.0
  0
LINE
  5
28D
330
1F
100
AcDbEntity
  8
0
  6
Continuous
 62
     7
100
AcDbLine
 10
6280.7612928234
 20
5728.5559988708
 30
0.0
 11
6280.4528453059
 21
5728.6601579875
 31
0.0
  0
LINE
  5
28E
330
1F
100
AcDbEntity
  8
0
  6
Continuous
 62
     7
100
AcDbLine
 10
6278.0716308996
 20
5729.1538036555
 30
0.0
 11
6278.0716308996
 21
5728.1878805846
 31
0.0
  0
LINE
  5
28F
330
1F
100
AcDbEntity
  8
0
  6
Continuous
 62
     7
100
AcDbLine
 10
6278.3800779514
 20
5728.0836916656
 30
0.0
 11
6278.0716308996
 21
5728.1878805846
 31
0.0
  0
LINE
  5
290
330
1F
100
AcDbEntity
  8
0
  6
Continuous
 62
     7
100
AcDbLine
 10
6271.4011095602
 20
5728.999934265
 30
0.0
 11
6271.4011095602
 21
5728.0340111941
 31
0.0
  0
LINE
  5
291
330
1F
100
AcDbEntity
  8
0
  6
Continuous
 62
     7
100
AcDbLine
 10
6274.3751957685
 20
5728.8980997294
 30
0.0
 11
6274.3751957685
 21
5727.9321766585
 31
0.0
  0
LINE
  5
292
330
1F
100
AcDbEntity
  8
0
  6
Continuous
 62
     7
100
AcDbLine
 10
6271.4011095602
 20
5728.0340111941
 30
0.0
 11
6271.3346019525
 21
5727.9038942546
 31
0.0
  0
LINE
  5
293
330
1F
100
AcDbEntity
  8
0
  6
Continuous
 62
     7
100
AcDbLine
 10
6274.3751957685
 20
5727.9321766585
 30
0.0
 11
6274.3086881608
 21
5727.802059719
 31
0.0
  0
LINE
  5
294
330
1F
100
AcDbEntity
  8
0
  6
Continuous
 62
     7
100
AcDbLine
 10
5680.7612685159
 20
5729.5219219417
 30
0.0
 11
5680.7612685159
 21
5728.5559988708
 31
0.0
  0
LINE
  5
295
330
1F
100
AcDbEntity
  8
0
  6
Continuous
 62
     7
100
AcDbLine
 10
5683.2641867593
 20
5730.8736956805
 30
0.0
 11
5683.2641867593
 21
5730.2699900359
 31
0.0
  0
LINE
  5
296
330
1F
100
AcDbEntity
  8
0
  6
Continuous
 62
     7
100
AcDbLine
 10
5682.1760443643
 20
5731.6354132384
 30
0.0
 11
5682.1760443643
 21
5731.3237405509
 31
0.0
  0
LINE
  5
297
330
1F
100
AcDbEntity
  8
0
  6
Continuous
 62
     7
100
AcDbLine
 10
5680.3512481645
 20
5732.1560896129
 30
0.0
 11
5680.3512481645
 21
5731.9400525779
 31
0.0
  0
LINE
  5
298
330
1F
100
AcDbEntity
  8
0
  6
Continuous
 62
     7
100
AcDbLine
 10
5676.7029074624
 20
5732.6545632571
 30
0.0
 11
5676.7029074624
 21
5732.486031124
 31
0.0
  0
LINE
  5
299
330
1F
100
AcDbEntity
  8
0
  6
Continuous
 62
     7
100
AcDbLine
 10
5673.7288145021
 20
5732.7496922702
 30
0.0
 11
5673.7288145021
 21
5732.5878656596
 31
0.0
  0
LINE
  5
29A
330
1F
100
AcDbEntity
  8
0
  6
Continuous
 62
     7
100
AcDbLine
 10
5669.657459636
 20
5732.4880278796
 30
0.0
 11
5669.657459636
 21
5732.3062337131
 31
0.0
  0
LINE
  5
29B
330
1F
100
AcDbEntity
  8
0
  6
Continuous
 62
     7
100
AcDbLine
 10
5667.2761944726
 20
5732.0623017043
 30
0.0
 11
5667.2761944726
 21
5731.8339265079
 31
0.0
  0
LINE
  5
29C
330
1F
100
AcDbEntity
  8
0
  6
Continuous
 62
     7
100
AcDbLine
 10
5665.166786094
 20
5731.3277936668
 30
0.0
 11
5665.166786094
 21
5730.8896697253
 31
0.0
  0
LINE
  5
29D
330
1F
100
AcDbEntity
  8
0
  6
Continuous
 62
     7
100
AcDbLine
 10
5665.8614782289
 20
5730.0320780963
 30
0.0
 11
5665.8614782289
 21
5729.0661550254
 31
0.0
  0
LINE
  5
29E
330
1F
100
AcDbEntity
  8
0
  6
Continuous
 62
     7
100
AcDbLine
 10
5671.3346151307
 20
5728.8698173255
 30
0.0
 11
5671.3346151307
 21
5727.9038942546
 31
0.0
  0
LINE
  5
29F
330
1F
100
AcDbEntity
  8
0
  6
Continuous
 62
     7
100
AcDbLine
 10
5667.4703864053
 20
5729.8620856494
 30
0.0
 11
5666.5701774552
 21
5730.2428401202
 31
0.0
  0
LINE
  5
2A0
330
1F
100
AcDbEntity
  8
0
  6
Continuous
 62
     7
100
AcDbLine
 10
5666.5701774552
 20
5730.2428401202
 30
0.0
 11
5665.9954694703
 21
5730.6637383193
 31
0.0
  0
LINE
  5
2A1
330
1F
100
AcDbEntity
  8
0
  6
Continuous
 62
     7
100
AcDbLine
 10
5665.9954694703
 20
5730.6637383193
 30
0.0
 11
5665.7714752153
 21
5731.1063326091
 31
0.0
  0
LINE
  5
2A2
330
1F
100
AcDbEntity
  8
0
  6
Continuous
 62
     7
100
AcDbLine
 10
5665.7714752153
 20
5731.1063326091
 30
0.0
 11
5665.9078506425
 21
5731.551340887
 31
0.0
  0
LINE
  5
2A3
330
1F
100
AcDbEntity
  8
0
  6
Continuous
 62
     7
100
AcDbLine
 10
5665.9078506425
 20
5731.551340887
 30
0.0
 11
5666.0352257684
 21
5731.6992200107
 31
0.0
  0
LINE
  5
2A4
330
1F
100
AcDbEntity
  8
0
  6
Continuous
 62
     7
100
AcDbLine
 10
5682.1933893159
 20
5731.448820898
 30
0.0
 11
5682.2660473779
 21
5731.2154389113
 31
0.0
  0
LINE
  5
2A5
330
1F
100
AcDbEntity
  8
0
  6
Continuous
 62
     7
100
AcDbLine
 10
5682.2660473779
 20
5731.2154389113
 30
0.0
 11
5682.1296719506
 21
5730.7704306335
 31
0.0
  0
LINE
  5
2A6
330
1F
100
AcDbEntity
  8
0
  6
Continuous
 62
     7
100
AcDbLine
 10
5682.1296719506
 20
5730.7704306335
 30
0.0
 11
5681.6387680963
 21
5730.3424990863
 31
0.0
  0
LINE
  5
2A7
330
1F
100
AcDbEntity
  8
0
  6
Continuous
 62
     7
100
AcDbLine
 10
5681.6387680963
 20
5730.3424990863
 30
0.0
 11
5680.8148530915
 21
5729.9503601283
 31
0.0
  0
LINE
  5
2A8
330
1F
100
AcDbEntity
  8
0
  6
Continuous
 62
     7
100
AcDbLine
 10
5680.8148530915
 20
5729.9503601283
 30
0.0
 11
5680.4615167573
 21
5729.8271871299
 31
0.0
  0
LINE
  5
2A9
330
1F
100
AcDbEntity
  8
0
  6
Continuous
 62
     7
100
AcDbLine
 10
5667.7926687196
 20
5729.7599530906
 30
0.0
 11
5667.4703864053
 21
5729.8620856494
 31
0.0
  0
LINE
  5
2AA
330
1F
100
AcDbEntity
  8
0
  6
Continuous
 62
     7
100
AcDbLine
 10
5682.7614811853
 20
5731.2531388492
 30
0.0
 11
5683.0233243898
 21
5731.2441683501
 31
0.0
  0
LINE
  5
2AB
330
1F
100
AcDbEntity
  8
0
  6
Continuous
 62
     7
100
AcDbLine
 10
5680.7612685159
 20
5729.5219219417
 30
0.0
 11
5680.4528740838
 21
5729.6260810584
 31
0.0
  0
LINE
  5
2AC
330
1F
100
AcDbEntity
  8
0
  6
Continuous
 62
     7
100
AcDbLine
 10
5671.4011339143
 20
5728.999934265
 30
0.0
 11
5671.3346151307
 21
5728.8698173255
 31
0.0
  0
LINE
  5
2AD
330
1F
100
AcDbEntity
  8
0
  6
Continuous
 62
     7
100
AcDbLine
 10
5665.8614782289
 20
5730.0320780963
 30
0.0
 11
5666.263988395
 21
5730.111918518
 31
0.0
  0
LINE
  5
2AE
330
1F
100
AcDbEntity
  8
0
  6
Continuous
 62
     7
100
AcDbLine
 10
5666.5187386468
 20
5731.2372542113
 30
0.0
 11
5665.9954694703
 21
5731.6296613902
 31
0.0
  0
LINE
  5
2AF
330
1F
100
AcDbEntity
  8
0
  6
Continuous
 62
     7
100
AcDbLine
 10
5665.9954694703
 20
5731.6296613902
 30
0.0
 11
5665.9584549859
 21
5731.6715336532
 31
0.0
  0
LINE
  5
2B0
330
1F
100
AcDbEntity
  8
0
  6
Continuous
 62
     7
100
AcDbLine
 10
5681.638470073
 20
5731.3082433433
 30
0.0
 11
5681.5187839463
 21
5731.2372542113
 31
0.0
  0
LINE
  5
2B1
330
1F
100
AcDbEntity
  8
0
  6
Continuous
 62
     7
100
AcDbLine
 10
5676.6363886788
 20
5732.3559141845
 30
0.0
 11
5676.7029074624
 21
5732.486031124
 31
0.0
  0
LINE
  5
2B2
330
1F
100
AcDbEntity
  8
0
  6
Continuous
 62
     7
100
AcDbLine
 10
5673.6622957185
 20
5732.4577487201
 30
0.0
 11
5673.7288145021
 21
5732.5878656596
 31
0.0
  0
LINE
  5
2B3
330
1F
100
AcDbEntity
  8
0
  6
Continuous
 62
     7
100
AcDbLine
 10
5668.0657175973
 20
5729.9801624507
 30
0.0
 11
5667.2242192224
 21
5730.3389824122
 31
0.0
  0
LINE
  5
2B4
330
1F
100
AcDbEntity
  8
0
  6
Continuous
 62
     7
100
AcDbLine
 10
5667.2242192224
 20
5730.3389824122
 30
0.0
 11
5666.7004136041
 21
5730.7362473697
 31
0.0
  0
LINE
  5
2B5
330
1F
100
AcDbEntity
  8
0
  6
Continuous
 62
     7
100
AcDbLine
 10
5666.7004136041
 20
5730.7362473697
 30
0.0
 11
5666.5187982514
 21
5731.1533606738
 31
0.0
  0
LINE
  5
2B6
330
1F
100
AcDbEntity
  8
0
  6
Continuous
 62
     7
100
AcDbLine
 10
5666.5187982514
 20
5731.1533606738
 30
0.0
 11
5666.6878966287
 21
5731.5708018035
 31
0.0
  0
LINE
  5
2B7
330
1F
100
AcDbEntity
  8
0
  6
Continuous
 62
     7
100
AcDbLine
 10
5666.6878966287
 20
5731.5708018035
 30
0.0
 11
5667.199781318
 21
5731.9691098422
 31
0.0
  0
LINE
  5
2B8
330
1F
100
AcDbEntity
  8
0
  6
Continuous
 62
     7
100
AcDbLine
 10
5667.199781318
 20
5731.9691098422
 30
0.0
 11
5667.2761944726
 21
5732.0109821052
 31
0.0
  0
LINE
  5
2B9
330
1F
100
AcDbEntity
  8
0
  6
Continuous
 62
     7
100
AcDbLine
 10
5681.469848533
 20
5731.3822723121
 30
0.0
 11
5681.4715770677
 21
5731.3782489986
 31
0.0
  0
LINE
  5
2BA
330
1F
100
AcDbEntity
  8
0
  6
Continuous
 62
     7
100
AcDbLine
 10
5681.4715770677
 20
5731.3782489986
 30
0.0
 11
5681.47789516
 21
5730.95851309
 31
0.0
  0
LINE
  5
2BB
330
1F
100
AcDbEntity
  8
0
  6
Continuous
 62
     7
100
AcDbLine
 10
5681.47789516
 20
5730.95851309
 30
0.0
 11
5681.1354068711
 21
5730.5482245177
 31
0.0
  0
LINE
  5
2BC
330
1F
100
AcDbEntity
  8
0
  6
Continuous
 62
     7
100
AcDbLine
 10
5681.1354068711
 20
5730.5482245177
 30
0.0
 11
5680.4601458505
 21
5730.1665759772
 31
0.0
  0
LINE
  5
2BD
330
1F
100
AcDbEntity
  8
0
  6
Continuous
 62
     7
100
AcDbLine
 10
5680.4601458505
 20
5730.1665759772
 30
0.0
 11
5679.4837025598
 21
5729.831448862
 31
0.0
  0
LINE
  5
2BE
330
1F
100
AcDbEntity
  8
0
  6
Continuous
 62
     7
100
AcDbLine
 10
5679.4837025598
 20
5729.831448862
 30
0.0
 11
5678.2517341569
 21
5729.5584595889
 31
0.0
  0
LINE
  5
2BF
330
1F
100
AcDbEntity
  8
0
  6
Continuous
 62
     7
100
AcDbLine
 10
5678.2517341569
 20
5729.5584595889
 30
0.0
 11
5676.8218187287
 21
5729.3604231566
 31
0.0
  0
LINE
  5
2C0
330
1F
100
AcDbEntity
  8
0
  6
Continuous
 62
     7
100
AcDbLine
 10
5676.8218187287
 20
5729.3604231566
 30
0.0
 11
5675.2608326867
 21
5729.2465484828
 31
0.0
  0
LINE
  5
2C1
330
1F
100
AcDbEntity
  8
0
  6
Continuous
 62
     7
100
AcDbLine
 10
5675.2608326867
 20
5729.2465484828
 30
0.0
 11
5673.6417917207
 21
5729.2221999854
 31
0.0
  0
LINE
  5
2C2
330
1F
100
AcDbEntity
  8
0
  6
Continuous
 62
     7
100
AcDbLine
 10
5673.6417917207
 20
5729.2221999854
 30
0.0
 11
5672.0403341249
 21
5729.2884803504
 31
0.0
  0
LINE
  5
2C3
330
1F
100
AcDbEntity
  8
0
  6
Continuous
 62
     7
100
AcDbLine
 10
5672.0403341249
 20
5729.2884803504
 30
0.0
 11
5670.5314425424
 21
5729.4423497409
 31
0.0
  0
LINE
  5
2C4
330
1F
100
AcDbEntity
  8
0
  6
Continuous
 62
     7
100
AcDbLine
 10
5670.5314425424
 20
5729.4423497409
 30
0.0
 11
5669.1855696633
 21
5729.6765661925
 31
0.0
  0
LINE
  5
2C5
330
1F
100
AcDbEntity
  8
0
  6
Continuous
 62
     7
100
AcDbLine
 10
5669.1855696633
 20
5729.6765661925
 30
0.0
 11
5668.0657175973
 21
5729.9801624507
 31
0.0
  0
LINE
  5
2C6
330
1F
100
AcDbEntity
  8
0
  6
Continuous
 62
     7
100
AcDbLine
 10
5673.6622957185
 20
5732.7491260261
 30
0.0
 11
5673.6622957185
 21
5732.4577487201
 31
0.0
  0
LINE
  5
2C7
330
1F
100
AcDbEntity
  8
0
  6
Continuous
 62
     7
100
AcDbLine
 10
5669.657459636
 20
5732.3062337131
 30
0.0
 11
5669.9658540681
 21
5732.202044794
 31
0.0
  0
LINE
  5
2C8
330
1F
100
AcDbEntity
  8
0
  6
Continuous
 62
     7
100
AcDbLine
 10
5667.2761944726
 20
5731.8339265079
 30
0.0
 11
5667.5846485093
 21
5731.7297673911
 31
0.0
  0
LINE
  5
2C9
330
1F
100
AcDbEntity
  8
0
  6
Continuous
 62
     7
100
AcDbLine
 10
5669.9658540681
 20
5732.5256086082
 30
0.0
 11
5669.9658540681
 21
5732.202044794
 31
0.0
  0
LINE
  5
2CA
330
1F
100
AcDbEntity
  8
0
  6
Continuous
 62
     7
100
AcDbLine
 10
5680.3512481645
 20
5731.9400525779
 30
0.0
 11
5679.9487379983
 21
5731.8602121562
 31
0.0
  0
LINE
  5
2CB
330
1F
100
AcDbEntity
  8
0
  6
Continuous
 62
     7
100
AcDbLine
 10
5682.1760443643
 20
5731.3237405509
 30
0.0
 11
5681.7735341981
 21
5731.2439299316
 31
0.0
  0
LINE
  5
2CC
330
1F
100
AcDbEntity
  8
0
  6
Continuous
 62
     7
100
AcDbLine
 10
5679.9487379983
 20
5732.2386420459
 30
0.0
 11
5679.9487379983
 21
5731.8602121562
 31
0.0
  0
LINE
  5
2CD
330
1F
100
AcDbEntity
  8
0
  6
Continuous
 62
     7
100
AcDbLine
 10
5665.669491668
 20
5731.5597153396
 30
0.0
 11
5665.669491668
 21
5730.872443983
 31
0.0
  0
LINE
  5
2CE
330
1F
100
AcDbEntity
  8
0
  6
Continuous
 62
     7
100
AcDbLine
 10
5665.669491668
 20
5730.872443983
 30
0.0
 11
5665.166786094
 21
5730.8896697253
 31
0.0
  0
LINE
  5
2CF
330
1F
100
AcDbEntity
  8
0
  6
Continuous
 62
     7
100
AcDbLine
 10
5665.2760414079
 20
5730.1027096004
 30
0.0
 11
5664.7732762292
 21
5730.1199055404
 31
0.0
  0
LINE
  5
2D0
330
1F
100
AcDbEntity
  8
0
  6
Continuous
 62
     7
100
AcDbLine
 10
5665.2760414079
 20
5730.2872157783
 30
0.0
 11
5665.2760414079
 21
5730.1027096004
 31
0.0
  0
LINE
  5
2D1
330
1F
100
AcDbEntity
  8
0
  6
Continuous
 62
     7
100
AcDbLine
 10
5682.7614811853
 20
5731.2531388492
 30
0.0
 11
5682.7614811853
 21
5730.2872157783
 31
0.0
  0
LINE
  5
2D2
330
1F
100
AcDbEntity
  8
0
  6
Continuous
 62
     7
100
AcDbLine
 10
5682.7614811853
 20
5730.2872157783
 30
0.0
 11
5683.2641867593
 21
5730.2699900359
 31
0.0
  0
LINE
  5
2D3
330
1F
100
AcDbEntity
  8
0
  6
Continuous
 62
     7
100
AcDbLine
 10
5682.3680309251
 20
5729.5174515933
 30
0.0
 11
5682.8707364991
 21
5729.5002556533
 31
0.0
  0
LINE
  5
2D4
330
1F
100
AcDbEntity
  8
0
  6
Continuous
 62
     7
100
AcDbLine
 10
5682.3680309251
 20
5730.4833746642
 30
0.0
 11
5682.3680309251
 21
5729.5174515933
 31
0.0
  0
LINE
  5
2D5
330
1F
100
AcDbEntity
  8
0
  6
Continuous
 62
     7
100
AcDbLine
 10
5666.263988395
 20
5730.111918518
 30
0.0
 11
5666.263988395
 21
5729.1459954471
 31
0.0
  0
LINE
  5
2D6
330
1F
100
AcDbEntity
  8
0
  6
Continuous
 62
     7
100
AcDbLine
 10
5665.8614782289
 20
5729.0661550254
 30
0.0
 11
5666.263988395
 21
5729.1459954471
 31
0.0
  0
LINE
  5
2D7
330
1F
100
AcDbEntity
  8
0
  6
Continuous
 62
     7
100
AcDbLine
 10
5667.6862744287
 20
5728.4498728007
 30
0.0
 11
5668.0887249902
 21
5728.5296834201
 31
0.0
  0
LINE
  5
2D8
330
1F
100
AcDbEntity
  8
0
  6
Continuous
 62
     7
100
AcDbLine
 10
5668.0887249902
 20
5729.495606491
 30
0.0
 11
5668.0887249902
 21
5728.5296834201
 31
0.0
  0
LINE
  5
2D9
330
1F
100
AcDbEntity
  8
0
  6
Continuous
 62
     7
100
AcDbLine
 10
5680.4528740838
 20
5729.6260810584
 30
0.0
 11
5680.4528740838
 21
5728.6601579875
 31
0.0
  0
LINE
  5
2DA
330
1F
100
AcDbEntity
  8
0
  6
Continuous
 62
     7
100
AcDbLine
 10
5680.7612685159
 20
5728.5559988708
 30
0.0
 11
5680.4528740838
 21
5728.6601579875
 31
0.0
  0
LINE
  5
2DB
330
1F
100
AcDbEntity
  8
0
  6
Continuous
 62
     7
100
AcDbLine
 10
5678.0716089204
 20
5729.1538036555
 30
0.0
 11
5678.0716089204
 21
5728.1878805846
 31
0.0
  0
LINE
  5
2DC
330
1F
100
AcDbEntity
  8
0
  6
Continuous
 62
     7
100
AcDbLine
 10
5678.3800629571
 20
5728.0836916656
 30
0.0
 11
5678.0716089204
 21
5728.1878805846
 31
0.0
  0
LINE
  5
2DD
330
1F
100
AcDbEntity
  8
0
  6
Continuous
 62
     7
100
AcDbLine
 10
5671.4011339143
 20
5728.999934265
 30
0.0
 11
5671.4011339143
 21
5728.0340111941
 31
0.0
  0
LINE
  5
2DE
330
1F
100
AcDbEntity
  8
0
  6
Continuous
 62
     7
100
AcDbLine
 10
5674.37516727
 20
5728.8980997294
 30
0.0
 11
5674.37516727
 21
5727.9321766585
 31
0.0
  0
LINE
  5
2DF
330
1F
100
AcDbEntity
  8
0
  6
Continuous
 62
     7
100
AcDbLine
 10
5671.4011339143
 20
5728.0340111941
 30
0.0
 11
5671.3346151307
 21
5727.9038942546
 31
0.0
  0
LINE
  5
2E0
330
1F
100
AcDbEntity
  8
0
  6
Continuous
 62
     7
100
AcDbLine
 10
5674.37516727
 20
5727.9321766585
 30
0.0
 11
5674.3087080911
 21
5727.802059719
 31
0.0
  0
LINE
  5
2E1
330
1F
100
AcDbEntity
  8
0
  6
Continuous
 62
     7
100
AcDbLine
 10
5661.8680862382
 20
5734.3360698909
 30
0.0
 11
5686.1694363549
 21
5734.3360698909
 31
0.0
  0
LINE
  5
2E2
330
1F
100
AcDbEntity
  8
0
  6
Continuous
 62
     7
100
AcDbLine
 10
5687.1370847036
 20
5734.0681140076
 30
0.0
 11
5686.1694363549
 21
5734.3360698909
 31
0.0
  0
LINE
  5
2E3
330
1F
100
AcDbEntity
  8
0
  6
Continuous
 62
     7
100
AcDbLine
 10
5661.8680862382
 20
5734.3360698909
 30
0.0
 11
5660.9004259686
 21
5734.0681140076
 31
0.0
  0
LINE
  5
2E4
330
1F
100
AcDbEntity
  8
0
  6
Continuous
 62
     7
100
AcDbLine
 10
5674.0187314942
 20
5732.7507949561
 30
0.0
 11
5675.8876351312
 21
5732.7046013564
 31
0.0
  0
LINE
  5
2E5
330
1F
100
AcDbEntity
  8
0
  6
Continuous
 62
     7
100
AcDbLine
 10
5675.8876351312
 20
5732.7046013564
 30
0.0
 11
5677.6889471009
 21
5732.5677192897
 31
0.0
  0
LINE
  5
2E6
330
1F
100
AcDbEntity
  8
0
  6
Continuous
 62
     7
100
AcDbLine
 10
5677.6889471009
 20
5732.5677192897
 30
0.0
 11
5679.3575791314
 21
5732.3450661391
 31
0.0
  0
LINE
  5
2E7
330
1F
100
AcDbEntity
  8
0
  6
Continuous
 62
     7
100
AcDbLine
 10
5679.3575791314
 20
5732.3450661391
 30
0.0
 11
5680.8332709268
 21
5732.0447183341
 31
0.0
  0
LINE
  5
2E8
330
1F
100
AcDbEntity
  8
0
  6
Continuous
 62
     7
100
AcDbLine
 10
5680.8332709268
 20
5732.0447183341
 30
0.0
 11
5682.0626763299
 21
5731.6774941176
 31
0.0
  0
LINE
  5
2E9
330
1F
100
AcDbEntity
  8
0
  6
Continuous
 62
     7
100
AcDbLine
 10
5682.0626763299
 20
5731.6774941176
 30
0.0
 11
5683.0013898805
 21
5731.2566853255
 31
0.0
  0
LINE
  5
2EA
330
1F
100
AcDbEntity
  8
0
  6
Continuous
 62
     7
100
AcDbLine
 10
5683.0013898805
 20
5731.2566853255
 30
0.0
 11
5683.6153773263
 21
5730.7975209445
 31
0.0
  0
LINE
  5
2EB
330
1F
100
AcDbEntity
  8
0
  6
Continuous
 62
     7
100
AcDbLine
 10
5683.6153773263
 20
5730.7975209445
 30
0.0
 11
5683.8825849488
 21
5730.3165710658
 31
0.0
  0
LINE
  5
2EC
330
1F
100
AcDbEntity
  8
0
  6
Continuous
 62
     7
100
AcDbLine
 10
5683.8825849488
 20
5730.3165710658
 30
0.0
 11
5683.7932375863
 21
5729.8312104434
 31
0.0
  0
LINE
  5
2ED
330
1F
100
AcDbEntity
  8
0
  6
Continuous
 62
     7
100
AcDbLine
 10
5683.7932375863
 20
5729.8312104434
 30
0.0
 11
5683.3506134942
 21
5729.3590224475
 31
0.0
  0
LINE
  5
2EE
330
1F
100
AcDbEntity
  8
0
  6
Continuous
 62
     7
100
AcDbLine
 10
5683.3506134942
 20
5729.3590224475
 30
0.0
 11
5682.570746322
 21
5728.9170540065
 31
0.0
  0
LINE
  5
2EF
330
1F
100
AcDbEntity
  8
0
  6
Continuous
 62
     7
100
AcDbLine
 10
5682.570746322
 20
5728.9170540065
 30
0.0
 11
5681.4817694619
 21
5728.5212493629
 31
0.0
  0
LINE
  5
2F0
330
1F
100
AcDbEntity
  8
0
  6
Continuous
 62
     7
100
AcDbLine
 10
5681.4817694619
 20
5728.5212493629
 30
0.0
 11
5680.1230815843
 21
5728.1859434337
 31
0.0
  0
LINE
  5
2F1
330
1F
100
AcDbEntity
  8
0
  6
Continuous
 62
     7
100
AcDbLine
 10
5680.1230815843
 20
5728.1859434337
 30
0.0
 11
5678.5437373117
 21
5727.9232359618
 31
0.0
  0
LINE
  5
2F2
330
1F
100
AcDbEntity
  8
0
  6
Continuous
 62
     7
100
AcDbLine
 10
5678.5437373117
 20
5727.9232359618
 30
0.0
 11
5676.8008378938
 21
5727.7426636905
 31
0.0
  0
LINE
  5
2F3
330
1F
100
AcDbEntity
  8
0
  6
Continuous
 62
     7
100
AcDbLine
 10
5676.8008378938
 20
5727.7426636905
 30
0.0
 11
5674.9574450448
 21
5727.6506937236
 31
0.0
  0
LINE
  5
2F4
330
1F
100
AcDbEntity
  8
0
  6
Continuous
 62
     7
100
AcDbLine
 10
5674.9574450448
 20
5727.6506937236
 30
0.0
 11
5673.0800775483
 21
5727.6506937236
 31
0.0
  0
LINE
  5
2F5
330
1F
100
AcDbEntity
  8
0
  6
Continuous
 62
     7
100
AcDbLine
 10
5673.0800775483
 20
5727.6506937236
 30
0.0
 11
5671.2366250947
 21
5727.7426636905
 31
0.0
  0
LINE
  5
2F6
330
1F
100
AcDbEntity
  8
0
  6
Continuous
 62
     7
100
AcDbLine
 10
5671.2366250947
 20
5727.7426636905
 30
0.0
 11
5669.4937852815
 21
5727.9232359618
 31
0.0
  0
LINE
  5
2F7
330
1F
100
AcDbEntity
  8
0
  6
Continuous
 62
     7
100
AcDbLine
 10
5669.4937852815
 20
5727.9232359618
 30
0.0
 11
5667.9144410089
 21
5728.1859434337
 31
0.0
  0
LINE
  5
2F8
330
1F
100
AcDbEntity
  8
0
  6
Continuous
 62
     7
100
AcDbLine
 10
5667.9144410089
 20
5728.1859434337
 30
0.0
 11
5666.5557531312
 21
5728.5212493629
 31
0.0
  0
LINE
  5
2F9
330
1F
100
AcDbEntity
  8
0
  6
Continuous
 62
     7
100
AcDbLine
 10
5666.5557531312
 20
5728.5212493629
 30
0.0
 11
5665.4667762712
 21
5728.9170540065
 31
0.0
  0
LINE
  5
2FA
330
1F
100
AcDbEntity
  8
0
  6
Continuous
 62
     7
100
AcDbLine
 10
5665.4667762712
 20
5728.9170540065
 30
0.0
 11
5664.6868494943
 21
5729.3590224475
 31
0.0
  0
LINE
  5
2FB
330
1F
100
AcDbEntity
  8
0
  6
Continuous
 62
     7
100
AcDbLine
 10
5664.6868494943
 20
5729.3590224475
 30
0.0
 11
5664.2442850068
 21
5729.8312104434
 31
0.0
  0
LINE
  5
2FC
330
1F
100
AcDbEntity
  8
0
  6
Continuous
 62
     7
100
AcDbLine
 10
5664.2442850068
 20
5729.8312104434
 30
0.0
 11
5664.1549376443
 21
5730.3165710658
 31
0.0
  0
LINE
  5
2FD
330
1F
100
AcDbEntity
  8
0
  6
Continuous
 62
     7
100
AcDbLine
 10
5664.1549376443
 20
5730.3165710658
 30
0.0
 11
5664.4221452668
 21
5730.7975209445
 31
0.0
  0
LINE
  5
2FE
330
1F
100
AcDbEntity
  8
0
  6
Continuous
 62
     7
100
AcDbLine
 10
5664.4221452668
 20
5730.7975209445
 30
0.0
 11
5665.0361327127
 21
5731.2566853255
 31
0.0
  0
LINE
  5
2FF
330
1F
100
AcDbEntity
  8
0
  6
Continuous
 62
     7
100
AcDbLine
 10
5665.0361327127
 20
5731.2566853255
 30
0.0
 11
5665.9748462632
 21
5731.6774941176
 31
0.0
  0
LINE
  5
300
330
1F
100
AcDbEntity
  8
0
  6
Continuous
 62
     7
100
AcDbLine
 10
5665.9748462632
 20
5731.6774941176
 30
0.0
 11
5667.2042516664
 21
5732.0447183341
 31
0.0
  0
LINE
  5
301
330
1F
100
AcDbEntity
  8
0
  6
Continuous
 62
     7
100
AcDbLine
 10
5667.2042516664
 20
5732.0447183341
 30
0.0
 11
5668.6799434617
 21
5732.3450661391
 31
0.0
  0
LINE
  5
302
330
1F
100
AcDbEntity
  8
0
  6
Continuous
 62
     7
100
AcDbLine
 10
5668.6799434617
 20
5732.3450661391
 30
0.0
 11
5670.3485754922
 21
5732.5677192897
 31
0.0
  0
LINE
  5
303
330
1F
100
AcDbEntity
  8
0
  6
Continuous
 62
     7
100
AcDbLine
 10
5670.3485754922
 20
5732.5677192897
 30
0.0
 11
5672.149887462
 21
5732.7046013564
 31
0.0
  0
LINE
  5
304
330
1F
100
AcDbEntity
  8
0
  6
Continuous
 62
     7
100
AcDbLine
 10
5672.149887462
 20
5732.7046013564
 30
0.0
 11
5674.0187314942
 21
5732.7507949561
 31
0.0
  0
LINE
  5
305
330
1F
100
AcDbEntity
  8
0
  6
Continuous
 62
     7
100
AcDbLine
 10
5683.2687763169
 20
5731.0728347987
 30
0.0
 11
5683.393767257
 21
5730.6779242248
 31
0.0
  0
LINE
  5
306
330
1F
100
AcDbEntity
  8
0
  6
Continuous
 62
     7
100
AcDbLine
 10
5683.393767257
 20
5730.6779242248
 30
0.0
 11
5683.2687763169
 21
5730.2830136508
 31
0.0
  0
LINE
  5
307
330
1F
100
AcDbEntity
  8
0
  6
Continuous
 62
     7
100
AcDbLine
 10
5682.3680309251
 20
5729.5743740291
 30
0.0
 11
5681.8137673333
 21
5729.3298757762
 31
0.0
  0
LINE
  5
308
330
1F
100
AcDbEntity
  8
0
  6
Continuous
 62
     7
100
AcDbLine
 10
5681.8137673333
 20
5729.3298757762
 30
0.0
 11
5680.7612685159
 21
5728.9920366496
 31
0.0
  0
LINE
  5
309
330
1F
100
AcDbEntity
  8
0
  6
Continuous
 62
     7
100
AcDbLine
 10
5665.8614782289
 20
5729.4820464343
 30
0.0
 11
5665.357401748
 21
5729.7493732661
 31
0.0
  0
LINE
  5
30A
330
1F
100
AcDbEntity
  8
0
  6
Continuous
 62
     7
100
AcDbLine
 10
5665.357401748
 20
5729.7493732661
 30
0.0
 11
5664.898982425
 21
5730.115614006
 31
0.0
  0
LINE
  5
30B
330
1F
100
AcDbEntity
  8
0
  6
Continuous
 62
     7
100
AcDbLine
 10
5664.7687462762
 20
5730.2830136508
 30
0.0
 11
5664.6437553361
 21
5730.6779242248
 31
0.0
  0
LINE
  5
30C
330
1F
100
AcDbEntity
  8
0
  6
Continuous
 62
     7
100
AcDbLine
 10
5664.6437553361
 20
5730.6779242248
 30
0.0
 11
5664.7739318803
 21
5731.0808516234
 31
0.0
  0
LINE
  5
30D
330
1F
100
AcDbEntity
  8
0
  6
Continuous
 62
     7
100
AcDbLine
 10
6861.8680743173
 20
5734.3360698909
 30
0.0
 11
6886.169424434
 21
5734.3360698909
 31
0.0
  0
LINE
  5
30E
330
1F
100
AcDbEntity
  8
0
  6
Continuous
 62
     7
100
AcDbLine
 10
6887.1370847036
 20
5734.0681140076
 30
0.0
 11
6886.169424434
 21
5734.3360698909
 31
0.0
  0
LINE
  5
30F
330
1F
100
AcDbEntity
  8
0
  6
Continuous
 62
     7
100
AcDbLine
 10
6861.8680743173
 20
5734.3360698909
 30
0.0
 11
6860.9004259686
 21
5734.0681140076
 31
0.0
  0
LINE
  5
310
330
1F
100
AcDbEntity
  8
0
  6
Continuous
 62
     7
100
AcDbLine
 10
6874.018779178
 20
5732.7507949561
 30
0.0
 11
6875.8876232102
 21
5732.7046013564
 31
0.0
  0
LINE
  5
311
330
1F
100
AcDbEntity
  8
0
  6
Continuous
 62
     7
100
AcDbLine
 10
6875.8876232102
 20
5732.7046013564
 30
0.0
 11
6877.68893518
 21
5732.5677192897
 31
0.0
  0
LINE
  5
312
330
1F
100
AcDbEntity
  8
0
  6
Continuous
 62
     7
100
AcDbLine
 10
6877.68893518
 20
5732.5677192897
 30
0.0
 11
6879.3575672105
 21
5732.3450661391
 31
0.0
  0
LINE
  5
313
330
1F
100
AcDbEntity
  8
0
  6
Continuous
 62
     7
100
AcDbLine
 10
6879.3575672105
 20
5732.3450661391
 30
0.0
 11
6880.8332590058
 21
5732.0447183341
 31
0.0
  0
LINE
  5
314
330
1F
100
AcDbEntity
  8
0
  6
Continuous
 62
     7
100
AcDbLine
 10
6880.8332590058
 20
5732.0447183341
 30
0.0
 11
6882.062664409
 21
5731.6774941176
 31
0.0
  0
LINE
  5
315
330
1F
100
AcDbEntity
  8
0
  6
Continuous
 62
     7
100
AcDbLine
 10
6882.062664409
 20
5731.6774941176
 30
0.0
 11
6883.0013779595
 21
5731.2566853255
 31
0.0
  0
LINE
  5
316
330
1F
100
AcDbEntity
  8
0
  6
Continuous
 62
     7
100
AcDbLine
 10
6883.0013779595
 20
5731.2566853255
 30
0.0
 11
6883.6153654054
 21
5730.7975209445
 31
0.0
  0
LINE
  5
317
330
1F
100
AcDbEntity
  8
0
  6
Continuous
 62
     7
100
AcDbLine
 10
6883.6153654054
 20
5730.7975209445
 30
0.0
 11
6883.8825730279
 21
5730.3165710658
 31
0.0
  0
LINE
  5
318
330
1F
100
AcDbEntity
  8
0
  6
Continuous
 62
     7
100
AcDbLine
 10
6883.8825730279
 20
5730.3165710658
 30
0.0
 11
6883.7932256654
 21
5729.8312104434
 31
0.0
  0
LINE
  5
319
330
1F
100
AcDbEntity
  8
0
  6
Continuous
 62
     7
100
AcDbLine
 10
6883.7932256654
 20
5729.8312104434
 30
0.0
 11
6883.3506611779
 21
5729.3590224475
 31
0.0
  0
LINE
  5
31A
330
1F
100
AcDbEntity
  8
0
  6
Continuous
 62
     7
100
AcDbLine
 10
6883.3506611779
 20
5729.3590224475
 30
0.0
 11
6882.570734401
 21
5728.9170540065
 31
0.0
  0
LINE
  5
31B
330
1F
100
AcDbEntity
  8
0
  6
Continuous
 62
     7
100
AcDbLine
 10
6882.570734401
 20
5728.9170540065
 30
0.0
 11
6881.481757541
 21
5728.5212493629
 31
0.0
  0
LINE
  5
31C
330
1F
100
AcDbEntity
  8
0
  6
Continuous
 62
     7
100
AcDbLine
 10
6881.481757541
 20
5728.5212493629
 30
0.0
 11
6880.1230696633
 21
5728.1859434337
 31
0.0
  0
LINE
  5
31D
330
1F
100
AcDbEntity
  8
0
  6
Continuous
 62
     7
100
AcDbLine
 10
6880.1230696633
 20
5728.1859434337
 30
0.0
 11
6878.5437253907
 21
5727.9232359618
 31
0.0
  0
LINE
  5
31E
330
1F
100
AcDbEntity
  8
0
  6
Continuous
 62
     7
100
AcDbLine
 10
6878.5437253907
 20
5727.9232359618
 30
0.0
 11
6876.8008855775
 21
5727.7426636905
 31
0.0
  0
LINE
  5
31F
330
1F
100
AcDbEntity
  8
0
  6
Continuous
 62
     7
100
AcDbLine
 10
6876.8008855775
 20
5727.7426636905
 30
0.0
 11
6874.9574331239
 21
5727.6506937236
 31
0.0
  0
LINE
  5
320
330
1F
100
AcDbEntity
  8
0
  6
Continuous
 62
     7
100
AcDbLine
 10
6874.9574331239
 20
5727.6506937236
 30
0.0
 11
6873.0800656274
 21
5727.6506937236
 31
0.0
  0
LINE
  5
321
330
1F
100
AcDbEntity
  8
0
  6
Continuous
 62
     7
100
AcDbLine
 10
6873.0800656274
 20
5727.6506937236
 30
0.0
 11
6871.2366727784
 21
5727.7426636905
 31
0.0
  0
LINE
  5
322
330
1F
100
AcDbEntity
  8
0
  6
Continuous
 62
     7
100
AcDbLine
 10
6871.2366727784
 20
5727.7426636905
 30
0.0
 11
6869.4937733605
 21
5727.9232359618
 31
0.0
  0
LINE
  5
323
330
1F
100
AcDbEntity
  8
0
  6
Continuous
 62
     7
100
AcDbLine
 10
6869.4937733605
 20
5727.9232359618
 30
0.0
 11
6867.9144290879
 21
5728.1859434337
 31
0.0
  0
LINE
  5
324
330
1F
100
AcDbEntity
  8
0
  6
Continuous
 62
     7
100
AcDbLine
 10
6867.9144290879
 20
5728.1859434337
 30
0.0
 11
6866.5557412103
 21
5728.5212493629
 31
0.0
  0
LINE
  5
325
330
1F
100
AcDbEntity
  8
0
  6
Continuous
 62
     7
100
AcDbLine
 10
6866.5557412103
 20
5728.5212493629
 30
0.0
 11
6865.4667643502
 21
5728.9170540065
 31
0.0
  0
LINE
  5
326
330
1F
100
AcDbEntity
  8
0
  6
Continuous
 62
     7
100
AcDbLine
 10
6865.4667643502
 20
5728.9170540065
 30
0.0
 11
6864.686897178
 21
5729.3590224475
 31
0.0
  0
LINE
  5
327
330
1F
100
AcDbEntity
  8
0
  6
Continuous
 62
     7
100
AcDbLine
 10
6864.686897178
 20
5729.3590224475
 30
0.0
 11
6864.2442730859
 21
5729.8312104434
 31
0.0
  0
LINE
  5
328
330
1F
100
AcDbEntity
  8
0
  6
Continuous
 62
     7
100
AcDbLine
 10
6864.2442730859
 20
5729.8312104434
 30
0.0
 11
6864.1549257234
 21
5730.3165710658
 31
0.0
  0
LINE
  5
329
330
1F
100
AcDbEntity
  8
0
  6
Continuous
 62
     7
100
AcDbLine
 10
6864.1549257234
 20
5730.3165710658
 30
0.0
 11
6864.4221333459
 21
5730.7975209445
 31
0.0
  0
LINE
  5
32A
330
1F
100
AcDbEntity
  8
0
  6
Continuous
 62
     7
100
AcDbLine
 10
6864.4221333459
 20
5730.7975209445
 30
0.0
 11
6865.0361207917
 21
5731.2566853255
 31
0.0
  0
LINE
  5
32B
330
1F
100
AcDbEntity
  8
0
  6
Continuous
 62
     7
100
AcDbLine
 10
6865.0361207917
 20
5731.2566853255
 30
0.0
 11
6865.9748343423
 21
5731.6774941176
 31
0.0
  0
LINE
  5
32C
330
1F
100
AcDbEntity
  8
0
  6
Continuous
 62
     7
100
AcDbLine
 10
6865.9748343423
 20
5731.6774941176
 30
0.0
 11
6867.2042397454
 21
5732.0447183341
 31
0.0
  0
LINE
  5
32D
330
1F
100
AcDbEntity
  8
0
  6
Continuous
 62
     7
100
AcDbLine
 10
6867.2042397454
 20
5732.0447183341
 30
0.0
 11
6868.6799315408
 21
5732.3450661391
 31
0.0
  0
LINE
  5
32E
330
1F
100
AcDbEntity
  8
0
  6
Continuous
 62
     7
100
AcDbLine
 10
6868.6799315408
 20
5732.3450661391
 30
0.0
 11
6870.3485635713
 21
5732.5677192897
 31
0.0
  0
LINE
  5
32F
330
1F
100
AcDbEntity
  8
0
  6
Continuous
 62
     7
100
AcDbLine
 10
6870.3485635713
 20
5732.5677192897
 30
0.0
 11
6872.149875541
 21
5732.7046013564
 31
0.0
  0
LINE
  5
330
330
1F
100
AcDbEntity
  8
0
  6
Continuous
 62
     7
100
AcDbLine
 10
6872.149875541
 20
5732.7046013564
 30
0.0
 11
6874.018779178
 21
5732.7507949561
 31
0.0
  0
LINE
  5
331
330
1F
100
AcDbEntity
  8
0
  6
Continuous
 62
     7
100
AcDbLine
 10
6883.2481411889
 20
5731.1039484233
 30
0.0
 11
6883.3937553361
 21
5730.6779242248
 31
0.0
  0
LINE
  5
332
330
1F
100
AcDbEntity
  8
0
  6
Continuous
 62
     7
100
AcDbLine
 10
6883.3937553361
 20
5730.6779242248
 30
0.0
 11
6883.268764396
 21
5730.2830136508
 31
0.0
  0
LINE
  5
333
330
1F
100
AcDbEntity
  8
0
  6
Continuous
 62
     7
100
AcDbLine
 10
6882.3680190042
 20
5729.5743740291
 30
0.0
 11
6881.8137554124
 21
5729.3298757762
 31
0.0
  0
LINE
  5
334
330
1F
100
AcDbEntity
  8
0
  6
Continuous
 62
     7
100
AcDbLine
 10
6881.8137554124
 20
5729.3298757762
 30
0.0
 11
6880.7613161996
 21
5728.9920366496
 31
0.0
  0
LINE
  5
335
330
1F
100
AcDbEntity
  8
0
  6
Continuous
 62
     7
100
AcDbLine
 10
6865.8614663079
 20
5729.4820464343
 30
0.0
 11
6865.3573898271
 21
5729.7493732661
 31
0.0
  0
LINE
  5
336
330
1F
100
AcDbEntity
  8
0
  6
Continuous
 62
     7
100
AcDbLine
 10
6865.3573898271
 20
5729.7493732661
 30
0.0
 11
6864.8989705041
 21
5730.115614006
 31
0.0
  0
LINE
  5
337
330
1F
100
AcDbEntity
  8
0
  6
Continuous
 62
     7
100
AcDbLine
 10
6864.7687343553
 20
5730.2830136508
 30
0.0
 11
6864.6437434152
 21
5730.6779242248
 31
0.0
  0
LINE
  5
338
330
1F
100
AcDbEntity
  8
0
  6
Continuous
 62
     7
100
AcDbLine
 10
6864.6437434152
 20
5730.6779242248
 30
0.0
 11
6864.7893575624
 21
5731.1039484233
 31
0.0
  0
LINE
  5
339
330
1F
100
AcDbEntity
  8
0
  6
Continuous
 62
     7
100
AcDbLine
 10
6261.8680691019
 20
5734.3360698909
 30
0.0
 11
6286.1694415703
 21
5734.3360698909
 31
0.0
  0
LINE
  5
33A
330
1F
100
AcDbEntity
  8
0
  6
Continuous
 62
     7
100
AcDbLine
 10
6287.1370847036
 20
5734.0681140076
 30
0.0
 11
6286.1694415703
 21
5734.3360698909
 31
0.0
  0
LINE
  5
33B
330
1F
100
AcDbEntity
  8
0
  6
Continuous
 62
     7
100
AcDbLine
 10
6261.8680691019
 20
5734.3360698909
 30
0.0
 11
6260.9004259686
 21
5734.0681140076
 31
0.0
  0
LINE
  5
33C
330
1F
100
AcDbEntity
  8
0
  6
Continuous
 62
     7
100
AcDbLine
 10
6274.0187553361
 20
5732.7507949561
 30
0.0
 11
6275.8876113592
 21
5732.7046013564
 31
0.0
  0
LINE
  5
33D
330
1F
100
AcDbEntity
  8
0
  6
Continuous
 62
     7
100
AcDbLine
 10
6275.8876113592
 20
5732.7046013564
 30
0.0
 11
6277.6889220484
 21
5732.5677192897
 31
0.0
  0
LINE
  5
33E
330
1F
100
AcDbEntity
  8
0
  6
Continuous
 62
     7
100
AcDbLine
 10
6277.6889220484
 20
5732.5677192897
 30
0.0
 11
6279.3575834155
 21
5732.3450661391
 31
0.0
  0
LINE
  5
33F
330
1F
100
AcDbEntity
  8
0
  6
Continuous
 62
     7
100
AcDbLine
 10
6279.3575834155
 20
5732.3450661391
 30
0.0
 11
6280.8332854554
 21
5732.0447183341
 31
0.0
  0
LINE
  5
340
330
1F
100
AcDbEntity
  8
0
  6
Continuous
 62
     7
100
AcDbLine
 10
6280.8332854554
 20
5732.0447183341
 30
0.0
 11
6282.0626927212
 21
5731.6774941176
 31
0.0
  0
LINE
  5
341
330
1F
100
AcDbEntity
  8
0
  6
Continuous
 62
     7
100
AcDbLine
 10
6282.0626927212
 20
5731.6774941176
 30
0.0
 11
6283.0013708815
 21
5731.2566853255
 31
0.0
  0
LINE
  5
342
330
1F
100
AcDbEntity
  8
0
  6
Continuous
 62
     7
100
AcDbLine
 10
6283.0013708815
 20
5731.2566853255
 30
0.0
 11
6283.6153946489
 21
5730.7975209445
 31
0.0
  0
LINE
  5
343
330
1F
100
AcDbEntity
  8
0
  6
Continuous
 62
     7
100
AcDbLine
 10
6283.6153946489
 20
5730.7975209445
 30
0.0
 11
6283.8825706065
 21
5730.3165710658
 31
0.0
  0
LINE
  5
344
330
1F
100
AcDbEntity
  8
0
  6
Continuous
 62
     7
100
AcDbLine
 10
6283.8825706065
 20
5730.3165710658
 30
0.0
 11
6283.7932418704
 21
5729.8312104434
 31
0.0
  0
LINE
  5
345
330
1F
100
AcDbEntity
  8
0
  6
Continuous
 62
     7
100
AcDbLine
 10
6283.7932418704
 20
5729.8312104434
 30
0.0
 11
6283.3506382674
 21
5729.3590224475
 31
0.0
  0
LINE
  5
346
330
1F
100
AcDbEntity
  8
0
  6
Continuous
 62
     7
100
AcDbLine
 10
6283.3506382674
 20
5729.3590224475
 30
0.0
 11
6282.570756194
 21
5728.9170540065
 31
0.0
  0
LINE
  5
347
330
1F
100
AcDbEntity
  8
0
  6
Continuous
 62
     7
100
AcDbLine
 10
6282.570756194
 20
5728.9170540065
 30
0.0
 11
6281.4817825936
 21
5728.5212493629
 31
0.0
  0
LINE
  5
348
330
1F
100
AcDbEntity
  8
0
  6
Continuous
 62
     7
100
AcDbLine
 10
6281.4817825936
 20
5728.5212493629
 30
0.0
 11
6280.1230751581
 21
5728.1859434337
 31
0.0
  0
LINE
  5
349
330
1F
100
AcDbEntity
  8
0
  6
Continuous
 62
     7
100
AcDbLine
 10
6280.1230751581
 20
5728.1859434337
 30
0.0
 11
6278.5437420614
 21
5727.9232359618
 31
0.0
  0
LINE
  5
34A
330
1F
100
AcDbEntity
  8
0
  6
Continuous
 62
     7
100
AcDbLine
 10
6278.5437420614
 20
5727.9232359618
 30
0.0
 11
6276.8008642968
 21
5727.7426636905
 31
0.0
  0
LINE
  5
34B
330
1F
100
AcDbEntity
  8
0
  6
Continuous
 62
     7
100
AcDbLine
 10
6276.8008642968
 20
5727.7426636905
 30
0.0
 11
6274.9574337874
 21
5727.6506937236
 31
0.0
  0
LINE
  5
34C
330
1F
100
AcDbEntity
  8
0
  6
Continuous
 62
     7
100
AcDbLine
 10
6274.9574337874
 20
5727.6506937236
 30
0.0
 11
6273.0800768848
 21
5727.6506937236
 31
0.0
  0
LINE
  5
34D
330
1F
100
AcDbEntity
  8
0
  6
Continuous
 62
     7
100
AcDbLine
 10
6273.0800768848
 20
5727.6506937236
 30
0.0
 11
6271.2366463754
 21
5727.7426636905
 31
0.0
  0
LINE
  5
34E
330
1F
100
AcDbEntity
  8
0
  6
Continuous
 62
     7
100
AcDbLine
 10
6271.2366463754
 20
5727.7426636905
 30
0.0
 11
6269.4937686108
 21
5727.9232359618
 31
0.0
  0
LINE
  5
34F
330
1F
100
AcDbEntity
  8
0
  6
Continuous
 62
     7
100
AcDbLine
 10
6269.4937686108
 20
5727.9232359618
 30
0.0
 11
6267.9144355141
 21
5728.1859434337
 31
0.0
  0
LINE
  5
350
330
1F
100
AcDbEntity
  8
0
  6
Continuous
 62
     7
100
AcDbLine
 10
6267.9144355141
 20
5728.1859434337
 30
0.0
 11
6266.5557280786
 21
5728.5212493629
 31
0.0
  0
LINE
  5
351
330
1F
100
AcDbEntity
  8
0
  6
Continuous
 62
     7
100
AcDbLine
 10
6266.5557280786
 20
5728.5212493629
 30
0.0
 11
6265.4667544782
 21
5728.9170540065
 31
0.0
  0
LINE
  5
352
330
1F
100
AcDbEntity
  8
0
  6
Continuous
 62
     7
100
AcDbLine
 10
6265.4667544782
 20
5728.9170540065
 30
0.0
 11
6264.6868724048
 21
5729.3590224475
 31
0.0
  0
LINE
  5
353
330
1F
100
AcDbEntity
  8
0
  6
Continuous
 62
     7
100
AcDbLine
 10
6264.6868724048
 20
5729.3590224475
 30
0.0
 11
6264.2442688018
 21
5729.8312104434
 31
0.0
  0
LINE
  5
354
330
1F
100
AcDbEntity
  8
0
  6
Continuous
 62
     7
100
AcDbLine
 10
6264.2442688018
 20
5729.8312104434
 30
0.0
 11
6264.1549400657
 21
5730.3165710658
 31
0.0
  0
LINE
  5
355
330
1F
100
AcDbEntity
  8
0
  6
Continuous
 62
     7
100
AcDbLine
 10
6264.1549400657
 20
5730.3165710658
 30
0.0
 11
6264.4221160233
 21
5730.7975209445
 31
0.0
  0
LINE
  5
356
330
1F
100
AcDbEntity
  8
0
  6
Continuous
 62
     7
100
AcDbLine
 10
6264.4221160233
 20
5730.7975209445
 30
0.0
 11
6265.0361397907
 21
5731.2566853255
 31
0.0
  0
LINE
  5
357
330
1F
100
AcDbEntity
  8
0
  6
Continuous
 62
     7
100
AcDbLine
 10
6265.0361397907
 20
5731.2566853255
 30
0.0
 11
6265.974817951
 21
5731.6774941176
 31
0.0
  0
LINE
  5
358
330
1F
100
AcDbEntity
  8
0
  6
Continuous
 62
     7
100
AcDbLine
 10
6265.974817951
 20
5731.6774941176
 30
0.0
 11
6267.2042252168
 21
5732.0447183341
 31
0.0
  0
LINE
  5
359
330
1F
100
AcDbEntity
  8
0
  6
Continuous
 62
     7
100
AcDbLine
 10
6267.2042252168
 20
5732.0447183341
 30
0.0
 11
6268.6799272567
 21
5732.3450661391
 31
0.0
  0
LINE
  5
35A
330
1F
100
AcDbEntity
  8
0
  6
Continuous
 62
     7
100
AcDbLine
 10
6268.6799272567
 20
5732.3450661391
 30
0.0
 11
6270.3485886238
 21
5732.5677192897
 31
0.0
  0
LINE
  5
35B
330
1F
100
AcDbEntity
  8
0
  6
Continuous
 62
     7
100
AcDbLine
 10
6270.3485886238
 20
5732.5677192897
 30
0.0
 11
6272.149899313
 21
5732.7046013564
 31
0.0
  0
LINE
  5
35C
330
1F
100
AcDbEntity
  8
0
  6
Continuous
 62
     7
100
AcDbLine
 10
6272.149899313
 20
5732.7046013564
 30
0.0
 11
6274.0187553361
 21
5732.7507949561
 31
0.0
  0
LINE
  5
35D
330
1F
100
AcDbEntity
  8
0
  6
Continuous
 62
     7
100
AcDbLine
 10
6283.2481275916
 20
5731.1039484233
 30
0.0
 11
6283.3937557086
 21
5730.6779242248
 31
0.0
  0
LINE
  5
35E
330
1F
100
AcDbEntity
  8
0
  6
Continuous
 62
     7
100
AcDbLine
 10
6283.3937557086
 20
5730.6779242248
 30
0.0
 11
6283.2687554553
 21
5730.2830136508
 31
0.0
  0
LINE
  5
35F
330
1F
100
AcDbEntity
  8
0
  6
Continuous
 62
     7
100
AcDbLine
 10
6282.3680324152
 20
5729.5743740291
 30
0.0
 11
6281.8137827933
 21
5729.3298757762
 31
0.0
  0
LINE
  5
360
330
1F
100
AcDbEntity
  8
0
  6
Continuous
 62
     7
100
AcDbLine
 10
6281.8137827933
 20
5729.3298757762
 30
0.0
 11
6280.7612928234
 21
5728.9920366496
 31
0.0
  0
LINE
  5
361
330
1F
100
AcDbEntity
  8
0
  6
Continuous
 62
     7
100
AcDbLine
 10
6265.8614666805
 20
5729.4820464343
 30
0.0
 11
6265.3573846117
 21
5729.7493732661
 31
0.0
  0
LINE
  5
362
330
1F
100
AcDbEntity
  8
0
  6
Continuous
 62
     7
100
AcDbLine
 10
6265.3573846117
 20
5729.7493732661
 30
0.0
 11
6264.898969014
 21
5730.115614006
 31
0.0
  0
LINE
  5
363
330
1F
100
AcDbEntity
  8
0
  6
Continuous
 62
     7
100
AcDbLine
 10
6264.7687552169
 20
5730.2830136508
 30
0.0
 11
6264.6437549636
 21
5730.6779242248
 31
0.0
  0
LINE
  5
364
330
1F
100
AcDbEntity
  8
0
  6
Continuous
 62
     7
100
AcDbLine
 10
6264.6437549636
 20
5730.6779242248
 30
0.0
 11
6264.7893830806
 21
5731.1039484233
 31
0.0
  0
LINE
  5
365
330
1F
100
AcDbEntity
  8
0
  6
Continuous
 62
     7
100
AcDbLine
 10
7184.0187815621
 20
4598.9578581542
 30
0.0
 11
7184.0187815621
 21
5178.9578414649
 31
0.0
  0
LINE
  5
366
330
1F
100
AcDbEntity
  8
0
  6
Continuous
 62
     7
100
AcDbLine
 10
7220.0187353089
 20
4598.9578581542
 30
0.0
 11
7220.0187353089
 21
5178.9578414649
 31
0.0
  0
LINE
  5
367
330
1F
100
AcDbEntity
  8
0
  6
Continuous
 62
     7
100
AcDbLine
 10
5364.0187291101
 20
4598.9578581542
 30
0.0
 11
5364.0187291101
 21
5178.9578414649
 31
0.0
  0
LINE
  5
368
330
1F
100
AcDbEntity
  8
0
  6
Continuous
 62
     7
100
AcDbLine
 10
5328.0187753633
 20
4598.9578581542
 30
0.0
 11
5328.0187753633
 21
5178.9578414649
 31
0.0
  0
LINE
  5
369
330
1F
100
AcDbEntity
  8
0
  6
Continuous
 62
     7
100
AcDbLine
 10
5503.8282183602
 20
5158.2895732612
 30
0.0
 11
5449.2093233064
 21
5158.2895732612
 31
0.0
  0
LINE
  5
36A
330
1F
100
AcDbEntity
  8
0
  6
Continuous
 62
     7
100
AcDbLine
 10
5449.4125155404
 20
5033.6362636775
 30
0.0
 11
5503.6249665216
 21
5033.6362636775
 31
0.0
  0
LINE
  5
36B
330
1F
100
AcDbEntity
  8
0
  6
Continuous
 62
     7
100
AcDbLine
 10
5453.5187391236
 20
5174.4419253558
 30
0.0
 11
5499.5187429383
 21
5174.4419253558
 31
0.0
  0
LINE
  5
36C
330
1F
100
AcDbEntity
  8
0
  6
Continuous
 62
     7
100
AcDbLine
 10
7632.0554012775
 20
5740.1717818469
 30
0.0
 11
7632.4354106902
 21
5740.1717818469
 31
0.0
  0
LINE
  5
36D
330
1F
100
AcDbEntity
  8
0
  6
Continuous
 62
     7
100
AcDbLine
 10
7632.4354106902
 20
5747.7717912883
 30
0.0
 11
7632.0554012775
 21
5747.7717912883
 31
0.0
  0
LINE
  5
36E
330
1F
100
AcDbEntity
  8
0
  6
Continuous
 62
     7
100
AcDbLine
 10
7632.0554012775
 20
5830.1717854232
 30
0.0
 11
7632.4354106902
 21
5830.1717854232
 31
0.0
  0
LINE
  5
36F
330
1F
100
AcDbEntity
  8
0
  6
Continuous
 62
     7
100
AcDbLine
 10
7632.4354106902
 20
5837.7717948646
 30
0.0
 11
7632.0554012775
 21
5837.7717948646
 31
0.0
  0
LINE
  5
370
330
1F
100
AcDbEntity
  8
0
  6
Continuous
 62
     7
100
AcDbLine
 10
7653.4433061599
 20
4590.9578419417
 30
0.0
 11
7653.4433061599
 21
4586.9578338355
 31
0.0
  0
LINE
  5
371
330
1F
100
AcDbEntity
  8
0
  6
Continuous
 62
     7
100
AcDbLine
 10
7663.4433264255
 20
4586.9578338355
 30
0.0
 11
7663.4433264255
 21
4590.9578419417
 31
0.0
  0
LINE
  5
372
330
1F
100
AcDbEntity
  8
0
  6
Continuous
 62
     7
100
AcDbLine
 10
8085.5353990912
 20
4590.9578419417
 30
0.0
 11
8085.5353990912
 21
4586.9578338355
 31
0.0
  0
LINE
  5
373
330
1F
100
AcDbEntity
  8
0
  6
Continuous
 62
     7
100
AcDbLine
 10
8095.5354007303
 20
4586.9578338355
 30
0.0
 11
8095.5354007303
 21
4590.9578419417
 31
0.0
  0
LINE
  5
374
330
1F
100
AcDbEntity
  8
0
  6
Continuous
 62
     7
100
AcDbLine
 10
7638.443320465
 20
5178.9419270248
 30
0.0
 11
7632.2669977664
 21
5178.9419270248
 31
0.0
  0
LINE
  5
375
330
1F
100
AcDbEntity
  8
0
  6
Continuous
 62
     7
100
AcDbLine
 10
7632.2669977664
 20
5098.9419437141
 30
0.0
 11
7638.443320465
 21
5098.9419437141
 31
0.0
  0
LINE
  5
376
330
1F
100
AcDbEntity
  8
0
  6
Continuous
 62
     7
100
AcDbLine
 10
7632.2669977664
 20
5158.9419162959
 30
0.0
 11
7622.2670073032
 21
5158.9419162959
 31
0.0
  0
LINE
  5
377
330
1F
100
AcDbEntity
  8
0
  6
Continuous
 62
     7
100
AcDbLine
 10
7622.2670073032
 20
5118.9419246406
 30
0.0
 11
7632.2669977664
 21
5118.9419246406
 31
0.0
  0
LINE
  5
378
330
1F
100
AcDbEntity
  8
0
  6
Continuous
 62
     7
100
AcDbLine
 10
7814.9353856563
 20
5158.9419162959
 30
0.0
 11
7678.4433121204
 21
5158.9419162959
 31
0.0
  0
LINE
  5
379
330
1F
100
AcDbEntity
  8
0
  6
Continuous
 62
     7
100
AcDbLine
 10
7678.4433121204
 20
5118.9419246406
 30
0.0
 11
7814.9353856563
 21
5118.9419246406
 31
0.0
  0
LINE
  5
37A
330
1F
100
AcDbEntity
  8
0
  6
Continuous
 62
     7
100
AcDbLine
 10
7858.9353854179
 20
5178.9578414649
 30
0.0
 11
7858.9353854179
 21
5177.4419165343
 31
0.0
  0
LINE
  5
37B
330
1F
100
AcDbEntity
  8
0
  6
Continuous
 62
     7
100
AcDbLine
 10
7858.9353854179
 20
5163.4419179648
 30
0.0
 11
7858.9353854179
 21
5160.941920349
 31
0.0
  0
LINE
  5
37C
330
1F
100
AcDbEntity
  8
0
  6
Continuous
 62
     7
100
AcDbLine
 10
7890.9354055642
 20
5160.941920349
 30
0.0
 11
7890.9354055642
 21
5163.4419179648
 31
0.0
  0
LINE
  5
37D
330
1F
100
AcDbEntity
  8
0
  6
Continuous
 62
     7
100
AcDbLine
 10
7890.9354055642
 20
5177.4419165343
 30
0.0
 11
7890.9354055642
 21
5178.9578414649
 31
0.0
  0
LINE
  5
37E
330
1F
100
AcDbEntity
  8
0
  6
Continuous
 62
     7
100
AcDbLine
 10
7840.9354085445
 20
5100.9419179648
 30
0.0
 11
7847.8291923522
 21
5033.6362636775
 31
0.0
  0
LINE
  5
37F
330
1F
100
AcDbEntity
  8
0
  6
Continuous
 62
     7
100
AcDbLine
 10
7902.041613531
 20
5033.6362636775
 30
0.0
 11
7908.9353973388
 21
5100.9419179648
 31
0.0
  0
LINE
  5
380
330
1F
100
AcDbEntity
  8
0
  6
Continuous
 62
     7
100
AcDbLine
 10
7908.9353973388
 20
5100.9419179648
 30
0.0
 11
7902.2448355674
 21
5158.2895732612
 31
0.0
  0
LINE
  5
381
330
1F
100
AcDbEntity
  8
0
  6
Continuous
 62
     7
100
AcDbLine
 10
7842.8064877509
 20
5116.9799483508
 30
0.0
 11
7840.9354085445
 21
5100.9419179648
 31
0.0
  0
LINE
  5
382
330
1F
100
AcDbEntity
  8
0
  6
Continuous
 62
     7
100
AcDbLine
 10
7830.9353882789
 20
5166.4419389457
 30
0.0
 11
7826.935409975
 21
5164.9419284553
 31
0.0
  0
LINE
  5
383
330
1F
100
AcDbEntity
  8
0
  6
Continuous
 62
     7
100
AcDbLine
 10
7826.935409975
 20
5112.9419422835
 30
0.0
 11
7830.9353882789
 21
5111.4419317931
 31
0.0
  0
LINE
  5
384
330
1F
100
AcDbEntity
  8
0
  6
Continuous
 62
     7
100
AcDbLine
 10
7826.935409975
 20
5164.9419284553
 30
0.0
 11
7817.9354066371
 21
5164.9419284553
 31
0.0
  0
LINE
  5
385
330
1F
100
AcDbEntity
  8
0
  6
Continuous
 62
     7
100
AcDbLine
 10
7817.9354066371
 20
5112.9419422835
 30
0.0
 11
7826.935409975
 21
5112.9419422835
 31
0.0
  0
LINE
  5
386
330
1F
100
AcDbEntity
  8
0
  6
Continuous
 62
     7
100
AcDbLine
 10
7899.9353940009
 20
5163.4419179648
 30
0.0
 11
7897.935404849
 21
5167.4419260711
 31
0.0
  0
LINE
  5
387
330
1F
100
AcDbEntity
  8
0
  6
Continuous
 62
     7
100
AcDbLine
 10
7851.9353861331
 20
5167.4419260711
 30
0.0
 11
7849.9354118823
 21
5163.4419179648
 31
0.0
  0
LINE
  5
388
330
1F
100
AcDbEntity
  8
0
  6
Continuous
 62
     7
100
AcDbLine
 10
7851.9353861331
 20
5174.4419253558
 30
0.0
 11
7851.9353861331
 21
5167.4419260711
 31
0.0
  0
LINE
  5
389
330
1F
100
AcDbEntity
  8
0
  6
Continuous
 62
     7
100
AcDbLine
 10
7897.935404849
 20
5167.4419260711
 30
0.0
 11
7897.935404849
 21
5174.4419253558
 31
0.0
  0
LINE
  5
38A
330
1F
100
AcDbEntity
  8
0
  6
Continuous
 62
     7
100
AcDbLine
 10
7830.9353882789
 20
5116.9419205875
 30
0.0
 11
7842.8302402019
 21
5116.9419205875
 31
0.0
  0
LINE
  5
38B
330
1F
100
AcDbEntity
  8
0
  6
Continuous
 62
     7
100
AcDbLine
 10
7847.9354078292
 20
5160.941920349
 30
0.0
 11
7830.9353882789
 21
5160.941920349
 31
0.0
  0
LINE
  5
38C
330
1F
100
AcDbEntity
  8
0
  6
Continuous
 62
     7
100
AcDbLine
 10
7858.9353854179
 20
5163.4419179648
 30
0.0
 11
7858.9353854179
 21
5160.941920349
 31
0.0
  0
LINE
  5
38D
330
1F
100
AcDbEntity
  8
0
  6
Continuous
 62
     7
100
AcDbLine
 10
7890.9354055642
 20
5160.941920349
 30
0.0
 11
7890.9354055642
 21
5163.4419179648
 31
0.0
  0
LINE
  5
38E
330
1F
100
AcDbEntity
  8
0
  6
Continuous
 62
     7
100
AcDbLine
 10
7691.9853980064
 20
5532.3578409046
 30
0.0
 11
7691.9853980064
 21
5542.9578415245
 31
0.0
  0
LINE
  5
38F
330
1F
100
AcDbEntity
  8
0
  6
Continuous
 62
     7
100
AcDbLine
 10
7682.4353928088
 20
5518.9578450412
 30
0.0
 11
7684.435396862
 21
5518.9578450412
 31
0.0
  0
LINE
  5
390
330
1F
100
AcDbEntity
  8
0
  6
Continuous
 62
     7
100
AcDbLine
 10
7684.435396862
 20
5558.9578366965
 30
0.0
 11
7682.4353928088
 21
5558.9578366965
 31
0.0
  0
LINE
  5
391
330
1F
100
AcDbEntity
  8
0
  6
Continuous
 62
     7
100
AcDbLine
 10
7691.8354029178
 20
5543.2578391522
 30
0.0
 11
7691.8354029178
 21
5546.400210926
 31
0.0
  0
LINE
  5
392
330
1F
100
AcDbEntity
  8
0
  6
Continuous
 62
     7
100
AcDbLine
 10
7691.8354029178
 20
5531.5154708118
 30
0.0
 11
7691.8354029178
 21
5532.2578392119
 31
0.0
  0
LINE
  5
393
330
1F
100
AcDbEntity
  8
0
  6
Continuous
 62
     7
100
AcDbLine
 10
7684.9353904247
 20
5768.9578450412
 30
0.0
 11
7682.4353928088
 21
5768.9578450412
 31
0.0
  0
LINE
  5
394
330
1F
100
AcDbEntity
  8
0
  6
Continuous
 62
     7
100
AcDbLine
 10
7682.4353928088
 20
5708.957842657
 30
0.0
 11
7684.9353904247
 21
5708.957842657
 31
0.0
  0
LINE
  5
395
330
1F
100
AcDbEntity
  8
0
  6
Continuous
 62
     7
100
AcDbLine
 10
7684.9353904247
 20
5708.957842657
 30
0.0
 11
7685.4354137897
 21
5709.4578362197
 31
0.0
  0
LINE
  5
396
330
1F
100
AcDbEntity
  8
0
  6
Continuous
 62
     7
100
AcDbLine
 10
7685.4354137897
 20
5768.4578514785
 30
0.0
 11
7684.9353904247
 21
5768.9578450412
 31
0.0
  0
LINE
  5
397
330
1F
100
AcDbEntity
  8
0
  6
Continuous
 62
     7
100
AcDbLine
 10
7694.0853888511
 20
5724.9578452796
 30
0.0
 11
7816.4353961467
 21
5724.9578452796
 31
0.0
  0
LINE
  5
398
330
1F
100
AcDbEntity
  8
0
  6
Continuous
 62
     7
100
AcDbLine
 10
7685.4354137897
 20
5724.9578452796
 30
0.0
 11
7690.8060903072
 21
5724.9578452796
 31
0.0
  0
LINE
  5
399
330
1F
100
AcDbEntity
  8
0
  6
Continuous
 62
     7
100
AcDbLine
 10
7850.435405445
 20
5752.9578424186
 30
0.0
 11
7685.4354137897
 21
5752.9578424186
 31
0.0
  0
LINE
  5
39A
330
1F
100
AcDbEntity
  8
0
  6
Continuous
 62
     7
100
AcDbLine
 10
7851.4353925704
 20
5751.9578552932
 30
0.0
 11
7850.435405445
 21
5752.9578424186
 31
0.0
  0
LINE
  5
39B
330
1F
100
AcDbEntity
  8
0
  6
Continuous
 62
     7
100
AcDbLine
 10
7632.0554012775
 20
5747.6403332442
 30
0.0
 11
7632.0554012775
 21
5747.7717912883
 31
0.0
  0
LINE
  5
39C
330
1F
100
AcDbEntity
  8
0
  6
Continuous
 62
     7
100
AcDbLine
 10
7632.0554012775
 20
5740.1717818469
 30
0.0
 11
7632.0554012775
 21
5747.6403332442
 31
0.0
  0
LINE
  5
39D
330
1F
100
AcDbEntity
  8
0
  6
Continuous
 62
     7
100
AcDbLine
 10
7630.2354032516
 20
5745.8060599059
 30
0.0
 11
7630.2354032516
 21
5745.8718038291
 31
0.0
  0
LINE
  5
39E
330
1F
100
AcDbEntity
  8
0
  6
Continuous
 62
     7
100
AcDbLine
 10
7630.2354032516
 20
5742.0717991084
 30
0.0
 11
7630.2354032516
 21
5745.8060599059
 31
0.0
  0
LINE
  5
39F
330
1F
100
AcDbEntity
  8
0
  6
Continuous
 62
     7
100
AcDbLine
 10
7632.0554012775
 20
5830.1717854232
 30
0.0
 11
7632.0554012775
 21
5837.7717948646
 31
0.0
  0
LINE
  5
3A0
330
1F
100
AcDbEntity
  8
0
  6
Continuous
 62
     7
100
AcDbLine
 10
7630.2354032516
 20
5832.0718026847
 30
0.0
 11
7630.2354032516
 21
5835.8717776031
 31
0.0
  0
LINE
  5
3A1
330
1F
100
AcDbEntity
  8
0
  6
Continuous
 62
     7
100
AcDbLine
 10
7635.9353954315
 20
5824.971786806
 30
0.0
 11
7634.4354147434
 21
5824.971786806
 31
0.0
  0
LINE
  5
3A2
330
1F
100
AcDbEntity
  8
0
  6
Continuous
 62
     7
100
AcDbLine
 10
7634.4354147434
 20
5824.971786806
 30
0.0
 11
7634.4354147434
 21
5823.5578454227
 31
0.0
  0
LINE
  5
3A3
330
1F
100
AcDbEntity
  8
0
  6
Continuous
 62
     7
100
AcDbLine
 10
7635.9353954315
 20
5824.971786806
 30
0.0
 11
7635.9353954315
 21
5823.5578454227
 31
0.0
  0
LINE
  5
3A4
330
1F
100
AcDbEntity
  8
0
  6
Continuous
 62
     7
100
AcDbLine
 10
7634.4354147434
 20
5824.971786806
 30
0.0
 11
7634.4354147434
 21
5825.5578494758
 31
0.0
  0
LINE
  5
3A5
330
1F
100
AcDbEntity
  8
0
  6
Continuous
 62
     7
100
AcDbLine
 10
7635.9353954315
 20
5825.5578494758
 30
0.0
 11
7635.9353954315
 21
5824.971786806
 31
0.0
  0
LINE
  5
3A6
330
1F
100
AcDbEntity
  8
0
  6
Continuous
 62
     7
100
AcDbLine
 10
7637.9432971
 20
4596.9578242988
 30
0.0
 11
7640.4433245181
 21
4596.9578242988
 31
0.0
  0
LINE
  5
3A7
330
1F
100
AcDbEntity
  8
0
  6
Continuous
 62
     7
100
AcDbLine
 10
7640.4433245181
 20
4598.9578581542
 30
0.0
 11
7637.9432971
 21
4598.9578581542
 31
0.0
  0
LINE
  5
3A8
330
1F
100
AcDbEntity
  8
0
  6
Continuous
 62
     7
100
AcDbLine
 10
7640.4433245181
 20
4596.9578242988
 30
0.0
 11
7640.4433245181
 21
4598.9578581542
 31
0.0
  0
LINE
  5
3A9
330
1F
100
AcDbEntity
  8
0
  6
Continuous
 62
     7
100
AcDbLine
 10
7637.9432971
 20
4596.9578242988
 30
0.0
 11
7637.9432971
 21
4598.9578581542
 31
0.0
  0
LINE
  5
3AA
330
1F
100
AcDbEntity
  8
0
  6
Continuous
 62
     7
100
AcDbLine
 10
7640.4433245181
 20
4596.9578242988
 30
0.0
 11
7676.4433080673
 21
4596.9578242988
 31
0.0
  0
LINE
  5
3AB
330
1F
100
AcDbEntity
  8
0
  6
Continuous
 62
     7
100
AcDbLine
 10
7672.9433235644
 20
4590.9578421801
 30
0.0
 11
7643.9433118906
 21
4590.9578417033
 31
0.0
  0
LINE
  5
3AC
330
1F
100
AcDbEntity
  8
0
  6
Continuous
 62
     7
100
AcDbLine
 10
7676.4433080673
 20
4596.9578242988
 30
0.0
 11
7676.4433080673
 21
4598.9578581542
 31
0.0
  0
LINE
  5
3AD
330
1F
100
AcDbEntity
  8
0
  6
Continuous
 62
     7
100
AcDbLine
 10
7676.4433080673
 20
4598.9578581542
 30
0.0
 11
7640.4433245181
 21
4598.9578581542
 31
0.0
  0
LINE
  5
3AE
330
1F
100
AcDbEntity
  8
0
  6
Continuous
 62
     7
100
AcDbLine
 10
7676.4433080673
 20
4596.9578242988
 30
0.0
 11
7678.9433086677
 21
4596.9578242988
 31
0.0
  0
LINE
  5
3AF
330
1F
100
AcDbEntity
  8
0
  6
Continuous
 62
     7
100
AcDbLine
 10
7678.9433086677
 20
4596.9578242988
 30
0.0
 11
7678.9433086677
 21
4598.9578581542
 31
0.0
  0
LINE
  5
3B0
330
1F
100
AcDbEntity
  8
0
  6
Continuous
 62
     7
100
AcDbLine
 10
7678.9433086677
 20
4598.9578581542
 30
0.0
 11
7676.4433080673
 21
4598.9578581542
 31
0.0
  0
LINE
  5
3B1
330
1F
100
AcDbEntity
  8
0
  6
Continuous
 62
     7
100
AcDbLine
 10
7658.4433013915
 20
4578.957817623
 30
0.0
 11
7658.4433013915
 21
4586.9578338355
 31
0.0
  0
LINE
  5
3B2
330
1F
100
AcDbEntity
  8
0
  6
Continuous
 62
     7
100
AcDbLine
 10
7658.4433013915
 20
4578.957817623
 30
0.0
 11
7643.4433156966
 21
4578.957817623
 31
0.0
  0
LINE
  5
3B3
330
1F
100
AcDbEntity
  8
0
  6
Continuous
 62
     7
100
AcDbLine
 10
7643.4433156966
 20
4578.957817623
 30
0.0
 11
7643.4433156966
 21
4586.9578338355
 31
0.0
  0
LINE
  5
3B4
330
1F
100
AcDbEntity
  8
0
  6
Continuous
 62
     7
100
AcDbLine
 10
7658.4433013915
 20
4586.9578338355
 30
0.0
 11
7643.4433156966
 21
4586.9578338355
 31
0.0
  0
LINE
  5
3B5
330
1F
100
AcDbEntity
  8
0
  6
Continuous
 62
     7
100
AcDbLine
 10
7673.4433168887
 20
4578.957817623
 30
0.0
 11
7673.4433168887
 21
4586.9578338355
 31
0.0
  0
LINE
  5
3B6
330
1F
100
AcDbEntity
  8
0
  6
Continuous
 62
     7
100
AcDbLine
 10
7673.4433168887
 20
4586.9578338355
 30
0.0
 11
7658.4433013915
 21
4586.9578338355
 31
0.0
  0
LINE
  5
3B7
330
1F
100
AcDbEntity
  8
0
  6
Continuous
 62
     7
100
AcDbLine
 10
7673.4433168887
 20
4578.957817623
 30
0.0
 11
7658.4433013915
 21
4578.957817623
 31
0.0
  0
LINE
  5
3B8
330
1F
100
AcDbEntity
  8
0
  6
Continuous
 62
     7
100
AcDbLine
 10
8108.5354000672
 20
4598.9578581542
 30
0.0
 11
8072.535398823
 21
4598.9578581542
 31
0.0
  0
LINE
  5
3B9
330
1F
100
AcDbEntity
  8
0
  6
Continuous
 62
     7
100
AcDbLine
 10
8108.5354000672
 20
4596.9578242988
 30
0.0
 11
8108.5354000672
 21
4598.9578581542
 31
0.0
  0
LINE
  5
3BA
330
1F
100
AcDbEntity
  8
0
  6
Continuous
 62
     7
100
AcDbLine
 10
8072.535398823
 20
4596.9578242988
 30
0.0
 11
8108.5354000672
 21
4596.9578242988
 31
0.0
  0
LINE
  5
3BB
330
1F
100
AcDbEntity
  8
0
  6
Continuous
 62
     7
100
AcDbLine
 10
8072.535398823
 20
4596.9578242988
 30
0.0
 11
8072.535398823
 21
4598.9578581542
 31
0.0
  0
LINE
  5
3BC
330
1F
100
AcDbEntity
  8
0
  6
Continuous
 62
     7
100
AcDbLine
 10
8105.0354005842
 20
4590.9578420877
 30
0.0
 11
8076.0354005842
 21
4590.9578420877
 31
0.0
  0
LINE
  5
3BD
330
1F
100
AcDbEntity
  8
0
  6
Continuous
 62
     7
100
AcDbLine
 10
8070.0354012071
 20
4596.9578242988
 30
0.0
 11
8072.535398823
 21
4596.9578242988
 31
0.0
  0
LINE
  5
3BE
330
1F
100
AcDbEntity
  8
0
  6
Continuous
 62
     7
100
AcDbLine
 10
8070.0354012071
 20
4596.9578242988
 30
0.0
 11
8070.0354012071
 21
4598.9578581542
 31
0.0
  0
LINE
  5
3BF
330
1F
100
AcDbEntity
  8
0
  6
Continuous
 62
     7
100
AcDbLine
 10
8072.535398823
 20
4598.9578581542
 30
0.0
 11
8070.0354012071
 21
4598.9578581542
 31
0.0
  0
LINE
  5
3C0
330
1F
100
AcDbEntity
  8
0
  6
Continuous
 62
     7
100
AcDbLine
 10
8111.0354006092
 20
4596.9578242988
 30
0.0
 11
8111.0354006092
 21
4598.9578581542
 31
0.0
  0
LINE
  5
3C1
330
1F
100
AcDbEntity
  8
0
  6
Continuous
 62
     7
100
AcDbLine
 10
8108.5354000672
 20
4596.9578242988
 30
0.0
 11
8111.0354006092
 21
4596.9578242988
 31
0.0
  0
LINE
  5
3C2
330
1F
100
AcDbEntity
  8
0
  6
Continuous
 62
     7
100
AcDbLine
 10
8111.0354006092
 20
4598.9578581542
 30
0.0
 11
8108.5354000672
 21
4598.9578581542
 31
0.0
  0
LINE
  5
3C3
330
1F
100
AcDbEntity
  8
0
  6
Continuous
 62
     7
100
AcDbLine
 10
8090.5353999107
 20
4578.957817623
 30
0.0
 11
8090.5353999107
 21
4586.9578338355
 31
0.0
  0
LINE
  5
3C4
330
1F
100
AcDbEntity
  8
0
  6
Continuous
 62
     7
100
AcDbLine
 10
8090.5353999107
 20
4578.957817623
 30
0.0
 11
8075.5354011773
 21
4578.957817623
 31
0.0
  0
LINE
  5
3C5
330
1F
100
AcDbEntity
  8
0
  6
Continuous
 62
     7
100
AcDbLine
 10
8075.5354011773
 20
4578.957817623
 30
0.0
 11
8075.5354011773
 21
4586.9578338355
 31
0.0
  0
LINE
  5
3C6
330
1F
100
AcDbEntity
  8
0
  6
Continuous
 62
     7
100
AcDbLine
 10
8090.5353999107
 20
4586.9578338355
 30
0.0
 11
8075.5354011773
 21
4586.9578338355
 31
0.0
  0
LINE
  5
3C7
330
1F
100
AcDbEntity
  8
0
  6
Continuous
 62
     7
100
AcDbLine
 10
8105.5354000411
 20
4578.957817623
 30
0.0
 11
8105.5354000411
 21
4586.9578338355
 31
0.0
  0
LINE
  5
3C8
330
1F
100
AcDbEntity
  8
0
  6
Continuous
 62
     7
100
AcDbLine
 10
8105.5354000411
 20
4578.957817623
 30
0.0
 11
8090.5353999107
 21
4578.957817623
 31
0.0
  0
LINE
  5
3C9
330
1F
100
AcDbEntity
  8
0
  6
Continuous
 62
     7
100
AcDbLine
 10
8105.5354000411
 20
4586.9578338355
 30
0.0
 11
8090.5353999107
 21
4586.9578338355
 31
0.0
  0
LINE
  5
3CA
330
1F
100
AcDbEntity
  8
0
  6
Continuous
 62
     7
100
AcDbLine
 10
8070.5353984951
 20
4598.9578581542
 30
0.0
 11
8070.5353984951
 21
5178.9578414649
 31
0.0
  0
LINE
  5
3CB
330
1F
100
AcDbEntity
  8
0
  6
Continuous
 62
     7
100
AcDbLine
 10
8110.5353999294
 20
4598.9578581542
 30
0.0
 11
8110.5353999294
 21
5178.9578414649
 31
0.0
  0
LINE
  5
3CC
330
1F
100
AcDbEntity
  8
0
  6
Continuous
 62
     7
100
AcDbLine
 10
7638.443320465
 20
4598.9578581542
 30
0.0
 11
7638.443320465
 21
5178.9578414649
 31
0.0
  0
LINE
  5
3CD
330
1F
100
AcDbEntity
  8
0
  6
Continuous
 62
     7
100
AcDbLine
 10
7678.4433121204
 20
4598.9578581542
 30
0.0
 11
7678.4433121204
 21
5178.9578414649
 31
0.0
  0
LINE
  5
3CE
330
1F
100
AcDbEntity
  8
0
  6
Continuous
 62
     7
100
AcDbLine
 10
8070.5353984951
 20
4735.9578228683
 30
0.0
 11
7678.4433121204
 21
4735.9578228683
 31
0.0
  0
LINE
  5
3CF
330
1F
100
AcDbEntity
  8
0
  6
Continuous
 62
     7
100
AcDbLine
 10
8070.5353984951
 20
4771.9578362197
 30
0.0
 11
7678.4433121204
 21
4771.9578362197
 31
0.0
  0
LINE
  5
3D0
330
1F
100
AcDbEntity
  8
0
  6
Continuous
 62
     7
100
AcDbLine
 10
8070.5353984951
 20
4773.9578700751
 30
0.0
 11
7678.4433121204
 21
4773.9578700751
 31
0.0
  0
LINE
  5
3D1
330
1F
100
AcDbEntity
  8
0
  6
Continuous
 62
     7
100
AcDbLine
 10
8070.5353984951
 20
4733.9578486175
 30
0.0
 11
7678.4433121204
 21
4733.9578486175
 31
0.0
  0
LINE
  5
3D2
330
1F
100
AcDbEntity
  8
0
  6
Continuous
 62
     7
100
AcDbLine
 10
7632.4354106902
 20
5178.9578414649
 30
0.0
 11
7632.4354106902
 21
5823.5578454227
 31
0.0
  0
LINE
  5
3D3
330
1F
100
AcDbEntity
  8
0
  6
Continuous
 62
     7
100
AcDbLine
 10
7635.5353886604
 20
5823.5578454227
 30
0.0
 11
7635.5353886604
 21
5178.9578414649
 31
0.0
  0
LINE
  5
3D4
330
1F
100
AcDbEntity
  8
0
  6
Continuous
 62
     7
100
AcDbLine
 10
7632.4354106902
 20
5823.5578454227
 30
0.0
 11
7635.5353886604
 21
5823.5578454227
 31
0.0
  0
LINE
  5
3D5
330
1F
100
AcDbEntity
  8
0
  6
Continuous
 62
     7
100
AcDbLine
 10
7635.5353886604
 20
5178.9578414649
 30
0.0
 11
7632.4354106902
 21
5178.9578414649
 31
0.0
  0
LINE
  5
3D6
330
1F
100
AcDbEntity
  8
0
  6
Continuous
 62
     7
100
AcDbLine
 10
7632.4354106902
 20
5825.5578494758
 30
0.0
 11
7632.4354106902
 21
5846.2410784453
 31
0.0
  0
LINE
  5
3D7
330
1F
100
AcDbEntity
  8
0
  6
Continuous
 62
     7
100
AcDbLine
 10
7635.0927943706
 20
5848.3929849357
 30
0.0
 11
7680.6927914142
 21
5838.7004054278
 31
0.0
  0
LINE
  5
3D8
330
1F
100
AcDbEntity
  8
0
  6
Continuous
 62
     7
100
AcDbLine
 10
7682.4353928088
 20
5836.5484989375
 30
0.0
 11
7682.4353928088
 21
5428.9578414649
 31
0.0
  0
LINE
  5
3D9
330
1F
100
AcDbEntity
  8
0
  6
Continuous
 62
     7
100
AcDbLine
 10
7682.4353928088
 20
5428.9578414649
 30
0.0
 11
8110.2353999733
 21
5428.9578414649
 31
0.0
  0
LINE
  5
3DA
330
1F
100
AcDbEntity
  8
0
  6
Continuous
 62
     7
100
AcDbLine
 10
8112.4353999614
 20
5426.7578414768
 30
0.0
 11
8112.4353999614
 21
5403.9578410924
 31
0.0
  0
LINE
  5
3DB
330
1F
100
AcDbEntity
  8
0
  6
Continuous
 62
     7
100
AcDbLine
 10
8112.4353999614
 20
5403.9578410924
 30
0.0
 11
8109.4353999353
 21
5403.9578410924
 31
0.0
  0
LINE
  5
3DC
330
1F
100
AcDbEntity
  8
0
  6
Continuous
 62
     7
100
AcDbLine
 10
8109.4353999353
 20
5403.9578410924
 30
0.0
 11
8109.4353999353
 21
5403.9478405506
 31
0.0
  0
LINE
  5
3DD
330
1F
100
AcDbEntity
  8
0
  6
Continuous
 62
     7
100
AcDbLine
 10
8109.4353999353
 20
5178.9578414649
 30
0.0
 11
8109.4353999353
 21
5403.9478405506
 31
0.0
  0
LINE
  5
3DE
330
1F
100
AcDbEntity
  8
0
  6
Continuous
 62
     7
100
AcDbLine
 10
8109.4353999353
 20
5178.9578414649
 30
0.0
 11
7635.5353886604
 21
5178.9578414649
 31
0.0
  0
LINE
  5
3DF
330
1F
100
AcDbEntity
  8
0
  6
Continuous
 62
     7
100
AcDbLine
 10
7636.5354055881
 20
5823.5578454227
 30
0.0
 11
7636.5354055881
 21
5825.5578494758
 31
0.0
  0
LINE
  5
3E0
330
1F
100
AcDbEntity
  8
0
  6
Continuous
 62
     7
100
AcDbLine
 10
7636.5354055881
 20
5825.5578494758
 30
0.0
 11
7632.4354106902
 21
5825.5578494758
 31
0.0
  0
LINE
  5
3E1
330
1F
100
AcDbEntity
  8
0
  6
Continuous
 62
     7
100
AcDbLine
 10
7635.5353886604
 20
5823.5578454227
 30
0.0
 11
7636.5354055881
 21
5823.5578454227
 31
0.0
  0
LINE
  5
3E2
330
1F
100
AcDbEntity
  8
0
  6
Continuous
 62
     7
100
AcDbLine
 10
8112.5353999589
 20
5178.9578414649
 30
0.0
 11
8112.5353999589
 21
5403.9478405506
 31
0.0
  0
LINE
  5
3E3
330
1F
100
AcDbEntity
  8
0
  6
Continuous
 62
     7
100
AcDbLine
 10
8109.4353999353
 20
5403.9478405506
 30
0.0
 11
8112.5353999589
 21
5403.9478405506
 31
0.0
  0
LINE
  5
3E4
330
1F
100
AcDbEntity
  8
0
  6
Continuous
 62
     7
100
AcDbLine
 10
8112.5353999589
 20
5178.9578414649
 30
0.0
 11
8109.4353999353
 21
5178.9578414649
 31
0.0
  0
LINE
  5
3E5
330
1F
100
AcDbEntity
  8
0
  6
Continuous
 62
     7
100
AcDbLine
 10
7633.6354012012
 20
5825.5578494758
 30
0.0
 11
7633.6354012012
 21
5823.9578521937
 31
0.0
  0
LINE
  5
3E6
330
1F
100
AcDbEntity
  8
0
  6
Continuous
 62
     7
100
AcDbLine
 10
7632.4354106902
 20
5823.9578521937
 30
0.0
 11
7633.6354012012
 21
5823.9578521937
 31
0.0
  0
LINE
  5
3E7
330
1F
100
AcDbEntity
  8
0
  6
Continuous
 62
     7
100
AcDbLine
 10
7632.4354106902
 20
5825.5578494758
 30
0.0
 11
7632.4354106902
 21
5823.9578521937
 31
0.0
  0
LINE
  5
3E8
330
1F
100
AcDbEntity
  8
0
  6
Continuous
 62
     7
100
AcDbLine
 10
7632.2669977664
 20
5178.9419270248
 30
0.0
 11
7632.2669977664
 21
5098.9419437141
 31
0.0
  0
LINE
  5
3E9
330
1F
100
AcDbEntity
  8
0
  6
Continuous
 62
     7
100
AcDbLine
 10
7622.2670073032
 20
5158.9419162959
 30
0.0
 11
7622.2670073032
 21
5118.9419246406
 31
0.0
  0
LINE
  5
3EA
330
1F
100
AcDbEntity
  8
0
  6
Continuous
 62
     7
100
AcDbLine
 10
7840.9354085445
 20
5100.9419179648
 30
0.0
 11
7908.9353973388
 21
5100.9419179648
 31
0.0
  0
LINE
  5
3EB
330
1F
100
AcDbEntity
  8
0
  6
Continuous
 62
     7
100
AcDbLine
 10
7830.9353882789
 20
5166.4419389457
 30
0.0
 11
7830.9353882789
 21
5111.4419317931
 31
0.0
  0
LINE
  5
3EC
330
1F
100
AcDbEntity
  8
0
  6
Continuous
 62
     7
100
AcDbLine
 10
7826.935409975
 20
5164.9419284553
 30
0.0
 11
7826.935409975
 21
5112.9419422835
 31
0.0
  0
LINE
  5
3ED
330
1F
100
AcDbEntity
  8
0
  6
Continuous
 62
     7
100
AcDbLine
 10
7852.465629053
 20
5160.941920349
 30
0.0
 11
7899.2650503635
 21
5160.941920349
 31
0.0
  0
LINE
  5
3EE
330
1F
100
AcDbEntity
  8
0
  6
Continuous
 62
     7
100
AcDbLine
 10
7850.8135671138
 20
5030.9419251174
 30
0.0
 11
7899.0572238683
 21
5030.9419251174
 31
0.0
  0
LINE
  5
3EF
330
1F
100
AcDbEntity
  8
0
  6
Continuous
 62
     7
100
AcDbLine
 10
7814.9353856563
 20
5161.9419372768
 30
0.0
 11
7814.9353856563
 21
5115.9419334621
 31
0.0
  0
LINE
  5
3F0
330
1F
100
AcDbEntity
  8
0
  6
Continuous
 62
     7
100
AcDbLine
 10
7851.9353861331
 20
5167.4419260711
 30
0.0
 11
7897.935404849
 21
5167.4419260711
 31
0.0
  0
LINE
  5
3F1
330
1F
100
AcDbEntity
  8
0
  6
Continuous
 62
     7
100
AcDbLine
 10
7849.9354118823
 20
5163.4419179648
 30
0.0
 11
7899.9353940009
 21
5163.4419179648
 31
0.0
  0
LINE
  5
3F2
330
1F
100
AcDbEntity
  8
0
  6
Continuous
 62
     7
100
AcDbLine
 10
7854.935407114
 20
5177.4419165343
 30
0.0
 11
7894.9353987693
 21
5177.4419165343
 31
0.0
  0
LINE
  5
3F3
330
1F
100
AcDbEntity
  8
0
  6
Continuous
 62
     7
100
AcDbLine
 10
7690.8650691032
 20
5542.9578415245
 30
0.0
 11
7690.153151226
 21
5542.9578415245
 31
0.0
  0
LINE
  5
3F4
330
1F
100
AcDbEntity
  8
0
  6
Continuous
 62
     7
100
AcDbLine
 10
7690.8650691032
 20
5532.3578409046
 30
0.0
 11
7690.4391939163
 21
5532.3578409046
 31
0.0
  0
LINE
  5
3F5
330
1F
100
AcDbEntity
  8
0
  6
Continuous
 62
     7
100
AcDbLine
 10
7691.9853980064
 20
5542.9578415245
 30
0.0
 11
7690.8650691032
 21
5542.9578415245
 31
0.0
  0
LINE
  5
3F6
330
1F
100
AcDbEntity
  8
0
  6
Continuous
 62
     7
100
AcDbLine
 10
7691.9853980064
 20
5532.3578409046
 30
0.0
 11
7690.8650691032
 21
5532.3578409046
 31
0.0
  0
LINE
  5
3F7
330
1F
100
AcDbEntity
  8
0
  6
Continuous
 62
     7
100
AcDbLine
 10
7684.435396862
 20
5530.5936328262
 30
0.0
 11
7684.435396862
 21
5518.9578450412
 31
0.0
  0
LINE
  5
3F8
330
1F
100
AcDbEntity
  8
0
  6
Continuous
 62
     7
100
AcDbLine
 10
7684.435396862
 20
5558.9578366965
 30
0.0
 11
7684.435396862
 21
5547.3220489115
 31
0.0
  0
LINE
  5
3F9
330
1F
100
AcDbEntity
  8
0
  6
Continuous
 62
     7
100
AcDbLine
 10
7691.8354029178
 20
5543.2578391522
 30
0.0
 11
7690.730183792
 21
5543.2578391522
 31
0.0
  0
LINE
  5
3FA
330
1F
100
AcDbEntity
  8
0
  6
Continuous
 62
     7
100
AcDbLine
 10
7690.730183792
 20
5532.2578392119
 30
0.0
 11
7691.8354029178
 21
5532.2578392119
 31
0.0
  0
LINE
  5
3FB
330
1F
100
AcDbEntity
  8
0
  6
Continuous
 62
     7
100
AcDbLine
 10
7691.3314158439
 20
5724.9578452796
 30
0.0
 11
7690.935402584
 21
5724.9578452796
 31
0.0
  0
LINE
  5
3FC
330
1F
100
AcDbEntity
  8
0
  6
Continuous
 62
     7
100
AcDbLine
 10
7693.9353937625
 20
5724.9578452796
 30
0.0
 11
7691.3314158439
 21
5724.9578452796
 31
0.0
  0
LINE
  5
3FD
330
1F
100
AcDbEntity
  8
0
  6
Continuous
 62
     7
100
AcDbLine
 10
7684.9353904247
 20
5750.529787609
 30
0.0
 11
7684.9353904247
 21
5768.9578450412
 31
0.0
  0
LINE
  5
3FE
330
1F
100
AcDbEntity
  8
0
  6
Continuous
 62
     7
100
AcDbLine
 10
7684.9353904247
 20
5708.957842657
 30
0.0
 11
7684.9353904247
 21
5750.529787609
 31
0.0
  0
LINE
  5
3FF
330
1F
100
AcDbEntity
  8
0
  6
Continuous
 62
     7
100
AcDbLine
 10
7685.4354137897
 20
5750.3369367808
 30
0.0
 11
7685.4354137897
 21
5709.4578362197
 31
0.0
  0
LINE
  5
400
330
1F
100
AcDbEntity
  8
0
  6
Continuous
 62
     7
100
AcDbLine
 10
7685.4354137897
 20
5768.4578514785
 30
0.0
 11
7685.4354137897
 21
5750.3369367808
 31
0.0
  0
LINE
  5
401
330
1F
100
AcDbEntity
  8
0
  6
Continuous
 62
     7
100
AcDbLine
 10
7850.435405445
 20
5734.0681172103
 30
0.0
 11
7850.435405445
 21
5752.9578424186
 31
0.0
  0
LINE
  5
402
330
1F
100
AcDbEntity
  8
0
  6
Continuous
 62
     7
100
AcDbLine
 10
7816.4353961467
 20
5724.9578452796
 30
0.0
 11
7816.6064316749
 21
5725.0036812514
 31
0.0
  0
LINE
  5
403
330
1F
100
AcDbEntity
  8
0
  6
Continuous
 62
     7
100
AcDbLine
 10
7816.6064316749
 20
5725.0036812514
 30
0.0
 11
7817.1184057712
 21
5725.1408613414
 31
0.0
  0
LINE
  5
404
330
1F
100
AcDbEntity
  8
0
  6
Continuous
 62
     7
100
AcDbLine
 10
7817.1184057712
 20
5725.1408613414
 30
0.0
 11
7817.9679507732
 21
5725.3684914798
 31
0.0
  0
LINE
  5
405
330
1F
100
AcDbEntity
  8
0
  6
Continuous
 62
     7
100
AcDbLine
 10
7817.9679507732
 20
5725.3684914798
 30
0.0
 11
7819.1495234489
 21
5725.6850815505
 31
0.0
  0
LINE
  5
406
330
1F
100
AcDbEntity
  8
0
  6
Continuous
 62
     7
100
AcDbLine
 10
7819.1495234489
 20
5725.6850815505
 30
0.0
 11
7820.6554049968
 21
5726.0885751933
 31
0.0
  0
LINE
  5
407
330
1F
100
AcDbEntity
  8
0
  6
Continuous
 62
     7
100
AcDbLine
 10
7820.6554049968
 20
5726.0885751933
 30
0.0
 11
7822.4757010459
 21
5726.5763200015
 31
0.0
  0
LINE
  5
408
330
1F
100
AcDbEntity
  8
0
  6
Continuous
 62
     7
100
AcDbLine
 10
7822.4757010459
 20
5726.5763200015
 30
0.0
 11
7824.5984906673
 21
5727.1451271266
 31
0.0
  0
LINE
  5
409
330
1F
100
AcDbEntity
  8
0
  6
Continuous
 62
     7
100
AcDbLine
 10
7824.5984906673
 20
5727.1451271266
 30
0.0
 11
7827.009915781
 21
5727.7912712783
 31
0.0
  0
LINE
  5
40A
330
1F
100
AcDbEntity
  8
0
  6
Continuous
 62
     7
100
AcDbLine
 10
7827.009915781
 20
5727.7912712783
 30
0.0
 11
7829.6941811561
 21
5728.5105205268
 31
0.0
  0
LINE
  5
40B
330
1F
100
AcDbEntity
  8
0
  6
Continuous
 62
     7
100
AcDbLine
 10
7829.6941811561
 20
5728.5105205268
 30
0.0
 11
7832.6337034225
 21
5729.2981661052
 31
0.0
  0
LINE
  5
40C
330
1F
100
AcDbEntity
  8
0
  6
Continuous
 62
     7
100
AcDbLine
 10
7832.6337034225
 20
5729.2981661052
 30
0.0
 11
7835.8092302799
 21
5730.1490522117
 31
0.0
  0
LINE
  5
40D
330
1F
100
AcDbEntity
  8
0
  6
Continuous
 62
     7
100
AcDbLine
 10
7835.8092302799
 20
5730.1490522117
 30
0.0
 11
7839.1999597072
 21
5731.0575760097
 31
0.0
  0
LINE
  5
40E
330
1F
100
AcDbEntity
  8
0
  6
Continuous
 62
     7
100
AcDbLine
 10
7839.1999597072
 20
5731.0575760097
 30
0.0
 11
7842.783748579
 21
5732.0178664416
 31
0.0
  0
LINE
  5
40F
330
1F
100
AcDbEntity
  8
0
  6
Continuous
 62
     7
100
AcDbLine
 10
7842.783748579
 20
5732.0178664416
 30
0.0
 11
7846.5370828628
 21
5733.0235756129
 31
0.0
  0
LINE
  5
410
330
1F
100
AcDbEntity
  8
0
  6
Continuous
 62
     7
100
AcDbLine
 10
7846.5370828628
 20
5733.0235756129
 30
0.0
 11
7850.435405445
 21
5734.0681172103
 31
0.0
  0
LINE
  5
411
330
1F
100
AcDbEntity
  8
0
  6
Continuous
 62
     7
100
AcDbLine
 10
7851.4353925704
 20
5751.9578552932
 30
0.0
 11
7851.4353925704
 21
5734.3360698909
 31
0.0
  0
LINE
  5
412
330
1F
100
AcDbEntity
  8
0
  6
Continuous
 62
     7
100
AcDbLine
 10
7851.4353925704
 20
5734.3360698909
 30
0.0
 11
7850.435405445
 21
5734.0681172103
 31
0.0
  0
LINE
  5
413
330
1F
100
AcDbEntity
  8
0
  6
Continuous
 62
     7
100
AcDbLine
 10
8072.535398823
 20
4598.9578581542
 30
0.0
 11
8072.535398823
 21
5178.9578414649
 31
0.0
  0
LINE
  5
414
330
1F
100
AcDbEntity
  8
0
  6
Continuous
 62
     7
100
AcDbLine
 10
8108.5354000672
 20
4598.9578581542
 30
0.0
 11
8108.5354000672
 21
5178.9578414649
 31
0.0
  0
LINE
  5
415
330
1F
100
AcDbEntity
  8
0
  6
Continuous
 62
     7
100
AcDbLine
 10
7640.4433245181
 20
4598.9578581542
 30
0.0
 11
7640.4433245181
 21
5178.9578414649
 31
0.0
  0
LINE
  5
416
330
1F
100
AcDbEntity
  8
0
  6
Continuous
 62
     7
100
AcDbLine
 10
7676.4433080673
 20
4598.9578581542
 30
0.0
 11
7676.4433080673
 21
5178.9578414649
 31
0.0
  0
LINE
  5
417
330
1F
100
AcDbEntity
  8
0
  6
Continuous
 62
     7
100
AcDbLine
 10
7847.8291923522
 20
5033.6362636775
 30
0.0
 11
7902.041613531
 21
5033.6362636775
 31
0.0
  0
LINE
  5
418
330
1F
100
AcDbEntity
  8
0
  6
Continuous
 62
     7
100
AcDbLine
 10
7902.2448355674
 20
5158.2895732612
 30
0.0
 11
7849.7136528014
 21
5158.2895732612
 31
0.0
  0
LINE
  5
419
330
1F
100
AcDbEntity
  8
0
  6
Continuous
 62
     7
100
AcDbLine
 10
7817.9354066371
 20
5164.9419284553
 30
0.0
 11
7817.9354066371
 21
5112.9419422835
 31
0.0
  0
LINE
  5
41A
330
1F
100
AcDbEntity
  8
0
  6
Continuous
 62
     7
100
AcDbLine
 10
7851.9353861331
 20
5174.4419253558
 30
0.0
 11
7897.935404849
 21
5174.4419253558
 31
0.0
  0
LINE
  5
41B
330
1F
100
AcDbEntity
  8
0
  6
Continuous
 62
     7
100
AcDbLine
 10
5333.7187675431
 20
4159.2195466811
 30
0.0
 11
5333.7187675431
 21
4158.8395372683
 31
0.0
  0
LINE
  5
41C
330
1F
100
AcDbEntity
  8
0
  6
Continuous
 62
     7
100
AcDbLine
 10
5341.3187769845
 20
4158.8395372683
 30
0.0
 11
5341.3187769845
 21
4159.2195466811
 31
0.0
  0
LINE
  5
41D
330
1F
100
AcDbEntity
  8
0
  6
Continuous
 62
     7
100
AcDbLine
 10
5473.718753238
 20
4159.2195466811
 30
0.0
 11
5473.718753238
 21
4158.8395372683
 31
0.0
  0
LINE
  5
41E
330
1F
100
AcDbEntity
  8
0
  6
Continuous
 62
     7
100
AcDbLine
 10
5481.3187626794
 20
4158.8395372683
 30
0.0
 11
5481.3187626794
 21
4159.2195466811
 31
0.0
  0
LINE
  5
41F
330
1F
100
AcDbEntity
  8
0
  6
Continuous
 62
     7
100
AcDbLine
 10
5516.5187624887
 20
4158.8395372683
 30
0.0
 11
5516.5187624887
 21
4159.0079501921
 31
0.0
  0
LINE
  5
420
330
1F
100
AcDbEntity
  8
0
  6
Continuous
 62
     7
100
AcDbLine
 10
5436.518779178
 20
4159.0079501921
 30
0.0
 11
5436.518779178
 21
4158.8395372683
 31
0.0
  0
LINE
  5
421
330
1F
100
AcDbEntity
  8
0
  6
Continuous
 62
     7
100
AcDbLine
 10
5496.5187815621
 20
4159.0079501921
 30
0.0
 11
5496.5187815621
 21
4169.0079406554
 31
0.0
  0
LINE
  5
422
330
1F
100
AcDbEntity
  8
0
  6
Continuous
 62
     7
100
AcDbLine
 10
5456.5187601045
 20
4169.0079406554
 30
0.0
 11
5456.5187601045
 21
4159.0079501921
 31
0.0
  0
LINE
  5
423
330
1F
100
AcDbEntity
  8
0
  6
Continuous
 62
     7
100
AcDbLine
 10
5704.0187624887
 20
4106.3395575339
 30
0.0
 11
5704.0187624887
 21
4108.8395551497
 31
0.0
  0
LINE
  5
424
330
1F
100
AcDbEntity
  8
0
  6
Continuous
 62
     7
100
AcDbLine
 10
5644.0187601045
 20
4108.8395551497
 30
0.0
 11
5644.0187601045
 21
4106.3395575339
 31
0.0
  0
LINE
  5
425
330
1F
100
AcDbEntity
  8
0
  6
Continuous
 62
     7
100
AcDbLine
 10
5644.0187601045
 20
4106.3395575339
 30
0.0
 11
5644.5187834695
 21
4105.8395341689
 31
0.0
  0
LINE
  5
426
330
1F
100
AcDbEntity
  8
0
  6
Continuous
 62
     7
100
AcDbLine
 10
5703.5187391237
 20
4105.8395341689
 30
0.0
 11
5704.0187624887
 21
4106.3395575339
 31
0.0
  0
LINE
  5
427
330
1F
100
AcDbEntity
  8
0
  6
Continuous
 62
     7
100
AcDbLine
 10
6904.0187505677
 20
4106.3395575339
 30
0.0
 11
6904.0187505677
 21
4108.8395551497
 31
0.0
  0
LINE
  5
428
330
1F
100
AcDbEntity
  8
0
  6
Continuous
 62
     7
100
AcDbLine
 10
6844.0187481835
 20
4108.8395551497
 30
0.0
 11
6844.0187481835
 21
4106.3395575339
 31
0.0
  0
LINE
  5
429
330
1F
100
AcDbEntity
  8
0
  6
Continuous
 62
     7
100
AcDbLine
 10
6844.0187481835
 20
4106.3395575339
 30
0.0
 11
6844.5187715486
 21
4105.8395341689
 31
0.0
  0
LINE
  5
42A
330
1F
100
AcDbEntity
  8
0
  6
Continuous
 62
     7
100
AcDbLine
 10
6903.5187272027
 20
4105.8395341689
 30
0.0
 11
6904.0187505677
 21
4106.3395575339
 31
0.0
  0
LINE
  5
42B
330
1F
100
AcDbEntity
  8
0
  6
Continuous
 62
     7
100
AcDbLine
 10
6304.0187546655
 20
4106.3395575339
 30
0.0
 11
6304.0187546655
 21
4108.8395551497
 31
0.0
  0
LINE
  5
42C
330
1F
100
AcDbEntity
  8
0
  6
Continuous
 62
     7
100
AcDbLine
 10
6244.0187560067
 20
4108.8395551497
 30
0.0
 11
6244.0187560067
 21
4106.3395575339
 31
0.0
  0
LINE
  5
42D
330
1F
100
AcDbEntity
  8
0
  6
Continuous
 62
     7
100
AcDbLine
 10
6244.0187560067
 20
4106.3395575339
 30
0.0
 11
6244.5187551573
 21
4105.8395341689
 31
0.0
  0
LINE
  5
42E
330
1F
100
AcDbEntity
  8
0
  6
Continuous
 62
     7
100
AcDbLine
 10
6303.5187555149
 20
4105.8395341689
 30
0.0
 11
6304.0187546655
 21
4106.3395575339
 31
0.0
  0
LINE
  5
42F
330
1F
100
AcDbEntity
  8
0
  6
Continuous
 62
     7
100
AcDbLine
 10
5660.0187329248
 20
4105.8395341689
 30
0.0
 11
5660.0187329248
 21
3940.8395425135
 31
0.0
  0
LINE
  5
430
330
1F
100
AcDbEntity
  8
0
  6
Continuous
 62
     7
100
AcDbLine
 10
5688.0187300637
 20
3940.8395425135
 30
0.0
 11
5688.0187300637
 21
4105.8395341689
 31
0.0
  0
LINE
  5
431
330
1F
100
AcDbEntity
  8
0
  6
Continuous
 62
     7
100
AcDbLine
 10
5660.0187329248
 20
3940.8395425135
 30
0.0
 11
5661.0187796548
 21
3939.8395553881
 31
0.0
  0
LINE
  5
432
330
1F
100
AcDbEntity
  8
0
  6
Continuous
 62
     7
100
AcDbLine
 10
5687.0187429383
 20
3939.8395553881
 30
0.0
 11
5688.0187300637
 21
3940.8395425135
 31
0.0
  0
LINE
  5
433
330
1F
100
AcDbEntity
  8
0
  6
Continuous
 62
     7
100
AcDbLine
 10
6860.0187806085
 20
4105.8395341689
 30
0.0
 11
6860.0187806085
 21
3940.8395425135
 31
0.0
  0
LINE
  5
434
330
1F
100
AcDbEntity
  8
0
  6
Continuous
 62
     7
100
AcDbLine
 10
6888.0187777474
 20
3940.8395425135
 30
0.0
 11
6888.0187777474
 21
4105.8395341689
 31
0.0
  0
LINE
  5
435
330
1F
100
AcDbEntity
  8
0
  6
Continuous
 62
     7
100
AcDbLine
 10
6860.0187806085
 20
3940.8395425135
 30
0.0
 11
6861.0187677339
 21
3939.8395553881
 31
0.0
  0
LINE
  5
436
330
1F
100
AcDbEntity
  8
0
  6
Continuous
 62
     7
100
AcDbLine
 10
6887.0187310174
 20
3939.8395553881
 30
0.0
 11
6888.0187777474
 21
3940.8395425135
 31
0.0
  0
LINE
  5
437
330
1F
100
AcDbEntity
  8
0
  6
Continuous
 62
     7
100
AcDbLine
 10
6260.018754904
 20
4105.8395341689
 30
0.0
 11
6260.018754904
 21
3940.8395425135
 31
0.0
  0
LINE
  5
438
330
1F
100
AcDbEntity
  8
0
  6
Continuous
 62
     7
100
AcDbLine
 10
6288.0187557682
 20
3940.8395425135
 30
0.0
 11
6288.0187557682
 21
4105.8395341689
 31
0.0
  0
LINE
  5
439
330
1F
100
AcDbEntity
  8
0
  6
Continuous
 62
     7
100
AcDbLine
 10
6260.018754904
 20
3940.8395425135
 30
0.0
 11
6261.0187550679
 21
3939.8395553881
 31
0.0
  0
LINE
  5
43A
330
1F
100
AcDbEntity
  8
0
  6
Continuous
 62
     7
100
AcDbLine
 10
6287.0187556043
 20
3939.8395553881
 30
0.0
 11
6288.0187557682
 21
3940.8395425135
 31
0.0
  0
LINE
  5
43B
330
1F
100
AcDbEntity
  8
0
  6
Continuous
 62
     7
100
AcDbLine
 10
5337.621679683
 20
4161.039544707
 30
0.0
 11
5339.418759723
 21
4161.039544707
 31
0.0
  0
LINE
  5
43C
330
1F
100
AcDbEntity
  8
0
  6
Continuous
 62
     7
100
AcDbLine
 10
5335.6187848046
 20
4161.039544707
 30
0.0
 11
5337.621679683
 21
4161.039544707
 31
0.0
  0
LINE
  5
43D
330
1F
100
AcDbEntity
  8
0
  6
Continuous
 62
     7
100
AcDbLine
 10
5337.7246169046
 20
4159.2195466811
 30
0.0
 11
5341.3187769845
 21
4159.2195466811
 31
0.0
  0
LINE
  5
43E
330
1F
100
AcDbEntity
  8
0
  6
Continuous
 62
     7
100
AcDbLine
 10
5333.7187675431
 20
4159.2195466811
 30
0.0
 11
5337.7246169046
 21
4159.2195466811
 31
0.0
  0
LINE
  5
43F
330
1F
100
AcDbEntity
  8
0
  6
Continuous
 62
     7
100
AcDbLine
 10
5476.4422086671
 20
4161.039544707
 30
0.0
 11
5479.4187454179
 21
4161.039544707
 31
0.0
  0
LINE
  5
440
330
1F
100
AcDbEntity
  8
0
  6
Continuous
 62
     7
100
AcDbLine
 10
5475.6187704995
 20
4161.039544707
 30
0.0
 11
5476.4422086671
 21
4161.039544707
 31
0.0
  0
LINE
  5
441
330
1F
100
AcDbEntity
  8
0
  6
Continuous
 62
     7
100
AcDbLine
 10
5475.3656891778
 20
4159.2195466811
 30
0.0
 11
5481.3187626794
 21
4159.2195466811
 31
0.0
  0
LINE
  5
442
330
1F
100
AcDbEntity
  8
0
  6
Continuous
 62
     7
100
AcDbLine
 10
5473.718753238
 20
4159.2195466811
 30
0.0
 11
5475.3656891778
 21
4159.2195466811
 31
0.0
  0
LINE
  5
443
330
1F
100
AcDbEntity
  8
0
  6
Continuous
 62
     7
100
AcDbLine
 10
7177.3687509492
 20
3678.7395479997
 30
0.0
 11
5370.668759723
 21
3678.7395479997
 31
0.0
  0
LINE
  5
444
330
1F
100
AcDbEntity
  8
0
  6
Continuous
 62
     7
100
AcDbLine
 10
7177.3687509492
 20
3678.7395479997
 30
0.0
 11
7177.3687509492
 21
3678.8395479971
 31
0.0
  0
LINE
  5
445
330
1F
100
AcDbEntity
  8
0
  6
Continuous
 62
     7
100
AcDbLine
 10
5370.668759723
 20
3678.7395479997
 30
0.0
 11
5370.668759723
 21
3678.8395479971
 31
0.0
  0
LINE
  5
446
330
1F
100
AcDbEntity
  8
0
  6
Continuous
 62
     7
100
AcDbLine
 10
7177.3687509492
 20
3678.7395479997
 30
0.0
 11
7177.6906756356
 21
3678.7712522865
 31
0.0
  0
LINE
  5
447
330
1F
100
AcDbEntity
  8
0
  6
Continuous
 62
     7
100
AcDbLine
 10
7177.6906756356
 20
3678.7712522865
 30
0.0
 11
7177.9344586328
 21
3678.8395479971
 31
0.0
  0
LINE
  5
448
330
1F
100
AcDbEntity
  8
0
  6
Continuous
 62
     7
100
AcDbLine
 10
5370.1030520394
 20
3678.8395479971
 30
0.0
 11
5370.3468350366
 21
3678.7712522865
 31
0.0
  0
LINE
  5
449
330
1F
100
AcDbEntity
  8
0
  6
Continuous
 62
     7
100
AcDbLine
 10
5370.3468350366
 20
3678.7712522865
 30
0.0
 11
5370.668759723
 21
3678.7395479997
 31
0.0
  0
LINE
  5
44A
330
1F
100
AcDbEntity
  8
0
  6
Continuous
 62
     7
100
AcDbLine
 10
7224.0187434152
 20
4158.8395372683
 30
0.0
 11
7222.0187691644
 21
4158.8395372683
 31
0.0
  0
LINE
  5
44B
330
1F
100
AcDbEntity
  8
0
  6
Continuous
 62
     7
100
AcDbLine
 10
7224.0187434152
 20
4158.8395372683
 30
0.0
 11
7224.0187434152
 21
4156.182153588
 31
0.0
  0
LINE
  5
44C
330
1F
100
AcDbEntity
  8
0
  6
Continuous
 62
     7
100
AcDbLine
 10
7224.0187434152
 20
4156.182153588
 30
0.0
 11
7222.0187691644
 21
4156.182153588
 31
0.0
  0
LINE
  5
44D
330
1F
100
AcDbEntity
  8
0
  6
Continuous
 62
     7
100
AcDbLine
 10
7222.0187691644
 20
4158.8395372683
 30
0.0
 11
7222.0187691644
 21
4156.182153588
 31
0.0
  0
LINE
  5
44E
330
1F
100
AcDbEntity
  8
0
  6
Continuous
 62
     7
100
AcDbLine
 10
7224.0187434152
 20
4110.5821565444
 30
0.0
 11
7222.0187691644
 21
4110.5821565444
 31
0.0
  0
LINE
  5
44F
330
1F
100
AcDbEntity
  8
0
  6
Continuous
 62
     7
100
AcDbLine
 10
7222.0187691644
 20
4156.182153588
 30
0.0
 11
7222.0187691644
 21
4110.5821565444
 31
0.0
  0
LINE
  5
450
330
1F
100
AcDbEntity
  8
0
  6
Continuous
 62
     7
100
AcDbLine
 10
7224.0187434152
 20
4156.182153588
 30
0.0
 11
7224.0187434152
 21
4110.5821565444
 31
0.0
  0
LINE
  5
451
330
1F
100
AcDbEntity
  8
0
  6
Continuous
 62
     7
100
AcDbLine
 10
7224.0187434152
 20
4108.8395551497
 30
0.0
 11
7222.0187691644
 21
4108.8395551497
 31
0.0
  0
LINE
  5
452
330
1F
100
AcDbEntity
  8
0
  6
Continuous
 62
     7
100
AcDbLine
 10
7222.0187691644
 20
4110.5821565444
 30
0.0
 11
7222.0187691644
 21
4108.8395551497
 31
0.0
  0
LINE
  5
453
330
1F
100
AcDbEntity
  8
0
  6
Continuous
 62
     7
100
AcDbLine
 10
7224.0187434152
 20
4110.5821565444
 30
0.0
 11
7224.0187434152
 21
4108.8395551497
 31
0.0
  0
LINE
  5
454
330
1F
100
AcDbEntity
  8
0
  6
Continuous
 62
     7
100
AcDbLine
 10
7224.0187434152
 20
3681.0395479852
 30
0.0
 11
7222.0187691644
 21
3681.0395479852
 31
0.0
  0
LINE
  5
455
330
1F
100
AcDbEntity
  8
0
  6
Continuous
 62
     7
100
AcDbLine
 10
7222.0187691644
 20
4108.8395551497
 30
0.0
 11
7222.0187691644
 21
3681.0395479852
 31
0.0
  0
LINE
  5
456
330
1F
100
AcDbEntity
  8
0
  6
Continuous
 62
     7
100
AcDbLine
 10
7224.0187434152
 20
4108.8395551497
 30
0.0
 11
7224.0187434152
 21
3681.0395479852
 31
0.0
  0
LINE
  5
457
330
1F
100
AcDbEntity
  8
0
  6
Continuous
 62
     7
100
AcDbLine
 10
7224.0187434152
 20
3678.8395479971
 30
0.0
 11
7222.0187691644
 21
3678.8395479971
 31
0.0
  0
LINE
  5
458
330
1F
100
AcDbEntity
  8
0
  6
Continuous
 62
     7
100
AcDbLine
 10
7222.0187691644
 20
3681.0395479852
 30
0.0
 11
7222.0187691644
 21
3678.8395479971
 31
0.0
  0
LINE
  5
459
330
1F
100
AcDbEntity
  8
0
  6
Continuous
 62
     7
100
AcDbLine
 10
7224.0187434152
 20
3681.0395479852
 30
0.0
 11
7224.0187434152
 21
3678.8395479971
 31
0.0
  0
LINE
  5
45A
330
1F
100
AcDbEntity
  8
0
  6
Continuous
 62
     7
100
AcDbLine
 10
7221.6997651055
 20
3678.8395479971
 30
0.0
 11
7221.5235141709
 21
3678.7991136271
 31
0.0
  0
LINE
  5
45B
330
1F
100
AcDbEntity
  8
0
  6
Continuous
 62
     7
100
AcDbLine
 10
7221.5235141709
 20
3678.7991136271
 30
0.0
 11
7220.918765445
 21
3678.7395479997
 31
0.0
  0
LINE
  5
45C
330
1F
100
AcDbEntity
  8
0
  6
Continuous
 62
     7
100
AcDbLine
 10
7220.918765445
 20
3678.7395479997
 30
0.0
 11
7182.1187643006
 21
3678.7395479997
 31
0.0
  0
LINE
  5
45D
330
1F
100
AcDbEntity
  8
0
  6
Continuous
 62
     7
100
AcDbLine
 10
7181.3377050355
 20
3678.8395479971
 30
0.0
 11
7181.5139559701
 21
3678.7991136271
 31
0.0
  0
LINE
  5
45E
330
1F
100
AcDbEntity
  8
0
  6
Continuous
 62
     7
100
AcDbLine
 10
7181.5139559701
 20
3678.7991136271
 30
0.0
 11
7182.1187643006
 21
3678.7395479997
 31
0.0
  0
LINE
  5
45F
330
1F
100
AcDbEntity
  8
0
  6
Continuous
 62
     7
100
AcDbLine
 10
5324.018767257
 20
4156.182153588
 30
0.0
 11
5326.0187415078
 21
4156.182153588
 31
0.0
  0
LINE
  5
460
330
1F
100
AcDbEntity
  8
0
  6
Continuous
 62
     7
100
AcDbLine
 10
5324.018767257
 20
4158.8395372683
 30
0.0
 11
5326.0187415078
 21
4158.8395372683
 31
0.0
  0
LINE
  5
461
330
1F
100
AcDbEntity
  8
0
  6
Continuous
 62
     7
100
AcDbLine
 10
5326.0187415078
 20
4158.8395372683
 30
0.0
 11
5326.0187415078
 21
4156.182153588
 31
0.0
  0
LINE
  5
462
330
1F
100
AcDbEntity
  8
0
  6
Continuous
 62
     7
100
AcDbLine
 10
5324.018767257
 20
4158.8395372683
 30
0.0
 11
5324.018767257
 21
4156.182153588
 31
0.0
  0
LINE
  5
463
330
1F
100
AcDbEntity
  8
0
  6
Continuous
 62
     7
100
AcDbLine
 10
5324.018767257
 20
4110.5821565444
 30
0.0
 11
5326.0187415078
 21
4110.5821565444
 31
0.0
  0
LINE
  5
464
330
1F
100
AcDbEntity
  8
0
  6
Continuous
 62
     7
100
AcDbLine
 10
5326.0187415078
 20
4156.182153588
 30
0.0
 11
5326.0187415078
 21
4110.5821565444
 31
0.0
  0
LINE
  5
465
330
1F
100
AcDbEntity
  8
0
  6
Continuous
 62
     7
100
AcDbLine
 10
5324.018767257
 20
4156.182153588
 30
0.0
 11
5324.018767257
 21
4110.5821565444
 31
0.0
  0
LINE
  5
466
330
1F
100
AcDbEntity
  8
0
  6
Continuous
 62
     7
100
AcDbLine
 10
5324.018767257
 20
4108.8395551497
 30
0.0
 11
5326.0187415078
 21
4108.8395551497
 31
0.0
  0
LINE
  5
467
330
1F
100
AcDbEntity
  8
0
  6
Continuous
 62
     7
100
AcDbLine
 10
5326.0187415078
 20
4110.5821565444
 30
0.0
 11
5326.0187415078
 21
4108.8395551497
 31
0.0
  0
LINE
  5
468
330
1F
100
AcDbEntity
  8
0
  6
Continuous
 62
     7
100
AcDbLine
 10
5324.018767257
 20
4110.5821565444
 30
0.0
 11
5324.018767257
 21
4108.8395551497
 31
0.0
  0
LINE
  5
469
330
1F
100
AcDbEntity
  8
0
  6
Continuous
 62
     7
100
AcDbLine
 10
5324.018767257
 20
3681.0395479852
 30
0.0
 11
5326.0187415078
 21
3681.0395479852
 31
0.0
  0
LINE
  5
46A
330
1F
100
AcDbEntity
  8
0
  6
Continuous
 62
     7
100
AcDbLine
 10
5326.0187415078
 20
4108.8395551497
 30
0.0
 11
5326.0187415078
 21
3681.0395479852
 31
0.0
  0
LINE
  5
46B
330
1F
100
AcDbEntity
  8
0
  6
Continuous
 62
     7
100
AcDbLine
 10
5324.018767257
 20
4108.8395551497
 30
0.0
 11
5324.018767257
 21
3681.0395479852
 31
0.0
  0
LINE
  5
46C
330
1F
100
AcDbEntity
  8
0
  6
Continuous
 62
     7
100
AcDbLine
 10
5324.018767257
 20
3678.8395479971
 30
0.0
 11
5326.0187415078
 21
3678.8395479971
 31
0.0
  0
LINE
  5
46D
330
1F
100
AcDbEntity
  8
0
  6
Continuous
 62
     7
100
AcDbLine
 10
5326.0187415078
 20
3681.0395479852
 30
0.0
 11
5326.0187415078
 21
3678.8395479971
 31
0.0
  0
LINE
  5
46E
330
1F
100
AcDbEntity
  8
0
  6
Continuous
 62
     7
100
AcDbLine
 10
5324.018767257
 20
3681.0395479852
 30
0.0
 11
5324.018767257
 21
3678.8395479971
 31
0.0
  0
LINE
  5
46F
330
1F
100
AcDbEntity
  8
0
  6
Continuous
 62
     7
100
AcDbLine
 10
5326.3377455667
 20
3678.8395479971
 30
0.0
 11
5326.5139965013
 21
3678.7991136271
 31
0.0
  0
LINE
  5
470
330
1F
100
AcDbEntity
  8
0
  6
Continuous
 62
     7
100
AcDbLine
 10
5326.5139965013
 20
3678.7991136271
 30
0.0
 11
5327.1187452272
 21
3678.7395479997
 31
0.0
  0
LINE
  5
471
330
1F
100
AcDbEntity
  8
0
  6
Continuous
 62
     7
100
AcDbLine
 10
5327.1187452272
 20
3678.7395479997
 30
0.0
 11
5365.9187463716
 21
3678.7395479997
 31
0.0
  0
LINE
  5
472
330
1F
100
AcDbEntity
  8
0
  6
Continuous
 62
     7
100
AcDbLine
 10
5366.6998056367
 20
3678.8395479971
 30
0.0
 11
5366.5235547021
 21
3678.7991136271
 31
0.0
  0
LINE
  5
473
330
1F
100
AcDbEntity
  8
0
  6
Continuous
 62
     7
100
AcDbLine
 10
5366.5235547021
 20
3678.7991136271
 30
0.0
 11
5365.9187463716
 21
3678.7395479997
 31
0.0
  0
LINE
  5
474
330
1F
100
AcDbEntity
  8
0
  6
Continuous
 62
     7
100
AcDbLine
 10
7222.0187691644
 20
4158.8395372683
 30
0.0
 11
5326.0187415078
 21
4158.8395372683
 31
0.0
  0
LINE
  5
475
330
1F
100
AcDbEntity
  8
0
  6
Continuous
 62
     7
100
AcDbLine
 10
5326.0187415078
 20
4156.182153588
 30
0.0
 11
7222.0187691644
 21
4156.182153588
 31
0.0
  0
LINE
  5
476
330
1F
100
AcDbEntity
  8
0
  6
Continuous
 62
     7
100
AcDbLine
 10
7222.0187691644
 20
4110.5821565444
 30
0.0
 11
5326.0187415078
 21
4110.5821565444
 31
0.0
  0
LINE
  5
477
330
1F
100
AcDbEntity
  8
0
  6
Continuous
 62
     7
100
AcDbLine
 10
5326.0187415078
 20
4108.8395551497
 30
0.0
 11
7222.0187691644
 21
4108.8395551497
 31
0.0
  0
LINE
  5
478
330
1F
100
AcDbEntity
  8
0
  6
Continuous
 62
     7
100
AcDbLine
 10
7222.0187691644
 20
3723.8395497853
 30
0.0
 11
5326.0187415078
 21
3723.8395497853
 31
0.0
  0
LINE
  5
479
330
1F
100
AcDbEntity
  8
0
  6
Continuous
 62
     7
100
AcDbLine
 10
5326.0187415078
 20
3721.6395497972
 30
0.0
 11
7222.0187691644
 21
3721.6395497972
 31
0.0
  0
LINE
  5
47A
330
1F
100
AcDbEntity
  8
0
  6
Continuous
 62
     7
100
AcDbLine
 10
7222.0187691644
 20
3681.0395479852
 30
0.0
 11
5326.0187415078
 21
3681.0395479852
 31
0.0
  0
LINE
  5
47B
330
1F
100
AcDbEntity
  8
0
  6
Continuous
 62
     7
100
AcDbLine
 10
5326.0187415078
 20
3681.0395479852
 30
0.0
 11
5326.0187415078
 21
3721.6395497972
 31
0.0
  0
LINE
  5
47C
330
1F
100
AcDbEntity
  8
0
  6
Continuous
 62
     7
100
AcDbLine
 10
7222.0187691644
 20
3681.0395479852
 30
0.0
 11
7222.0187691644
 21
3721.6395497972
 31
0.0
  0
LINE
  5
47D
330
1F
100
AcDbEntity
  8
0
  6
Continuous
 62
     7
100
AcDbLine
 10
5326.0187415078
 20
3678.8395479971
 30
0.0
 11
7222.0187691644
 21
3678.8395479971
 31
0.0
  0
LINE
  5
47E
330
1F
100
AcDbEntity
  8
0
  6
Continuous
 62
     7
100
AcDbLine
 10
7222.0187691644
 20
3724.1819374913
 30
0.0
 11
5326.0187415078
 21
3724.1819374913
 31
0.0
  0
LINE
  5
47F
330
1F
100
AcDbEntity
  8
0
  6
Continuous
 62
     7
100
AcDbLine
 10
5326.0187415078
 20
3849.5569959933
 30
0.0
 11
7222.0187691644
 21
3849.5569959933
 31
0.0
  0
LINE
  5
480
330
1F
100
AcDbEntity
  8
0
  6
Continuous
 62
     7
100
AcDbLine
 10
7222.0187691644
 20
3850.2145991379
 30
0.0
 11
5326.0187415078
 21
3850.2145991379
 31
0.0
  0
LINE
  5
481
330
1F
100
AcDbEntity
  8
0
  6
Continuous
 62
     7
100
AcDbLine
 10
5477.2687553361
 20
3911.1433955744
 30
0.0
 11
5477.2687553361
 21
3921.5357004198
 31
0.0
  0
LINE
  5
482
330
1F
100
AcDbEntity
  8
0
  6
Continuous
 62
     7
100
AcDbLine
 10
5475.7687553361
 20
3921.5357004198
 30
0.0
 11
5475.7687553361
 21
3911.1433955744
 31
0.0
  0
LINE
  5
483
330
1F
100
AcDbEntity
  8
0
  6
Continuous
 62
     7
100
AcDbLine
 10
5513.4678987458
 20
4159.0079501921
 30
0.0
 11
5481.3187626794
 21
4159.0079501921
 31
0.0
  0
LINE
  5
484
330
1F
100
AcDbEntity
  8
0
  6
Continuous
 62
     7
100
AcDbLine
 10
5473.718753238
 20
4159.0079501921
 30
0.0
 11
5436.518779178
 21
4159.0079501921
 31
0.0
  0
LINE
  5
485
330
1F
100
AcDbEntity
  8
0
  6
Continuous
 62
     7
100
AcDbLine
 10
5516.5187624887
 20
4159.0079501921
 30
0.0
 11
5513.4678987458
 21
4159.0079501921
 31
0.0
  0
LINE
  5
486
330
1F
100
AcDbEntity
  8
0
  6
Continuous
 62
     7
100
AcDbLine
 10
5494.9933198884
 20
4169.0079406554
 30
0.0
 11
5456.5187601045
 21
4169.0079406554
 31
0.0
  0
LINE
  5
487
330
1F
100
AcDbEntity
  8
0
  6
Continuous
 62
     7
100
AcDbLine
 10
5496.5187815621
 20
4169.0079406554
 30
0.0
 11
5494.9933198884
 21
4169.0079406554
 31
0.0
  0
LINE
  5
488
330
1F
100
AcDbEntity
  8
0
  6
Continuous
 62
     7
100
AcDbLine
 10
5464.4717482522
 20
3908.2699105794
 30
0.0
 11
5465.9452346757
 21
3906.4173088128
 31
0.0
  0
LINE
  5
489
330
1F
100
AcDbEntity
  8
0
  6
Continuous
 62
     7
100
AcDbLine
 10
5465.9452346757
 20
3906.4173088128
 30
0.0
 11
5467.2195223764
 21
3905.2141741568
 31
0.0
  0
LINE
  5
48A
330
1F
100
AcDbEntity
  8
0
  6
Continuous
 62
     7
100
AcDbLine
 10
5485.8180192903
 20
3905.2141741568
 30
0.0
 11
5487.0922473863
 21
3906.4173088128
 31
0.0
  0
LINE
  5
48B
330
1F
100
AcDbEntity
  8
0
  6
Continuous
 62
     7
100
AcDbLine
 10
5487.0922473863
 20
3906.4173088128
 30
0.0
 11
5488.5657934144
 21
3908.2699105794
 31
0.0
  0
LINE
  5
48C
330
1F
100
AcDbEntity
  8
0
  6
Continuous
 62
     7
100
AcDbLine
 10
5489.5307926133
 20
3909.941329127
 30
0.0
 11
5490.3983978227
 21
3912.1437356526
 31
0.0
  0
LINE
  5
48D
330
1F
100
AcDbEntity
  8
0
  6
Continuous
 62
     7
100
AcDbLine
 10
5490.3983978227
 20
3912.1437356526
 30
0.0
 11
5490.80323257
 21
3913.8488606268
 31
0.0
  0
LINE
  5
48E
330
1F
100
AcDbEntity
  8
0
  6
Continuous
 62
     7
100
AcDbLine
 10
5481.5040139154
 20
3929.9556151682
 30
0.0
 11
5479.8248914674
 21
3930.4576054865
 31
0.0
  0
LINE
  5
48F
330
1F
100
AcDbEntity
  8
0
  6
Continuous
 62
     7
100
AcDbLine
 10
5479.8248914674
 20
3930.4576054865
 30
0.0
 11
5477.4837402299
 21
3930.8073953444
 31
0.0
  0
LINE
  5
490
330
1F
100
AcDbEntity
  8
0
  6
Continuous
 62
     7
100
AcDbLine
 10
5475.5537418321
 20
3930.8073953444
 30
0.0
 11
5473.2125905946
 21
3930.4576054865
 31
0.0
  0
LINE
  5
491
330
1F
100
AcDbEntity
  8
0
  6
Continuous
 62
     7
100
AcDbLine
 10
5473.2125905946
 20
3930.4576054865
 30
0.0
 11
5471.5335277513
 21
3929.9556151682
 31
0.0
  0
LINE
  5
492
330
1F
100
AcDbEntity
  8
0
  6
Continuous
 62
     7
100
AcDbLine
 10
5462.234249492
 20
3913.8488606268
 30
0.0
 11
5462.6390842393
 21
3912.1437356526
 31
0.0
  0
LINE
  5
493
330
1F
100
AcDbEntity
  8
0
  6
Continuous
 62
     7
100
AcDbLine
 10
5462.6390842393
 20
3912.1437356526
 30
0.0
 11
5463.5067490533
 21
3909.941329127
 31
0.0
  0
LINE
  5
494
330
1F
100
AcDbEntity
  8
0
  6
Continuous
 62
     7
100
AcDbLine
 10
5475.5537418321
 20
3932.6450481049
 30
0.0
 11
5475.5537418321
 21
3925.4335597807
 31
0.0
  0
LINE
  5
495
330
1F
100
AcDbEntity
  8
0
  6
Continuous
 62
     7
100
AcDbLine
 10
5477.4837402299
 20
3925.4335597807
 30
0.0
 11
5477.4837402299
 21
3932.6450481049
 31
0.0
  0
LINE
  5
496
330
1F
100
AcDbEntity
  8
0
  6
Continuous
 62
     7
100
AcDbLine
 10
5491.1222366288
 20
3909.0225086266
 30
0.0
 11
5484.8769215539
 21
3912.62826181
 31
0.0
  0
LINE
  5
497
330
1F
100
AcDbEntity
  8
0
  6
Continuous
 62
     7
100
AcDbLine
 10
5483.911922355
 20
3910.9568283612
 30
0.0
 11
5490.1572374299
 21
3907.351090079
 31
0.0
  0
LINE
  5
498
330
1F
100
AcDbEntity
  8
0
  6
Continuous
 62
     7
100
AcDbLine
 10
5462.8803042367
 20
3907.351090079
 30
0.0
 11
5469.1256193116
 21
3910.9568283612
 31
0.0
  0
LINE
  5
499
330
1F
100
AcDbEntity
  8
0
  6
Continuous
 62
     7
100
AcDbLine
 10
5468.1606201127
 20
3912.62826181
 30
0.0
 11
5461.9153050378
 21
3909.0225086266
 31
0.0
  0
LINE
  5
49A
330
1F
100
AcDbEntity
  8
0
  6
Continuous
 62
     7
100
AcDbLine
 10
5646.3404206231
 20
4106.3395575339
 30
0.0
 11
5704.0187624887
 21
4106.3395575339
 31
0.0
  0
LINE
  5
49B
330
1F
100
AcDbEntity
  8
0
  6
Continuous
 62
     7
100
AcDbLine
 10
5644.0187601045
 20
4106.3395575339
 30
0.0
 11
5646.3404206231
 21
4106.3395575339
 31
0.0
  0
LINE
  5
49C
330
1F
100
AcDbEntity
  8
0
  6
Continuous
 62
     7
100
AcDbLine
 10
5646.8017605737
 20
4105.8395341689
 30
0.0
 11
5644.5187834695
 21
4105.8395341689
 31
0.0
  0
LINE
  5
49D
330
1F
100
AcDbEntity
  8
0
  6
Continuous
 62
     7
100
AcDbLine
 10
5703.5187391237
 20
4105.8395341689
 30
0.0
 11
5646.8017605737
 21
4105.8395341689
 31
0.0
  0
LINE
  5
49E
330
1F
100
AcDbEntity
  8
0
  6
Continuous
 62
     7
100
AcDbLine
 10
6846.3404087022
 20
4106.3395575339
 30
0.0
 11
6904.0187505677
 21
4106.3395575339
 31
0.0
  0
LINE
  5
49F
330
1F
100
AcDbEntity
  8
0
  6
Continuous
 62
     7
100
AcDbLine
 10
6844.0187481835
 20
4106.3395575339
 30
0.0
 11
6846.3404087022
 21
4106.3395575339
 31
0.0
  0
LINE
  5
4A0
330
1F
100
AcDbEntity
  8
0
  6
Continuous
 62
     7
100
AcDbLine
 10
6846.8017486528
 20
4105.8395341689
 30
0.0
 11
6844.5187715486
 21
4105.8395341689
 31
0.0
  0
LINE
  5
4A1
330
1F
100
AcDbEntity
  8
0
  6
Continuous
 62
     7
100
AcDbLine
 10
6903.5187272027
 20
4105.8395341689
 30
0.0
 11
6846.8017486528
 21
4105.8395341689
 31
0.0
  0
LINE
  5
4A2
330
1F
100
AcDbEntity
  8
0
  6
Continuous
 62
     7
100
AcDbLine
 10
6246.3404277012
 20
4106.3395575339
 30
0.0
 11
6304.0187546655
 21
4106.3395575339
 31
0.0
  0
LINE
  5
4A3
330
1F
100
AcDbEntity
  8
0
  6
Continuous
 62
     7
100
AcDbLine
 10
6244.0187560067
 20
4106.3395575339
 30
0.0
 11
6246.3404277012
 21
4106.3395575339
 31
0.0
  0
LINE
  5
4A4
330
1F
100
AcDbEntity
  8
0
  6
Continuous
 62
     7
100
AcDbLine
 10
6246.8017322615
 20
4105.8395341689
 30
0.0
 11
6244.5187551573
 21
4105.8395341689
 31
0.0
  0
LINE
  5
4A5
330
1F
100
AcDbEntity
  8
0
  6
Continuous
 62
     7
100
AcDbLine
 10
6303.5187555149
 20
4105.8395341689
 30
0.0
 11
6246.8017322615
 21
4105.8395341689
 31
0.0
  0
LINE
  5
4A6
330
1F
100
AcDbEntity
  8
0
  6
Continuous
 62
     7
100
AcDbLine
 10
5660.0187329248
 20
3940.8395425135
 30
0.0
 11
5688.0187300637
 21
3940.8395425135
 31
0.0
  0
LINE
  5
4A7
330
1F
100
AcDbEntity
  8
0
  6
Continuous
 62
     7
100
AcDbLine
 10
5687.0187429383
 20
3939.8395553881
 30
0.0
 11
5661.0187796548
 21
3939.8395553881
 31
0.0
  0
LINE
  5
4A8
330
1F
100
AcDbEntity
  8
0
  6
Continuous
 62
     7
100
AcDbLine
 10
6860.0187806085
 20
3940.8395425135
 30
0.0
 11
6888.0187777474
 21
3940.8395425135
 31
0.0
  0
LINE
  5
4A9
330
1F
100
AcDbEntity
  8
0
  6
Continuous
 62
     7
100
AcDbLine
 10
6887.0187310174
 20
3939.8395553881
 30
0.0
 11
6861.0187677339
 21
3939.8395553881
 31
0.0
  0
LINE
  5
4AA
330
1F
100
AcDbEntity
  8
0
  6
Continuous
 62
     7
100
AcDbLine
 10
6260.018754904
 20
3940.8395425135
 30
0.0
 11
6288.0187557682
 21
3940.8395425135
 31
0.0
  0
LINE
  5
4AB
330
1F
100
AcDbEntity
  8
0
  6
Continuous
 62
     7
100
AcDbLine
 10
6287.0187556043
 20
3939.8395553881
 30
0.0
 11
6261.0187550679
 21
3939.8395553881
 31
0.0
  0
LINE
  5
4AC
330
1F
100
AcDbEntity
  8
0
  6
Continuous
 62
     7
100
AcDbLine
 10
7220.918765445
 20
3678.8395479971
 30
0.0
 11
7220.918765445
 21
3678.7395479997
 31
0.0
  0
LINE
  5
4AD
330
1F
100
AcDbEntity
  8
0
  6
Continuous
 62
     7
100
AcDbLine
 10
7182.1187643006
 20
3678.8395479971
 30
0.0
 11
7182.1187643006
 21
3678.7395479997
 31
0.0
  0
LINE
  5
4AE
330
1F
100
AcDbEntity
  8
0
  6
Continuous
 62
     7
100
AcDbLine
 10
5327.1187452272
 20
3678.8395479971
 30
0.0
 11
5327.1187452272
 21
3678.7395479997
 31
0.0
  0
LINE
  5
4AF
330
1F
100
AcDbEntity
  8
0
  6
Continuous
 62
     7
100
AcDbLine
 10
5365.9187463716
 20
3678.8395479971
 30
0.0
 11
5365.9187463716
 21
3678.7395479997
 31
0.0
  0
LINE
  5
4B0
330
1F
100
AcDbEntity
  8
0
  6
Continuous
 62
     7
100
AcDbLine
 10
5326.0187415078
 20
4108.4971562678
 30
0.0
 11
5644.0187601045
 21
4108.4971562678
 31
0.0
  0
LINE
  5
4B1
330
1F
100
AcDbEntity
  8
0
  6
Continuous
 62
     7
100
AcDbLine
 10
5704.0187624887
 20
4108.4971562678
 30
0.0
 11
6244.0187560067
 21
4108.4971562678
 31
0.0
  0
LINE
  5
4B2
330
1F
100
AcDbEntity
  8
0
  6
Continuous
 62
     7
100
AcDbLine
 10
6304.0187546655
 20
4108.4971562678
 30
0.0
 11
6844.0187481835
 21
4108.4971562678
 31
0.0
  0
LINE
  5
4B3
330
1F
100
AcDbEntity
  8
0
  6
Continuous
 62
     7
100
AcDbLine
 10
6904.0187505677
 20
4108.4971562678
 30
0.0
 11
7222.0187691644
 21
4108.4971562678
 31
0.0
  0
LINE
  5
4B4
330
1F
100
AcDbEntity
  8
0
  6
Continuous
 62
     7
100
AcDbLine
 10
7222.0187691644
 20
3983.1220940405
 30
0.0
 11
6888.0187777474
 21
3983.1220940405
 31
0.0
  0
LINE
  5
4B5
330
1F
100
AcDbEntity
  8
0
  6
Continuous
 62
     7
100
AcDbLine
 10
6860.0187806085
 20
3983.1220940405
 30
0.0
 11
6288.0187557682
 21
3983.1220940405
 31
0.0
  0
LINE
  5
4B6
330
1F
100
AcDbEntity
  8
0
  6
Continuous
 62
     7
100
AcDbLine
 10
6260.018754904
 20
3983.1220940405
 30
0.0
 11
5688.0187300637
 21
3983.1220940405
 31
0.0
  0
LINE
  5
4B7
330
1F
100
AcDbEntity
  8
0
  6
Continuous
 62
     7
100
AcDbLine
 10
5660.0187329248
 20
3983.1220940405
 30
0.0
 11
5326.0187415078
 21
3983.1220940405
 31
0.0
  0
LINE
  5
4B8
330
1F
100
AcDbEntity
  8
0
  6
Continuous
 62
     7
100
AcDbLine
 10
5326.0187415078
 20
3982.4644759947
 30
0.0
 11
5660.0187329248
 21
3982.4644759947
 31
0.0
  0
LINE
  5
4B9
330
1F
100
AcDbEntity
  8
0
  6
Continuous
 62
     7
100
AcDbLine
 10
5688.0187300637
 20
3982.4644759947
 30
0.0
 11
6260.018754904
 21
3982.4644759947
 31
0.0
  0
LINE
  5
4BA
330
1F
100
AcDbEntity
  8
0
  6
Continuous
 62
     7
100
AcDbLine
 10
6288.0187557682
 20
3982.4644759947
 30
0.0
 11
6860.0187806085
 21
3982.4644759947
 31
0.0
  0
LINE
  5
4BB
330
1F
100
AcDbEntity
  8
0
  6
Continuous
 62
     7
100
AcDbLine
 10
6888.0187777474
 20
3982.4644759947
 30
0.0
 11
7222.0187691644
 21
3982.4644759947
 31
0.0
  0
LWPOLYLINE
  5
4BC
330
1F
100
AcDbEntity
  8
0
  6
Continuous
 62
     7
100
AcDbPolyline
 90
        5
 70
   128
 43
0.0
 10
6266.4680480957
 20
5532.3578409046
 10
6262.771760764
 20
5533.8622239981
 10
6261.1692033323
 20
5537.6634304915
 10
6262.7743171888
 20
5541.4577930853
 10
6266.468755123
 20
5542.9578415245
  0
LWPOLYLINE
  5
4BD
330
1F
100
AcDbEntity
  8
0
  6
Continuous
 62
     7
100
AcDbPolyline
 90
        5
 70
   128
 43
0.0
 10
6281.566619873
 20
5542.9578415245
 10
6285.2638757671
 20
5541.4573199092
 10
6286.8685468888
 20
5537.6548473933
 10
6285.2644614137
 20
5533.8589181135
 10
6281.5687555492
 20
5532.3578409046
  0
LWPOLYLINE
  5
4BE
330
1F
100
AcDbEntity
  8
0
  6
Continuous
 62
     7
100
AcDbPolyline
 90
        5
 70
   128
 43
0.0
 10
6866.4665222168
 20
5532.3578409046
 10
6862.7717584515
 20
5533.8622060767
 10
6861.1691824574
 20
5537.6634254576
 10
6862.7743239917
 20
5541.4577948044
 10
6866.4687780335
 20
5542.9578415245
  0
LWPOLYLINE
  5
4BF
330
1F
100
AcDbEntity
  8
0
  6
Continuous
 62
     7
100
AcDbPolyline
 90
        5
 70
   128
 43
0.0
 10
6881.5650939941
 20
5542.9578415245
 10
6885.2638887334
 20
5541.4573140863
 10
6886.868552603
 20
5537.6548613426
 10
6885.2644583511
 20
5533.85893629
 10
6881.5687803224
 20
5532.3578409046
  0
LWPOLYLINE
  5
4C0
330
1F
100
AcDbEntity
  8
0
  6
Continuous
 62
     7
100
AcDbPolyline
 90
        5
 70
   128
 43
0.0
 10
5666.4657592773
 20
5532.3578409046
 10
5662.7717510061
 20
5533.8622249068
 10
5661.169194358
 20
5537.663426523
 10
5662.7743183186
 20
5541.4577772067
 10
5666.4687303498
 20
5542.9578415245
  0
LWPOLYLINE
  5
4C1
330
1F
100
AcDbEntity
  8
0
  6
Continuous
 62
     7
100
AcDbPolyline
 90
        5
 70
   128
 43
0.0
 10
5681.568145752
 20
5542.9578415245
 10
5685.2638780133
 20
5541.4573363137
 10
5686.8685696966
 20
5537.6548550613
 10
5685.264448992
 20
5533.8589156916
 10
5681.5687326387
 20
5532.3578409046
  0
LWPOLYLINE
  5
4C2
330
1F
100
AcDbEntity
  8
0
  6
Continuous
 62
     7
100
AcDbPolyline
 90
        3
 70
   128
 43
0.0
 10
6292.1829223633
 20
5547.3220489115
 10
6271.6066819654
 20
5546.4043642802
 10
6255.8517532095
 20
5547.3220489115
  0
LWPOLYLINE
  5
4C3
330
1F
100
AcDbEntity
  8
0
  6
Continuous
 62
     7
100
AcDbPolyline
 90
        3
 70
   128
 43
0.0
 10
6292.1829223633
 20
5530.5936328262
 10
6293.9901126797
 20
5540.0274132189
 10
6292.1857574627
 20
5547.3220489115
  0
LWPOLYLINE
  5
4C4
330
1F
100
AcDbEntity
  8
0
  6
Continuous
 62
     7
100
AcDbPolyline
 90
        3
 70
   128
 43
0.0
 10
6255.8517456055
 20
5530.5936328262
 10
6276.4308287068
 20
5531.5113174575
 10
6292.1857574627
 20
5530.5936328262
  0
LWPOLYLINE
  5
4C5
330
1F
100
AcDbEntity
  8
0
  6
Continuous
 62
     7
100
AcDbPolyline
 90
        3
 70
   128
 43
0.0
 10
6255.8517456055
 20
5547.3220489115
 10
6254.0473979925
 20
5537.8882685188
 10
6255.8517532095
 20
5530.5936328262
  0
LWPOLYLINE
  5
4C6
330
1F
100
AcDbEntity
  8
0
  6
Continuous
 62
     7
100
AcDbPolyline
 90
        5
 70
   128
 43
0.0
 10
6266.5176391602
 20
5543.2578391522
 10
6262.6818829852
 20
5541.6963166582
 10
6261.0192321698
 20
5537.7519934122
 10
6262.6844938929
 20
5533.8149090428
 10
6266.5187555037
 20
5532.2578392119
  0
LWPOLYLINE
  5
4C7
330
1F
100
AcDbEntity
  8
0
  6
Continuous
 62
     7
100
AcDbPolyline
 90
        5
 70
   128
 43
0.0
 10
6281.5170288086
 20
5532.2578392119
 10
6285.3556268191
 20
5533.8193681553
 10
6287.0182788923
 20
5537.7636911806
 10
6285.3530172998
 20
5541.7007765923
 10
6281.5187551685
 20
5543.2578391522
  0
LWPOLYLINE
  5
4C8
330
1F
100
AcDbEntity
  8
0
  6
Continuous
 62
     7
100
AcDbPolyline
 90
        3
 70
   128
 43
0.0
 10
6892.1852111816
 20
5547.3220489115
 10
6871.6066809153
 20
5546.404364118
 10
6855.8517602876
 20
5547.3220489115
  0
LWPOLYLINE
  5
4C9
330
1F
100
AcDbEntity
  8
0
  6
Continuous
 62
     7
100
AcDbPolyline
 90
        3
 70
   128
 43
0.0
 10
6892.1852111816
 20
5530.5936328262
 10
6893.9901367097
 20
5540.0274192492
 10
6892.1857384637
 20
5547.3220489115
  0
LWPOLYLINE
  5
4CA
330
1F
100
AcDbEntity
  8
0
  6
Continuous
 62
     7
100
AcDbPolyline
 90
        3
 70
   128
 43
0.0
 10
6855.8502197266
 20
5530.5936328262
 10
6876.4308215259
 20
5531.5113174784
 10
6892.1857384637
 20
5530.5936328262
  0
LWPOLYLINE
  5
4CB
330
1F
100
AcDbEntity
  8
0
  6
Continuous
 62
     7
100
AcDbPolyline
 90
        3
 70
   128
 43
0.0
 10
6855.8502197266
 20
5547.3220489115
 10
6854.0474163909
 20
5537.8882669735
 10
6855.8517602876
 20
5530.5936328262
  0
LWPOLYLINE
  5
4CC
330
1F
100
AcDbEntity
  8
0
  6
Continuous
 62
     7
100
AcDbPolyline
 90
        5
 70
   128
 43
0.0
 10
6866.5161132812
 20
5543.2578391522
 10
6862.6818826746
 20
5541.6962979452
 10
6861.0192255718
 20
5537.7519895686
 10
6862.6844788627
 20
5533.814910161
 10
6866.5187267259
 20
5532.2578392119
  0
LWPOLYLINE
  5
4CD
330
1F
100
AcDbEntity
  8
0
  6
Continuous
 62
     7
100
AcDbPolyline
 90
        5
 70
   128
 43
0.0
 10
6881.5155029297
 20
5532.2578392119
 10
6885.3556214276
 20
5533.8193824423
 10
6887.0182684625
 20
5537.7636846964
 10
6885.3530246503
 20
5541.7007714
 10
6881.5187720254
 20
5543.2578391522
  0
LWPOLYLINE
  5
4CE
330
1F
100
AcDbEntity
  8
0
  6
Continuous
 62
     7
100
AcDbPolyline
 90
        3
 70
   128
 43
0.0
 10
5692.1844482422
 20
5547.3220489115
 10
5671.6066891463
 20
5546.4043642593
 10
5655.8517722085
 20
5547.3220489115
  0
LWPOLYLINE
  5
4CF
330
1F
100
AcDbEntity
  8
0
  6
Continuous
 62
     7
100
AcDbPolyline
 90
        3
 70
   128
 43
0.0
 10
5692.1844482422
 20
5530.5936328262
 10
5693.9900942813
 20
5540.0274147642
 10
5692.1857503846
 20
5547.3220489115
  0
LWPOLYLINE
  5
4D0
330
1F
100
AcDbEntity
  8
0
  6
Continuous
 62
     7
100
AcDbPolyline
 90
        3
 70
   128
 43
0.0
 10
5655.8494567871
 20
5530.5936328262
 10
5676.4308297569
 20
5531.5113176197
 10
5692.1857503846
 20
5530.5936328262
  0
LWPOLYLINE
  5
4D1
330
1F
100
AcDbEntity
  8
0
  6
Continuous
 62
     7
100
AcDbPolyline
 90
        3
 70
   128
 43
0.0
 10
5655.8494567871
 20
5547.3220489115
 10
5654.0473739625
 20
5537.8882624886
 10
5655.8517722085
 20
5530.5936328262
  0
LWPOLYLINE
  5
4D2
330
1F
100
AcDbEntity
  8
0
  6
Continuous
 62
     7
100
AcDbPolyline
 90
        5
 70
   128
 43
0.0
 10
5666.5153503418
 20
5543.2578391522
 10
5662.6818883767
 20
5541.6963023713
 10
5661.0192425996
 20
5537.7519998964
 10
5662.6844865424
 20
5533.8149142351
 10
5666.5187386468
 20
5532.2578392119
  0
LWPOLYLINE
  5
4D3
330
1F
100
AcDbEntity
  8
0
  6
Continuous
 62
     7
100
AcDbPolyline
 90
        5
 70
   128
 43
0.0
 10
5681.5185546875
 20
5532.2578392119
 10
5685.3556271297
 20
5533.8193868683
 10
5687.0182854903
 20
5537.7636950242
 10
5685.35303233
 20
5541.7007754741
 10
5681.5187839463
 20
5543.2578391522
  0
LWPOLYLINE
  5
4D4
330
1F
100
AcDbEntity
  8
0
  6
Continuous
 62
     7
100
AcDbPolyline
 90
       12
 70
   128
 43
0.0
 10
7849.7123718262
 20
5158.2895732612
 10
7853.3564892683
 20
5133.0698927756
 10
7843.8345196377
 20
5118.2430418476
 10
7842.8471531936
 20
5116.9981901244
 10
7842.8083805587
 20
5116.9497844153
 10
7842.805816968
 20
5116.9465946964
 10
7842.8056667212
 20
5116.946410111
 10
7842.8056612694
 20
5116.9464043186
 10
7842.8057568639
 20
5116.9465264008
 10
7842.8060140826
 20
5116.946850299
 10
7842.8110198588
 20
5116.9531163394
 10
7842.8302700042
 20
5116.9771767348
  0
LWPOLYLINE
  5
4D5
330
1F
100
AcDbEntity
  8
0
  6
Continuous
 62
     7
100
AcDbPolyline
 90
        3
 70
   128
 43
0.0
 10
7847.9347229004
 20
5160.9419203491
 10
7848.5286082598
 20
5160.0827576668
 10
7849.7136528014
 20
5158.2895732612
  0
LINE
  5
4D6
330
1F
100
AcDbEntity
  8
0
  6
Continuous
 62
     7
100
AcDbLine
 10
7847.9347229004
 20
5160.9419203491
 30
0.0
 11
7852.465629053
 21
5160.941920349
 31
0.0
  0
LWPOLYLINE
  5
4D7
330
1F
100
AcDbEntity
  8
0
  6
Continuous
 62
     7
100
AcDbPolyline
 90
        5
 70
   128
 43
0.0
 10
7690.8645629883
 20
5532.3578409046
 10
7689.4263928261
 20
5533.8622249068
 10
7688.5883764981
 20
5537.663426523
 10
7689.4280750597
 20
5541.4577772067
 10
7690.8650691032
 20
5542.9578415245
  0
LWPOLYLINE
  5
4D8
330
1F
100
AcDbEntity
  8
0
  6
Continuous
 62
     7
100
AcDbPolyline
 90
        3
 70
   128
 43
0.0
 10
7684.4329833984
 20
5547.3220489115
 10
7682.4833435461
 20
5537.8882624886
 10
7684.435396862
 20
5530.5936328262
  0
LWPOLYLINE
  5
4D9
330
1F
100
AcDbEntity
  8
0
  6
Continuous
 62
     7
100
AcDbPolyline
 90
       10
 70
   128
 43
0.0
 10
7691.7495727539
 20
5546.400210926
 10
7691.7843426331
 20
5546.3957243981
 10
7691.7845002274
 20
5546.3957037482
 10
7691.7845083937
 20
5546.3957027423
 10
7691.7845096673
 20
5546.3957026602
 10
7691.7844913069
 20
5546.3957052985
 10
7691.7837716293
 20
5546.3958028233
 10
7691.7598532181
 20
5546.3990133169
 10
7691.3651398105
 20
5546.4516574494
 10
7684.435396862
 20
5547.3220489115
  0
LWPOLYLINE
  5
4DA
330
1F
100
AcDbEntity
  8
0
  6
Continuous
 62
     7
100
AcDbPolyline
 90
       11
 70
   128
 43
0.0
 10
7684.4329833984
 20
5530.5936328262
 10
7691.3691741568
 20
5531.4645613329
 10
7691.7285416815
 20
5531.5124907756
 10
7691.7541023393
 20
5531.5159107713
 10
7691.7558245419
 20
5531.5161416874
 10
7691.7558822333
 20
5531.5161495167
 10
7691.7558848881
 20
5531.5161498931
 10
7691.7558850426
 20
5531.5161499353
 10
7691.7558779776
 20
5531.5161490334
 10
7691.755642405
 20
5531.5161177882
 10
7691.7507941245
 20
5531.5154708118
  0
LWPOLYLINE
  5
4DB
330
1F
100
AcDbEntity
  8
0
  6
Continuous
 62
     7
100
AcDbPolyline
 90
        5
 70
   128
 43
0.0
 10
7690.7272338867
 20
5543.2578391522
 10
7689.2330035425
 20
5541.6963023713
 10
7688.3524800796
 20
5537.7519998964
 10
7689.2347581839
 20
5533.8149142351
 10
7690.730183792
 20
5532.2578392119
  0
LWPOLYLINE
  5
4DC
330
1F
100
AcDbEntity
  8
0
  6
Continuous
 62
     7
100
AcDbPolyline
 90
        3
 70
   128
 43
0.0
 10
6290.9698486328
 20
4105.8395341689
 10
6289.400757663
 20
4104.4706113249
 10
6288.0187557682
 20
4103.605671292
  0
LWPOLYLINE
  5
4DD
330
1F
100
AcDbEntity
  8
0
  6
Continuous
 62
     7
100
AcDbPolyline
 90
        3
 70
   128
 43
0.0
 10
6260.0173950195
 20
4103.5315827185
 10
6258.322883056
 20
4104.7224587967
 10
6257.110588406
 20
4105.8395341689
  0
LWPOLYLINE
  5
4DE
330
1F
100
AcDbEntity
  8
0
  6
Continuous
 62
     7
100
AcDbPolyline
 90
        3
 70
   128
 43
0.0
 10
6890.9683227539
 20
4105.8395341689
 10
6889.4007730177
 20
4104.4706214488
 10
6888.0187777474
 20
4103.605671292
  0
LWPOLYLINE
  5
4DF
330
1F
100
AcDbEntity
  8
0
  6
Continuous
 62
     7
100
AcDbPolyline
 90
        3
 70
   128
 43
0.0
 10
6860.0158691406
 20
4103.5315827185
 10
6858.322733897
 20
4104.7221375176
 10
6857.1106103852
 20
4105.8395341689
  0
LWPOLYLINE
  5
4E0
330
1F
100
AcDbEntity
  8
0
  6
Continuous
 62
     7
100
AcDbPolyline
 90
        3
 70
   128
 43
0.0
 10
5690.9713745117
 20
4105.8395341689
 10
5689.4007476474
 20
4104.4705873475
 10
5688.0187300637
 20
4103.605671292
  0
LWPOLYLINE
  5
4E1
330
1F
100
AcDbEntity
  8
0
  6
Continuous
 62
     7
100
AcDbPolyline
 90
        3
 70
   128
 43
0.0
 10
5660.0151062012
 20
4103.5315827185
 10
5658.3236150011
 20
4104.7238588793
 10
5657.1105627015
 20
4105.8395341689
  0
ENDSEC
  0
SECTION
  2
OBJECTS
  0
DICTIONARY
  5
C
330
0
100
AcDbDictionary
281
     1
  3
ACAD_GROUP
350
D
  3
ACAD_LAYOUT
350
1A
  3
ACAD_MLINESTYLE
350
17
  3
ACAD_PLOTSETTINGS
350
19
  3
ACAD_PLOTSTYLENAME
350
E
  3
ACAD_SCALELIST
350
47
  3
DWGPROPS
350
4E2
  0
DICTIONARY
  5
D
102
{ACAD_REACTORS
330
C
102
}
330
C
100
AcDbDictionary
281
     1
  0
DICTIONARY
  5
1A
102
{ACAD_REACTORS
330
C
102
}
330
C
100
AcDbDictionary
281
     1
  3
Layout1
350
1E
  3
Layout2
350
26
  3
Model
350
22
  0
DICTIONARY
  5
17
102
{ACAD_REACTORS
330
C
102
}
330
C
100
AcDbDictionary
281
     1
  3
Standard
350
18
  0
DICTIONARY
  5
19
102
{ACAD_REACTORS
330
C
102
}
330
C
100
AcDbDictionary
281
     1
  0
ACDBDICTIONARYWDFLT
  5
E
102
{ACAD_REACTORS
330
C
102
}
330
C
100
AcDbDictionary
281
     1
  3
Normal
350
F
100
AcDbDictionaryWithDefault
340
F
  0
DICTIONARY
  5
47
102
{ACAD_REACTORS
330
C
102
}
330
C
100
AcDbDictionary
281
     1
  3
A0
350
48
  3
A1
350
49
  3
A2
350
4A
  3
A3
350
4B
  3
A4
350
4C
  3
A5
350
4D
  3
A6
350
4E
  3
A7
350
4F
  3
A8
350
50
  3
A9
350
51
  3
B0
350
52
  3
B1
350
53
  3
B2
350
54
  3
B3
350
55
  3
B4
350
56
  3
B5
350
57
  3
B6
350
58
  3
B7
350
59
  3
B8
350
5A
  3
B9
350
5B
  3
C0
350
5C
  3
C1
350
5D
  3
C2
350
5E
  3
C3
350
5F
  3
C4
350
60
  3
C5
350
61
  3
C6
350
62
  3
C7
350
63
  3
C8
350
64
  3
C9
350
65
  3
D0
350
66
  3
D1
350
67
  3
D2
350
68
  0
XRECORD
  5
4E2
102
{ACAD_REACTORS
330
C
102
}
330
C
100
AcDbXrecord
280
     1
  1
DWGPROPS COOKIE
  2

  3

  4

  6

  7

  8
radek.stransky
  9

300
=
301
=
302
=
303
=
304
=
305
=
306
=
307
=
308
=
309
=
 40
0.0
 41
2459096.379972592
 42
2459096.380074109
  1

 90
        0
  0
LAYOUT
  5
1E
102
{ACAD_REACTORS
330
1A
102
}
330
1A
100
AcDbPlotSettings
  1

  2
none_device
  4

  6

 40
0.0
 41
0.0
 42
0.0
 43
0.0
 44
0.0
 45
0.0
 46
0.0
 47
0.0
 48
0.0
 49
0.0
140
0.0
141
0.0
142
1.0
143
1.0
 70
   688
 72
     1
 73
     0
 74
     5
  7

 75
    16
147
1.0
148
0.0
149
0.0
100
AcDbLayout
  1
Layout1
 70
     1
 71
     1
 10
0.0
 20
0.0
 11
420.0
 21
297.0
 12
0.0
 22
0.0
 32
0.0
 14
1.0000000000E+20
 24
1.0000000000E+20
 34
1.0000000000E+20
 15
-1.0000000000E+20
 25
-1.0000000000E+20
 35
-1.0000000000E+20
146
0.0
 13
0.0
 23
0.0
 33
0.0
 16
1.0
 26
0.0
 36
0.0
 17
0.0
 27
1.0
 37
0.0
 76
     0
330
1B
  0
LAYOUT
  5
26
102
{ACAD_REACTORS
330
1A
102
}
330
1A
100
AcDbPlotSettings
  1

  2
none_device
  4

  6

 40
0.0
 41
0.0
 42
0.0
 43
0.0
 44
0.0
 45
0.0
 46
0.0
 47
0.0
 48
0.0
 49
0.0
140
0.0
141
0.0
142
1.0
143
1.0
 70
   688
 72
     1
 73
     0
 74
     5
  7

 75
    16
147
1.0
148
0.0
149
0.0
100
AcDbLayout
  1
Layout2
 70
     1
 71
     2
 10
0.0
 20
0.0
 11
0.0
 21
0.0
 12
0.0
 22
0.0
 32
0.0
 14
0.0
 24
0.0
 34
0.0
 15
0.0
 25
0.0
 35
0.0
146
0.0
 13
0.0
 23
0.0
 33
0.0
 16
1.0
 26
0.0
 36
0.0
 17
0.0
 27
1.0
 37
0.0
 76
     0
330
23
  0
LAYOUT
  5
22
102
{ACAD_REACTORS
330
1A
102
}
330
1A
100
AcDbPlotSettings
  1

  2
none_device
  4
ANSI_A_(11.00_x_8.50_Inches)
  6

 40
6.35
 41
19.05
 42
6.35000508
 43
19.05000254
 44
279.4
 45
215.9
 46
-528.4789484934
 47
-380.3694150377
 48
0.0
 49
0.0
140
0.0
141
0.0
142
0.0038784137
143
1.0
 70
  1696
 72
     0
 73
     0
 74
     0
  7

 75
     0
147
0.0179189148
148
-1300.4909072572
149
0.0
100
AcDbLayout
  1
Model
 70
     1
 71
     0
 10
0.0
 20
0.0
 11
420.0
 21
297.0
 12
0.0
 22
0.0
 32
0.0
 14
5324.018767257
 24
3678.7395479997
 34
0.0
 15
8112.5353999589
 25
5848.4410560817
 35
0.0
146
0.0
 13
0.0
 23
0.0
 33
0.0
 16
1.0
 26
0.0
 36
0.0
 17
0.0
 27
1.0
 37
0.0
 76
     0
330
1F
331
29
  0
MLINESTYLE
  5
18
102
{ACAD_REACTORS
330
17
102
}
330
17
100
AcDbMlineStyle
  2
Standard
 70
     0
  3

 62
   256
 51
90.0
 52
90.0
 71
     2
 49
0.5
 62
   256
  6
BYLAYER
 49
-0.5
 62
   256
  6
BYLAYER
  0
ACDBPLACEHOLDER
  5
F
102
{ACAD_REACTORS
330
E
102
}
330
E
  0
SCALE
  5
48
102
{ACAD_REACTORS
330
47
102
}
330
47
100
AcDbScale
 70
     0
300
1:1
140
1.0
141
1.0
290
     1
  0
SCALE
  5
49
102
{ACAD_REACTORS
330
47
102
}
330
47
100
AcDbScale
 70
     0
300
1:2
140
1.0
141
2.0
290
     0
  0
SCALE
  5
4A
102
{ACAD_REACTORS
330
47
102
}
330
47
100
AcDbScale
 70
     0
300
1:4
140
1.0
141
4.0
290
     0
  0
SCALE
  5
4B
102
{ACAD_REACTORS
330
47
102
}
330
47
100
AcDbScale
 70
     0
300
1:5
140
1.0
141
5.0
290
     0
  0
SCALE
  5
4C
102
{ACAD_REACTORS
330
47
102
}
330
47
100
AcDbScale
 70
     0
300
1:8
140
1.0
141
8.0
290
     0
  0
SCALE
  5
4D
102
{ACAD_REACTORS
330
47
102
}
330
47
100
AcDbScale
 70
     0
300
1:10
140
1.0
141
10.0
290
     0
  0
SCALE
  5
4E
102
{ACAD_REACTORS
330
47
102
}
330
47
100
AcDbScale
 70
     0
300
1:16
140
1.0
141
16.0
290
     0
  0
SCALE
  5
4F
102
{ACAD_REACTORS
330
47
102
}
330
47
100
AcDbScale
 70
     0
300
1:20
140
1.0
141
20.0
290
     0
  0
SCALE
  5
50
102
{ACAD_REACTORS
330
47
102
}
330
47
100
AcDbScale
 70
     0
300
1:30
140
1.0
141
30.0
290
     0
  0
SCALE
  5
51
102
{ACAD_REACTORS
330
47
102
}
330
47
100
AcDbScale
 70
     0
300
1:40
140
1.0
141
40.0
290
     0
  0
SCALE
  5
52
102
{ACAD_REACTORS
330
47
102
}
330
47
100
AcDbScale
 70
     0
300
1:50
140
1.0
141
50.0
290
     0
  0
SCALE
  5
53
102
{ACAD_REACTORS
330
47
102
}
330
47
100
AcDbScale
 70
     0
300
1:100
140
1.0
141
100.0
290
     0
  0
SCALE
  5
54
102
{ACAD_REACTORS
330
47
102
}
330
47
100
AcDbScale
 70
     0
300
2:1
140
2.0
141
1.0
290
     0
  0
SCALE
  5
55
102
{ACAD_REACTORS
330
47
102
}
330
47
100
AcDbScale
 70
     0
300
4:1
140
4.0
141
1.0
290
     0
  0
SCALE
  5
56
102
{ACAD_REACTORS
330
47
102
}
330
47
100
AcDbScale
 70
     0
300
8:1
140
8.0
141
1.0
290
     0
  0
SCALE
  5
57
102
{ACAD_REACTORS
330
47
102
}
330
47
100
AcDbScale
 70
     0
300
10:1
140
10.0
141
1.0
290
     0
  0
SCALE
  5
58
102
{ACAD_REACTORS
330
47
102
}
330
47
100
AcDbScale
 70
     0
300
100:1
140
100.0
141
1.0
290
     0
  0
SCALE
  5
59
102
{ACAD_REACTORS
330
47
102
}
330
47
100
AcDbScale
 70
     0
300
1/128" = 1'-0"
140
0.0078125
141
12.0
290
     0
  0
SCALE
  5
5A
102
{ACAD_REACTORS
330
47
102
}
330
47
100
AcDbScale
 70
     0
300
1/64" = 1'-0"
140
0.015625
141
12.0
290
     0
  0
SCALE
  5
5B
102
{ACAD_REACTORS
330
47
102
}
330
47
100
AcDbScale
 70
     0
300
1/32" = 1'-0"
140
0.03125
141
12.0
290
     0
  0
SCALE
  5
5C
102
{ACAD_REACTORS
330
47
102
}
330
47
100
AcDbScale
 70
     0
300
1/16" = 1'-0"
140
0.0625
141
12.0
290
     0
  0
SCALE
  5
5D
102
{ACAD_REACTORS
330
47
102
}
330
47
100
AcDbScale
 70
     0
300
3/32" = 1'-0"
140
0.09375
141
12.0
290
     0
  0
SCALE
  5
5E
102
{ACAD_REACTORS
330
47
102
}
330
47
100
AcDbScale
 70
     0
300
1/8" = 1'-0"
140
0.125
141
12.0
290
     0
  0
SCALE
  5
5F
102
{ACAD_REACTORS
330
47
102
}
330
47
100
AcDbScale
 70
     0
300
3/16" = 1'-0"
140
0.1875
141
12.0
290
     0
  0
SCALE
  5
60
102
{ACAD_REACTORS
330
47
102
}
330
47
100
AcDbScale
 70
     0
300
1/4" = 1'-0"
140
0.25
141
12.0
290
     0
  0
SCALE
  5
61
102
{ACAD_REACTORS
330
47
102
}
330
47
100
AcDbScale
 70
     0
300
3/8" = 1'-0"
140
0.375
141
12.0
290
     0
  0
SCALE
  5
62
102
{ACAD_REACTORS
330
47
102
}
330
47
100
AcDbScale
 70
     0
300
1/2" = 1'-0"
140
0.5
141
12.0
290
     0
  0
SCALE
  5
63
102
{ACAD_REACTORS
330
47
102
}
330
47
100
AcDbScale
 70
     0
300
3/4" = 1'-0"
140
0.75
141
12.0
290
     0
  0
SCALE
  5
64
102
{ACAD_REACTORS
330
47
102
}
330
47
100
AcDbScale
 70
     0
300
1" = 1'-0"
140
1.0
141
12.0
290
     0
  0
SCALE
  5
65
102
{ACAD_REACTORS
330
47
102
}
330
47
100
AcDbScale
 70
     0
300
1-1/2" = 1'-0"
140
1.5
141
12.0
290
     0
  0
SCALE
  5
66
102
{ACAD_REACTORS
330
47
102
}
330
47
100
AcDbScale
 70
     0
300
3" = 1'-0"
140
3.0
141
12.0
290
     0
  0
SCALE
  5
67
102
{ACAD_REACTORS
330
47
102
}
330
47
100
AcDbScale
 70
     0
300
6" = 1'-0"
140
6.0
141
12.0
290
     0
  0
SCALE
  5
68
102
{ACAD_REACTORS
330
47
102
}
330
47
100
AcDbScale
 70
     0
300
1'-0" = 1'-0"
140
12.0
141
12.0
290
     0
  0
ENDSEC
  0
EOF
