  0
SECTION
  2
HEADER
  9
$ACADVER
  1
AC1015
  9
$ACADMAINTVER
 70
     6
  9
$DWGCODEPAGE
  3
ANSI_1250
  9
$INSBASE
 10
0.0
 20
0.0
 30
0.0
  9
$EXTMIN
 10
0.0
 20
0.0
 30
0.0
  9
$EXTMAX
 10
20000.0
 20
10000.0
 30
0.0
  9
$LIMMIN
 10
0.0
 20
0.0
  9
$LIMMAX
 10
20000.0
 20
10000.0
  9
$ORTHOMODE
 70
     0
  9
$REGENMODE
 70
     1
  9
$FILLMODE
 70
     1
  9
$QTEXTMODE
 70
     0
  9
$MIRRTEXT
 70
     1
  9
$LTSCALE
 40
1.0
  9
$ATTMODE
 70
     1
  9
$TEXTSIZE
 40
2.0
  9
$TRACEWID
 40
1.0
  9
$TEXTSTYLE
  7
Standard
  9
$CLAYER
  8
0
  9
$CELTYPE
  6
ByLayer
  9
$CECOLOR
 62
   256
  9
$CELTSCALE
 40
1.0
  9
$DISPSILH
 70
     0
  9
$DIMSCALE
 40
1.0
  9
$DIMASZ
 40
2.0
  9
$DIMEXO
 40
1.0
  9
$DIMDLI
 40
3.75
  9
$DIMRND
 40
0.0
  9
$DIMDLE
 40
0.0
  9
$DIMEXE
 40
1.0
  9
$DIMTP
 40
0.0
  9
$DIMTM
 40
0.0
  9
$DIMTXT
 40
2.0
  9
$DIMCEN
 40
2.5
  9
$DIMTSZ
 40
0.0
  9
$DIMTOL
 70
     0
  9
$DIMLIM
 70
     0
  9
$DIMTIH
 70
     1
  9
$DIMTOH
 70
     1
  9
$DIMSE1
 70
     0
  9
$DIMSE2
 70
     0
  9
$DIMTAD
 70
     1
  9
$DIMZIN
 70
     0
  9
$DIMBLK
  1

  9
$DIMASO
 70
     1
  9
$DIMSHO
 70
     1
  9
$DIMPOST
  1

  9
$DIMAPOST
  1

  9
$DIMALT
 70
     0
  9
$DIMALTD
 70
     3
  9
$DIMALTF
 40
0.0393700787
  9
$DIMLFAC
 40
1.0
  9
$DIMTOFL
 70
     1
  9
$DIMTVP
 40
0.0
  9
$DIMTIX
 70
     0
  9
$DIMSOXD
 70
     0
  9
$DIMSAH
 70
     0
  9
$DIMBLK1
  1

  9
$DIMBLK2
  1

  9
$DIMSTYLE
  2
ISO-25
  9
$DIMCLRD
 70
     0
  9
$DIMCLRE
 70
     0
  9
$DIMCLRT
 70
     0
  9
$DIMTFAC
 40
1.0
  9
$DIMGAP
 40
1.524
  9
$DIMJUST
 70
     0
  9
$DIMSD1
 70
     0
  9
$DIMSD2
 70
     0
  9
$DIMTOLJ
 70
     0
  9
$DIMTZIN
 70
     0
  9
$DIMALTZ
 70
     0
  9
$DIMALTTZ
 70
     0
  9
$DIMUPT
 70
     0
  9
$DIMDEC
 70
     2
  9
$DIMTDEC
 70
     0
  9
$DIMALTU
 70
     2
  9
$DIMALTTD
 70
     3
  9
$DIMTXSTY
  7
Standard
  9
$DIMAUNIT
 70
     0
  9
$DIMADEC
 70
     2
  9
$DIMALTRND
 40
0.0
  9
$DIMAZIN
 70
     0
  9
$DIMDSEP
 70
    44
  9
$DIMATFIT
 70
     3
  9
$DIMFRAC
 70
     0
  9
$DIMLDRBLK
  1

  9
$DIMLUNIT
 70
     2
  9
$DIMLWD
 70
    -2
  9
$DIMLWE
 70
    -2
  9
$DIMTMOVE
 70
     0
  9
$LUNITS
 70
     2
  9
$LUPREC
 70
     3
  9
$SKETCHINC
 40
1.0
  9
$FILLETRAD
 40
10.0
  9
$AUNITS
 70
     0
  9
$AUPREC
 70
     2
  9
$MENU
  1
.
  9
$ELEVATION
 40
0.0
  9
$PELEVATION
 40
0.0
  9
$THICKNESS
 40
0.0
  9
$LIMCHECK
 70
     0
  9
$CHAMFERA
 40
0.0
  9
$CHAMFERB
 40
0.0
  9
$CHAMFERC
 40
0.0
  9
$CHAMFERD
 40
0.0
  9
$SKPOLY
 70
     0
  9
$TDCREATE
 40
2458696.363992164
  9
$TDUCREATE
 40
2458696.280658831
  9
$TDUPDATE
 40
2458696.363994155
  9
$TDUUPDATE
 40
2458696.280660822
  9
$TDINDWG
 40
0.0000000116
  9
$TDUSRTIMER
 40
0.0000000116
  9
$USRTIMER
 70
     1
  9
$ANGBASE
 50
0.0
  9
$ANGDIR
 70
     0
  9
$PDMODE
 70
     0
  9
$PDSIZE
 40
-1.0
  9
$PLINEWID
 40
0.0
  9
$SPLFRAME
 70
     0
  9
$SPLINETYPE
 70
     6
  9
$SPLINESEGS
 70
     8
  9
$HANDSEED
  5
2DF
  9
$SURFTAB1
 70
     6
  9
$SURFTAB2
 70
     6
  9
$SURFTYPE
 70
     6
  9
$SURFU
 70
     6
  9
$SURFV
 70
     6
  9
$UCSBASE
  2

  9
$UCSNAME
  2

  9
$UCSORG
 10
0.0
 20
0.0
 30
0.0
  9
$UCSXDIR
 10
1.0
 20
0.0
 30
0.0
  9
$UCSYDIR
 10
0.0
 20
1.0
 30
0.0
  9
$UCSORTHOREF
  2

  9
$UCSORTHOVIEW
 70
     0
  9
$UCSORGTOP
 10
0.0
 20
0.0
 30
0.0
  9
$UCSORGBOTTOM
 10
0.0
 20
0.0
 30
0.0
  9
$UCSORGLEFT
 10
0.0
 20
0.0
 30
0.0
  9
$UCSORGRIGHT
 10
0.0
 20
0.0
 30
0.0
  9
$UCSORGFRONT
 10
0.0
 20
0.0
 30
0.0
  9
$UCSORGBACK
 10
0.0
 20
0.0
 30
0.0
  9
$PUCSBASE
  2

  9
$PUCSNAME
  2

  9
$PUCSORG
 10
0.0
 20
0.0
 30
0.0
  9
$PUCSXDIR
 10
1.0
 20
0.0
 30
0.0
  9
$PUCSYDIR
 10
0.0
 20
1.0
 30
0.0
  9
$PUCSORTHOREF
  2

  9
$PUCSORTHOVIEW
 70
     0
  9
$PUCSORGTOP
 10
0.0
 20
0.0
 30
0.0
  9
$PUCSORGBOTTOM
 10
0.0
 20
0.0
 30
0.0
  9
$PUCSORGLEFT
 10
0.0
 20
0.0
 30
0.0
  9
$PUCSORGRIGHT
 10
0.0
 20
0.0
 30
0.0
  9
$PUCSORGFRONT
 10
0.0
 20
0.0
 30
0.0
  9
$PUCSORGBACK
 10
0.0
 20
0.0
 30
0.0
  9
$USERI1
 70
     0
  9
$USERI2
 70
     0
  9
$USERI3
 70
     0
  9
$USERI4
 70
     0
  9
$USERI5
 70
     0
  9
$USERR1
 40
0.0
  9
$USERR2
 40
0.0
  9
$USERR3
 40
0.0
  9
$USERR4
 40
0.0
  9
$USERR5
 40
0.0
  9
$WORLDVIEW
 70
     1
  9
$SHADEDGE
 70
     3
  9
$SHADEDIF
 70
    70
  9
$TILEMODE
 70
     1
  9
$MAXACTVP
 70
    64
  9
$PINSBASE
 10
0.0
 20
0.0
 30
0.0
  9
$PLIMCHECK
 70
     0
  9
$PEXTMIN
 10
1.0000000000E+20
 20
1.0000000000E+20
 30
1.0000000000E+20
  9
$PEXTMAX
 10
-1.0000000000E+20
 20
-1.0000000000E+20
 30
-1.0000000000E+20
  9
$PLIMMIN
 10
0.0
 20
0.0
  9
$PLIMMAX
 10
420.0
 20
297.0
  9
$UNITMODE
 70
     0
  9
$VISRETAIN
 70
     1
  9
$PLINEGEN
 70
     0
  9
$PSLTSCALE
 70
     1
  9
$TREEDEPTH
 70
  3020
  9
$CMLSTYLE
  2
Standard
  9
$CMLJUST
 70
     0
  9
$CMLSCALE
 40
20.0
  9
$PROXYGRAPHICS
 70
     1
  9
$MEASUREMENT
 70
     1
  9
$CELWEIGHT
370
    -1
  9
$ENDCAPS
280
     0
  9
$JOINSTYLE
280
     0
  9
$LWDISPLAY
290
     1
  9
$INSUNITS
 70
     4
  9
$HYPERLINKBASE
  1

  9
$STYLESHEET
  1

  9
$XEDIT
290
     1
  9
$CEPSNTYPE
380
     0
  9
$PSTYLEMODE
290
     1
  9
$FINGERPRINTGUID
  2
{4C0B0E6F-C8F7-4A54-A04B-918F47CACA24}
  9
$VERSIONGUID
  2
{FAEB1C32-E019-11D5-929B-00C0DF256EC4}
  9
$EXTNAMES
290
     1
  9
$PSVPSCALE
 40
0.0
  9
$OLESTARTUP
290
     0
  0
ENDSEC
  0
SECTION
  2
CLASSES
  0
CLASS
  1
ACDBDICTIONARYWDFLT
  2
AcDbDictionaryWithDefault
  3
ObjectDBX Classes
 90
        0
280
     0
281
     0
  0
CLASS
  1
VISUALSTYLE
  2
AcDbVisualStyle
  3
ObjectDBX Classes
 90
     4095
280
     0
281
     0
  0
CLASS
  1
MATERIAL
  2
AcDbMaterial
  3
ObjectDBX Classes
 90
     1153
280
     0
281
     0
  0
CLASS
  1
SCALE
  2
AcDbScale
  3
ObjectDBX Classes
 90
     1153
280
     0
281
     0
  0
CLASS
  1
TABLESTYLE
  2
AcDbTableStyle
  3
ObjectDBX Classes
 90
     4095
280
     0
281
     0
  0
CLASS
  1
MLEADERSTYLE
  2
AcDbMLeaderStyle
  3
ACDB_MLEADERSTYLE_CLASS
 90
     4095
280
     0
281
     0
  0
CLASS
  1
SUN
  2
AcDbSun
  3
SCENEOE
 90
     1153
280
     0
281
     0
  0
CLASS
  1
ACDBPLACEHOLDER
  2
AcDbPlaceHolder
  3
ObjectDBX Classes
 90
        0
280
     0
281
     0
  0
CLASS
  1
LAYOUT
  2
AcDbLayout
  3
ObjectDBX Classes
 90
        0
280
     0
281
     0
  0
ENDSEC
  0
SECTION
  2
TABLES
  0
TABLE
  2
VPORT
  5
8
330
0
100
AcDbSymbolTable
 70
     1
  0
VPORT
  5
29
330
8
100
AcDbSymbolTableRecord
100
AcDbViewportTableRecord
  2
*Active
 70
     0
 10
0.0
 20
0.0
 11
1.0
 21
1.0
 12
10000.0
 22
5000.0
 13
0.0
 23
0.0
 14
10.0
 24
10.0
 15
10.0
 25
10.0
 16
0.0
 26
0.0
 36
1.0
 17
0.0
 27
0.0
 37
0.0
 40
10000.0
 41
2.0
 42
50.0
 43
0.0
 44
0.0
 50
0.0
 51
0.0
 71
     0
 72
  2000
 73
     1
 74
     3
 75
     0
 76
     0
 77
     0
 78
     0
281
     0
 65
     1
110
0.0
120
0.0
130
0.0
111
1.0
121
0.0
131
0.0
112
0.0
122
1.0
132
0.0
 79
     0
146
0.0
  0
ENDTAB
  0
TABLE
  2
LTYPE
  5
5
330
0
100
AcDbSymbolTable
 70
     6
  0
LTYPE
  5
14
330
5
100
AcDbSymbolTableRecord
100
AcDbLinetypeTableRecord
  2
ByBlock
 70
     0
  3

 72
    65
 73
     0
 40
0.0
  0
LTYPE
  5
15
330
5
100
AcDbSymbolTableRecord
100
AcDbLinetypeTableRecord
  2
ByLayer
 70
     0
  3

 72
    65
 73
     0
 40
0.0
  0
LTYPE
  5
16
330
5
100
AcDbSymbolTableRecord
100
AcDbLinetypeTableRecord
  2
Continuous
 70
     0
  3
Solid line
 72
    65
 73
     0
 40
0.0
  0
LTYPE
  5
6E
330
5
100
AcDbSymbolTableRecord
100
AcDbLinetypeTableRecord
  2
HIDDEN
 70
     0
  3
Hidden __ __ __ __ __ __ __ __ __ __ __ __ __ __
 72
    65
 73
     2
 40
1.905
 49
1.27
 74
     0
 49
-0.635
 74
     0
  0
LTYPE
  5
6F
330
5
100
AcDbSymbolTableRecord
100
AcDbLinetypeTableRecord
  2
PHANTOM
 70
     0
  3
Phantom ______  __  __  ______  __  __  ______
 72
    65
 73
     6
 40
12.7
 49
6.35
 74
     0
 49
-1.27
 74
     0
 49
1.27
 74
     0
 49
-1.27
 74
     0
 49
1.27
 74
     0
 49
-1.27
 74
     0
  0
LTYPE
  5
70
330
5
100
AcDbSymbolTableRecord
100
AcDbLinetypeTableRecord
  2
CENTER
 70
     0
  3
Center ____ _ ____ _ ____ _ ____ _ ____ _ ____
 72
    65
 73
     4
 40
10.16
 49
6.35
 74
     0
 49
-1.27
 74
     0
 49
1.27
 74
     0
 49
-1.27
 74
     0
  0
LTYPE
  5
71
330
5
100
AcDbSymbolTableRecord
100
AcDbLinetypeTableRecord
  2
CENTERX2
 70
     0
  3
Center (2x) ________  __  ________  __  _____
 72
    65
 73
     4
 40
20.32
 49
12.7
 74
     0
 49
-2.54
 74
     0
 49
2.54
 74
     0
 49
-2.54
 74
     0
  0
LTYPE
  5
72
330
5
100
AcDbSymbolTableRecord
100
AcDbLinetypeTableRecord
  2
DOT2
 70
     0
  3
Dot (.5x) ........................................
 72
    65
 73
     2
 40
0.635
 49
0.0
 74
     0
 49
-0.635
 74
     0
  0
ENDTAB
  0
TABLE
  2
LAYER
  5
2
330
0
100
AcDbSymbolTable
 70
    13
  0
LAYER
  5
10
330
2
100
AcDbSymbolTableRecord
100
AcDbLayerTableRecord
  2
0
 70
     0
 62
     7
  6
Continuous
370
    -3
390
F
  0
LAYER
  5
73
330
2
100
AcDbSymbolTableRecord
100
AcDbLayerTableRecord
  2
FORMAT
 70
     0
 62
     7
  6
Continuous
370
    -3
390
F
  0
LAYER
  5
74
330
2
100
AcDbSymbolTableRecord
100
AcDbLayerTableRecord
  2
OSA
 70
     0
 62
     7
  6
CENTER
370
    -3
390
F
  0
LAYER
  5
75
330
2
100
AcDbSymbolTableRecord
100
AcDbLayerTableRecord
  2
0_35
 70
     0
 62
     7
  6
Continuous
370
    35
390
F
  0
LAYER
  5
76
330
2
100
AcDbSymbolTableRecord
100
AcDbLayerTableRecord
  2
0_5
 70
     0
 62
     7
  6
Continuous
370
    50
390
F
  0
LAYER
  5
77
330
2
100
AcDbSymbolTableRecord
100
AcDbLayerTableRecord
  2
0_25
 70
     0
 62
     7
  6
Continuous
370
    25
390
F
  0
LAYER
  5
78
330
2
100
AcDbSymbolTableRecord
100
AcDbLayerTableRecord
  2
0_18
 70
     0
 62
     7
  6
Continuous
370
    -3
390
F
  0
LAYER
  5
79
330
2
100
AcDbSymbolTableRecord
100
AcDbLayerTableRecord
  2
SLD-0
 70
     0
 62
   179
  6
Continuous
370
    -3
390
F
  0
LAYER
  5
7A
330
2
100
AcDbSymbolTableRecord
100
AcDbLayerTableRecord
  2
KOTY
 70
     0
 62
     7
  6
Continuous
370
    -3
390
F
  0
LAYER
  5
7B
330
2
100
AcDbSymbolTableRecord
100
AcDbLayerTableRecord
  2
SILNA
 70
     0
 62
   179
  6
Continuous
370
    -3
390
F
  0
LAYER
  5
7C
330
2
100
AcDbSymbolTableRecord
100
AcDbLayerTableRecord
  2
0_18_1
 70
     0
 62
   179
  6
Continuous
370
    -3
390
F
  0
LAYER
  5
7D
330
2
100
AcDbSymbolTableRecord
100
AcDbLayerTableRecord
  2
0_35_1
 70
     0
 62
   179
  6
Continuous
370
    35
390
F
  0
LAYER
  5
7E
330
2
100
AcDbSymbolTableRecord
100
AcDbLayerTableRecord
  2
0_5_1
 70
     0
 62
   179
  6
Continuous
370
    50
390
F
  0
ENDTAB
  0
TABLE
  2
STYLE
  5
3
330
0
100
AcDbSymbolTable
 70
     1
  0
STYLE
  5
11
330
3
100
AcDbSymbolTableRecord
100
AcDbTextStyleTableRecord
  2
Standard
 70
     0
 40
0.0
 41
1.0
 50
0.0
 71
     0
 42
2.0
  3
txt
  4

  0
ENDTAB
  0
TABLE
  2
VIEW
  5
6
330
0
100
AcDbSymbolTable
 70
     0
  0
ENDTAB
  0
TABLE
  2
UCS
  5
7
330
0
100
AcDbSymbolTable
 70
     0
  0
ENDTAB
  0
TABLE
  2
APPID
  5
9
330
0
100
AcDbSymbolTable
 70
     1
  0
APPID
  5
12
330
9
100
AcDbSymbolTableRecord
100
AcDbRegAppTableRecord
  2
ACAD
 70
     0
  0
ENDTAB
  0
TABLE
  2
DIMSTYLE
  5
A
330
0
100
AcDbSymbolTable
 70
     1
100
AcDbDimStyleTable
  0
DIMSTYLE
105
27
330
A
100
AcDbSymbolTableRecord
100
AcDbDimStyleTableRecord
  2
ISO-25
 70
     0
 41
2.5
 42
0.625
 43
3.75
 44
1.25
 73
     0
 74
     0
 77
     1
 78
     8
140
2.5
141
2.5
143
0.0393700787
147
0.625
171
     3
172
     1
178
     0
271
     2
272
     2
274
     3
278
    44
283
     0
284
     8
340
11
  0
ENDTAB
  0
TABLE
  2
BLOCK_RECORD
  5
1
330
0
100
AcDbSymbolTable
 70
     1
  0
BLOCK_RECORD
  5
1F
330
1
100
AcDbSymbolTableRecord
100
AcDbBlockTableRecord
  2
*Model_Space
340
22
  0
BLOCK_RECORD
  5
1B
330
1
100
AcDbSymbolTableRecord
100
AcDbBlockTableRecord
  2
*Paper_Space
340
1E
  0
BLOCK_RECORD
  5
23
330
1
100
AcDbSymbolTableRecord
100
AcDbBlockTableRecord
  2
*Paper_Space0
340
26
  0
ENDTAB
  0
ENDSEC
  0
SECTION
  2
BLOCKS
  0
BLOCK
  5
20
330
1F
100
AcDbEntity
  8
0
100
AcDbBlockBegin
  2
*Model_Space
 70
     0
 10
0.0
 20
0.0
 30
0.0
  3
*Model_Space
  1

  0
ENDBLK
  5
21
330
1F
100
AcDbEntity
  8
0
100
AcDbBlockEnd
  0
BLOCK
  5
1C
330
1B
100
AcDbEntity
 67
     1
  8
0
100
AcDbBlockBegin
  2
*Paper_Space
 70
     0
 10
0.0
 20
0.0
 30
0.0
  3
*Paper_Space
  1

  0
ENDBLK
  5
1D
330
1B
100
AcDbEntity
 67
     1
  8
0
100
AcDbBlockEnd
  0
BLOCK
  5
24
330
23
100
AcDbEntity
  8
0
100
AcDbBlockBegin
  2
*Paper_Space0
 70
     0
 10
0.0
 20
0.0
 30
0.0
  3
*Paper_Space0
  1

  0
ENDBLK
  5
25
330
23
100
AcDbEntity
  8
0
100
AcDbBlockEnd
  0
ENDSEC
  0
SECTION
  2
ENTITIES
  0
LINE
  5
7F
330
1F
100
AcDbEntity
  8
0
  6
Continuous
 62
     7
370
    25
100
AcDbLine
 10
6241.5187522972
 20
5228.1994507999
 30
0.0
 11
6252.0187512243
 21
5206.1994509191
 31
0.0
  0
LINE
  5
80
330
1F
100
AcDbEntity
  8
0
  6
Continuous
 62
     7
370
    25
100
AcDbLine
 10
6296.0187509859
 20
5206.1994509191
 30
0.0
 11
6306.518749913
 21
5228.1994507999
 31
0.0
  0
LINE
  5
81
330
1F
100
AcDbEntity
  8
0
  6
Continuous
 62
     7
370
    25
100
AcDbLine
 10
6306.518749913
 20
5228.1994507999
 30
0.0
 11
6306.518749913
 21
5233.1994609327
 31
0.0
  0
LINE
  5
82
330
1F
100
AcDbEntity
  8
0
  6
Continuous
 62
     7
370
    25
100
AcDbLine
 10
6241.5187522972
 20
5233.1994609327
 30
0.0
 11
6241.5187522972
 21
5228.1994507999
 31
0.0
  0
ARC
  5
83
330
1F
100
AcDbEntity
  8
0
  6
Continuous
 62
     7
370
    25
100
AcDbCircle
 10
6274.0187553361
 20
5176.1994545927
 30
0.0
 40
22.0
100
AcDbArc
 50
180.0
 51
0.0
  0
LINE
  5
84
330
1F
100
AcDbEntity
  8
0
  6
Continuous
 62
     7
370
    25
100
AcDbLine
 10
6252.0187512243
 20
5204.1994617672
 30
0.0
 11
6252.0187512243
 21
5176.1994646282
 31
0.0
  0
LINE
  5
85
330
1F
100
AcDbEntity
  8
0
  6
Continuous
 62
     7
370
    25
100
AcDbLine
 10
6296.0187509859
 20
5176.1994646282
 30
0.0
 11
6296.0187509859
 21
5204.1994617672
 31
0.0
  0
LINE
  5
86
330
1F
100
AcDbEntity
  8
0
  6
Continuous
 62
     7
370
    25
100
AcDbLine
 10
6252.0187512243
 20
5206.1994509191
 30
0.0
 11
6252.0187512243
 21
5204.1994617672
 31
0.0
  0
LINE
  5
87
330
1F
100
AcDbEntity
  8
0
  6
Continuous
 62
     7
370
    25
100
AcDbLine
 10
6296.0187509859
 20
5204.1994617672
 30
0.0
 11
6296.0187509859
 21
5206.1994509191
 31
0.0
  0
LINE
  5
88
330
1F
100
AcDbEntity
  8
0
  6
Continuous
 62
     7
370
    25
100
AcDbLine
 10
6267.5187602842
 20
5163.9584289284
 30
0.0
 11
6267.5187602842
 21
5158.1994579525
 31
0.0
  0
LINE
  5
89
330
1F
100
AcDbEntity
  8
0
  6
Continuous
 62
     7
370
    25
100
AcDbLine
 10
6280.5187568272
 20
5158.1994579525
 30
0.0
 11
6280.5187568272
 21
5163.9639721603
 31
0.0
  0
ARC
  5
8A
330
1F
100
AcDbEntity
  8
0
  6
Continuous
 62
     7
370
    25
100
AcDbCircle
 10
6274.0187553361
 20
5206.1994545927
 30
0.0
 40
27.47006201954353
100
AcDbArc
 50
331.7916081979
 51
18.2023375504
  0
LINE
  5
8B
330
1F
100
AcDbEntity
  8
0
  6
Continuous
 62
     7
370
    25
100
AcDbLine
 10
6296.0187509859
 20
5189.749388525
 30
0.0
 11
6297.3714634979
 21
5191.7338059635
 31
0.0
  0
LINE
  5
8C
330
1F
100
AcDbEntity
  8
0
  6
Continuous
 62
     7
370
    25
100
AcDbLine
 10
6250.6654724682
 20
5191.7347298355
 30
0.0
 11
6252.0187512243
 21
5189.749388525
 31
0.0
  0
ARC
  5
8D
330
1F
100
AcDbEntity
  8
0
  6
Continuous
 62
     7
370
    25
100
AcDbCircle
 10
6274.0187553361
 20
5206.1994545927
 30
0.0
 40
27.470062019543
100
AcDbArc
 50
161.7976624496
 51
208.2055944733
  0
LINE
  5
8E
330
1F
100
AcDbEntity
  8
0
  6
Continuous
 62
     7
370
    25
100
AcDbLine
 10
6306.518749913
 20
5228.1994507999
 30
0.0
 11
6241.5187522972
 21
5228.1994507999
 31
0.0
  0
LINE
  5
8F
330
1F
100
AcDbEntity
  8
0
  6
Continuous
 62
     7
370
    25
100
AcDbLine
 10
6296.0187509859
 20
5206.1994509191
 30
0.0
 11
6252.0187512243
 21
5206.1994509191
 31
0.0
  0
SPLINE
  5
90
330
1F
100
AcDbEntity
  8
0
  6
Continuous
 62
     7
370
    25
100
AcDbSpline
210
0.0
220
0.0
230
1.0
 70
     8
 71
     3
 72
    18
 73
    14
 74
     0
 42
0.000000001
 43
0.00000001
 40
0.0
 40
0.0
 40
0.0
 40
0.0
 40
0.018042262852356
 40
0.164635361981358
 40
0.2745492442254894
 40
0.3850132848763468
 40
0.4817376209493913
 40
0.5698198288313295
 40
0.6563982324287606
 40
0.7470721694933944
 40
0.846997667394018
 40
0.9612832578293299
 40
1.0
 40
1.0
 40
1.0
 40
1.0
 10
6280.465693792145
 20
5163.963972160333
 30
0.0
 10
6280.48268429466
 20
5164.041293825605
 30
0.0
 10
6280.637722360256
 20
5164.746852793187
 30
0.0
 10
6280.009368010891
 20
5165.859506721003
 30
0.0
 10
6278.587664811304
 20
5167.071347480253
 30
0.0
 10
6276.651012948538
 20
5167.785751074923
 30
0.0
 10
6274.489562732414
 20
5168.06020863828
 30
0.0
 10
6272.448068559564
 20
5167.959314849631
 30
0.0
 10
6270.640509453394
 20
5167.547236033436
 30
0.0
 10
6269.114284964579
 20
5166.833173796885
 30
0.0
 10
6268.023553318377
 20
5165.789453197926
 30
0.0
 10
6267.476101844862
 20
5164.78089169312
 30
0.0
 10
6267.584018371752
 20
5164.124521315603
 30
0.0
 10
6267.611326297562
 20
5163.958428928369
 30
0.0
  0
LINE
  5
91
330
1F
100
AcDbEntity
  8
0
  6
Continuous
 62
     7
370
    25
100
AcDbLine
 10
6267.5187602842
 20
5158.1994579525
 30
0.0
 11
6280.5187568272
 21
5158.1994579525
 31
0.0
  0
ARC
  5
92
330
1F
100
AcDbEntity
  8
0
  6
Continuous
 62
     7
370
    25
100
AcDbCircle
 10
6274.0187553361
 20
5206.6994545927
 30
0.0
 40
22.50000000000028
100
AcDbArc
 50
178.6392273013
 51
192.1014920318
  0
ARC
  5
93
330
1F
100
AcDbEntity
  8
0
  6
Continuous
 62
     7
370
    25
100
AcDbCircle
 10
6274.0187553361
 20
5206.6994545927
 30
0.0
 40
22.50000000000028
100
AcDbArc
 50
347.8985079682
 51
1.3607726987
  0
SPLINE
  5
94
330
1F
100
AcDbEntity
  8
0
  6
Continuous
 62
     7
370
    25
100
AcDbSpline
210
0.0
220
0.0
230
1.0
 70
     8
 71
     3
 72
    14
 73
    10
 74
     0
 42
0.000000001
 43
0.00000001
 40
0.0
 40
0.0
 40
0.0
 40
0.0
 40
0.143482396946559
 40
0.2863317166529826
 40
0.4437788801068717
 40
0.5937092322711945
 40
0.7314410394341417
 40
0.8843023521129624
 40
1.0
 40
1.0
 40
1.0
 40
1.0
 10
6297.354699691575
 20
5191.707609722132
 30
0.0
 10
6297.380802538354
 20
5191.759014272871
 30
0.0
 10
6297.432893060168
 20
5191.861596565684
 30
0.0
 10
6297.509010179884
 20
5192.124966023937
 30
0.0
 10
6297.622212866812
 20
5192.420900473418
 30
0.0
 10
6297.79430137989
 20
5192.702475214926
 30
0.0
 10
6297.989425442611
 20
5192.93308635586
 30
0.0
 10
6298.15816488678
 20
5193.108603404496
 30
0.0
 10
6298.213292619605
 20
5193.197552662942
 30
0.0
 10
6298.237042149346
 20
5193.235872814173
 30
0.0
  0
SPLINE
  5
95
330
1F
100
AcDbEntity
  8
0
  6
Continuous
 62
     7
370
    25
100
AcDbSpline
210
0.0
220
0.0
230
1.0
 70
     8
 71
     3
 72
    14
 73
    10
 74
     0
 42
0.000000001
 43
0.00000001
 40
0.0
 40
0.0
 40
0.0
 40
0.0
 40
0.1434928599843105
 40
0.2863331925471198
 40
0.443790625275163
 40
0.5937094510085854
 40
0.7314484759430393
 40
0.8843073502419542
 40
1.0
 40
1.0
 40
1.0
 40
1.0
 10
6249.800460060876
 20
5193.235872814173
 30
0.0
 10
6249.831931180086
 20
5193.187549905181
 30
0.0
 10
6249.894730304988
 20
5193.091123833484
 30
0.0
 10
6250.084763648542
 20
5192.89354706587
 30
0.0
 10
6250.284435845722
 20
5192.647528837454
 30
0.0
 10
6250.442256516107
 20
5192.357718002095
 30
0.0
 10
6250.54442302822
 20
5192.073434771182
 30
0.0
 10
6250.61202038431
 20
5191.839530603201
 30
0.0
 10
6250.661490620549
 20
5191.747329976411
 30
0.0
 10
6250.682802518647
 20
5191.707609722132
 30
0.0
  0
LINE
  5
96
330
1F
100
AcDbEntity
  8
0
  6
Continuous
 62
     7
370
    25
100
AcDbLine
 10
6251.0187491978
 20
5206.1994509191
 30
0.0
 11
6251.0995432938
 21
5208.1254409046
 31
0.0
  0
ARC
  5
97
330
1F
100
AcDbEntity
  8
0
  6
Continuous
 62
     7
370
    25
100
AcDbCircle
 10
6274.0187553361
 20
5206.1994545927
 30
0.0
 40
23.0000000000008
100
AcDbArc
 50
343.0425737058
 51
4.8034796732
  0
ARC
  5
98
330
1F
100
AcDbEntity
  8
0
  6
Continuous
 62
     7
370
    25
100
AcDbCircle
 10
6274.0187553361
 20
5206.1994545927
 30
0.0
 40
23.0
100
AcDbArc
 50
180.0
 51
196.9574262942
  0
LINE
  5
99
330
1F
100
AcDbEntity
  8
0
  6
Continuous
 62
     7
370
    25
100
AcDbLine
 10
6298.3344510401
 20
5193.3154748173
 30
0.0
 11
6298.292757591
 21
5193.3395550938
 31
0.0
  0
LWPOLYLINE
  5
9A
330
1F
100
AcDbEntity
  8
0
  6
Continuous
 62
     7
370
    25
100
AcDbPolyline
 90
        9
 70
   128
 43
0.0
 10
6297.3344490135
 20
5191.5834234447
 10
6297.3725214804
 20
5191.6493461819
 10
6297.4808976257
 20
5191.8370710106
 10
6297.6431116665
 20
5192.1180473061
 10
6297.8344574774
 20
5192.449449131
 10
6298.0257883871
 20
5192.7808807583
 10
6298.1880024279
 20
5193.0618272514
 10
6298.2963934744
 20
5193.2495520801
 10
6298.3344510401
 20
5193.3154748173
  0
LINE
  5
9B
330
1F
100
AcDbEntity
  8
0
  6
Continuous
 62
     7
370
    25
100
AcDbLine
 10
6297.3344490135
 20
5191.5834234447
 30
0.0
 11
6297.2927555645
 21
5191.6075037212
 31
0.0
  0
LINE
  5
9C
330
1F
100
AcDbEntity
  8
0
  6
Continuous
 62
     7
370
    25
100
AcDbLine
 10
6250.7030531967
 20
5191.5834234447
 30
0.0
 11
6250.7447466457
 21
5191.6075037212
 31
0.0
  0
LWPOLYLINE
  5
9D
330
1F
100
AcDbEntity
  8
0
  6
Continuous
 62
     7
370
    25
100
AcDbPolyline
 90
        9
 70
   128
 43
0.0
 10
6249.7030511702
 20
5193.3154748173
 10
6249.741123637
 20
5193.2495520801
 10
6249.8494997824
 20
5193.0618272514
 10
6250.0117138231
 20
5192.7808807583
 10
6250.203059634
 20
5192.449449131
 10
6250.3944054449
 20
5192.1180473061
 10
6250.5566045845
 20
5191.8370710106
 10
6250.664995631
 20
5191.6493461819
 10
6250.7030531967
 20
5191.5834234447
  0
LINE
  5
9E
330
1F
100
AcDbEntity
  8
0
  6
Continuous
 62
     7
370
    25
100
AcDbLine
 10
6249.7030511702
 20
5193.3154748173
 30
0.0
 11
6249.7447595203
 21
5193.3395550938
 31
0.0
  0
ARC
  5
9F
330
1F
100
AcDbEntity
  8
0
  6
Continuous
 62
     7
370
    25
100
AcDbCircle
 10
6297.8344539402
 20
5192.4494545927
 30
0.0
 40
0.9999999999996882
100
AcDbArc
 50
240.0
 51
330.0
  0
ARC
  5
A0
330
1F
100
AcDbEntity
  8
0
  6
Continuous
 62
     7
370
    25
100
AcDbCircle
 10
6297.8344539402
 20
5192.4494545927
 30
0.0
 40
1.000000000000931
100
AcDbArc
 50
330.0
 51
60.0
  0
ARC
  5
A1
330
1F
100
AcDbEntity
  8
0
  6
Continuous
 62
     7
370
    25
100
AcDbCircle
 10
6250.203056732
 20
5192.4494545927
 30
0.0
 40
1.000000000000476
100
AcDbArc
 50
120.0000000001
 51
210.0
  0
ARC
  5
A2
330
1F
100
AcDbEntity
  8
0
  6
Continuous
 62
     7
370
    25
100
AcDbCircle
 10
6250.203056732
 20
5192.4494545927
 30
0.0
 40
1.000000000000476
100
AcDbArc
 50
210.0
 51
300.0
  0
LINE
  5
A3
330
1F
100
AcDbEntity
  8
0
  6
Continuous
 62
     7
370
    25
100
AcDbLine
 10
6624.0187302435
 20
5268.1994573564
 30
0.0
 11
5924.0187570656
 21
5268.1994573564
 31
0.0
  0
ARC
  5
A4
330
1F
100
AcDbEntity
  8
0
  6
Continuous
 62
     7
370
    25
100
AcDbCircle
 10
5929.0187553361
 20
5268.1994545927
 30
0.0
 40
5.0
100
AcDbArc
 50
90.0
 51
180.0
  0
LINE
  5
A5
330
1F
100
AcDbEntity
  8
0
  6
Continuous
 62
     7
370
    25
100
AcDbLine
 10
5929.0187522972
 20
5273.1994525881
 30
0.0
 11
6619.0187648142
 21
5273.1994525881
 31
0.0
  0
ARC
  5
A6
330
1F
100
AcDbEntity
  8
0
  6
Continuous
 62
     7
370
    25
100
AcDbCircle
 10
6619.0187553361
 20
5268.1994545927
 30
0.0
 40
5.0
100
AcDbArc
 50
0.0
 51
90.0
  0
LINE
  5
A7
330
1F
100
AcDbEntity
  8
0
  6
Continuous
 62
     7
370
    25
100
AcDbLine
 10
5924.0187570656
 20
5233.1994609327
 30
0.0
 11
6624.0187302435
 21
5233.1994609327
 31
0.0
  0
LINE
  5
A8
330
1F
100
AcDbEntity
  8
0
  6
Continuous
 62
     7
370
    25
100
AcDbLine
 10
5924.0187570656
 20
5268.1994573564
 30
0.0
 11
5924.0187570656
 21
5233.1994609327
 31
0.0
  0
LINE
  5
A9
330
1F
100
AcDbEntity
  8
0
  6
Continuous
 62
     7
370
    25
100
AcDbLine
 10
6624.0187302435
 20
5233.1994609327
 30
0.0
 11
6624.0187302435
 21
5268.1994573564
 31
0.0
  0
LINE
  5
AA
330
1F
100
AcDbEntity
  8
0
  6
Continuous
 62
     8
370
    25
100
AcDbLine
 10
6296.0187509859
 20
5204.1994617672
 30
0.0
 11
6252.0187512243
 21
5204.1994617672
 31
0.0
  0
ARC
  5
AB
330
1F
100
AcDbEntity
  8
0
  6
Continuous
 62
     8
370
    25
100
AcDbCircle
 10
6274.0187553361
 20
5206.1994545927
 30
0.0
 40
26.47006201954267
100
AcDbArc
 50
180.0
 51
213.7852519552
  0
ARC
  5
AC
330
1F
100
AcDbEntity
  8
0
  6
Continuous
 62
     8
370
    25
100
AcDbCircle
 10
6274.0187553361
 20
5206.1994545927
 30
0.0
 40
26.47006201954374
100
AcDbArc
 50
326.2147480448
 51
15.8890874117
  0
ARC
  5
AD
330
1F
100
AcDbEntity
  8
0
  6
Continuous
 62
     8
370
    25
100
AcDbCircle
 10
6274.0187553361
 20
5206.1994545927
 30
0.0
 40
26.47006201954374
100
AcDbArc
 50
164.1109125883
 51
180.0
  0
LINE
  5
AE
330
1F
100
AcDbEntity
  8
0
  6
Continuous
 62
     7
370
    25
100
AcDbLine
 10
6898.6513364275
 20
5228.1994507999
 30
0.0
 11
6909.1513353546
 21
5206.1994509191
 31
0.0
  0
LINE
  5
AF
330
1F
100
AcDbEntity
  8
0
  6
Continuous
 62
     7
370
    25
100
AcDbLine
 10
6953.1513351162
 20
5206.1994509191
 30
0.0
 11
6963.6513340433
 21
5228.1994507999
 31
0.0
  0
LINE
  5
B0
330
1F
100
AcDbEntity
  8
0
  6
Continuous
 62
     7
370
    25
100
AcDbLine
 10
6963.6513340433
 20
5228.1994507999
 30
0.0
 11
6963.6513340433
 21
5233.1994609327
 31
0.0
  0
LINE
  5
B1
330
1F
100
AcDbEntity
  8
0
  6
Continuous
 62
     7
370
    25
100
AcDbLine
 10
6898.6513364275
 20
5233.1994609327
 30
0.0
 11
6898.6513364275
 21
5228.1994507999
 31
0.0
  0
ARC
  5
B2
330
1F
100
AcDbEntity
  8
0
  6
Continuous
 62
     7
370
    25
100
AcDbCircle
 10
6853.1513341393
 20
5179.3768739476
 30
0.0
 40
5.822580645161923
100
AcDbArc
 50
26.4021743514
 51
81.7378846554
  0
ARC
  5
B3
330
1F
100
AcDbEntity
  8
0
  6
Continuous
 62
     7
370
    25
100
AcDbCircle
 10
6853.1513341393
 20
5179.3768739476
 30
0.0
 40
49.8225806451617
100
AcDbArc
 50
26.4021743514
 51
89.0215998701
  0
LINE
  5
B4
330
1F
100
AcDbEntity
  8
0
  6
Continuous
 62
     7
370
    25
100
AcDbLine
 10
6845.1513248642
 20
5184.1994510384
 30
0.0
 11
6854.0013331135
 21
5184.1994510384
 31
0.0
  0
LINE
  5
B5
330
1F
100
AcDbEntity
  8
0
  6
Continuous
 62
     7
370
    25
100
AcDbLine
 10
6854.0013331135
 20
5229.1994528265
 30
0.0
 11
6845.1513248642
 21
5229.1994528265
 31
0.0
  0
ARC
  5
B6
330
1F
100
AcDbEntity
  8
0
  6
Continuous
 62
     7
370
    25
100
AcDbCircle
 10
6903.1513341393
 20
5204.1994545927
 30
0.0
 40
6.000000000000068
100
AcDbArc
 50
206.4021743514
 51
0.0
  0
ARC
  5
B7
330
1F
100
AcDbEntity
  8
0
  6
Continuous
 62
     7
370
    25
100
AcDbCircle
 10
6903.1513341393
 20
5204.1994545927
 30
0.0
 40
49.99999999999967
100
AcDbArc
 50
313.5705680856
 51
0.0
  0
ARC
  5
B8
330
1F
100
AcDbEntity
  8
0
  6
Continuous
 62
     7
370
    25
100
AcDbCircle
 10
6903.1513341393
 20
5204.1994545927
 30
0.0
 40
50.00000000000043
100
AcDbArc
 50
206.4021743514
 51
295.5053421574
  0
LINE
  5
B9
330
1F
100
AcDbEntity
  8
0
  6
Continuous
 62
     7
370
    25
100
AcDbLine
 10
6909.1513353546
 20
5206.1994509191
 30
0.0
 11
6909.1513353546
 21
5204.1994617672
 31
0.0
  0
LINE
  5
BA
330
1F
100
AcDbEntity
  8
0
  6
Continuous
 62
     7
370
    25
100
AcDbLine
 10
6953.1513351162
 20
5204.1994617672
 30
0.0
 11
6953.1513351162
 21
5206.1994509191
 31
0.0
  0
LINE
  5
BB
330
1F
100
AcDbEntity
  8
0
  6
Continuous
 62
     7
370
    25
100
AcDbLine
 10
6924.6513295134
 20
5159.077523777
 30
0.0
 11
6924.6513295134
 21
5158.1994579525
 31
0.0
  0
LINE
  5
BC
330
1F
100
AcDbEntity
  8
0
  6
Continuous
 62
     7
370
    25
100
AcDbLine
 10
6937.6513409575
 20
5158.1994579525
 30
0.0
 11
6937.6513409575
 21
5167.9829643459
 31
0.0
  0
ARC
  5
BD
330
1F
100
AcDbEntity
  8
0
  6
Continuous
 62
     7
370
    25
100
AcDbCircle
 10
6844.1513341393
 20
5179.7293925732
 30
0.0
 40
1.000000000000909
100
AcDbArc
 50
299.1655300861
 51
0.0
  0
ARC
  5
BE
330
1F
100
AcDbEntity
  8
0
  6
Continuous
 62
     7
370
    25
100
AcDbCircle
 10
6844.1513341393
 20
5232.6695166123
 30
0.0
 40
1.000000000000927
100
AcDbArc
 50
0.0
 51
32.0012645132
  0
LINE
  5
BF
330
1F
100
AcDbEntity
  8
0
  6
Continuous
 62
     7
370
    25
100
AcDbLine
 10
6834.5802026947
 20
5179.0104196758
 30
0.0
 11
6834.6640962322
 21
5179.0079460831
 31
0.0
  0
ARC
  5
C0
330
1F
100
AcDbEntity
  8
0
  6
Continuous
 62
     7
370
    25
100
AcDbCircle
 10
6835.6513341393
 20
5219.9494545927
 30
0.0
 40
1.000000000000909
100
AcDbArc
 50
90.0
 51
180.0
  0
ARC
  5
C1
330
1F
100
AcDbEntity
  8
0
  6
Continuous
 62
     7
370
    25
100
AcDbCircle
 10
6843.6513341393
 20
5219.9494545927
 30
0.0
 40
1.0
100
AcDbArc
 50
0.0
 51
90.0
  0
ARC
  5
C2
330
1F
100
AcDbEntity
  8
0
  6
Continuous
 62
     7
370
    25
100
AcDbCircle
 10
6835.6513341393
 20
5192.4494545927
 30
0.0
 40
1.000000000000909
100
AcDbArc
 50
180.0
 51
270.0
  0
ARC
  5
C3
330
1F
100
AcDbEntity
  8
0
  6
Continuous
 62
     7
370
    25
100
AcDbCircle
 10
6843.6513341393
 20
5192.4494545927
 30
0.0
 40
1.000000000000909
100
AcDbArc
 50
270.0
 51
0.0
  0
LINE
  5
C4
330
1F
100
AcDbEntity
  8
0
  6
Continuous
 62
     7
370
    25
100
AcDbLine
 10
6843.6513441761
 20
5220.9494547338
 30
0.0
 11
6835.6513279637
 21
5220.9494547338
 31
0.0
  0
LINE
  5
C5
330
1F
100
AcDbEntity
  8
0
  6
Continuous
 62
     7
370
    25
100
AcDbLine
 10
6835.6513279637
 20
5191.4494620056
 30
0.0
 11
6843.6513441761
 21
5191.4494620056
 31
0.0
  0
LINE
  5
C6
330
1F
100
AcDbEntity
  8
0
  6
Continuous
 62
     7
370
    25
100
AcDbLine
 10
6844.6513313015
 20
5219.8707894773
 30
0.0
 11
6844.6513313015
 21
5219.9494527073
 31
0.0
  0
LINE
  5
C7
330
1F
100
AcDbEntity
  8
0
  6
Continuous
 62
     7
370
    25
100
AcDbLine
 10
6844.6513313015
 20
5192.449449131
 30
0.0
 11
6844.6513313015
 21
5192.5281272621
 31
0.0
  0
LINE
  5
C8
330
1F
100
AcDbEntity
  8
0
  6
Continuous
 62
     7
370
    25
100
AcDbLine
 10
6834.6513408383
 20
5219.9494527073
 30
0.0
 11
6834.6513408383
 21
5219.7949723692
 31
0.0
  0
LINE
  5
C9
330
1F
100
AcDbEntity
  8
0
  6
Continuous
 62
     7
370
    25
100
AcDbLine
 10
6834.6513408383
 20
5192.6039443703
 30
0.0
 11
6834.6513408383
 21
5192.449449131
 31
0.0
  0
SPLINE
  5
CA
330
1F
100
AcDbEntity
  8
0
  6
Continuous
 62
     7
370
    25
100
AcDbSpline
210
0.0
220
0.0
230
1.0
 70
     8
 71
     3
 72
     9
 73
     5
 74
     0
 42
0.000000001
 43
0.00000001
 40
0.0
 40
0.0
 40
0.0
 40
0.0
 40
0.614149320050058
 40
1.0
 40
1.0
 40
1.0
 40
1.0
 10
6832.812537546934
 20
5233.199460932726
 30
0.0
 10
6832.506327394641
 20
5233.164876203647
 30
0.0
 10
6832.007735045358
 20
5233.108562978263
 30
0.0
 10
6831.462218318737
 20
5233.038296954202
 30
0.0
 10
6831.251730318846
 20
5233.011184761041
 30
0.0
  0
LINE
  5
CB
330
1F
100
AcDbEntity
  8
0
  6
Continuous
 62
     7
370
    25
100
AcDbLine
 10
6833.7029415329
 20
5179.1008101196
 30
0.0
 11
6833.8182169159
 21
5179.0886209698
 31
0.0
  0
SPLINE
  5
CC
330
1F
100
AcDbEntity
  8
0
  6
Continuous
 62
     7
370
    25
100
AcDbSpline
210
0.0
220
0.0
230
1.0
 70
     8
 71
     3
 72
    12
 73
     8
 74
     0
 42
0.000000001
 43
0.00000001
 40
0.0
 40
0.0
 40
0.0
 40
0.0
 40
0.2971623379022801
 40
0.5379755511697233
 40
0.7197464077302473
 40
0.8647986241748873
 40
1.0
 40
1.0
 40
1.0
 40
1.0
 10
6831.012238856139
 20
5179.41605908584
 30
0.0
 10
6831.46617632521
 20
5179.359465899368
 30
0.0
 10
6832.287973804136
 20
5179.257010955381
 30
0.0
 10
6833.305524883766
 20
5179.14291930911
 30
0.0
 10
6834.003274274222
 20
5179.068360279864
 30
0.0
 10
6834.457069801042
 20
5179.021929320907
 30
0.0
 10
6834.52051032501
 20
5179.015572519254
 30
0.0
 10
6834.551115628065
 20
5179.012505838388
 30
0.0
  0
ARC
  5
CD
330
1F
100
AcDbEntity
  8
0
  6
Continuous
 62
     7
370
    25
100
AcDbCircle
 10
6835.6513341393
 20
5178.6994545927
 30
0.0
 40
1.000000000000909
100
AcDbArc
 50
180.0
 51
270.0
  0
LINE
  5
CE
330
1F
100
AcDbEntity
  8
0
  6
Continuous
 62
     7
370
    25
100
AcDbLine
 10
6834.6513408383
 20
5179.0083037109
 30
0.0
 11
6834.6513408383
 21
5178.699462244
 31
0.0
  0
LINE
  5
CF
330
1F
100
AcDbEntity
  8
0
  6
Continuous
 62
     7
370
    25
100
AcDbLine
 10
6844.6513313015
 20
5178.699462244
 30
0.0
 11
6844.6513313015
 21
5178.8567887039
 31
0.0
  0
ARC
  5
D0
330
1F
100
AcDbEntity
  8
0
  6
Continuous
 62
     7
370
    25
100
AcDbCircle
 10
6843.6513341393
 20
5178.6994545927
 30
0.0
 40
1.000000000000909
100
AcDbArc
 50
270.0
 51
0.0
  0
LINE
  5
D1
330
1F
100
AcDbEntity
  8
0
  6
Continuous
 62
     7
370
    25
100
AcDbLine
 10
6963.6513340433
 20
5228.1994507999
 30
0.0
 11
6898.6513364275
 21
5228.1994507999
 31
0.0
  0
LINE
  5
D2
330
1F
100
AcDbEntity
  8
0
  6
Continuous
 62
     7
370
    25
100
AcDbLine
 10
6953.1513351162
 20
5206.1994509191
 30
0.0
 11
6909.1513353546
 21
5206.1994509191
 31
0.0
  0
LINE
  5
D3
330
1F
100
AcDbEntity
  8
0
  6
Continuous
 62
     7
370
    25
100
AcDbLine
 10
6854.0013331135
 20
5184.1994510384
 30
0.0
 11
6854.0013331135
 21
5229.1994528265
 31
0.0
  0
SPLINE
  5
D4
330
1F
100
AcDbEntity
  8
0
  6
Continuous
 62
     7
370
    25
100
AcDbSpline
210
0.0
220
0.0
230
1.0
 70
     8
 71
     3
 72
    17
 73
    13
 74
     0
 42
0.000000001
 43
0.00000001
 40
0.0
 40
0.0
 40
0.0
 40
0.0
 40
0.0689153440577793
 40
0.1541821358231365
 40
0.2434824161353578
 40
0.3418941015847639
 40
0.4544483326230198
 40
0.5845476183659938
 40
0.7280677987572033
 40
0.8343348680117545
 40
0.9210589696924038
 40
1.0
 40
1.0
 40
1.0
 40
1.0
 10
6937.60310589868
 20
5167.982606718057
 30
0.0
 10
6937.585384985625
 20
5167.973058826963
 30
0.0
 10
6937.545738543155
 20
5167.95169762995
 30
0.0
 10
6936.80147132304
 20
5167.541081151569
 30
0.0
 10
6935.576406103462
 20
5166.834577820052
 30
0.0
 10
6933.870101504735
 20
5165.791031411605
 30
0.0
 10
6931.751314841302
 20
5164.398631260465
 30
0.0
 10
6929.35148162223
 20
5162.699913177828
 30
0.0
 10
6927.180427451983
 20
5161.058289793258
 30
0.0
 10
6925.662411878096
 20
5159.86694945384
 30
0.0
 10
6924.798355309602
 20
5159.176363664341
 30
0.0
 10
6924.715874825281
 20
5159.109926691996
 30
0.0
 10
6924.676572080434
 20
5159.078268835062
 30
0.0
  0
LINE
  5
D5
330
1F
100
AcDbEntity
  8
0
  6
Continuous
 62
     7
370
    25
100
AcDbLine
 10
6931.1513352354
 20
5158.1994579525
 30
0.0
 11
6937.6513409575
 21
5158.1994579525
 31
0.0
  0
LINE
  5
D6
330
1F
100
AcDbEntity
  8
0
  6
Continuous
 62
     7
370
    25
100
AcDbLine
 10
6924.6513295134
 20
5158.1994579525
 30
0.0
 11
6931.1513352354
 21
5158.1994579525
 31
0.0
  0
SPLINE
  5
D7
330
1F
100
AcDbEntity
  8
0
  6
Continuous
 62
     7
370
    25
100
AcDbSpline
210
0.0
220
0.0
230
1.0
 70
     8
 71
     3
 72
    11
 73
     7
 74
     0
 42
0.000000001
 43
0.00000001
 40
0.0
 40
0.0
 40
0.0
 40
0.0
 40
0.2869222746017056
 40
0.5725615022087668
 40
0.8874069820409336
 40
1.0
 40
1.0
 40
1.0
 40
1.0
 10
6844.121952648939
 20
5178.743986913675
 30
0.0
 10
6844.209773292398
 20
5178.747259708616
 30
0.0
 10
6844.385021866644
 20
5178.753790663351
 30
0.0
 10
6844.561484875571
 20
5178.81698757216
 30
0.0
 10
6844.654424161056
 20
5178.864844046619
 30
0.0
 10
6844.642116051461
 20
5178.858444601134
 30
0.0
 10
6844.638873930754
 20
5178.85675890159
 30
0.0
  0
LINE
  5
D8
330
1F
100
AcDbEntity
  8
0
  6
Continuous
 62
     7
370
    25
100
AcDbLine
 10
6844.1219526489
 20
5178.7439869137
 30
0.0
 11
6844.1219526489
 21
5191.7076097221
 31
0.0
  0
SPLINE
  5
D9
330
1F
100
AcDbEntity
  8
0
  6
Continuous
 62
     7
370
    25
100
AcDbSpline
210
0.0
220
0.0
230
1.0
 70
     8
 71
     3
 72
    11
 73
     7
 74
     0
 42
0.000000001
 43
0.00000001
 40
0.0
 40
0.0
 40
0.0
 40
0.0
 40
0.2870941570387711
 40
0.5728827661217689
 40
0.8879166216285119
 40
1.0
 40
1.0
 40
1.0
 40
1.0
 10
6844.121952648939
 20
5193.235872814173
 30
0.0
 10
6844.209772961049
 20
5193.187625761541
 30
0.0
 10
6844.38501422629
 20
5193.091351057611
 30
0.0
 10
6844.561481589066
 20
5192.892604458646
 30
0.0
 10
6844.654385351402
 20
5192.701698415343
 30
0.0
 10
6844.642121889817
 20
5192.564561526238
 30
0.0
 10
6844.638903733076
 20
5192.528574296945
 30
0.0
  0
LINE
  5
DA
330
1F
100
AcDbEntity
  8
0
  6
Continuous
 62
     7
370
    25
100
AcDbLine
 10
6844.1219526489
 20
5193.2358728142
 30
0.0
 11
6844.1219526489
 21
5219.1630439253
 31
0.0
  0
SPLINE
  5
DB
330
1F
100
AcDbEntity
  8
0
  6
Continuous
 62
     7
370
    25
100
AcDbSpline
210
0.0
220
0.0
230
1.0
 70
     8
 71
     3
 72
    11
 73
     7
 74
     0
 42
0.000000001
 43
0.00000001
 40
0.0
 40
0.0
 40
0.0
 40
0.0
 40
0.1877311191423462
 40
0.4630890570797764
 40
0.7686934746402124
 40
1.0
 40
1.0
 40
1.0
 40
1.0
 10
6844.638903733076
 20
5219.871236512178
 30
0.0
 10
6844.639785256637
 20
5219.811746798403
 30
0.0
 10
6844.641959770463
 20
5219.664999495214
 30
0.0
 10
6844.534271067648
 20
5219.466541982446
 30
0.0
 10
6844.358658062047
 20
5219.290178980055
 30
0.0
 10
6844.193223492028
 20
5219.201323668954
 30
0.0
 10
6844.121952648939
 20
5219.163043925279
 30
0.0
  0
LINE
  5
DC
330
1F
100
AcDbEntity
  8
0
  6
Continuous
 62
     7
370
    25
100
AcDbLine
 10
6845.1513248642
 20
5206.1994509191
 30
0.0
 11
6845.1513248642
 21
5179.7294007034
 31
0.0
  0
LINE
  5
DD
330
1F
100
AcDbEntity
  8
0
  6
Continuous
 62
     7
370
    25
100
AcDbLine
 10
6845.1513248642
 20
5232.669516036
 30
0.0
 11
6845.1513248642
 21
5206.1994509191
 31
0.0
  0
SPLINE
  5
DE
330
1F
100
AcDbEntity
  8
0
  6
Continuous
 62
     7
370
    25
100
AcDbSpline
210
0.0
220
0.0
230
1.0
 70
     8
 71
     3
 72
    13
 73
     9
 74
     0
 42
0.000000001
 43
0.00000001
 40
0.0
 40
0.0
 40
0.0
 40
0.0
 40
0.0732618959416442
 40
0.2879885250519597
 40
0.5027082503787017
 40
0.7174330810333303
 40
0.9320863372052398
 40
0.9999999999999999
 40
0.9999999999999999
 40
0.9999999999999999
 40
0.9999999999999999
 10
6834.664096232237
 20
5219.794391223902
 30
0.0
 10
6834.660618611002
 20
5219.761323917963
 30
0.0
 10
6834.646948271227
 20
5219.631338138281
 30
0.0
 10
6834.739701788367
 20
5219.40858818232
 30
0.0
 10
6834.932771857782
 20
5219.167411976104
 30
0.0
 10
6835.214288502454
 20
5218.998921514381
 30
0.0
 10
6835.468706797614
 20
5218.937106744191
 30
0.0
 10
6835.615940918164
 20
5218.935021013109
 30
0.0
 10
6835.651327963651
 20
5218.934519717211
 30
0.0
  0
LINE
  5
DF
330
1F
100
AcDbEntity
  8
0
  6
Continuous
 62
     7
370
    25
100
AcDbLine
 10
6835.6513279637
 20
5218.9345197172
 30
0.0
 11
6843.6513441761
 21
5219.0522090883
 31
0.0
  0
SPLINE
  5
E0
330
1F
100
AcDbEntity
  8
0
  6
Continuous
 62
     7
370
    25
100
AcDbSpline
210
0.0
220
0.0
230
1.0
 70
     8
 71
     3
 72
     9
 73
     5
 74
     0
 42
0.000000001
 43
0.00000001
 40
0.0
 40
0.0
 40
0.0
 40
0.0
 40
0.6875162963409439
 40
1.0
 40
1.0
 40
1.0
 40
1.0
 10
6843.651344176115
 20
5219.05220908832
 30
0.0
 10
6843.764356508107
 20
5219.062538864401
 30
0.0
 10
6843.928734185542
 20
5219.077563637104
 30
0.0
 10
6844.075950080763
 20
5219.142692284368
 30
0.0
 10
6844.121952648939
 20
5219.163043925279
 30
0.0
  0
SPLINE
  5
E1
330
1F
100
AcDbEntity
  8
0
  6
Continuous
 62
     7
370
    25
100
AcDbSpline
210
0.0
220
0.0
230
1.0
 70
     8
 71
     3
 72
     9
 73
     5
 74
     0
 42
0.000000001
 43
0.00000001
 40
0.0
 40
0.0
 40
0.0
 40
0.0
 40
0.687520972680704
 40
1.0
 40
1.0
 40
1.0
 40
1.0
 10
6844.121952648939
 20
5193.235872814173
 30
0.0
 10
6844.017661670553
 20
5193.276734778783
 30
0.0
 10
6843.865970329443
 20
5193.336168550599
 30
0.0
 10
6843.70244302816
 20
5193.344198469793
 30
0.0
 10
6843.651344176115
 20
5193.346707651132
 30
0.0
  0
LINE
  5
E2
330
1F
100
AcDbEntity
  8
0
  6
Continuous
 62
     7
370
    25
100
AcDbLine
 10
6843.6513441761
 20
5193.3467076511
 30
0.0
 11
6835.6513279637
 21
5193.4643970222
 31
0.0
  0
SPLINE
  5
E3
330
1F
100
AcDbEntity
  8
0
  6
Continuous
 62
     7
370
    25
100
AcDbSpline
210
0.0
220
0.0
230
1.0
 70
     8
 71
     3
 72
    12
 73
     8
 74
     0
 42
0.000000001
 43
0.00000001
 40
0.0
 40
0.0
 40
0.0
 40
0.0
 40
0.214535053452737
 40
0.429207096772048
 40
0.6438292241409517
 40
0.8585397315061528
 40
1.0
 40
1.0
 40
1.0
 40
1.0
 10
6835.651327963652
 20
5193.464397022241
 30
0.0
 10
6835.539082111705
 20
5193.456284031647
 30
0.0
 10
6835.314518734004
 20
5193.440052869962
 30
0.0
 10
6835.014351968149
 20
5193.292542125119
 30
0.0
 10
6834.790294495853
 20
5193.072916870216
 30
0.0
 10
6834.663129532353
 20
5192.829564810796
 30
0.0
 10
6834.663821431003
 20
5192.66765428975
 30
0.0
 10
6834.664096232236
 20
5192.603348323816
 30
0.0
  0
SPLINE
  5
E4
330
1F
100
AcDbEntity
  8
0
  6
Continuous
 62
     7
370
    25
100
AcDbSpline
210
0.0
220
0.0
230
1.0
 70
     8
 71
     3
 72
     9
 73
     5
 74
     0
 42
0.000000001
 43
0.00000001
 40
0.0
 40
0.0
 40
0.0
 40
0.0
 40
0.6875232222499009
 40
1.0
 40
1.0
 40
1.0
 40
1.0
 10
6844.121952648939
 20
5178.743986913675
 30
0.0
 10
6844.0176620783
 20
5178.748574856692
 30
0.0
 10
6843.86597182659
 20
5178.75524800295
 30
0.0
 10
6843.70244310432
 20
5178.760292133459
 30
0.0
 10
6843.651344176115
 20
5178.761868307108
 30
0.0
  0
LWPOLYLINE
  5
E5
330
1F
100
AcDbEntity
  8
0
  6
Continuous
 62
     7
370
    25
100
AcDbPolyline
 90
        3
 70
   128
 43
0.0
 10
6843.6513441761
 20
5178.7618683071
 10
6836.6220194061
 20
5178.9687262268
 10
6835.6513279637
 20
5178.9972768516
  0
SPLINE
  5
E6
330
1F
100
AcDbEntity
  8
0
  6
Continuous
 62
     7
370
    25
100
AcDbSpline
210
0.0
220
0.0
230
1.0
 70
     8
 71
     3
 72
    12
 73
     8
 74
     0
 42
0.000000001
 43
0.00000001
 40
0.0
 40
0.0
 40
0.0
 40
0.0
 40
0.2146298202582439
 40
0.4293951124385453
 40
0.6441179684506523
 40
0.8589006022688658
 40
0.9999999999999999
 40
0.9999999999999999
 40
0.9999999999999999
 40
0.9999999999999999
 10
6835.651327963651
 20
5178.997276851648
 30
0.0
 10
6835.539082811683
 20
5179.000164996402
 30
0.0
 10
6835.314521659874
 20
5179.005943108877
 30
0.0
 10
6835.014342226977
 20
5179.008933016633
 30
0.0
 10
6834.79031986026
 20
5179.009219873703
 30
0.0
 10
6834.663189751388
 20
5179.008406142997
 30
0.0
 10
6834.663860211766
 20
5179.008396815891
 30
0.0
 10
6834.66412603456
 20
5179.008393117899
 30
0.0
  0
LINE
  5
E7
330
1F
100
AcDbEntity
  8
0
  6
Continuous
 62
     7
370
    25
100
AcDbLine
 10
6831.0631412228
 20
5189.3089400024
 30
0.0
 11
6831.0631412228
 21
5179.4168935509
 31
0.0
  0
SPLINE
  5
E8
330
1F
100
AcDbEntity
  8
0
  6
Continuous
 62
     7
370
    25
100
AcDbSpline
210
0.0
220
0.0
230
1.0
 70
     8
 71
     3
 72
    15
 73
    11
 74
     0
 42
0.000000001
 43
0.00000001
 40
0.0
 40
0.0
 40
0.0
 40
0.0
 40
0.2331866835782623
 40
0.3491945631868296
 40
0.4351106270622955
 40
0.496801257144139
 40
0.5586671922653277
 40
0.6436050314588734
 40
0.8627713328957256
 40
1.0
 40
1.0
 40
1.0
 40
1.0
 10
6831.063141222777
 20
5196.307419368738
 30
0.0
 10
6831.773653806687
 20
5195.841122652962
 30
0.0
 10
6832.837638797468
 20
5195.142848311209
 30
0.0
 10
6833.964420771752
 20
5194.077989067565
 30
0.0
 10
6834.470910068715
 20
5193.315120860853
 30
0.0
 10
6834.628008238489
 20
5192.635932650667
 30
0.0
 10
6834.501006470766
 20
5191.968505687195
 30
0.0
 10
6833.822010566189
 20
5190.967465400019
 30
0.0
 10
6832.562079381983
 20
5190.100925325669
 30
0.0
 10
6831.47984996767
 20
5189.529114002271
 30
0.0
 10
6831.063141222776
 20
5189.308940002436
 30
0.0
  0
LINE
  5
E9
330
1F
100
AcDbEntity
  8
0
  6
Continuous
 62
     7
370
    25
100
AcDbLine
 10
6831.0631412228
 20
5216.0914824696
 30
0.0
 11
6831.0631412228
 21
5196.3074193687
 31
0.0
  0
SPLINE
  5
EA
330
1F
100
AcDbEntity
  8
0
  6
Continuous
 62
     7
370
    25
100
AcDbSpline
210
0.0
220
0.0
230
1.0
 70
     8
 71
     3
 72
    15
 73
    11
 74
     0
 42
0.000000001
 43
0.00000001
 40
0.0
 40
0.0
 40
0.0
 40
0.0
 40
0.2331868449718643
 40
0.3491958358886376
 40
0.435111948386023
 40
0.4968020403779987
 40
0.5586683045798987
 40
0.6436039497370611
 40
0.8627701878833837
 40
1.0
 40
1.0
 40
1.0
 40
1.0
 10
6831.063141222776
 20
5223.089976737017
 30
0.0
 10
6831.773656115288
 20
5222.711860893147
 30
0.0
 10
6832.837647704658
 20
5222.145634791592
 30
0.0
 10
6833.964416688732
 20
5221.202794356064
 30
0.0
 10
6834.470909354706
 20
5220.492633611409
 30
0.0
 10
6834.628007655271
 20
5219.82936657716
 30
0.0
 10
6834.501011488755
 20
5219.149072135196
 30
0.0
 10
6833.821994632855
 20
5218.077743807685
 30
0.0
 10
6832.562073030763
 20
5217.072504961087
 30
0.0
 10
6831.479849799175
 20
5216.364210343952
 30
0.0
 10
6831.063141222777
 20
5216.091482469553
 30
0.0
  0
LINE
  5
EB
330
1F
100
AcDbEntity
  8
0
  6
Continuous
 62
     7
370
    25
100
AcDbLine
 10
6831.0631412228
 20
5232.9820082874
 30
0.0
 11
6831.0631412228
 21
5223.089976737
 31
0.0
  0
SPLINE
  5
EC
330
1F
100
AcDbEntity
  8
0
  6
Continuous
 62
     7
370
    25
100
AcDbSpline
210
0.0
220
0.0
230
1.0
 70
     8
 71
     3
 72
     9
 73
     5
 74
     0
 42
0.000000001
 43
0.00000001
 40
0.0
 40
0.0
 40
0.0
 40
0.0
 40
0.3400936040287159
 40
1.0
 40
1.0
 40
1.0
 40
1.0
 10
6832.866330738843
 20
5233.199460932726
 30
0.0
 10
6832.68311979061
 20
5233.179213548068
 30
0.0
 10
6832.144412369878
 20
5233.119678806991
 30
0.0
 10
6831.493007477575
 20
5233.036740082313
 30
0.0
 10
6831.063141222777
 20
5232.982008287424
 30
0.0
  0
SPLINE
  5
ED
330
1F
100
AcDbEntity
  8
0
  6
Continuous
 62
     7
370
    25
100
AcDbSpline
210
0.0
220
0.0
230
1.0
 70
     8
 71
     3
 72
    14
 73
    10
 74
     0
 42
0.000000001
 43
0.00000001
 40
0.0
 40
0.0
 40
0.0
 40
0.0
 40
0.13843678962366
 40
0.2809977604872918
 40
0.4088919725999645
 40
0.5168156928919223
 40
0.6501746332551518
 40
0.8439601178234238
 40
1.0
 40
1.0
 40
1.0
 40
1.0
 10
6831.063141222777
 20
5216.091482469553
 30
0.0
 10
6830.826536371996
 20
5215.97397333004
 30
0.0
 10
6830.346277956797
 20
5215.735454327038
 30
0.0
 10
6829.626782935235
 20
5215.474112488313
 30
0.0
 10
6829.04698855099
 20
5215.344976397548
 30
0.0
 10
6828.615909114945
 20
5215.357025779299
 30
0.0
 10
6828.294540703227
 20
5215.546386095938
 30
0.0
 10
6828.162021106883
 20
5215.965388805914
 30
0.0
 10
6828.154631331416
 20
5216.396188322494
 30
0.0
 10
6828.151335116209
 20
5216.5883467884
 30
0.0
  0
SPLINE
  5
EE
330
1F
100
AcDbEntity
  8
0
  6
Continuous
 62
     7
370
    25
100
AcDbSpline
210
0.0
220
0.0
230
1.0
 70
     8
 71
     3
 72
    16
 73
    12
 74
     0
 42
0.000000001
 43
0.00000001
 40
0.0
 40
0.0
 40
0.0
 40
0.0
 40
0.010050843337541
 40
0.194416837121347
 40
0.3893156545691511
 40
0.5079272150878239
 40
0.6314003393041894
 40
0.7423098478641569
 40
0.8528226494014888
 40
0.9771967712622447
 40
1.0
 40
1.0
 40
1.0
 40
1.0
 10
6828.151335116209
 20
5195.81055504989
 30
0.0
 10
6828.151356659594
 20
5195.823502434545
 30
0.0
 10
6828.151773380535
 20
5196.073948042848
 30
0.0
 10
6828.171172050888
 20
5196.523512260212
 30
0.0
 10
6828.349452009911
 20
5196.91818404466
 30
0.0
 10
6828.721939732345
 20
5197.061220998931
 30
0.0
 10
6829.175750190892
 20
5197.033760554511
 30
0.0
 10
6829.726978270729
 20
5196.888386437799
 30
0.0
 10
6830.328047124402
 20
5196.66371721574
 30
0.0
 10
6830.779679114301
 20
5196.455887056773
 30
0.0
 10
6831.025114223908
 20
5196.327336600833
 30
0.0
 10
6831.063141222777
 20
5196.307419368738
 30
0.0
  0
LINE
  5
EF
330
1F
100
AcDbEntity
  8
0
  6
Continuous
 62
     7
370
    25
100
AcDbLine
 10
6828.1513351162
 20
5195.8105550499
 30
0.0
 11
6828.1513351162
 21
5216.5883467884
 31
0.0
  0
SPLINE
  5
F0
330
1F
100
AcDbEntity
  8
0
  6
Continuous
 62
     7
370
    25
100
AcDbSpline
210
0.0
220
0.0
230
1.0
 70
     8
 71
     3
 72
    15
 73
    11
 74
     0
 42
0.000000001
 43
0.00000001
 40
0.0
 40
0.0
 40
0.0
 40
0.0
 40
0.1413171153187525
 40
0.3627365996565554
 40
0.4449076693251083
 40
0.5029884920554162
 40
0.5610159583109675
 40
0.6443931288806324
 40
0.7607353502515791
 40
1.0
 40
1.0
 40
1.0
 40
1.0
 10
6830.858667488875
 20
5216.32185442161
 30
0.0
 10
6831.27459626263
 20
5216.583657732604
 30
0.0
 10
6832.34221350596
 20
5217.255661563097
 30
0.0
 10
6833.592972558088
 20
5218.188275184704
 30
0.0
 10
6834.292592740875
 20
5219.181055265689
 30
0.0
 10
6834.424514428029
 20
5219.801953972222
 30
0.0
 10
6834.261727120501
 20
5220.399645567073
 30
0.0
 10
6833.747895593716
 20
5221.028206523183
 30
0.0
 10
6832.616602497652
 20
5221.869098249349
 30
0.0
 10
6831.565730593092
 20
5222.381050192668
 30
0.0
 10
6830.858667488875
 20
5222.725509235376
 30
0.0
  0
ARC
  5
F1
330
1F
100
AcDbEntity
  8
0
  6
Continuous
 62
     7
370
    25
100
AcDbCircle
 10
6832.0656488899
 20
5222.2879586738
 30
0.0
 40
1.283843680634977
100
AcDbArc
 50
141.3397760162
 51
160.0735884446
  0
ARC
  5
F2
330
1F
100
AcDbEntity
  8
0
  6
Continuous
 62
     7
370
    25
100
AcDbCircle
 10
6830.2140186995
 20
5215.5437470371
 30
0.0
 40
1.010456908285412
100
AcDbArc
 50
32.8244655608
 51
50.3588271764
  0
SPLINE
  5
F3
330
1F
100
AcDbEntity
  8
0
  6
Continuous
 62
     7
370
    25
100
AcDbSpline
210
0.0
220
0.0
230
1.0
 70
     8
 71
     3
 72
    15
 73
    11
 74
     0
 42
0.000000001
 43
0.00000001
 40
0.0
 40
0.0
 40
0.0
 40
0.0
 40
0.1413174892027
 40
0.3627375046758399
 40
0.4449077674237972
 40
0.5029897609670502
 40
0.5610147827417747
 40
0.6443933302289107
 40
0.7607350265666446
 40
1.0
 40
1.0
 40
1.0
 40
1.0
 10
6830.858667488875
 20
5189.673392602915
 30
0.0
 10
6831.274596494005
 20
5189.875596316995
 30
0.0
 10
6832.342214170308
 20
5190.394618209441
 30
0.0
 10
6833.592965317089
 20
5191.156810809031
 30
0.0
 10
6834.292595917227
 20
5192.054345713797
 30
0.0
 10
6834.424515678963
 20
5192.657314276617
 30
0.0
 10
6834.26171779581
 20
5193.277132361075
 30
0.0
 10
6833.747905356125
 20
5193.975646447569
 30
0.0
 10
6832.616594064045
 20
5194.970589008257
 30
0.0
 10
6831.565728012117
 20
5195.632015711572
 30
0.0
 10
6830.858667488874
 20
5196.077047416681
 30
0.0
  0
ARC
  5
F4
330
1F
100
AcDbEntity
  8
0
  6
Continuous
 62
     7
370
    25
100
AcDbCircle
 10
6830.2140186995
 20
5196.8551548012
 30
0.0
 40
1.010456908285412
100
AcDbArc
 50
309.6411728236
 51
327.1755344392
  0
ARC
  5
F5
330
1F
100
AcDbEntity
  8
0
  6
Continuous
 62
     7
370
    25
100
AcDbCircle
 10
6832.0654937981
 20
5190.1108889426
 30
0.0
 40
1.283679394473687
100
AcDbArc
 50
199.9264955389
 51
218.6621392404
  0
SPLINE
  5
F6
330
1F
100
AcDbEntity
  8
0
  6
Continuous
 62
     7
370
    25
100
AcDbSpline
210
0.0
220
0.0
230
1.0
 70
     8
 71
     3
 72
    16
 73
    12
 74
     0
 42
0.000000001
 43
0.00000001
 40
0.0
 40
0.0
 40
0.0
 40
0.0
 40
0.0229780790920063
 40
0.1472966545850798
 40
0.2558694872498582
 40
0.3628944931561655
 40
0.481081251833418
 40
0.5963711449559528
 40
0.7937912267806091
 40
0.9891713795341389
 40
1.0
 40
1.0
 40
1.0
 40
1.0
 10
6830.858667488875
 20
5196.077047416681
 30
0.0
 10
6830.826983914933
 20
5196.096145843144
 30
0.0
 10
6830.623882322843
 20
5196.218572714182
 30
0.0
 10
6830.250594095189
 20
5196.415263419975
 30
0.0
 10
6829.749553320062
 20
5196.62515070623
 30
0.0
 10
6829.287615988394
 20
5196.755318359384
 30
0.0
 10
6828.904654886992
 20
5196.766209712792
 30
0.0
 10
6828.591339603676
 20
5196.601499146576
 30
0.0
 10
6828.447423298473
 20
5196.189579899654
 30
0.0
 10
6828.432424018813
 20
5195.7533039022
 30
0.0
 10
6828.43217545298
 20
5195.511972601096
 30
0.0
 10
6828.432162400069
 20
5195.499299594873
 30
0.0
  0
ARC
  5
F7
330
1F
100
AcDbEntity
  8
0
  6
Continuous
 62
     7
370
    25
100
AcDbCircle
 10
6828.5106700289
 20
5195.8524469637
 30
0.0
 40
0.361768588872603
100
AcDbArc
 50
186.6496282487
 51
257.4664867625
  0
SPLINE
  5
F8
330
1F
100
AcDbEntity
  8
0
  6
Continuous
 62
     7
370
    25
100
AcDbSpline
210
0.0
220
0.0
230
1.0
 70
     8
 71
     3
 72
    14
 73
    10
 74
     0
 42
0.000000001
 43
0.00000001
 40
0.0
 40
0.0
 40
0.0
 40
0.0
 40
0.1661270782728495
 40
0.3644957418305808
 40
0.4951046756982524
 40
0.5985775974517983
 40
0.7214923719537634
 40
0.8613633962731841
 40
1.0
 40
1.0
 40
1.0
 40
1.0
 10
6828.432162400069
 20
5216.899617144579
 30
0.0
 10
6828.434806537657
 20
5216.711533679785
 30
0.0
 10
6828.440607981358
 20
5216.298863916739
 30
0.0
 10
6828.546283419654
 20
5215.867448373988
 30
0.0
 10
6828.815663036139
 20
5215.657097037464
 30
0.0
 10
6829.17887771625
 20
5215.627464748593
 30
0.0
 10
6829.667865914245
 20
5215.740206905845
 30
0.0
 10
6830.267949796314
 20
5215.98466959401
 30
0.0
 10
6830.662344278771
 20
5216.209792080179
 30
0.0
 10
6830.858667488875
 20
5216.32185442161
 30
0.0
  0
ARC
  5
F9
330
1F
100
AcDbEntity
  8
0
  6
Continuous
 62
     7
370
    25
100
AcDbCircle
 10
6828.5106881766
 20
5216.546455408
 30
0.0
 40
0.3617865527361003
100
AcDbArc
 50
102.5358249954
 51
173.3507884701
  0
LINE
  5
FA
330
1F
100
AcDbEntity
  8
0
  6
Continuous
 62
     7
370
    25
100
AcDbLine
 10
6828.4321624001
 20
5219.9499742479
 30
0.0
 11
6828.4321624001
 21
5216.8996171446
 31
0.0
  0
SPLINE
  5
FB
330
1F
100
AcDbEntity
  8
0
  6
Continuous
 62
     7
370
    25
100
AcDbSpline
210
0.0
220
0.0
230
1.0
 70
     8
 71
     3
 72
    16
 73
    12
 74
     0
 42
0.000000001
 43
0.00000001
 40
0.0
 40
0.0
 40
0.0
 40
0.0
 40
0.0229779311379937
 40
0.1472952797827496
 40
0.2558692679391061
 40
0.3628932427539223
 40
0.4810803561502117
 40
0.5963675185016661
 40
0.7937912696864092
 40
0.9891691544884388
 40
1.0
 40
1.0
 40
1.0
 40
1.0
 10
6830.858667488875
 20
5222.725509235376
 30
0.0
 10
6830.82698394787
 20
5222.739712825489
 30
0.0
 10
6830.623883154818
 20
5222.830762005115
 30
0.0
 10
6830.250586216536
 20
5222.93089113928
 30
0.0
 10
6829.749560369419
 20
5222.919850068384
 30
0.0
 10
6829.287611086626
 20
5222.747305330267
 30
0.0
 10
6828.904661187236
 20
5222.3890292373
 30
0.0
 10
6828.591330683753
 20
5221.77009437385
 30
0.0
 10
6828.447427738784
 20
5220.935956878325
 30
0.0
 10
6828.432423866867
 20
5220.2894443225
 30
0.0
 10
6828.432175447949
 20
5219.966914697241
 30
0.0
 10
6828.432162400069
 20
5219.949974247927
 30
0.0
  0
SPLINE
  5
FC
330
1F
100
AcDbEntity
  8
0
  6
Continuous
 62
     7
370
    25
100
AcDbSpline
210
0.0
220
0.0
230
1.0
 70
     8
 71
     3
 72
    14
 73
    10
 74
     0
 42
0.000000001
 43
0.00000001
 40
0.0
 40
0.0
 40
0.0
 40
0.0
 40
0.1661308211966503
 40
0.3644969642065487
 40
0.4951029009844472
 40
0.5985778296643173
 40
0.7214925774747556
 40
0.8613632055086691
 40
1.0
 40
1.0
 40
1.0
 40
1.0
 10
6828.432162400069
 20
5192.448942491525
 30
0.0
 10
6828.434806492739
 20
5192.186604509011
 30
0.0
 10
6828.440607726636
 20
5191.611025591542
 30
0.0
 10
6828.546279277218
 20
5190.796430686987
 30
0.0
 10
6828.815671517121
 20
5190.145580162611
 30
0.0
 10
6829.178872427438
 20
5189.726569373246
 30
0.0
 10
6829.667865742921
 20
5189.483185096708
 30
0.0
 10
6830.267951215033
 20
5189.452038420644
 30
0.0
 10
6830.662344473191
 20
5189.599826116732
 30
0.0
 10
6830.858667488875
 20
5189.673392602915
 30
0.0
  0
LINE
  5
FD
330
1F
100
AcDbEntity
  8
0
  6
Continuous
 62
     7
370
    25
100
AcDbLine
 10
6828.4321624001
 20
5195.4992995949
 30
0.0
 11
6828.4321624001
 21
5192.4489424915
 31
0.0
  0
LINE
  5
FE
330
1F
100
AcDbEntity
  8
0
  6
Continuous
 62
     7
370
    25
100
AcDbLine
 10
6835.6513279637
 20
5220.4494611711
 30
0.0
 11
6843.6513441761
 21
5220.4494611711
 31
0.0
  0
LINE
  5
FF
330
1F
100
AcDbEntity
  8
0
  6
Continuous
 62
     7
370
    25
100
AcDbLine
 10
6843.6513441761
 20
5219.083427021
 30
0.0
 11
6843.6513441761
 21
5220.4494611711
 31
0.0
  0
LINE
  5
100
330
1F
100
AcDbEntity
  8
0
  6
Continuous
 62
     7
370
    25
100
AcDbLine
 10
6843.6513441761
 20
5219.083427021
 30
0.0
 11
6835.6513279637
 21
5219.083427021
 31
0.0
  0
LINE
  5
101
330
1F
100
AcDbEntity
  8
0
  6
Continuous
 62
     7
370
    25
100
AcDbLine
 10
6835.6513279637
 20
5219.083427021
 30
0.0
 11
6835.6513279637
 21
5220.4494611711
 31
0.0
  0
LINE
  5
102
330
1F
100
AcDbEntity
  8
0
  6
Continuous
 62
     7
370
    25
100
AcDbLine
 10
6835.6513279637
 20
5193.3154748173
 30
0.0
 11
6835.6513279637
 21
5191.9494555683
 31
0.0
  0
LINE
  5
103
330
1F
100
AcDbEntity
  8
0
  6
Continuous
 62
     7
370
    25
100
AcDbLine
 10
6835.6513279637
 20
5191.9494555683
 30
0.0
 11
6843.6513441761
 21
5191.9494555683
 31
0.0
  0
LINE
  5
104
330
1F
100
AcDbEntity
  8
0
  6
Continuous
 62
     7
370
    25
100
AcDbLine
 10
6835.6513279637
 20
5193.3154748173
 30
0.0
 11
6843.6513441761
 21
5193.3154748173
 31
0.0
  0
LINE
  5
105
330
1F
100
AcDbEntity
  8
0
  6
Continuous
 62
     7
370
    25
100
AcDbLine
 10
6843.6513441761
 20
5191.9494555683
 30
0.0
 11
6843.6513441761
 21
5193.3154748173
 31
0.0
  0
LINE
  5
106
330
1F
100
AcDbEntity
  8
0
  6
Continuous
 62
     7
370
    25
100
AcDbLine
 10
6843.6513441761
 20
5219.083427021
 30
0.0
 11
6843.6513441761
 21
5219.0522090883
 31
0.0
  0
LINE
  5
107
330
1F
100
AcDbEntity
  8
0
  6
Continuous
 62
     7
370
    25
100
AcDbLine
 10
6843.6513441761
 20
5193.3154748173
 30
0.0
 11
6843.6513441761
 21
5193.3467076511
 31
0.0
  0
LINE
  5
108
330
1F
100
AcDbEntity
  8
0
  6
Continuous
 62
     7
370
    25
100
AcDbLine
 10
6835.6513279637
 20
5219.083427021
 30
0.0
 11
6835.6513279637
 21
5218.9345197172
 31
0.0
  0
LINE
  5
109
330
1F
100
AcDbEntity
  8
0
  6
Continuous
 62
     7
370
    25
100
AcDbLine
 10
6835.6513279637
 20
5193.3154748173
 30
0.0
 11
6835.6513279637
 21
5193.4643970222
 31
0.0
  0
LWPOLYLINE
  5
10A
330
1F
100
AcDbEntity
  8
0
  6
Continuous
 62
     7
370
    25
100
AcDbPolyline
 90
        9
 70
   128
 43
0.0
 10
6828.1513351162
 20
5192.5740228386
 10
6828.1561928948
 20
5192.554651329
 10
6828.1707066258
 20
5192.5356672497
 10
6828.1945484837
 20
5192.5173984261
 10
6828.227301236
 20
5192.5002620907
 10
6828.2683092316
 20
5192.4845562668
 10
6828.3167678078
 20
5192.4705789776
 10
6828.3717232903
 20
5192.4586282463
 10
6828.4321624001
 20
5192.4489424915
  0
LINE
  5
10B
330
1F
100
AcDbEntity
  8
0
  6
Continuous
 62
     7
370
    25
100
AcDbLine
 10
6828.1513351162
 20
5192.5740228386
 30
0.0
 11
6828.1513351162
 21
5195.8105550499
 31
0.0
  0
LWPOLYLINE
  5
10C
330
1F
100
AcDbEntity
  8
0
  6
Continuous
 62
     7
370
    25
100
AcDbPolyline
 90
        9
 70
   128
 43
0.0
 10
6828.1513351162
 20
5219.8248939009
 10
6828.1561928948
 20
5219.8442654104
 10
6828.1707066258
 20
5219.8632494898
 10
6828.1945484837
 20
5219.8815034122
 10
6828.227301236
 20
5219.8986397476
 10
6828.2683092316
 20
5219.9143455715
 10
6828.3167678078
 20
5219.9283228607
 10
6828.3717232903
 20
5219.940273592
 10
6828.4321624001
 20
5219.9499742479
  0
LINE
  5
10D
330
1F
100
AcDbEntity
  8
0
  6
Continuous
 62
     7
370
    25
100
AcDbLine
 10
6828.1513351162
 20
5216.5883467884
 30
0.0
 11
6828.1513351162
 21
5219.8248939009
 31
0.0
  0
SPLINE
  5
10E
330
1F
100
AcDbEntity
  8
0
  6
Continuous
 62
     7
370
    25
100
AcDbSpline
210
0.0
220
0.0
230
1.0
 70
     8
 71
     3
 72
    16
 73
    12
 74
     0
 42
0.000000001
 43
0.00000001
 40
0.0
 40
0.0
 40
0.0
 40
0.0
 40
0.0100504564311516
 40
0.1944164663436558
 40
0.389315507204981
 40
0.5079277000987448
 40
0.6314003919480506
 40
0.7423104091746
 40
0.8528237663130106
 40
0.977197485651006
 40
1.0
 40
1.0
 40
1.0
 40
1.0
 10
6828.151335116209
 20
5219.824893900865
 30
0.0
 10
6828.151356660416
 20
5219.843542491228
 30
0.0
 10
6828.151773412484
 20
5220.204281634305
 30
0.0
 10
6828.17117168796
 20
5220.943882306232
 30
0.0
 10
6828.349453548967
 20
5221.891693995626
 30
0.0
 10
6828.721937220918
 20
5222.606710026671
 30
0.0
 10
6829.175752966526
 20
5223.037599594658
 30
0.0
 10
6829.726977993703
 20
5223.263828427326
 30
0.0
 10
6830.328045933446
 20
5223.303340209768
 30
0.0
 10
6830.779672604962
 20
5223.203600065147
 30
0.0
 10
6831.025114132332
 20
5223.105219216444
 30
0.0
 10
6831.063141222777
 20
5223.089976737017
 30
0.0
  0
SPLINE
  5
10F
330
1F
100
AcDbEntity
  8
0
  6
Continuous
 62
     7
370
    25
100
AcDbSpline
210
0.0
220
0.0
230
1.0
 70
     8
 71
     3
 72
    14
 73
    10
 74
     0
 42
0.000000001
 43
0.00000001
 40
0.0
 40
0.0
 40
0.0
 40
0.0
 40
0.1384371165729217
 40
0.280998389398544
 40
0.4088923165490135
 40
0.51681574543195
 40
0.6501731203306599
 40
0.8439552986901129
 40
0.9999999999999999
 40
0.9999999999999999
 40
0.9999999999999999
 40
0.9999999999999999
 10
6831.063141222777
 20
5189.308940002436
 30
0.0
 10
6830.826536316598
 20
5189.23161724188
 30
0.0
 10
6830.346277848308
 20
5189.074668211752
 30
0.0
 10
6829.626784756057
 20
5189.145662476459
 30
0.0
 10
6829.046988352903
 20
5189.453592935156
 30
0.0
 10
6828.615911100764
 20
5189.951660361113
 30
0.0
 10
6828.294541014423
 20
5190.698504059848
 30
0.0
 10
6828.16201915111
 20
5191.626353800501
 30
0.0
 10
6828.154630788664
 20
5192.281698190299
 30
0.0
 10
6828.151335116209
 20
5192.574022838587
 30
0.0
  0
SPLINE
  5
110
330
1F
100
AcDbEntity
  8
0
  6
Continuous
 62
     7
370
    25
100
AcDbSpline
210
0.0
220
0.0
230
1.0
 70
     8
 71
     3
 72
    14
 73
    10
 74
     0
 42
0.000000001
 43
0.00000001
 40
0.0
 40
0.0
 40
0.0
 40
0.0
 40
0.1384376788417832
 40
0.2809996784647196
 40
0.4088923524325789
 40
0.5168172642174739
 40
0.6501761172476035
 40
0.8439589814894686
 40
1.0
 40
1.0
 40
1.0
 40
1.0
 10
6831.063141222777
 20
5232.982008287424
 30
0.0
 10
6830.826535933876
 20
5232.94181579887
 30
0.0
 10
6830.346276436171
 20
5232.860233411368
 30
0.0
 10
6829.626791945278
 20
5232.527901406993
 30
0.0
 10
6829.04698082847
 20
5232.090845782054
 30
0.0
 10
6828.615912880809
 20
5231.604834586875
 30
0.0
 10
6828.294541600378
 20
5231.047329650404
 30
0.0
 10
6828.162020174112
 20
5230.538481595433
 30
0.0
 10
6828.154631069959
 20
5230.313945450021
 30
0.0
 10
6828.151335116209
 20
5230.21378977012
 30
0.0
  0
LINE
  5
111
330
1F
100
AcDbEntity
  8
0
  6
Continuous
 62
     7
370
    25
100
AcDbLine
 10
6828.1513351162
 20
5219.8248939009
 30
0.0
 11
6828.1513351162
 21
5230.2137897701
 31
0.0
  0
SPLINE
  5
112
330
1F
100
AcDbEntity
  8
0
  6
Continuous
 62
     7
370
    25
100
AcDbSpline
210
0.0
220
0.0
230
1.0
 70
     8
 71
     3
 72
    16
 73
    12
 74
     0
 42
0.000000001
 43
0.00000001
 40
0.0
 40
0.0
 40
0.0
 40
0.0
 40
0.0100484943201026
 40
0.1944146515459633
 40
0.3893129586913987
 40
0.5079264593887062
 40
0.6313981207786435
 40
0.7423071162846963
 40
0.8528224617895146
 40
0.9771970549765733
 40
1.0
 40
1.0
 40
1.0
 40
1.0
 10
6828.151335116209
 20
5182.18511206817
 30
0.0
 10
6828.151356664344
 20
5182.179410842511
 30
0.0
 10
6828.151773569914
 20
5182.069105580371
 30
0.0
 10
6828.17117027524
 20
5181.779060861779
 30
0.0
 10
6828.34945745364
 20
5181.225940420682
 30
0.0
 10
6828.721932956939
 20
5180.653962508165
 30
0.0
 10
6829.175751531787
 20
5180.195627838345
 30
0.0
 10
6829.726987964666
 20
5179.824029745037
 30
0.0
 10
6830.328039542679
 20
5179.559797625339
 30
0.0
 10
6830.779675505838
 20
5179.451742056812
 30
0.0
 10
6831.025114191459
 20
5179.421568490896
 30
0.0
 10
6831.063141222777
 20
5179.416893550867
 30
0.0
  0
LINE
  5
113
330
1F
100
AcDbEntity
  8
0
  6
Continuous
 62
     7
370
    25
100
AcDbLine
 10
6828.1513351162
 20
5182.1851120682
 30
0.0
 11
6828.1513351162
 21
5192.5740228386
 31
0.0
  0
LINE
  5
114
330
1F
100
AcDbEntity
  8
0
  6
Continuous
 62
     7
370
    25
100
AcDbLine
 10
6835.6513279637
 20
5178.699462244
 30
0.0
 11
6835.6513279637
 21
5177.6994453163
 31
0.0
  0
LINE
  5
115
330
1F
100
AcDbEntity
  8
0
  6
Continuous
 62
     7
370
    25
100
AcDbLine
 10
6835.6513279637
 20
5177.6994453163
 30
0.0
 11
6843.6513441761
 21
5177.6994453163
 31
0.0
  0
LINE
  5
116
330
1F
100
AcDbEntity
  8
0
  6
Continuous
 62
     7
370
    25
100
AcDbLine
 10
6835.6513279637
 20
5178.699462244
 30
0.0
 11
6843.6513441761
 21
5178.699462244
 31
0.0
  0
LINE
  5
117
330
1F
100
AcDbEntity
  8
0
  6
Continuous
 62
     7
370
    25
100
AcDbLine
 10
6843.6513441761
 20
5177.6994453163
 30
0.0
 11
6843.6513441761
 21
5178.699462244
 31
0.0
  0
LINE
  5
118
330
1F
100
AcDbEntity
  8
0
  6
Continuous
 62
     7
370
    25
100
AcDbLine
 10
6835.6513279637
 20
5178.699462244
 30
0.0
 11
6835.6513279637
 21
5178.9972768516
 31
0.0
  0
LINE
  5
119
330
1F
100
AcDbEntity
  8
0
  6
Continuous
 62
     7
370
    25
100
AcDbLine
 10
6843.6513441761
 20
5178.699462244
 30
0.0
 11
6843.6513441761
 21
5178.7618683071
 31
0.0
  0
LINE
  5
11A
330
1F
100
AcDbEntity
  8
0
  6
Continuous
 62
     7
370
    25
100
AcDbLine
 10
6836.1513215264
 20
5273.1994525881
 30
0.0
 11
7526.1513489445
 21
5273.1994525881
 31
0.0
  0
ARC
  5
11B
330
1F
100
AcDbEntity
  8
0
  6
Continuous
 62
     7
370
    25
100
AcDbCircle
 10
7526.1513341393
 20
5268.1994545927
 30
0.0
 40
5.0
100
AcDbArc
 50
0.0
 51
90.0
  0
LINE
  5
11C
330
1F
100
AcDbEntity
  8
0
  6
Continuous
 62
     7
370
    25
100
AcDbLine
 10
7531.1513441761
 20
5268.1994573564
 30
0.0
 11
6831.1513262947
 21
5268.1994573564
 31
0.0
  0
ARC
  5
11D
330
1F
100
AcDbEntity
  8
0
  6
Continuous
 62
     7
370
    25
100
AcDbCircle
 10
6836.1513341393
 20
5268.1994545927
 30
0.0
 40
5.0
100
AcDbArc
 50
90.0
 51
180.0
  0
LINE
  5
11E
330
1F
100
AcDbEntity
  8
0
  6
Continuous
 62
     7
370
    25
100
AcDbLine
 10
7531.1513441761
 20
5268.1994573564
 30
0.0
 11
7531.1513441761
 21
5233.1994609327
 31
0.0
  0
LINE
  5
11F
330
1F
100
AcDbEntity
  8
0
  6
Continuous
 62
     7
370
    25
100
AcDbLine
 10
6831.1513262947
 20
5268.1994573564
 30
0.0
 11
6831.1513262947
 21
5233.1994609327
 31
0.0
  0
LINE
  5
120
330
1F
100
AcDbEntity
  8
0
  6
Continuous
 62
     7
370
    25
100
AcDbLine
 10
6831.1513262947
 20
5233.1994609327
 30
0.0
 11
7531.1513441761
 21
5233.1994609327
 31
0.0
  0
LWPOLYLINE
  5
121
330
1F
100
AcDbEntity
  8
0
  6
Continuous
 62
     8
370
    25
100
AcDbPolyline
 90
       26
 70
   128
 43
0.0
 10
6858.3665984829
 20
5181.966005394
 10
6858.4576445778
 20
5182.011215517
 10
6858.8606315811
 20
5182.2112785072
 10
6859.5790761669
 20
5182.5679527016
 10
6860.6011766155
 20
5183.0753670425
 10
6861.9101542195
 20
5183.7252066822
 10
6863.4844917019
 20
5184.5067725868
 10
6865.2983504494
 20
5185.4072795601
 10
6867.3219579418
 20
5186.4119158478
 10
6869.5220845898
 20
5187.504141161
 10
6871.8625801762
 20
5188.6661039085
 10
6874.3050295075
 20
5189.8786709995
 10
6876.80934846
 20
5191.1219344826
 10
6879.3343949278
 20
5192.3755095692
 10
6881.8387138804
 20
5193.6187730522
 10
6884.2811781128
 20
5194.8313401432
 10
6886.6216886004
 20
5195.9932730884
 10
6888.8218003472
 20
5197.085528204
 10
6890.8454078396
 20
5198.0901644916
 10
6892.6592665871
 20
5198.9906416626
 10
6894.2336040695
 20
5199.7722373695
 10
6895.5425667723
 20
5200.4220770092
 10
6896.5646672209
 20
5200.9294913502
 10
6897.2831118067
 20
5201.2861655445
 10
6897.6861137112
 20
5201.4862285347
 10
6897.7771598061
 20
5201.5314386578
  0
LINE
  5
122
330
1F
100
AcDbEntity
  8
0
  6
Continuous
 62
     8
370
    25
100
AcDbLine
 10
6953.1513351162
 20
5204.1994617672
 30
0.0
 11
6909.1513353546
 21
5204.1994617672
 31
0.0
  0
LINE
  5
123
330
1F
100
AcDbEntity
  8
0
  6
Continuous
 62
     8
370
    25
100
AcDbLine
 10
6844.1219526489
 20
5220.6913070173
 30
0.0
 11
6844.1219526489
 21
5233.1994609327
 31
0.0
  0
SPLINE
  5
124
330
1F
100
AcDbEntity
  8
0
  6
Continuous
 62
     8
370
    25
100
AcDbSpline
210
0.0
220
0.0
230
1.0
 70
     8
 71
     3
 72
    12
 73
     8
 74
     0
 42
0.000000001
 43
0.00000001
 40
0.0
 40
0.0
 40
0.0
 40
0.0
 40
0.4661308545409594
 40
0.6980287185788098
 40
0.8697709120132218
 40
0.9930881968416111
 40
0.9999999999999999
 40
0.9999999999999999
 40
0.9999999999999999
 40
0.9999999999999999
 10
6831.063141222777
 20
5179.416893550867
 30
0.0
 10
6831.771321408679
 20
5179.328950896695
 30
0.0
 10
6832.831817839827
 20
5179.197257193946
 30
0.0
 10
6833.973801516312
 20
5179.07368293024
 30
0.0
 10
6834.448226438703
 20
5179.024277904617
 30
0.0
 10
6834.620569797854
 20
5179.006709856235
 30
0.0
 10
6834.582265468247
 20
5179.010657208157
 30
0.0
 10
6834.580232497038
 20
5179.010866710657
 30
0.0
  0
LINE
  5
125
330
1F
100
AcDbEntity
  8
0
  6
Continuous
 62
     8
370
    25
100
AcDbLine
 10
6835.6513279637
 20
5220.9494547338
 30
0.0
 11
6835.6513279637
 21
5220.4494611711
 31
0.0
  0
ARC
  5
126
330
1F
100
AcDbEntity
  8
0
  6
Continuous
 62
     8
370
    25
100
AcDbCircle
 10
6835.5888332182
 20
5220.0216133152
 30
0.0
 40
0.9402654496645778
100
AcDbArc
 50
184.4014885676
 51
273.8109735372
  0
LINE
  5
127
330
1F
100
AcDbEntity
  8
0
  6
Continuous
 62
     8
370
    25
100
AcDbLine
 10
6843.6513441761
 20
5220.4494611711
 30
0.0
 11
6843.6513441761
 21
5220.9494547338
 31
0.0
  0
ARC
  5
128
330
1F
100
AcDbEntity
  8
0
  6
Continuous
 62
     8
370
    25
100
AcDbCircle
 10
6843.7138274498
 20
5220.0216265615
 30
0.0
 40
0.9402779042697187
100
AcDbArc
 50
266.1897775968
 51
355.5977602983
  0
LINE
  5
129
330
1F
100
AcDbEntity
  8
0
  6
Continuous
 62
     8
370
    25
100
AcDbLine
 10
6835.6513279637
 20
5191.4494620056
 30
0.0
 11
6835.6513279637
 21
5191.9494555683
 31
0.0
  0
ARC
  5
12A
330
1F
100
AcDbEntity
  8
0
  6
Continuous
 62
     8
370
    25
100
AcDbCircle
 10
6835.5888191035
 20
5192.3773048211
 30
0.0
 40
0.9402501259251219
100
AcDbArc
 50
86.1881022513
 51
175.5994356438
  0
ARC
  5
12B
330
1F
100
AcDbEntity
  8
0
  6
Continuous
 62
     8
370
    25
100
AcDbCircle
 10
6843.7138415645
 20
5192.3772915748
 30
0.0
 40
0.9402625803331813
100
AcDbArc
 50
4.4013155148
 51
93.8111465901
  0
LINE
  5
12C
330
1F
100
AcDbEntity
  8
0
  6
Continuous
 62
     8
370
    25
100
AcDbLine
 10
6843.6513441761
 20
5191.4494620056
 30
0.0
 11
6843.6513441761
 21
5191.9494555683
 31
0.0
  0
LINE
  5
12D
330
1F
100
AcDbEntity
  8
0
  6
Continuous
 62
     8
370
    25
100
AcDbLine
 10
6834.6513408383
 20
5178.699462244
 30
0.0
 11
6835.6513279637
 21
5178.699462244
 31
0.0
  0
LINE
  5
12E
330
1F
100
AcDbEntity
  8
0
  6
Continuous
 62
     8
370
    25
100
AcDbLine
 10
6843.6513441761
 20
5178.699462244
 30
0.0
 11
6844.6513313015
 21
5178.699462244
 31
0.0
  0
LINE
  5
12F
330
1F
100
AcDbEntity
  8
0
  6
Continuous
 62
     7
370
    25
100
AcDbLine
 10
6301.106975993
 20
4947.1421730849
 30
0.0
 11
6301.1043831909
 21
4947.2303581569
 31
0.0
  0
LINE
  5
130
330
1F
100
AcDbEntity
  8
0
  6
Continuous
 62
     7
370
    25
100
AcDbLine
 10
6246.9331339205
 20
4947.2303581569
 30
0.0
 11
6246.9305411184
 21
4947.1421730849
 31
0.0
  0
LINE
  5
131
330
1F
100
AcDbEntity
  8
0
  6
Continuous
 62
     7
370
    25
100
AcDbLine
 10
6295.3845873678
 20
4947.1421730849
 30
0.0
 11
6295.261190852
 21
4947.4146855209
 31
0.0
  0
LINE
  5
132
330
1F
100
AcDbEntity
  8
0
  6
Continuous
 62
     7
370
    25
100
AcDbLine
 10
6252.7762517536
 20
4947.4148643348
 30
0.0
 11
6252.6981994713
 21
4947.2430241439
 31
0.0
  0
SPLINE
  5
133
330
1F
100
AcDbEntity
  8
0
  6
Continuous
 62
     7
370
    25
100
AcDbSpline
210
0.0
220
0.0
230
1.0
 70
     8
 71
     3
 72
    11
 73
     7
 74
     0
 42
0.000000001
 43
0.00000001
 40
0.0
 40
0.0
 40
0.0
 40
0.0
 40
0.0765635551876166
 40
0.4313465401515484
 40
0.837133684790938
 40
1.0
 40
1.0
 40
1.0
 40
1.0
 10
6253.482611497681
 20
4948.866505655979
 30
0.0
 10
6253.464595326744
 20
4948.834318528886
 30
0.0
 10
6253.363095168067
 20
4948.652981522325
 30
0.0
 10
6253.143284913105
 20
4948.224063088513
 30
0.0
 10
6252.922520806541
 20
4947.752243975501
 30
0.0
 10
6252.813682337577
 20
4947.497346023705
 30
0.0
 10
6252.782510241311
 20
4947.424341473316
 30
0.0
  0
SPLINE
  5
134
330
1F
100
AcDbEntity
  8
0
  6
Continuous
 62
     7
370
    25
100
AcDbSpline
210
0.0
220
0.0
230
1.0
 70
     8
 71
     3
 72
    10
 73
     6
 74
     0
 42
0.000000001
 43
0.00000001
 40
0.0
 40
0.0
 40
0.0
 40
0.0
 40
0.2834690229850321
 40
0.6660830628361482
 40
0.9999999999999999
 40
0.9999999999999999
 40
0.9999999999999999
 40
0.9999999999999999
 10
6253.881232460778
 20
4949.587215218281
 30
0.0
 10
6253.862820576417
 20
4949.550322315155
 30
0.0
 10
6253.819557139028
 20
4949.46363299139
 30
0.0
 10
6253.676021936855
 20
4949.216082085405
 30
0.0
 10
6253.544092910127
 20
4948.977629195798
 30
0.0
 10
6253.482611497681
 20
4948.866505655979
 30
0.0
  0
SPLINE
  5
135
330
1F
100
AcDbEntity
  8
0
  6
Continuous
 62
     7
370
    25
100
AcDbSpline
210
0.0
220
0.0
230
1.0
 70
     8
 71
     3
 72
    11
 73
     7
 74
     0
 42
0.000000001
 43
0.00000001
 40
0.0
 40
0.0
 40
0.0
 40
0.0
 40
0.1870812063741096
 40
0.5917618386033429
 40
0.9534456567956733
 40
1.0
 40
1.0
 40
1.0
 40
1.0
 10
6294.539915045541
 20
4948.892076048588
 30
0.0
 10
6294.50419530038
 20
4948.957833897138
 30
0.0
 10
6294.391209167355
 20
4949.165834401919
 30
0.0
 10
6294.249362612954
 20
4949.405645730584
 30
0.0
 10
6294.160729348873
 20
4949.575825938212
 30
0.0
 10
6294.153930705153
 20
4949.591827721147
 30
0.0
 10
6294.153155406754
 20
4949.593652519917
 30
0.0
  0
SPLINE
  5
136
330
1F
100
AcDbEntity
  8
0
  6
Continuous
 62
     7
370
    25
100
AcDbSpline
210
0.0
220
0.0
230
1.0
 70
     8
 71
     3
 72
    10
 73
     6
 74
     0
 42
0.000000001
 43
0.00000001
 40
0.0
 40
0.0
 40
0.0
 40
0.0
 40
0.4054534909619256
 40
0.8036058994645083
 40
1.0
 40
1.0
 40
1.0
 40
1.0
 10
6295.257137736123
 20
4947.419483694767
 30
0.0
 10
6295.171150660944
 20
4947.616242844592
 30
0.0
 10
6295.000724897127
 20
4948.006218062707
 30
0.0
 10
6294.736310602361
 20
4948.537765325788
 30
0.0
 10
6294.588680943085
 20
4948.804099107118
 30
0.0
 10
6294.539915045541
 20
4948.892076048588
 30
0.0
  0
ARC
  5
137
330
1F
100
AcDbEntity
  8
0
  6
Continuous
 62
     7
370
    25
100
AcDbCircle
 10
6298.105676234
 20
4947.1421652404
 30
0.0
 40
3.0
100
AcDbArc
 50
1.6843481538
 51
90.0
  0
ARC
  5
138
330
1F
100
AcDbEntity
  8
0
  6
Continuous
 62
     7
370
    25
100
AcDbCircle
 10
6249.9318344382
 20
4947.1421652404
 30
0.0
 40
3.00000000000041
100
AcDbArc
 50
90.0
 51
178.3156518462
  0
CIRCLE
  5
139
330
1F
100
AcDbEntity
  8
0
  6
Continuous
 62
     7
370
    25
100
AcDbCircle
 10
6274.0187553361
 20
4847.1421652404
 30
0.0
 40
40.0
  0
ARC
  5
13A
330
1F
100
AcDbEntity
  8
0
  6
Continuous
 62
     7
370
    25
100
AcDbCircle
 10
6274.0187553361
 20
4847.1421652404
 30
0.0
 40
20.33791521682994
100
AcDbArc
 50
228.8200647309
 51
247.4523644154
  0
ARC
  5
13B
330
1F
100
AcDbEntity
  8
0
  6
Continuous
 62
     7
370
    25
100
AcDbCircle
 10
6274.0187553361
 20
4847.1421652404
 30
0.0
 40
20.33791521682968
100
AcDbArc
 50
183.8200647316
 51
202.4523644147
  0
ARC
  5
13C
330
1F
100
AcDbEntity
  8
0
  6
Continuous
 62
     7
370
    25
100
AcDbCircle
 10
6274.0187553361
 20
4847.1421652404
 30
0.0
 40
20.33791521682987
100
AcDbArc
 50
138.8200647308
 51
157.4523644154
  0
ARC
  5
13D
330
1F
100
AcDbEntity
  8
0
  6
Continuous
 62
     7
370
    25
100
AcDbCircle
 10
6274.0187553361
 20
4847.1421652404
 30
0.0
 40
20.33791521682994
100
AcDbArc
 50
93.8200647311
 51
112.4523644152
  0
ARC
  5
13E
330
1F
100
AcDbEntity
  8
0
  6
Continuous
 62
     7
370
    25
100
AcDbCircle
 10
6274.0187553361
 20
4847.1421652404
 30
0.0
 40
20.33791521683
100
AcDbArc
 50
48.8200647311
 51
67.4523644152
  0
ARC
  5
13F
330
1F
100
AcDbEntity
  8
0
  6
Continuous
 62
     7
370
    25
100
AcDbCircle
 10
6274.0187553361
 20
4847.1421652404
 30
0.0
 40
20.33791521682995
100
AcDbArc
 50
3.8200647316
 51
22.4523644147
  0
ARC
  5
140
330
1F
100
AcDbEntity
  8
0
  6
Continuous
 62
     7
370
    25
100
AcDbCircle
 10
6274.0187553361
 20
4847.1421652404
 30
0.0
 40
20.33791521683058
100
AcDbArc
 50
318.8200647314
 51
337.4523644148
  0
ARC
  5
141
330
1F
100
AcDbEntity
  8
0
  6
Continuous
 62
     7
370
    25
100
AcDbCircle
 10
6274.0187553361
 20
4847.1421652404
 30
0.0
 40
20.33791521683071
100
AcDbArc
 50
273.8200647311
 51
292.4523644152
  0
LINE
  5
142
330
1F
100
AcDbEntity
  8
0
  6
Continuous
 62
     7
370
    25
100
AcDbLine
 10
6274.7687563503
 20
4828.0972135398
 30
0.0
 11
6274.7687563503
 21
4836.9609606597
 31
0.0
  0
LINE
  5
143
330
1F
100
AcDbEntity
  8
0
  6
Continuous
 62
     7
370
    25
100
AcDbLine
 10
6269.9781820381
 20
4947.2303581569
 30
0.0
 11
6252.8446778858
 21
4947.2303581569
 31
0.0
  0
LINE
  5
144
330
1F
100
AcDbEntity
  8
0
  6
Continuous
 62
     7
370
    25
100
AcDbLine
 10
6295.1928392256
 20
4947.2303581569
 30
0.0
 11
6278.0593350733
 21
4947.2303581569
 31
0.0
  0
ARC
  5
145
330
1F
100
AcDbEntity
  8
0
  6
Continuous
 62
     7
370
    25
100
AcDbCircle
 10
6275.9545989579
 20
4944.0859566693
 30
0.0
 40
3.783804280107931
100
AcDbArc
 50
56.2032364878
 51
62.2583009276
  0
ARC
  5
146
330
1F
100
AcDbEntity
  8
0
  6
Continuous
 62
     7
370
    25
100
AcDbCircle
 10
6272.0819779704
 20
4944.0875357685
 30
0.0
 40
3.781969049257047
100
AcDbArc
 50
117.7402285682
 51
123.7982340164
  0
SPLINE
  5
147
330
1F
100
AcDbEntity
  8
0
  6
Continuous
 62
     7
370
    25
100
AcDbSpline
210
0.0
220
0.0
230
1.0
 70
     8
 71
     3
 72
    14
 73
    10
 74
     0
 42
0.000000001
 43
0.00000001
 40
0.0
 40
0.0
 40
0.0
 40
0.0
 40
0.1661254209515797
 40
0.3644958827573598
 40
0.4951039991847354
 40
0.5985769309393696
 40
0.7214923661254411
 40
0.8613625101681849
 40
1.0
 40
1.0
 40
1.0
 40
1.0
 10
6272.257627567094
 20
4949.861336979603
 30
0.0
 10
6271.997582038985
 20
4949.85869251816
 30
0.0
 10
6271.427015994475
 20
4949.85289030377
 30
0.0
 10
6270.707647661839
 20
4949.747218330112
 30
0.0
 10
6270.210420678903
 20
4949.477835485824
 30
0.0
 10
6269.951385126698
 20
4949.114620002048
 30
0.0
 10
6269.875991447747
 20
4948.625638121458
 30
0.0
 10
6269.999121927223
 20
4948.025544410269
 30
0.0
 10
6270.214431023221
 20
4947.631154216668
 30
0.0
 10
6270.321609100144
 20
4947.434831890797
 30
0.0
  0
LINE
  5
148
330
1F
100
AcDbEntity
  8
0
  6
Continuous
 62
     7
370
    25
100
AcDbLine
 10
6275.7798895443
 20
4949.8613369796
 30
0.0
 11
6272.2576275671
 21
4949.8613369796
 31
0.0
  0
SPLINE
  5
149
330
1F
100
AcDbEntity
  8
0
  6
Continuous
 62
     7
370
    25
100
AcDbSpline
210
0.0
220
0.0
230
1.0
 70
     8
 71
     3
 72
    16
 73
    12
 74
     0
 42
0.000000001
 43
0.00000001
 40
0.0
 40
0.0
 40
0.0
 40
0.0
 40
0.0229779851520294
 40
0.1472956242222208
 40
0.2558699173791772
 40
0.3628943995295959
 40
0.4810807966109229
 40
0.5963684291096798
 40
0.7937912796848652
 40
0.9891705445745212
 40
1.0
 40
1.0
 40
1.0
 40
1.0
 10
6277.715908011239
 20
4947.434831890797
 30
0.0
 10
6277.735136471768
 20
4947.466515432321
 30
0.0
 10
6277.858396543433
 20
4947.669616226217
 30
0.0
 10
6278.029754033412
 20
4948.042913128643
 30
0.0
 10
6278.144554854134
 20
4948.543939879552
 30
0.0
 10
6278.12009639875
 20
4949.005885176149
 30
0.0
 10
6277.919516543197
 20
4949.388840693523
 30
0.0
 10
6277.467098835178
 20
4949.702166475648
 30
0.0
 10
6276.74766626513
 20
4949.846073023774
 30
0.0
 10
6276.122545049569
 20
4949.861075430919
 30
0.0
 10
6275.796986870638
 20
4949.861323929227
 30
0.0
 10
6275.779889544289
 20
4949.861336979603
 30
0.0
  0
LWPOLYLINE
  5
14A
330
1F
100
AcDbEntity
  8
0
  6
Continuous
 62
     7
370
    25
100
AcDbPolyline
 90
        9
 70
   128
 43
0.0
 10
6275.88737162
 20
4950.1421642635
 10
6275.8707270229
 20
4950.1373064849
 10
6275.8544102514
 20
4950.1227927539
 10
6275.8387342298
 20
4950.098950896
 10
6275.8239969814
 20
4950.0661981437
 10
6275.8104965294
 20
4950.0251901481
 10
6275.7985010946
 20
4949.9767315719
 10
6275.7882341946
 20
4949.9217760894
 10
6275.7798895443
 20
4949.8613369796
  0
SPLINE
  5
14B
330
1F
100
AcDbEntity
  8
0
  6
Continuous
 62
     7
370
    25
100
AcDbSpline
210
0.0
220
0.0
230
1.0
 70
     8
 71
     3
 72
    16
 73
    12
 74
     0
 42
0.000000001
 43
0.00000001
 40
0.0
 40
0.0
 40
0.0
 40
0.0
 40
0.0100509707153352
 40
0.1944168476487106
 40
0.3893142882105119
 40
0.5079273715569129
 40
0.6314005777503181
 40
0.7423092070363739
 40
0.852823337729024
 40
0.9771973862808015
 40
1.0
 40
1.0
 40
1.0
 40
1.0
 10
6275.887371619981
 20
4950.142164263462
 30
0.0
 10
6275.905614607609
 20
4950.142142719594
 30
0.0
 10
6276.258490389168
 20
4950.141725994571
 30
0.0
 10
6276.945034636346
 20
4950.122328939061
 30
0.0
 10
6277.720112915591
 20
4949.94404299339
 30
0.0
 10
6278.215526711909
 20
4949.57156202038
 30
0.0
 10
6278.448453261445
 20
4949.117752666172
 30
0.0
 10
6278.495127018574
 20
4948.566513966428
 30
0.0
 10
6278.388221403417
 20
4947.965456355491
 30
0.0
 10
6278.2106496694
 20
4947.513826302218
 30
0.0
 10
6278.079633831845
 20
4947.268385231559
 30
0.0
 10
6278.059335073273
 20
4947.230358156895
 30
0.0
  0
LINE
  5
14C
330
1F
100
AcDbEntity
  8
0
  6
Continuous
 62
     7
370
    25
100
AcDbLine
 10
6275.88737162
 20
4950.1421642635
 30
0.0
 11
6293.8814625347
 21
4950.1421642635
 31
0.0
  0
SPLINE
  5
14D
330
1F
100
AcDbEntity
  8
0
  6
Continuous
 62
     7
370
    25
100
AcDbSpline
210
0.0
220
0.0
230
1.0
 70
     8
 71
     3
 72
    14
 73
    10
 74
     0
 42
0.000000001
 43
0.00000001
 40
0.0
 40
0.0
 40
0.0
 40
0.0
 40
0.1384366804126926
 40
0.2809990177019755
 40
0.408891947082573
 40
0.5168164981537052
 40
0.6501756731916863
 40
0.8439606562283833
 40
1.0
 40
1.0
 40
1.0
 40
1.0
 10
6295.192839225571
 20
4947.230358156895
 30
0.0
 10
6295.101791445955
 20
4947.466964051602
 30
0.0
 10
6294.916982502548
 20
4947.947227113366
 30
0.0
 10
6294.574208894433
 20
4948.666707073726
 30
0.0
 10
6294.247322692111
 20
4949.246517009755
 30
0.0
 10
6293.973692249738
 20
4949.677587919832
 30
0.0
 10
6293.761136753777
 20
4949.998958772483
 30
0.0
 10
6293.709271943739
 20
4950.131478181007
 30
0.0
 10
6293.828348408548
 20
4950.138868021034
 30
0.0
 10
6293.881462534707
 20
4950.142164263462
 30
0.0
  0
SPLINE
  5
14E
330
1F
100
AcDbEntity
  8
0
  6
Continuous
 62
     7
370
    25
100
AcDbSpline
210
0.0
220
0.0
230
1.0
 70
     8
 71
     3
 72
    14
 73
    10
 74
     0
 42
0.000000001
 43
0.00000001
 40
0.0
 40
0.0
 40
0.0
 40
0.0
 40
0.1384376788417832
 40
0.2809996784647196
 40
0.4088923524325789
 40
0.5168172642174739
 40
0.6501761172476035
 40
0.8439589814894686
 40
1.0
 40
1.0
 40
1.0
 40
1.0
 10
6269.978182038109
 20
4947.230358156895
 30
0.0
 10
6269.865695325112
 20
4947.466963445795
 30
0.0
 10
6269.637370706786
 20
4947.9472229435
 30
0.0
 10
6269.527446138807
 20
4948.666707434393
 30
0.0
 10
6269.630708326677
 20
4949.246518551202
 30
0.0
 10
6269.925207664443
 20
4949.677586498862
 30
0.0
 10
6270.46573895723
 20
4949.998957779293
 30
0.0
 10
6271.243331831179
 20
4950.131479205559
 30
0.0
 10
6271.870415983446
 20
4950.138868309713
 30
0.0
 10
6272.150130590241
 20
4950.142164263462
 30
0.0
  0
SPLINE
  5
14F
330
1F
100
AcDbEntity
  8
0
  6
Continuous
 62
     7
370
    25
100
AcDbSpline
210
0.0
220
0.0
230
1.0
 70
     8
 71
     3
 72
    16
 73
    12
 74
     0
 42
0.000000001
 43
0.00000001
 40
0.0
 40
0.0
 40
0.0
 40
0.0
 40
0.0100504564311516
 40
0.1944164663436558
 40
0.389315507204981
 40
0.5079277000987448
 40
0.6314003919480506
 40
0.7423104091746
 40
0.8528237663130106
 40
0.977197485651006
 40
1.0
 40
1.0
 40
1.0
 40
1.0
 10
6254.156039675515
 20
4950.142164263462
 30
0.0
 10
6254.160223259488
 20
4950.142142719255
 30
0.0
 10
6254.241150689839
 20
4950.141725967187
 30
0.0
 10
6254.33323472102
 20
4950.122327691712
 30
0.0
 10
6254.241715985348
 20
4949.944045830704
 30
0.0
 10
6253.994112162065
 20
4949.571562158753
 30
0.0
 10
6253.713630092549
 20
4949.117746413146
 30
0.0
 10
6253.415128002114
 20
4948.566521385967
 30
0.0
 10
6253.132891997257
 20
4947.965453446225
 30
0.0
 10
6252.950490635359
 20
4947.513826774709
 30
0.0
 10
6252.858872582311
 20
4947.268385247339
 30
0.0
 10
6252.844677885812
 20
4947.230358156895
 30
0.0
  0
LINE
  5
150
330
1F
100
AcDbEntity
  8
0
  6
Continuous
 62
     7
370
    25
100
AcDbLine
 10
6254.1560396755
 20
4950.1421642635
 30
0.0
 11
6272.1501305902
 21
4950.1421642635
 31
0.0
  0
LWPOLYLINE
  5
151
330
1F
100
AcDbEntity
  8
0
  6
Continuous
 62
     7
370
    25
100
AcDbPolyline
 90
        9
 70
   128
 43
0.0
 10
6272.1501305902
 20
4950.1421642635
 10
6272.1667751873
 20
4950.1373064849
 10
6272.18310686
 20
4950.1227927539
 10
6272.1987828815
 20
4950.098950896
 10
6272.2135052288
 20
4950.0661981437
 10
6272.2270056808
 20
4950.0251901481
 10
6272.2390160168
 20
4949.9767315719
 10
6272.2492829168
 20
4949.9217760894
 10
6272.2576275671
 20
4949.8613369796
  0
LINE
  5
152
330
1F
100
AcDbEntity
  8
0
  6
Continuous
 62
     7
370
    25
100
AcDbLine
 10
6272.1501305902
 20
4950.1421642635
 30
0.0
 11
6275.88737162
 21
4950.1421642635
 31
0.0
  0
LINE
  5
153
330
1F
100
AcDbEntity
  8
0
  6
Continuous
 62
     7
370
    25
100
AcDbLine
 10
6295.2484056557
 20
4947.4348318908
 30
0.0
 11
6295.3812942112
 21
4947.1421730849
 31
0.0
  0
ARC
  5
154
330
1F
100
AcDbEntity
  8
0
  6
Continuous
 62
     7
370
    25
100
AcDbCircle
 10
6298.7903166867
 20
4946.9114434016
 30
0.0
 40
0.5459274607041217
100
AcDbArc
 50
35.7444160951
 51
73.4787529673
  0
LWPOLYLINE
  5
155
330
1F
100
AcDbEntity
  8
0
  6
Continuous
 62
     7
370
    25
100
AcDbPolyline
 90
        9
 70
   128
 43
0.0
 10
6295.2484056557
 20
4947.4348318908
 10
6295.2604159916
 20
4947.4155497882
 10
6295.2669874037
 20
4947.3939133022
 10
6295.2680751884
 20
4947.3701906535
 10
6295.2636495436
 20
4947.3446202609
 10
6295.2537551725
 20
4947.3175001476
 10
6295.2385261858
 20
4947.2892177436
 10
6295.2181413973
 20
4947.26004127
 10
6295.1928392256
 20
4947.2303581569
  0
LINE
  5
156
330
1F
100
AcDbEntity
  8
0
  6
Continuous
 62
     7
370
    25
100
AcDbLine
 10
6252.7155891264
 20
4947.2797406051
 30
0.0
 11
6252.7890965546
 21
4947.4348318908
 31
0.0
  0
LWPOLYLINE
  5
157
330
1F
100
AcDbEntity
  8
0
  6
Continuous
 62
     7
370
    25
100
AcDbPolyline
 90
        9
 70
   128
 43
0.0
 10
6252.7890965546
 20
4947.4348318908
 10
6252.7771011198
 20
4947.4155497882
 10
6252.7705148065
 20
4947.3939133022
 10
6252.7694419229
 20
4947.3701906535
 10
6252.7738675678
 20
4947.3446202609
 10
6252.7837619389
 20
4947.3175001476
 10
6252.7989760244
 20
4947.2892177436
 10
6252.8193757141
 20
4947.26004127
 10
6252.8446778858
 20
4947.2303581569
  0
ARC
  5
158
330
1F
100
AcDbEntity
  8
0
  6
Continuous
 62
     7
370
    25
100
AcDbCircle
 10
6249.2472236368
 20
4946.911389748
 30
0.0
 40
0.5459897378991176
100
AcDbArc
 50
106.5234803766
 51
144.2533505607
  0
ARC
  5
159
330
1F
100
AcDbEntity
  8
0
  6
Continuous
 62
     7
370
    25
100
AcDbCircle
 10
6254.1605235559
 20
4949.6631570511
 30
0.0
 40
0.4790281982014017
100
AcDbArc
 50
90.536317429
 51
155.5617406665
  0
ARC
  5
15A
330
1F
100
AcDbEntity
  8
0
  6
Continuous
 62
     7
370
    25
100
AcDbCircle
 10
6293.8769938987
 20
4949.6631573411
 30
0.0
 40
0.4790277657406545
100
AcDbArc
 50
24.4382447358
 51
89.4655055238
  0
LINE
  5
15B
330
1F
100
AcDbEntity
  8
0
  6
Continuous
 62
     7
370
    25
100
AcDbLine
 10
6296.074228009
 20
4949.8613369796
 30
0.0
 11
6294.313104471
 21
4949.8613369796
 31
0.0
  0
SPLINE
  5
15C
330
1F
100
AcDbEntity
  8
0
  6
Continuous
 62
     7
370
    25
100
AcDbSpline
210
0.0
220
0.0
230
1.0
 70
     8
 71
     3
 72
    16
 73
    12
 74
     0
 42
0.000000001
 43
0.00000001
 40
0.0
 40
0.0
 40
0.0
 40
0.0
 40
0.0229780456754252
 40
0.1472964404868076
 40
0.2558691152561915
 40
0.3628948012915839
 40
0.4810813880920932
 40
0.5963677934388071
 40
0.7937890249049018
 40
0.9891692023907317
 40
1.0
 40
1.0
 40
1.0
 40
1.0
 10
6298.945562561791
 20
4947.434831890797
 30
0.0
 10
6298.950938606295
 20
4947.466515466531
 30
0.0
 10
6298.985400728555
 20
4947.669617070276
 30
0.0
 10
6298.987464778714
 20
4948.04290493395
 30
0.0
 10
6298.853541810658
 20
4948.543948366852
 30
0.0
 10
6298.579151366483
 20
4949.00588153448
 30
0.0
 10
6298.15915262725
 20
4949.388838961238
 30
0.0
 10
6297.53955664581
 20
4949.702167195774
 30
0.0
 10
6296.814238356545
 20
4949.846073591255
 30
0.0
 10
6296.319520851415
 20
4949.861075487403
 30
0.0
 10
6296.08646858879
 20
4949.861323930644
 30
0.0
 10
6296.074228009026
 20
4949.861336979603
 30
0.0
  0
SPLINE
  5
15D
330
1F
100
AcDbEntity
  8
0
  6
Continuous
 62
     7
370
    25
100
AcDbSpline
210
0.0
220
0.0
230
1.0
 70
     8
 71
     3
 72
    14
 73
    10
 74
     0
 42
0.000000001
 43
0.00000001
 40
0.0
 40
0.0
 40
0.0
 40
0.0
 40
0.1661270782728495
 40
0.3644957418305808
 40
0.4951046756982524
 40
0.5985775974517983
 40
0.7214923719537634
 40
0.8613633962731841
 40
1.0
 40
1.0
 40
1.0
 40
1.0
 10
6251.963274201195
 20
4949.861336979603
 30
0.0
 10
6251.768950918511
 20
4949.858692842015
 30
0.0
 10
6251.342590509281
 20
4949.852891398314
 30
0.0
 10
6250.651053075239
 20
4949.747215960017
 30
0.0
 10
6250.020957280915
 20
4949.477836343533
 30
0.0
 10
6249.554237460669
 20
4949.114621663421
 30
0.0
 10
6249.208118362589
 20
4948.625633465425
 30
0.0
 10
6249.031033551008
 20
4948.025549583357
 30
0.0
 10
6249.07169769409
 20
4947.6311551009
 30
0.0
 10
6249.091939648431
 20
4947.434831890797
 30
0.0
  0
LINE
  5
15E
330
1F
100
AcDbEntity
  8
0
  6
Continuous
 62
     7
370
    25
100
AcDbLine
 10
6253.7244126404
 20
4949.8613369796
 30
0.0
 11
6251.9632742012
 21
4949.8613369796
 31
0.0
  0
ARC
  5
15F
330
1F
100
AcDbEntity
  8
0
  6
Continuous
 62
     7
370
    25
100
AcDbCircle
 10
6252.324504816
 20
4949.7718722966
 30
0.0
 40
0.3721444431260462
100
AcDbArc
 50
95.7192424334
 51
166.0896663078
  0
LINE
  5
160
330
1F
100
AcDbEntity
  8
0
  6
Continuous
 62
     7
370
    25
100
AcDbLine
 10
6252.2874191606
 20
4950.1421642635
 30
0.0
 11
6254.1560396755
 21
4950.1421642635
 31
0.0
  0
ARC
  5
161
330
1F
100
AcDbEntity
  8
0
  6
Continuous
 62
     7
370
    25
100
AcDbCircle
 10
6295.713008304
 20
4949.7718848891
 30
0.0
 40
0.3721308262056169
100
AcDbArc
 50
13.9088555331
 51
84.2822357251
  0
LINE
  5
162
330
1F
100
AcDbEntity
  8
0
  6
Continuous
 62
     7
370
    25
100
AcDbLine
 10
6293.8814625347
 20
4950.1421642635
 30
0.0
 11
6295.7500830496
 21
4950.1421642635
 31
0.0
  0
SPLINE
  5
163
330
1F
100
AcDbEntity
  8
0
  6
Continuous
 62
     7
370
    25
100
AcDbSpline
210
0.0
220
0.0
230
1.0
 70
     8
 71
     3
 72
    16
 73
    12
 74
     0
 42
0.000000001
 43
0.00000001
 40
0.0
 40
0.0
 40
0.0
 40
0.0
 40
0.0100490861802613
 40
0.1944173303704037
 40
0.389313989402062
 40
0.5079283802136464
 40
0.6313996668172185
 40
0.742309272398336
 40
0.8528237487003631
 40
0.9771979460933509
 40
1.0
 40
1.0
 40
1.0
 40
1.0
 10
6295.750083049576
 20
4950.142164263462
 30
0.0
 10
6295.764142537661
 20
4950.142142715044
 30
0.0
 10
6296.036148179842
 20
4950.141725822806
 30
0.0
 10
6296.630543886311
 20
4950.122331671746
 30
0.0
 10
6297.497148518477
 20
4949.944037810193
 30
0.0
 10
6298.240179767912
 20
4949.571569690031
 30
0.0
 10
6298.753574588804
 20
4949.117743959085
 30
0.0
 10
6299.098746564992
 20
4948.566517181997
 30
0.0
 10
6299.274105756556
 20
4947.965454754325
 30
0.0
 10
6299.278910160015
 20
4947.513832327887
 30
0.0
 10
6299.239512224677
 20
4947.268385323481
 30
0.0
 10
6299.233408292573
 20
4947.230358156895
 30
0.0
  0
SPLINE
  5
164
330
1F
100
AcDbEntity
  8
0
  6
Continuous
 62
     7
370
    25
100
AcDbSpline
210
0.0
220
0.0
230
1.0
 70
     8
 71
     3
 72
    14
 73
    10
 74
     0
 42
0.000000001
 43
0.00000001
 40
0.0
 40
0.0
 40
0.0
 40
0.0
 40
0.13843678962366
 40
0.2809977604872918
 40
0.4088919725999645
 40
0.5168156928919223
 40
0.6501746332551518
 40
0.8439601178234238
 40
1.0
 40
1.0
 40
1.0
 40
1.0
 10
6248.804093917649
 20
4947.230358156895
 30
0.0
 10
6248.782662244722
 20
4947.466963007676
 30
0.0
 10
6248.73916042622
 20
4947.947221422874
 30
0.0
 10
6248.97198833137
 20
4948.666716444437
 30
0.0
 10
6249.40213123885
 20
4949.246510828681
 30
0.0
 10
6249.970270436444
 20
4949.677590264726
 30
0.0
 10
6250.723354923511
 20
4949.998958676444
 30
0.0
 10
6251.55282330441
 20
4950.131478272789
 30
0.0
 10
6252.060824724481
 20
4950.138868048256
 30
0.0
 10
6252.287419160645
 20
4950.142164263462
 30
0.0
  0
LINE
  5
165
330
1F
100
AcDbEntity
  8
0
  6
Continuous
 62
     7
370
    25
100
AcDbLine
 10
6295.7500830496
 20
4950.1421642635
 30
0.0
 11
6298.1056735123
 21
4950.1421642635
 31
0.0
  0
LINE
  5
166
330
1F
100
AcDbEntity
  8
0
  6
Continuous
 62
     7
370
    25
100
AcDbLine
 10
6249.931828698
 20
4950.1421642635
 30
0.0
 11
6252.2874191606
 21
4950.1421642635
 31
0.0
  0
CIRCLE
  5
167
330
1F
100
AcDbEntity
  8
0
  6
Continuous
 62
     7
370
    25
100
AcDbCircle
 10
6274.0187553361
 20
4847.1421652404
 30
0.0
 40
33.00000000000016
  0
CIRCLE
  5
168
330
1F
100
AcDbEntity
  8
0
  6
Continuous
 62
     7
370
    25
100
AcDbCircle
 10
6274.0187553361
 20
4847.1421652404
 30
0.0
 40
28.73205080756829
  0
CIRCLE
  5
169
330
1F
100
AcDbEntity
  8
0
  6
Continuous
 62
     7
370
    25
100
AcDbCircle
 10
6274.0187553361
 20
4847.1421652404
 30
0.0
 40
34.99999999999904
  0
CIRCLE
  5
16A
330
1F
100
AcDbEntity
  8
0
  6
Continuous
 62
     7
370
    25
100
AcDbCircle
 10
6274.0187553361
 20
4847.1421652404
 30
0.0
 40
26.99999999999974
  0
CIRCLE
  5
16B
330
1F
100
AcDbEntity
  8
0
  6
Continuous
 62
     7
370
    25
100
AcDbCircle
 10
6274.0187553361
 20
4847.1421652404
 30
0.0
 40
25.2679491924312
  0
CIRCLE
  5
16C
330
1F
100
AcDbEntity
  8
0
  6
Continuous
 62
     7
370
    25
100
AcDbCircle
 10
6274.0187553361
 20
4847.1421652404
 30
0.0
 40
6.999999999999615
  0
ELLIPSE
  5
16D
330
1F
100
AcDbEntity
  8
0
  6
Continuous
 62
     7
370
    25
100
AcDbEllipse
 10
6259.9340885166
 20
4855.8967515326
 30
0.0
 11
6.082015217523803
 21
-3.780389535254471
 31
0.0
210
0.0
220
0.0
230
1.0
 40
0.5263157895
 41
0.0
 42
6.283185307179586
  0
ELLIPSE
  5
16E
330
1F
100
AcDbEntity
  8
0
  6
Continuous
 62
     7
370
    25
100
AcDbEllipse
 10
6270.2498192509
 20
4863.2919559929
 30
0.0
 11
1.627495127685506
 21
-6.973773279495617
 31
0.0
210
0.0
220
0.0
230
1.0
 40
0.5263157895
 41
0.0
 42
6.283185307179586
  0
ELLIPSE
  5
16F
330
1F
100
AcDbEntity
  8
0
  6
Continuous
 62
     7
370
    25
100
AcDbEllipse
 10
6282.7733416283
 20
4861.2268320599
 30
0.0
 11
-3.780389535253562
 21
-6.082015217523804
 31
0.0
210
0.0
220
0.0
230
1.0
 40
0.5263157895
 41
0.0
 42
6.283185307179586
  0
ELLIPSE
  5
170
330
1F
100
AcDbEntity
  8
0
  6
Continuous
 62
     7
370
    25
100
AcDbEllipse
 10
6290.1685460886
 20
4850.9111013256
 30
0.0
 11
-6.973773279494708
 21
-1.627495127685506
 31
0.0
210
0.0
220
0.0
230
1.0
 40
0.5263157895
 41
0.0
 42
6.283185307179586
  0
ELLIPSE
  5
171
330
1F
100
AcDbEntity
  8
0
  6
Continuous
 62
     7
370
    25
100
AcDbEllipse
 10
6288.1034221556
 20
4838.3875789483
 30
0.0
 11
-6.082015217522894
 21
3.780389535253562
 31
0.0
210
0.0
220
0.0
230
1.0
 40
0.5263157895
 41
0.0
 42
6.283185307179586
  0
ELLIPSE
  5
172
330
1F
100
AcDbEntity
  8
0
  6
Continuous
 62
     7
370
    25
100
AcDbEllipse
 10
6277.7876914213
 20
4830.9923744879
 30
0.0
 11
-1.627495127685506
 21
6.973773279494708
 31
0.0
210
0.0
220
0.0
230
1.0
 40
0.5263157895
 41
0.0
 42
6.283185307179586
  0
ELLIPSE
  5
173
330
1F
100
AcDbEntity
  8
0
  6
Continuous
 62
     7
370
    25
100
AcDbEllipse
 10
6265.2641690439
 20
4833.0574984209
 30
0.0
 11
3.780389535254471
 21
6.082015217521985
 31
0.0
210
0.0
220
0.0
230
1.0
 40
0.5263157895
 41
0.0
 42
6.283185307179586
  0
ELLIPSE
  5
174
330
1F
100
AcDbEntity
  8
0
  6
Continuous
 62
     7
370
    25
100
AcDbEllipse
 10
6257.8689645836
 20
4843.3732291553
 30
0.0
 11
6.973773279495617
 21
1.627495127685506
 31
0.0
210
0.0
220
0.0
230
1.0
 40
0.5263157895
 41
0.0
 42
6.283185307179586
  0
ARC
  5
175
330
1F
100
AcDbEntity
  8
0
  6
Continuous
 62
     7
370
    25
100
AcDbCircle
 10
6274.0187553361
 20
4847.1421652404
 30
0.0
 40
5.000000000000237
100
AcDbArc
 50
293.0011952014
 51
95.7473420841
  0
LWPOLYLINE
  5
176
330
1F
100
AcDbEntity
  8
0
  6
Continuous
 62
     7
370
    25
100
AcDbPolyline
 90
        9
 70
   128
 43
0.0
 10
6275.9725019539
 20
4842.5396871898
 10
6275.6683096493
 20
4843.7266391847
 10
6275.3618821705
 20
4844.9223381612
 10
6275.0539496744
 20
4846.1238783929
 10
6274.7452721203
 20
4847.3283541534
 10
6274.4365945661
 20
4848.5328299138
 10
6274.1286620701
 20
4849.7343701455
 10
6273.8222345913
 20
4850.9300691221
 10
6273.5180422867
 20
4852.1170360181
  0
ARC
  5
177
330
1F
100
AcDbEntity
  8
0
  6
Continuous
 62
     7
370
    25
100
AcDbCircle
 10
6274.0187553361
 20
4847.1421652404
 30
0.0
 40
5.000000000000218
100
AcDbArc
 50
113.0011952014
 51
275.7473420841
  0
LWPOLYLINE
  5
178
330
1F
100
AcDbEntity
  8
0
  6
Continuous
 62
     7
370
    25
100
AcDbPolyline
 90
        9
 70
   128
 43
0.0
 10
6272.0650002563
 20
4851.7446559999
 10
6272.369192561
 20
4850.5576891038
 10
6272.6756200397
 20
4849.3619901273
 10
6272.9835525358
 20
4848.1604498956
 10
6273.2922300899
 20
4846.9559741351
 10
6273.6009076441
 20
4845.7514983747
 10
6273.9088401401
 20
4844.549958143
 10
6274.2152676189
 20
4843.3542591665
 10
6274.5194599235
 20
4842.1672922704
  0
ARC
  5
179
330
1F
100
AcDbEntity
  8
0
  6
Continuous
 62
     7
370
    25
100
AcDbCircle
 10
6274.0187553361
 20
4847.1421652404
 30
0.0
 40
4.500000000000361
100
AcDbArc
 50
274.7802004159
 51
293.9683368696
  0
ARC
  5
17A
330
1F
100
AcDbEntity
  8
0
  6
Continuous
 62
     7
370
    25
100
AcDbCircle
 10
6274.0187553361
 20
4847.1421652404
 30
0.0
 40
4.499999999999671
100
AcDbArc
 50
94.7802004159
 51
113.9683368696
  0
LINE
  5
17B
330
1F
100
AcDbEntity
  8
0
  6
Continuous
 62
     7
370
    25
100
AcDbLine
 10
6619.0187648142
 20
4942.1421778533
 30
0.0
 11
5929.0187522972
 21
4942.1421778533
 31
0.0
  0
LWPOLYLINE
  5
17C
330
1F
100
AcDbEntity
  8
0
  6
Continuous
 62
     7
370
    25
100
AcDbPolyline
 90
        9
 70
   128
 43
0.0
 10
5929.0187522972
 20
4942.1421778533
 10
5928.0433073843
 20
4943.1176078651
 10
5927.1053388918
 20
4944.0555763576
 10
5926.2409076298
 20
4944.9200225208
 10
5925.4832282865
 20
4945.6776869628
 10
5924.8614028299
 20
4946.2995124194
 10
5924.3993625248
 20
4946.7615676257
 10
5924.1148248518
 20
4947.0460903976
 10
5924.0187570656
 20
4947.1421730849
  0
LINE
  5
17D
330
1F
100
AcDbEntity
  8
0
  6
Continuous
 62
     7
370
    25
100
AcDbLine
 10
5924.0187570656
 20
4947.1421730849
 30
0.0
 11
6624.0187302435
 21
4947.1421730849
 31
0.0
  0
LWPOLYLINE
  5
17E
330
1F
100
AcDbEntity
  8
0
  6
Continuous
 62
     7
370
    25
100
AcDbPolyline
 90
        9
 70
   128
 43
0.0
 10
6619.0187648142
 20
4942.1421778533
 10
6619.9942246283
 20
4943.1176078651
 10
6620.9321633184
 20
4944.0555763576
 10
6621.7966094816
 20
4944.9200225208
 10
6622.554303726
 20
4945.6776869628
 10
6623.1760993803
 20
4946.2995124194
 10
6623.6381545866
 20
4946.7615676257
 10
6623.9227071608
 20
4947.0460903976
 10
6624.0187302435
 20
4947.1421730849
  0
LINE
  5
17F
330
1F
100
AcDbEntity
  8
0
  6
Continuous
 62
     7
370
    25
100
AcDbLine
 10
6619.0187648142
 20
4252.1421504352
 30
0.0
 11
6619.0187648142
 21
4942.1421778533
 31
0.0
  0
LINE
  5
180
330
1F
100
AcDbEntity
  8
0
  6
Continuous
 62
     7
370
    25
100
AcDbLine
 10
6624.0187302435
 20
4947.1421730849
 30
0.0
 11
6624.0187302435
 21
4247.1421552036
 31
0.0
  0
LWPOLYLINE
  5
181
330
1F
100
AcDbEntity
  8
0
  6
Continuous
 62
     7
370
    25
100
AcDbPolyline
 90
        9
 70
   128
 43
0.0
 10
6624.0187302435
 20
4247.1421552036
 10
6623.9227071608
 20
4247.2382378909
 10
6623.6381545866
 20
4247.5227606628
 10
6623.1760993803
 20
4247.9848158691
 10
6622.554303726
 20
4248.6066413257
 10
6621.7966094816
 20
4249.3643057678
 10
6620.9321633184
 20
4250.2287519309
 10
6619.9942246283
 20
4251.1667204234
 10
6619.0187648142
 20
4252.1421504352
  0
LINE
  5
182
330
1F
100
AcDbEntity
  8
0
  6
Continuous
 62
     7
370
    25
100
AcDbLine
 10
5929.0187522972
 20
4942.1421778533
 30
0.0
 11
5929.0187522972
 21
4252.1421504352
 31
0.0
  0
LWPOLYLINE
  5
183
330
1F
100
AcDbEntity
  8
0
  6
Continuous
 62
     7
370
    25
100
AcDbPolyline
 90
        9
 70
   128
 43
0.0
 10
5924.0187570656
 20
4247.1421552036
 10
5924.1148248518
 20
4247.2382378909
 10
5924.3993625248
 20
4247.5227606628
 10
5924.8614028299
 20
4247.9848158691
 10
5925.4832282865
 20
4248.6066413257
 10
5926.2409076298
 20
4249.3643057678
 10
5927.1053388918
 20
4250.2287519309
 10
5928.0433073843
 20
4251.1667204234
 10
5929.0187522972
 20
4252.1421504352
  0
LINE
  5
184
330
1F
100
AcDbEntity
  8
0
  6
Continuous
 62
     7
370
    25
100
AcDbLine
 10
5924.0187570656
 20
4247.1421552036
 30
0.0
 11
5924.0187570656
 21
4947.1421730849
 31
0.0
  0
LINE
  5
185
330
1F
100
AcDbEntity
  8
0
  6
Continuous
 62
     7
370
    25
100
AcDbLine
 10
6559.01876243
 20
4259.5393252704
 30
0.0
 11
5989.0187546814
 21
4259.5393252704
 31
0.0
  0
ARC
  5
186
330
1F
100
AcDbEntity
  8
0
  6
Continuous
 62
     7
370
    25
100
AcDbCircle
 10
6559.0187553361
 20
4312.1421652404
 30
0.0
 40
52.60283525275918
100
AcDbArc
 50
270.0
 51
0.0
  0
LINE
  5
187
330
1F
100
AcDbEntity
  8
0
  6
Continuous
 62
     7
370
    25
100
AcDbLine
 10
6611.621589979
 20
4882.142160568
 30
0.0
 11
6611.621589979
 21
4312.1421528194
 31
0.0
  0
ARC
  5
188
330
1F
100
AcDbEntity
  8
0
  6
Continuous
 62
     7
370
    25
100
AcDbCircle
 10
6559.0187553361
 20
4882.1421652404
 30
0.0
 40
52.60283525275918
100
AcDbArc
 50
0.0
 51
90.0
  0
LINE
  5
189
330
1F
100
AcDbEntity
  8
0
  6
Continuous
 62
     7
370
    25
100
AcDbLine
 10
5989.0187546814
 20
4934.7450030181
 30
0.0
 11
6559.01876243
 21
4934.7450030181
 31
0.0
  0
ARC
  5
18A
330
1F
100
AcDbEntity
  8
0
  6
Continuous
 62
     7
370
    25
100
AcDbCircle
 10
5989.0187553361
 20
4882.1421652404
 30
0.0
 40
52.60283525275918
100
AcDbArc
 50
90.0
 51
180.0
  0
LINE
  5
18B
330
1F
100
AcDbEntity
  8
0
  6
Continuous
 62
     7
370
    25
100
AcDbLine
 10
5936.4159271324
 20
4312.1421528194
 30
0.0
 11
5936.4159271324
 21
4882.142160568
 31
0.0
  0
ARC
  5
18C
330
1F
100
AcDbEntity
  8
0
  6
Continuous
 62
     7
370
    25
100
AcDbCircle
 10
5989.0187553361
 20
4312.1421652404
 30
0.0
 40
52.60283525275918
100
AcDbArc
 50
180.0
 51
270.0
  0
LINE
  5
18D
330
1F
100
AcDbEntity
  8
0
  6
Continuous
 62
     7
370
    25
100
AcDbLine
 10
5929.0187522972
 20
4252.1421504352
 30
0.0
 11
6619.0187648142
 21
4252.1421504352
 31
0.0
  0
LINE
  5
18E
330
1F
100
AcDbEntity
  8
0
  6
Continuous
 62
     7
370
    25
100
AcDbLine
 10
6559.01876243
 20
4930.6492400501
 30
0.0
 11
5989.0187546814
 21
4930.6492400501
 31
0.0
  0
LINE
  5
18F
330
1F
100
AcDbEntity
  8
0
  6
Continuous
 62
     7
370
    25
100
AcDbLine
 10
5989.0187546814
 20
4930.6492400501
 30
0.0
 11
5989.0187546814
 21
4934.7450030181
 31
0.0
  0
LINE
  5
190
330
1F
100
AcDbEntity
  8
0
  6
Continuous
 62
     7
370
    25
100
AcDbLine
 10
6559.01876243
 20
4930.6492400501
 30
0.0
 11
6559.01876243
 21
4934.7450030181
 31
0.0
  0
ARC
  5
191
330
1F
100
AcDbEntity
  8
0
  6
Continuous
 62
     7
370
    25
100
AcDbCircle
 10
5989.0187553361
 20
4882.1421652404
 30
0.0
 40
48.50707503131343
100
AcDbArc
 50
90.0
 51
180.0
  0
LINE
  5
192
330
1F
100
AcDbEntity
  8
0
  6
Continuous
 62
     7
370
    25
100
AcDbLine
 10
5940.5116751993
 20
4882.142160568
 30
0.0
 11
5936.4159271324
 21
4882.142160568
 31
0.0
  0
ARC
  5
193
330
1F
100
AcDbEntity
  8
0
  6
Continuous
 62
     7
370
    25
100
AcDbCircle
 10
6559.0187553361
 20
4882.1421652404
 30
0.0
 40
48.50707503131343
100
AcDbArc
 50
0.0
 51
90.0
  0
LINE
  5
194
330
1F
100
AcDbEntity
  8
0
  6
Continuous
 62
     7
370
    25
100
AcDbLine
 10
6607.5258270109
 20
4882.142160568
 30
0.0
 11
6611.621589979
 21
4882.142160568
 31
0.0
  0
LINE
  5
195
330
1F
100
AcDbEntity
  8
0
  6
Continuous
 62
     7
370
    25
100
AcDbLine
 10
6607.5258270109
 20
4312.1421528194
 30
0.0
 11
6607.5258270109
 21
4882.142160568
 31
0.0
  0
LINE
  5
196
330
1F
100
AcDbEntity
  8
0
  6
Continuous
 62
     7
370
    25
100
AcDbLine
 10
6611.621589979
 20
4312.1421528194
 30
0.0
 11
6607.5258270109
 21
4312.1421528194
 31
0.0
  0
LINE
  5
197
330
1F
100
AcDbEntity
  8
0
  6
Continuous
 62
     7
370
    25
100
AcDbLine
 10
5940.5116751993
 20
4882.142160568
 30
0.0
 11
5940.5116751993
 21
4312.1421528194
 31
0.0
  0
LINE
  5
198
330
1F
100
AcDbEntity
  8
0
  6
Continuous
 62
     7
370
    25
100
AcDbLine
 10
5936.4159271324
 20
4312.1421528194
 30
0.0
 11
5940.5116751993
 21
4312.1421528194
 31
0.0
  0
ARC
  5
199
330
1F
100
AcDbEntity
  8
0
  6
Continuous
 62
     7
370
    25
100
AcDbCircle
 10
5989.0187553361
 20
4312.1421652404
 30
0.0
 40
48.50707503131343
100
AcDbArc
 50
180.0
 51
270.0
  0
LINE
  5
19A
330
1F
100
AcDbEntity
  8
0
  6
Continuous
 62
     7
370
    25
100
AcDbLine
 10
5989.0187546814
 20
4259.5393252704
 30
0.0
 11
5989.0187546814
 21
4263.6350882385
 31
0.0
  0
LINE
  5
19B
330
1F
100
AcDbEntity
  8
0
  6
Continuous
 62
     7
370
    25
100
AcDbLine
 10
6559.01876243
 20
4259.5393252704
 30
0.0
 11
6559.01876243
 21
4263.6350882385
 31
0.0
  0
ARC
  5
19C
330
1F
100
AcDbEntity
  8
0
  6
Continuous
 62
     7
370
    25
100
AcDbCircle
 10
6559.0187553361
 20
4312.1421652404
 30
0.0
 40
48.50707503131343
100
AcDbArc
 50
270.0
 51
0.0
  0
LINE
  5
19D
330
1F
100
AcDbEntity
  8
0
  6
Continuous
 62
     7
370
    25
100
AcDbLine
 10
5989.0187546814
 20
4263.6350882385
 30
0.0
 11
6559.01876243
 21
4263.6350882385
 31
0.0
  0
LINE
  5
19E
330
1F
100
AcDbEntity
  8
0
  6
Continuous
 62
     7
370
    25
100
AcDbLine
 10
6624.0187302435
 20
4247.1421552036
 30
0.0
 11
5924.0187570656
 21
4247.1421552036
 31
0.0
  0
ARC
  5
19F
330
1F
100
AcDbEntity
  8
0
  6
Continuous
 62
     7
370
    25
100
AcDbCircle
 10
5989.0187553361
 20
4882.1421652404
 30
0.0
 40
34.88349149465557
100
AcDbArc
 50
90.0
 51
180.0
  0
LINE
  5
1A0
330
1F
100
AcDbEntity
  8
0
  6
Continuous
 62
     7
370
    25
100
AcDbLine
 10
5954.135270437
 20
4882.142160568
 30
0.0
 11
5940.5116751993
 21
4882.142160568
 31
0.0
  0
LINE
  5
1A1
330
1F
100
AcDbEntity
  8
0
  6
Continuous
 62
     7
370
    25
100
AcDbLine
 10
5989.0187546814
 20
4917.0256448123
 30
0.0
 11
5989.0187546814
 21
4930.6492400501
 31
0.0
  0
LINE
  5
1A2
330
1F
100
AcDbEntity
  8
0
  6
Continuous
 62
     7
370
    25
100
AcDbLine
 10
5989.0187546814
 20
4917.0256448123
 30
0.0
 11
6559.01876243
 21
4917.0256448123
 31
0.0
  0
LINE
  5
1A3
330
1F
100
AcDbEntity
  8
0
  6
Continuous
 62
     7
370
    25
100
AcDbLine
 10
6559.01876243
 20
4917.0256448123
 30
0.0
 11
6559.01876243
 21
4930.6492400501
 31
0.0
  0
ARC
  5
1A4
330
1F
100
AcDbEntity
  8
0
  6
Continuous
 62
     7
370
    25
100
AcDbCircle
 10
6559.0187553361
 20
4882.1421652404
 30
0.0
 40
34.88349149465557
100
AcDbArc
 50
0.0
 51
90.0
  0
LINE
  5
1A5
330
1F
100
AcDbEntity
  8
0
  6
Continuous
 62
     7
370
    25
100
AcDbLine
 10
6593.9022615755
 20
4882.142160568
 30
0.0
 11
6607.5258270109
 21
4882.142160568
 31
0.0
  0
LINE
  5
1A6
330
1F
100
AcDbEntity
  8
0
  6
Continuous
 62
     7
370
    25
100
AcDbLine
 10
5954.135270437
 20
4312.1421528194
 30
0.0
 11
5954.135270437
 21
4882.142160568
 31
0.0
  0
LINE
  5
1A7
330
1F
100
AcDbEntity
  8
0
  6
Continuous
 62
     7
370
    25
100
AcDbLine
 10
5954.135270437
 20
4312.1421528194
 30
0.0
 11
5940.5116751993
 21
4312.1421528194
 31
0.0
  0
LINE
  5
1A8
330
1F
100
AcDbEntity
  8
0
  6
Continuous
 62
     7
370
    25
100
AcDbLine
 10
6593.9022615755
 20
4882.142160568
 30
0.0
 11
6593.9022615755
 21
4312.1421528194
 31
0.0
  0
LINE
  5
1A9
330
1F
100
AcDbEntity
  8
0
  6
Continuous
 62
     7
370
    25
100
AcDbLine
 10
6593.9022615755
 20
4312.1421528194
 30
0.0
 11
6607.5258270109
 21
4312.1421528194
 31
0.0
  0
ARC
  5
1AA
330
1F
100
AcDbEntity
  8
0
  6
Continuous
 62
     7
370
    25
100
AcDbCircle
 10
6559.0187553361
 20
4312.1421652404
 30
0.0
 40
34.88349149465557
100
AcDbArc
 50
270.0
 51
0.0
  0
LINE
  5
1AB
330
1F
100
AcDbEntity
  8
0
  6
Continuous
 62
     7
370
    25
100
AcDbLine
 10
6559.01876243
 20
4277.2586834762
 30
0.0
 11
6559.01876243
 21
4263.6350882385
 31
0.0
  0
ARC
  5
1AC
330
1F
100
AcDbEntity
  8
0
  6
Continuous
 62
     7
370
    25
100
AcDbCircle
 10
5989.0187553361
 20
4312.1421652404
 30
0.0
 40
34.88349149465557
100
AcDbArc
 50
180.0
 51
270.0
  0
LINE
  5
1AD
330
1F
100
AcDbEntity
  8
0
  6
Continuous
 62
     7
370
    25
100
AcDbLine
 10
5989.0187546814
 20
4277.2586834762
 30
0.0
 11
5989.0187546814
 21
4263.6350882385
 31
0.0
  0
LINE
  5
1AE
330
1F
100
AcDbEntity
  8
0
  6
Continuous
 62
     7
370
    25
100
AcDbLine
 10
6559.01876243
 20
4277.2586834762
 30
0.0
 11
5989.0187546814
 21
4277.2586834762
 31
0.0
  0
LINE
  5
1AF
330
1F
100
AcDbEntity
  8
0
  6
Continuous
 62
     7
370
    25
100
AcDbLine
 10
5989.0187546814
 20
4917.0256448123
 30
0.0
 11
5989.0187546814
 21
4910.4724419448
 31
0.0
  0
ARC
  5
1B0
330
1F
100
AcDbEntity
  8
0
  6
Continuous
 62
     7
370
    25
100
AcDbCircle
 10
5989.0187553361
 20
4882.1421652404
 30
0.0
 40
28.33027514034347
100
AcDbArc
 50
90.0
 51
180.0
  0
LINE
  5
1B1
330
1F
100
AcDbEntity
  8
0
  6
Continuous
 62
     7
370
    25
100
AcDbLine
 10
5954.135270437
 20
4882.142160568
 30
0.0
 11
5960.6884733046
 21
4882.142160568
 31
0.0
  0
LINE
  5
1B2
330
1F
100
AcDbEntity
  8
0
  6
Continuous
 62
     7
370
    25
100
AcDbLine
 10
6559.01876243
 20
4910.4724419448
 30
0.0
 11
5989.0187546814
 21
4910.4724419448
 31
0.0
  0
LINE
  5
1B3
330
1F
100
AcDbEntity
  8
0
  6
Continuous
 62
     7
370
    25
100
AcDbLine
 10
6559.01876243
 20
4910.4724419448
 30
0.0
 11
6559.01876243
 21
4917.0256448123
 31
0.0
  0
ARC
  5
1B4
330
1F
100
AcDbEntity
  8
0
  6
Continuous
 62
     7
370
    25
100
AcDbCircle
 10
6559.0187553361
 20
4882.1421652404
 30
0.0
 40
28.33027514034347
100
AcDbArc
 50
0.0
 51
90.0
  0
LINE
  5
1B5
330
1F
100
AcDbEntity
  8
0
  6
Continuous
 62
     7
370
    25
100
AcDbLine
 10
6587.3490289057
 20
4882.142160568
 30
0.0
 11
6593.9022615755
 21
4882.142160568
 31
0.0
  0
LINE
  5
1B6
330
1F
100
AcDbEntity
  8
0
  6
Continuous
 62
     7
370
    25
100
AcDbLine
 10
5960.6884733046
 20
4882.142160568
 30
0.0
 11
5960.6884733046
 21
4312.1421528194
 31
0.0
  0
LINE
  5
1B7
330
1F
100
AcDbEntity
  8
0
  6
Continuous
 62
     7
370
    25
100
AcDbLine
 10
5954.135270437
 20
4312.1421528194
 30
0.0
 11
5960.6884733046
 21
4312.1421528194
 31
0.0
  0
LINE
  5
1B8
330
1F
100
AcDbEntity
  8
0
  6
Continuous
 62
     7
370
    25
100
AcDbLine
 10
6587.3490289057
 20
4312.1421528194
 30
0.0
 11
6587.3490289057
 21
4882.142160568
 31
0.0
  0
LINE
  5
1B9
330
1F
100
AcDbEntity
  8
0
  6
Continuous
 62
     7
370
    25
100
AcDbLine
 10
6587.3490289057
 20
4312.1421528194
 30
0.0
 11
6593.9022615755
 21
4312.1421528194
 31
0.0
  0
ARC
  5
1BA
330
1F
100
AcDbEntity
  8
0
  6
Continuous
 62
     7
370
    25
100
AcDbCircle
 10
6559.0187553361
 20
4312.1421652404
 30
0.0
 40
28.33027514034347
100
AcDbArc
 50
270.0
 51
0.0
  0
LINE
  5
1BB
330
1F
100
AcDbEntity
  8
0
  6
Continuous
 62
     7
370
    25
100
AcDbLine
 10
6559.01876243
 20
4283.8118863437
 30
0.0
 11
6559.01876243
 21
4277.2586834762
 31
0.0
  0
ARC
  5
1BC
330
1F
100
AcDbEntity
  8
0
  6
Continuous
 62
     7
370
    25
100
AcDbCircle
 10
5989.0187553361
 20
4312.1421652404
 30
0.0
 40
28.33027514034347
100
AcDbArc
 50
180.0
 51
270.0
  0
LINE
  5
1BD
330
1F
100
AcDbEntity
  8
0
  6
Continuous
 62
     7
370
    25
100
AcDbLine
 10
5989.0187546814
 20
4277.2586834762
 30
0.0
 11
5989.0187546814
 21
4283.8118863437
 31
0.0
  0
LINE
  5
1BE
330
1F
100
AcDbEntity
  8
0
  6
Continuous
 62
     7
370
    25
100
AcDbLine
 10
5989.0187546814
 20
4283.8118863437
 30
0.0
 11
6559.01876243
 21
4283.8118863437
 31
0.0
  0
SPLINE
  5
1BF
330
1F
100
AcDbEntity
  8
0
  6
Continuous
 62
     7
370
    25
100
AcDbSpline
210
0.0
220
0.0
230
1.0
 70
     8
 71
     3
 72
    10
 73
     6
 74
     0
 42
0.000000001
 43
0.00000001
 40
0.0
 40
0.0
 40
0.0
 40
0.0
 40
0.0362496098566244
 40
0.3600288992816407
 40
1.0
 40
1.0
 40
1.0
 40
1.0
 10
6549.144209941666
 20
4610.374752912258
 30
0.0
 10
6549.17911920642
 20
4610.413424474994
 30
0.0
 10
6549.525835880449
 20
4610.797508061555
 30
0.0
 10
6550.496359188649
 20
4611.872021579203
 30
0.0
 10
6551.344116956765
 20
4612.809246278621
 30
0.0
 10
6551.90706404094
 20
4613.431603196596
 30
0.0
  0
LINE
  5
1C0
330
1F
100
AcDbEntity
  8
0
  6
Continuous
 62
     7
370
    25
100
AcDbLine
 10
6549.1442099417
 20
4610.3747529123
 30
0.0
 11
6322.9654446447
 21
4811.9003963802
 31
0.0
  0
LWPOLYLINE
  5
1C1
330
1F
100
AcDbEntity
  8
0
  6
Continuous
 62
     7
370
    25
100
AcDbPolyline
 90
        4
 70
   128
 43
0.0
 10
6322.9654446447
 20
4811.9003963802
 10
6321.0775271261
 20
4814.4427579972
 10
6319.2017838562
 20
4816.9687134359
 10
6317.3503443802
 20
4819.4619459245
  0
SPLINE
  5
1C2
330
1F
100
AcDbEntity
  8
0
  6
Continuous
 62
     7
370
    25
100
AcDbSpline
210
0.0
220
0.0
230
1.0
 70
     8
 71
     3
 72
     9
 73
     5
 74
     0
 42
0.000000001
 43
0.00000001
 40
0.0
 40
0.0
 40
0.0
 40
0.0
 40
0.7560945299493972
 40
1.0
 40
1.0
 40
1.0
 40
1.0
 10
6318.300844749253
 20
4821.575124296879
 30
0.0
 10
6318.103060736417
 20
4821.042093880972
 30
0.0
 10
6317.841474380478
 20
4820.33711534351
 30
0.0
 10
6317.446645342321
 20
4819.633549485746
 30
0.0
 10
6317.350344380181
 20
4819.461945924496
 30
0.0
  0
LINE
  5
1C3
330
1F
100
AcDbEntity
  8
0
  6
Continuous
 62
     7
370
    25
100
AcDbLine
 10
6318.3008447493
 20
4821.5751242969
 30
0.0
 11
6551.9070640409
 21
4613.4316031966
 31
0.0
  0
LINE
  5
1C4
330
1F
100
AcDbEntity
  8
0
  6
Continuous
 62
     7
370
    25
100
AcDbLine
 10
6225.0720650161
 20
4811.9003963802
 30
0.0
 11
5998.8933071697
 21
4610.3747529123
 31
0.0
  0
SPLINE
  5
1C5
330
1F
100
AcDbEntity
  8
0
  6
Continuous
 62
     7
370
    25
100
AcDbSpline
210
0.0
220
0.0
230
1.0
 70
     8
 71
     3
 72
    10
 73
     6
 74
     0
 42
0.000000001
 43
0.00000001
 40
0.0
 40
0.0
 40
0.0
 40
0.0
 40
0.6399718712225856
 40
0.9637481538331351
 40
1.0
 40
1.0
 40
1.0
 40
1.0
 10
5996.130438169282
 20
4613.431603196596
 30
0.0
 10
5996.693401871776
 20
4612.809256695828
 30
0.0
 10
5997.541181677969
 20
4611.87205098706
 30
0.0
 10
5998.511647214618
 20
4610.797481861884
 30
0.0
 10
5998.858392768648
 20
4610.413424320911
 30
0.0
 10
5998.893307169717
 20
4610.374752912258
 30
0.0
  0
LINE
  5
1C6
330
1F
100
AcDbEntity
  8
0
  6
Continuous
 62
     7
370
    25
100
AcDbLine
 10
5996.1304381693
 20
4613.4316031966
 30
0.0
 11
6229.7366649115
 21
4821.5751242969
 31
0.0
  0
SPLINE
  5
1C7
330
1F
100
AcDbEntity
  8
0
  6
Continuous
 62
     7
370
    25
100
AcDbSpline
210
0.0
220
0.0
230
1.0
 70
     8
 71
     3
 72
     9
 73
     5
 74
     0
 42
0.000000001
 43
0.00000001
 40
0.0
 40
0.0
 40
0.0
 40
0.0
 40
0.2439065114943028
 40
1.0
 40
1.0
 40
1.0
 40
1.0
 10
6230.687172731202
 20
4819.461945924496
 30
0.0
 10
6230.59086902096
 20
4819.633549367264
 30
0.0
 10
6230.196030401637
 20
4820.337111735146
 30
0.0
 10
6229.934446668712
 20
4821.04209274546
 30
0.0
 10
6229.736664911549
 20
4821.575124296879
 30
0.0
  0
LWPOLYLINE
  5
1C8
330
1F
100
AcDbEntity
  8
0
  6
Continuous
 62
     7
370
    25
100
AcDbPolyline
 90
        4
 70
   128
 43
0.0
 10
6230.6871727312
 20
4819.4619459245
 10
6228.8357332552
 20
4816.9687134359
 10
6226.9599899853
 20
4814.4427579972
 10
6225.0720650161
 20
4811.9003963802
  0
ARC
  5
1C9
330
1F
100
AcDbEntity
  8
0
  6
Continuous
 62
     7
370
    25
100
AcDbCircle
 10
6558.7412218304
 20
4620.8659774356
 30
0.0
 40
14.21859635247873
100
AcDbArc
 50
227.5487806198
 51
47.4823755625
  0
ARC
  5
1CA
330
1F
100
AcDbEntity
  8
0
  6
Continuous
 62
     7
370
    25
100
AcDbCircle
 10
6558.7412218304
 20
4620.8659774356
 30
0.0
 40
10.09829175319818
100
AcDbArc
 50
227.4088036895
 51
47.4823755625
  0
LWPOLYLINE
  5
1CB
330
1F
100
AcDbEntity
  8
0
  6
Continuous
 62
     7
370
    25
100
AcDbPolyline
 90
        9
 70
   128
 43
0.0
 10
6568.3503762091
 20
4631.3460716191
 10
6567.9850295389
 20
4630.9475810412
 10
6567.6213219965
 20
4630.5509139929
 10
6567.2609523142
 20
4630.1578828279
 10
6566.9055596197
 20
4629.7702849987
 10
6566.5567830408
 20
4629.3898918811
 10
6566.2162021006
 20
4629.0184413228
 10
6565.8853665197
 20
4628.6576339189
 10
6565.5658260191
 20
4628.3091199729
  0
ARC
  5
1CC
330
1F
100
AcDbEntity
  8
0
  6
Continuous
 62
     7
370
    25
100
AcDbCircle
 10
5989.2962888418
 20
4620.8659774356
 30
0.0
 40
10.09829175319855
100
AcDbArc
 50
132.5176244375
 51
312.5911963106
  0
ARC
  5
1CD
330
1F
100
AcDbEntity
  8
0
  6
Continuous
 62
     7
370
    25
100
AcDbCircle
 10
5989.2962888418
 20
4620.8659774356
 30
0.0
 40
14.21859635247818
100
AcDbArc
 50
132.5176244375
 51
312.4512193802
  0
LWPOLYLINE
  5
1CE
330
1F
100
AcDbEntity
  8
0
  6
Continuous
 62
     7
370
    25
100
AcDbPolyline
 90
        9
 70
   128
 43
0.0
 10
5982.4716910923
 20
4628.3091199729
 10
5982.1521356905
 20
4628.6576339189
 10
5981.8213150108
 20
4629.0184413228
 10
5981.4807340706
 20
4629.3898918811
 10
5981.1319574917
 20
4629.7702849987
 10
5980.7765647972
 20
4630.1578828279
 10
5980.4161951149
 20
4630.5509139929
 10
5980.0524875725
 20
4630.9475810412
 10
5979.6871260012
 20
4631.3460716191
  0
ARC
  5
1CF
330
1F
100
AcDbEntity
  8
0
  6
Continuous
 62
     7
370
    25
100
AcDbCircle
 10
6560.6335717998
 20
4861.5907154174
 30
0.0
 40
14.21859635247897
100
AcDbArc
 50
273.0668306476
 51
91.0216832217
  0
SPLINE
  5
1D0
330
1F
100
AcDbEntity
  8
0
  6
Continuous
 62
     7
370
    25
100
AcDbSpline
210
0.0
220
0.0
230
1.0
 70
     8
 71
     3
 72
    10
 73
     6
 74
     0
 42
0.000000001
 43
0.00000001
 40
0.0
 40
0.0
 40
0.0
 40
0.0
 40
0.016110061673114
 40
0.3603625537530634
 40
1.0
 40
1.0
 40
1.0
 40
1.0
 10
6561.394275745194
 20
4847.392488751148
 30
0.0
 10
6561.393799153378
 20
4847.415651904485
 30
0.0
 10
6561.383138372115
 20
4847.933783570214
 30
0.0
 10
6561.352532909298
 20
4849.38485839396
 30
0.0
 10
6561.319818606376
 20
4850.675368883381
 30
0.0
 10
6561.298550685685
 20
4851.514343652462
 30
0.0
  0
ARC
  5
1D1
330
1F
100
AcDbEntity
  8
0
  6
Continuous
 62
     7
370
    25
100
AcDbCircle
 10
6560.6335717998
 20
4861.5907154174
 30
0.0
 40
10.09829175319913
100
AcDbArc
 50
273.7757231613
 51
91.505108218
  0
SPLINE
  5
1D2
330
1F
100
AcDbEntity
  8
0
  6
Continuous
 62
     7
370
    25
100
AcDbSpline
210
0.0
220
0.0
230
1.0
 70
     8
 71
     3
 72
    10
 73
     6
 74
     0
 42
0.000000001
 43
0.00000001
 40
0.0
 40
0.0
 40
0.0
 40
0.0
 40
0.0195075374420012
 40
0.3601565009593383
 40
1.0
 40
1.0
 40
1.0
 40
1.0
 10
6560.380043109696
 20
4875.8070510957
 30
0.0
 10
6560.379913837893
 20
4875.779006669639
 30
0.0
 10
6560.377527166562
 20
4875.261238479185
 30
0.0
 10
6560.371264985657
 20
4873.810766890843
 30
0.0
 10
6560.369489458894
 20
4872.524746790433
 30
0.0
 10
6560.368330796998
 20
4871.685524019932
 30
0.0
  0
LINE
  5
1D3
330
1F
100
AcDbEntity
  8
0
  6
Continuous
 62
     7
370
    25
100
AcDbLine
 10
6560.368330797
 20
4871.6855240199
 30
0.0
 11
6311.5858152712
 21
4878.4975302551
 31
0.0
  0
SPLINE
  5
1D4
330
1F
100
AcDbEntity
  8
0
  6
Continuous
 62
     7
370
    25
100
AcDbSpline
210
0.0
220
0.0
230
1.0
 70
     8
 71
     3
 72
    10
 73
     6
 74
     0
 42
0.000000001
 43
0.00000001
 40
0.0
 40
0.0
 40
0.0
 40
0.0
 40
0.0044550099767329
 40
0.5571000728090127
 40
1.0
 40
1.0
 40
1.0
 40
1.0
 10
6312.354670485299
 20
4882.59831491444
 30
0.0
 10
6312.353488407756
 20
4882.591942456027
 30
0.0
 10
6312.205669325775
 20
4881.795064993468
 30
0.0
 10
6311.933491063807
 20
4880.341797570515
 30
0.0
 10
6311.692865309313
 20
4879.065383670895
 30
0.0
 10
6311.58581527118
 20
4878.497530255055
 30
0.0
  0
LINE
  5
1D5
330
1F
100
AcDbEntity
  8
0
  6
Continuous
 62
     7
370
    25
100
AcDbLine
 10
6312.3546704853
 20
4882.5983149144
 30
0.0
 11
6560.3800431097
 21
4875.8070510957
 31
0.0
  0
ARC
  5
1D6
330
1F
100
AcDbEntity
  8
0
  6
Continuous
 62
     7
370
    25
100
AcDbCircle
 10
5987.4039388724
 20
4861.5907154174
 30
0.0
 40
14.21859635247887
100
AcDbArc
 50
88.9783167783
 51
266.9331693524
  0
SPLINE
  5
1D7
330
1F
100
AcDbEntity
  8
0
  6
Continuous
 62
     7
370
    25
100
AcDbSpline
210
0.0
220
0.0
230
1.0
 70
     8
 71
     3
 72
    10
 73
     6
 74
     0
 42
0.000000001
 43
0.00000001
 40
0.0
 40
0.0
 40
0.0
 40
0.0
 40
0.0195075375859398
 40
0.3601564895522277
 40
1.0
 40
1.0
 40
1.0
 40
1.0
 10
5987.657474001687
 20
4875.8070510957
 30
0.0
 10
5987.657603284117
 20
4875.77900666968
 30
0.0
 10
5987.659990151549
 20
4875.261238500206
 30
0.0
 10
5987.666222704938
 20
4873.810766808309
 30
0.0
 10
5987.6680160347
 20
4872.52474676697
 30
0.0
 10
5987.669186314385
 20
4871.685524019932
 30
0.0
  0
ARC
  5
1D8
330
1F
100
AcDbEntity
  8
0
  6
Continuous
 62
     7
370
    25
100
AcDbCircle
 10
5987.4039388724
 20
4861.5907154174
 30
0.0
 40
10.09829175319913
100
AcDbArc
 50
88.4948917819
 51
266.2242768387
  0
SPLINE
  5
1D9
330
1F
100
AcDbEntity
  8
0
  6
Continuous
 62
     7
370
    25
100
AcDbSpline
210
0.0
220
0.0
230
1.0
 70
     8
 71
     3
 72
    10
 73
     6
 74
     0
 42
0.000000001
 43
0.00000001
 40
0.0
 40
0.0
 40
0.0
 40
0.0
 40
0.6396373709904711
 40
0.9838899382465353
 40
1.0
 40
1.0
 40
1.0
 40
1.0
 10
5986.738951524537
 20
4851.514343652462
 30
0.0
 10
5986.717695166718
 20
4850.675368739458
 30
0.0
 10
5986.684998645954
 20
4849.384857876922
 30
0.0
 10
5986.654363672214
 20
4847.933783679374
 30
0.0
 10
5986.643703049651
 20
4847.415651904637
 30
0.0
 10
5986.643226465028
 20
4847.392488751148
 30
0.0
  0
LINE
  5
1DA
330
1F
100
AcDbEntity
  8
0
  6
Continuous
 62
     7
370
    25
100
AcDbLine
 10
5987.6574740017
 20
4875.8070510957
 30
0.0
 11
6235.6828317249
 21
4882.5983149144
 31
0.0
  0
SPLINE
  5
1DB
330
1F
100
AcDbEntity
  8
0
  6
Continuous
 62
     7
370
    25
100
AcDbSpline
210
0.0
220
0.0
230
1.0
 70
     8
 71
     3
 72
    10
 73
     6
 74
     0
 42
0.000000001
 43
0.00000001
 40
0.0
 40
0.0
 40
0.0
 40
0.0
 40
0.4428997881729375
 40
0.9955443674584611
 40
1.0
 40
1.0
 40
1.0
 40
1.0
 10
6236.451694389622
 20
4878.497530255055
 30
0.0
 10
6236.344582543623
 20
4879.065372181644
 30
0.0
 10
6236.103817933162
 20
4880.341759858315
 30
0.0
 10
6235.832441096827
 20
4881.795176672465
 30
0.0
 10
6235.684018791877
 20
4882.591942460263
 30
0.0
 10
6235.682831724923
 20
4882.59831491444
 30
0.0
  0
LINE
  5
1DC
330
1F
100
AcDbEntity
  8
0
  6
Continuous
 62
     7
370
    25
100
AcDbLine
 10
6236.4516943896
 20
4878.4975302551
 30
0.0
 11
5987.6691863144
 21
4871.6855240199
 31
0.0
  0
LINE
  5
1DD
330
1F
100
AcDbEntity
  8
0
  6
Continuous
 62
     7
370
    25
100
AcDbLine
 10
6561.3942757452
 20
4847.3924887511
 30
0.0
 11
6329.4985607469
 21
4850.3486556146
 31
0.0
  0
LWPOLYLINE
  5
1DE
330
1F
100
AcDbEntity
  8
0
  6
Continuous
 62
     7
370
    25
100
AcDbPolyline
 90
        4
 70
   128
 43
0.0
 10
6329.4985607469
 20
4850.3486556146
 10
6328.043611368
 20
4850.9254050586
 10
6326.5957400406
 20
4851.4993679855
 10
6325.1620248163
 20
4852.0676982734
  0
SPLINE
  5
1DF
330
1F
100
AcDbEntity
  8
0
  6
Continuous
 62
     7
370
    25
100
AcDbSpline
210
0.0
220
0.0
230
1.0
 70
     8
 71
     3
 72
     9
 73
     5
 74
     0
 42
0.000000001
 43
0.00000001
 40
0.0
 40
0.0
 40
0.0
 40
0.0
 40
0.6545267424518956
 40
1.0
 40
1.0
 40
1.0
 40
1.0
 10
6324.49568959121
 20
4854.533065590595
 30
0.0
 10
6324.677866176729
 20
4854.025351888633
 30
0.0
 10
6324.956199472689
 20
4853.249656001769
 30
0.0
 10
6325.109175641091
 20
4852.371186123797
 30
0.0
 10
6325.162024816315
 20
4852.067698273396
 30
0.0
  0
LINE
  5
1E0
330
1F
100
AcDbEntity
  8
0
  6
Continuous
 62
     7
370
    25
100
AcDbLine
 10
6324.4956895912
 20
4854.5330655906
 30
0.0
 11
6561.2985506857
 21
4851.5143436525
 31
0.0
  0
LINE
  5
1E1
330
1F
100
AcDbEntity
  8
0
  6
Continuous
 62
     7
370
    25
100
AcDbLine
 10
6218.5389489139
 20
4850.3486556146
 30
0.0
 11
5986.643226465
 21
4847.3924887511
 31
0.0
  0
LINE
  5
1E2
330
1F
100
AcDbEntity
  8
0
  6
Continuous
 62
     7
370
    25
100
AcDbLine
 10
5986.7389515245
 20
4851.5143436525
 30
0.0
 11
6223.541812619
 21
4854.5330655906
 31
0.0
  0
SPLINE
  5
1E3
330
1F
100
AcDbEntity
  8
0
  6
Continuous
 62
     7
370
    25
100
AcDbSpline
210
0.0
220
0.0
230
1.0
 70
     8
 71
     3
 72
     9
 73
     5
 74
     0
 42
0.000000001
 43
0.00000001
 40
0.0
 40
0.0
 40
0.0
 40
0.0
 40
0.3454732575481044
 40
1.0
 40
1.0
 40
1.0
 40
1.0
 10
6222.875477393906
 20
4852.067698273396
 30
0.0
 10
6222.92832656913
 20
4852.371186123797
 30
0.0
 10
6223.081302737532
 20
4853.249656001769
 30
0.0
 10
6223.359636033491
 20
4854.025351888633
 30
0.0
 10
6223.541812619012
 20
4854.533065590595
 30
0.0
  0
LWPOLYLINE
  5
1E4
330
1F
100
AcDbEntity
  8
0
  6
Continuous
 62
     7
370
    25
100
AcDbPolyline
 90
        4
 70
   128
 43
0.0
 10
6222.8754773939
 20
4852.0676982734
 10
6221.4417621696
 20
4851.4993679855
 10
6219.9938982928
 20
4850.9254050586
 10
6218.5389489139
 20
4850.3486556146
  0
SPLINE
  5
1E5
330
1F
100
AcDbEntity
  8
0
  6
Continuous
 62
     7
370
    25
100
AcDbSpline
210
0.0
220
0.0
230
1.0
 70
     8
 71
     3
 72
    11
 73
     7
 74
     0
 42
0.000000001
 43
0.00000001
 40
0.0
 40
0.0
 40
0.0
 40
0.0
 40
0.6387598174818708
 40
0.9646362596666597
 40
0.9878036215339048
 40
1.0
 40
1.0
 40
1.0
 40
1.0
 10
6264.03044315223
 20
4312.08311441872
 30
0.0
 10
6263.193671832694
 20
4312.018590085439
 30
0.0
 10
6261.930004435684
 20
4311.921147338085
 30
0.0
 10
6260.500313843805
 20
4311.821032490783
 30
0.0
 10
6259.981455556949
 20
4311.785427346906
 30
0.0
 10
6259.930642723242
 20
4311.781942070784
 30
0.0
 10
6259.913118203919
 20
4311.780740055775
 30
0.0
  0
LINE
  5
1E6
330
1F
100
AcDbEntity
  8
0
  6
Continuous
 62
     7
370
    25
100
AcDbLine
 10
6259.9131182039
 20
4311.7807400558
 30
0.0
 11
6254.8285737837
 21
4790.6344575021
 31
0.0
  0
LWPOLYLINE
  5
1E7
330
1F
100
AcDbEntity
  8
0
  6
Continuous
 62
     7
370
    25
100
AcDbPolyline
 90
        4
 70
   128
 43
0.0
 10
6256.7070141638
 20
4799.0723741386
 10
6256.0880646313
 20
4796.2921005819
 10
6255.4604873264
 20
4793.4730095002
 10
6254.8285737837
 20
4790.6344575021
  0
LINE
  5
1E8
330
1F
100
AcDbEntity
  8
0
  6
Continuous
 62
     7
370
    25
100
AcDbLine
 10
6256.8013832176
 20
4799.3997228477
 30
0.0
 11
6256.7070141638
 21
4799.0723741386
 31
0.0
  0
SPLINE
  5
1E9
330
1F
100
AcDbEntity
  8
0
  6
Continuous
 62
     7
370
    25
100
AcDbSpline
210
0.0
220
0.0
230
1.0
 70
     8
 71
     3
 72
     9
 73
     5
 74
     0
 42
0.000000001
 43
0.00000001
 40
0.0
 40
0.0
 40
0.0
 40
0.0
 40
0.5950641435459433
 40
1.0
 40
1.0
 40
1.0
 40
1.0
 10
6258.85281117801
 20
4799.703110489582
 30
0.0
 10
6258.46592491021
 20
4799.613467491616
 30
0.0
 10
6257.815765978614
 20
4799.462823230929
 30
0.0
 10
6257.093752403161
 20
4799.417909875658
 30
0.0
 10
6256.801383217614
 20
4799.399722847676
 30
0.0
  0
LINE
  5
1EA
330
1F
100
AcDbEntity
  8
0
  6
Continuous
 62
     7
370
    25
100
AcDbLine
 10
6258.852811178
 20
4799.7031104896
 30
0.0
 11
6264.0304431522
 21
4312.0831144187
 31
0.0
  0
LWPOLYLINE
  5
1EB
330
1F
100
AcDbEntity
  8
0
  6
Continuous
 62
     7
370
    25
100
AcDbPolyline
 90
        4
 70
   128
 43
0.0
 10
6291.3305029476
 20
4799.0723741386
 10
6291.949437579
 20
4796.2921005819
 10
6292.577029785
 20
4793.4730095002
 10
6293.2089433277
 20
4790.6344575021
  0
LINE
  5
1EC
330
1F
100
AcDbEntity
  8
0
  6
Continuous
 62
     7
370
    25
100
AcDbLine
 10
6293.2089433277
 20
4790.6344575021
 30
0.0
 11
6288.1243840063
 21
4311.7807400558
 31
0.0
  0
SPLINE
  5
1ED
330
1F
100
AcDbEntity
  8
0
  6
Continuous
 62
     7
370
    25
100
AcDbSpline
210
0.0
220
0.0
230
1.0
 70
     8
 71
     3
 72
    11
 73
     7
 74
     0
 42
0.000000001
 43
0.00000001
 40
0.0
 40
0.0
 40
0.0
 40
0.0
 40
0.6387631748033193
 40
0.964639692287835
 40
0.9878070595083237
 40
0.9999999999999999
 40
0.9999999999999999
 40
0.9999999999999999
 40
0.9999999999999999
 10
6284.007059057992
 20
4312.08311441872
 30
0.0
 10
6284.843835525955
 20
4312.018591190595
 30
0.0
 10
6286.107508552846
 20
4311.921150277623
 30
0.0
 10
6287.537203066885
 20
4311.821029574825
 30
0.0
 10
6288.056056648594
 20
4311.785428222024
 30
0.0
 10
6288.106864458469
 20
4311.78194212996
 30
0.0
 10
6288.124384006303
 20
4311.780740055775
 30
0.0
  0
LINE
  5
1EE
330
1F
100
AcDbEntity
  8
0
  6
Continuous
 62
     7
370
    25
100
AcDbLine
 10
6284.007059058
 20
4312.0831144187
 30
0.0
 11
6289.1847059334
 21
4799.7031104896
 31
0.0
  0
SPLINE
  5
1EF
330
1F
100
AcDbEntity
  8
0
  6
Continuous
 62
     7
370
    25
100
AcDbSpline
210
0.0
220
0.0
230
1.0
 70
     8
 71
     3
 72
     9
 73
     5
 74
     0
 42
0.000000001
 43
0.00000001
 40
0.0
 40
0.0
 40
0.0
 40
0.0
 40
0.4049419368831551
 40
1.0
 40
1.0
 40
1.0
 40
1.0
 10
6291.236133893769
 20
4799.399722847676
 30
0.0
 10
6290.943759366729
 20
4799.417909520605
 30
0.0
 10
6290.221743441953
 20
4799.462821324674
 30
0.0
 10
6289.571586853575
 20
4799.613467354725
 30
0.0
 10
6289.184705933373
 20
4799.703110489582
 30
0.0
  0
LINE
  5
1F0
330
1F
100
AcDbEntity
  8
0
  6
Continuous
 62
     7
370
    25
100
AcDbLine
 10
6291.3305029476
 20
4799.0723741386
 30
0.0
 11
6291.2361338938
 21
4799.3997228477
 31
0.0
  0
ARC
  5
1F1
330
1F
100
AcDbEntity
  8
0
  6
Continuous
 62
     7
370
    25
100
AcDbCircle
 10
6274.0187553361
 20
4313.5694584407
 30
0.0
 40
10.0982917531983
100
AcDbArc
 50
188.4638991665
 51
351.5361008335
  0
ARC
  5
1F2
330
1F
100
AcDbEntity
  8
0
  6
Continuous
 62
     7
370
    25
100
AcDbCircle
 10
6274.0187553361
 20
4313.5694584407
 30
0.0
 40
14.21859635247868
100
AcDbArc
 50
187.2270618747
 51
352.7729381253
  0
SPLINE
  5
1F3
330
1F
100
AcDbEntity
  8
0
  6
Continuous
 62
     7
370
    25
100
AcDbSpline
210
0.0
220
0.0
230
1.0
 70
     8
 71
     3
 72
    10
 73
     6
 74
     0
 42
0.000000001
 43
0.00000001
 40
0.0
 40
0.0
 40
0.0
 40
0.0
 40
0.4427844086534845
 40
0.9955415261621358
 40
1.0
 40
1.0
 40
1.0
 40
1.0
 10
6309.743584712784
 20
4879.347477588391
 30
0.0
 10
6310.108205196667
 20
4879.795021767923
 30
0.0
 10
6310.9280055914
 20
4880.801265002347
 30
0.0
 10
6311.849100401283
 20
4881.956947521615
 30
0.0
 10
6312.350657355385
 20
4882.593223848431
 30
0.0
 10
6312.354670485299
 20
4882.59831491444
 30
0.0
  0
ARC
  5
1F4
330
1F
100
AcDbEntity
  8
0
  6
Continuous
 62
     7
370
    25
100
AcDbCircle
 10
6274.0187553361
 20
4847.1421652404
 30
0.0
 40
48.09829175319832
100
AcDbArc
 50
42.0341015204
 51
137.9658984796
  0
SPLINE
  5
1F5
330
1F
100
AcDbEntity
  8
0
  6
Continuous
 62
     7
370
    25
100
AcDbSpline
210
0.0
220
0.0
230
1.0
 70
     8
 71
     3
 72
    10
 73
     6
 74
     0
 42
0.000000001
 43
0.00000001
 40
0.0
 40
0.0
 40
0.0
 40
0.0
 40
0.0044595313879203
 40
0.5572155935585582
 40
1.0
 40
1.0
 40
1.0
 40
1.0
 10
6235.682831724923
 20
4882.59831491444
 30
0.0
 10
6235.686847345426
 20
4882.59322385417
 30
0.0
 10
6236.188596558015
 20
4881.957099130778
 30
0.0
 10
6237.109432767917
 20
4880.801212901201
 30
0.0
 10
6237.929277090395
 20
4879.795006056243
 30
0.0
 10
6238.293917497437
 20
4879.347477588391
 30
0.0
  0
ARC
  5
1F6
330
1F
100
AcDbEntity
  8
0
  6
Continuous
 62
     7
370
    25
100
AcDbCircle
 10
6274.0187553361
 20
4847.1421652404
 30
0.0
 40
52.21859635247917
100
AcDbArc
 50
42.7651440077
 51
137.2348559923
  0
ARC
  5
1F7
330
1F
100
AcDbEntity
  8
0
  6
Continuous
 62
     7
370
    25
100
AcDbCircle
 10
6233.102006687
 20
4888.1792716891
 30
0.0
 40
10.24482917866505
100
AcDbArc
 50
289.0845903387
 51
300.4498195344
  0
ARC
  5
1F8
330
1F
100
AcDbEntity
  8
0
  6
Continuous
 62
     7
370
    25
100
AcDbCircle
 10
6314.9359193357
 20
4888.1802196506
 30
0.0
 40
10.24586117290397
100
AcDbArc
 50
239.5508238572
 51
250.9149425635
  0
LINE
  5
1F9
330
1F
100
AcDbEntity
  8
0
  6
Continuous
 62
     7
370
    25
100
AcDbLine
 10
6290.4757723415
 20
4801.6504985425
 30
0.0
 11
6290.4992565716
 21
4801.5714180801
 31
0.0
  0
SPLINE
  5
1FA
330
1F
100
AcDbEntity
  8
0
  6
Continuous
 62
     7
370
    25
100
AcDbSpline
210
0.0
220
0.0
230
1.0
 70
     8
 71
     3
 72
     9
 73
     5
 74
     0
 42
0.000000001
 43
0.00000001
 40
0.0
 40
0.0
 40
0.0
 40
0.0
 40
0.7930233249111127
 40
1.0
 40
1.0
 40
1.0
 40
1.0
 10
6291.236133893769
 20
4799.399722847676
 30
0.0
 10
6291.024804856163
 20
4799.992991913878
 30
0.0
 10
6290.758319582694
 20
4800.741102401383
 30
0.0
 10
6290.543681622848
 20
4801.429032579174
 30
0.0
 10
6290.499256571572
 20
4801.571418080067
 30
0.0
  0
ARC
  5
1FB
330
1F
100
AcDbEntity
  8
0
  6
Continuous
 62
     7
370
    25
100
AcDbCircle
 10
6299.0039327721
 20
4794.5948899883
 30
0.0
 40
11.06847470969716
100
AcDbArc
 50
140.3980030159
 51
152.5153609719
  0
ARC
  5
1FC
330
1F
100
AcDbEntity
  8
0
  6
Continuous
 62
     7
370
    25
100
AcDbCircle
 10
6286.9617968076
 20
4790.1832012594
 30
0.0
 40
11.92497815245647
100
AcDbArc
 50
59.2032111963
 51
72.7439226718
  0
SPLINE
  5
1FD
330
1F
100
AcDbEntity
  8
0
  6
Continuous
 62
     7
370
    25
100
AcDbSpline
210
0.0
220
0.0
230
1.0
 70
     8
 71
     3
 72
     9
 73
     5
 74
     0
 42
0.000000001
 43
0.00000001
 40
0.0
 40
0.0
 40
0.0
 40
0.0
 40
0.6248023495791837
 40
0.9999999999999999
 40
0.9999999999999999
 40
0.9999999999999999
 40
0.9999999999999999
 10
6293.06732269172
 20
4800.426621470188
 30
0.0
 10
6292.739138512403
 20
4800.128284475951
 30
0.0
 10
6292.213877716667
 20
4799.650794283352
 30
0.0
 10
6291.571515675991
 20
4799.230185547869
 30
0.0
 10
6291.33050294761
 20
4799.072374138569
 30
0.0
  0
ARC
  5
1FE
330
1F
100
AcDbEntity
  8
0
  6
Continuous
 62
     7
370
    25
100
AcDbCircle
 10
6261.0758461566
 20
4790.1828394661
 30
0.0
 40
11.92536099421136
100
AcDbArc
 50
107.2561391364
 51
120.7964797272
  0
SPLINE
  5
1FF
330
1F
100
AcDbEntity
  8
0
  6
Continuous
 62
     7
370
    25
100
AcDbSpline
210
0.0
220
0.0
230
1.0
 70
     8
 71
     3
 72
     9
 73
     5
 74
     0
 42
0.000000001
 43
0.00000001
 40
0.0
 40
0.0
 40
0.0
 40
0.0
 40
0.2181284034448313
 40
1.0
 40
1.0
 40
1.0
 40
1.0
 10
6257.538260539811
 20
4801.571418080067
 30
0.0
 10
6257.491365059371
 20
4801.421303506811
 30
0.0
 10
6257.276374807305
 20
4800.733109897521
 30
0.0
 10
6257.009805885836
 20
4799.984802863263
 30
0.0
 10
6256.801383217614
 20
4799.399722847676
 30
0.0
  0
SPLINE
  5
200
330
1F
100
AcDbEntity
  8
0
  6
Continuous
 62
     7
370
    25
100
AcDbSpline
210
0.0
220
0.0
230
1.0
 70
     8
 71
     3
 72
     9
 73
     5
 74
     0
 42
0.000000001
 43
0.00000001
 40
0.0
 40
0.0
 40
0.0
 40
0.0
 40
0.3751960308875164
 40
0.9999999999999999
 40
0.9999999999999999
 40
0.9999999999999999
 40
0.9999999999999999
 10
6256.707014163773
 20
4799.072374138569
 30
0.0
 10
6256.466001751387
 20
4799.230185785817
 30
0.0
 10
6255.82363778017
 20
4799.650796971056
 30
0.0
 10
6255.298369330626
 20
4800.128285033543
 30
0.0
 10
6254.970179518502
 20
4800.426621470188
 30
0.0
  0
ARC
  5
201
330
1F
100
AcDbEntity
  8
0
  6
Continuous
 62
     7
370
    25
100
AcDbCircle
 10
6249.0335843393
 20
4794.5948899883
 30
0.0
 40
11.06847470969856
100
AcDbArc
 50
27.4846390281
 51
39.6019969841
  0
LINE
  5
202
330
1F
100
AcDbEntity
  8
0
  6
Continuous
 62
     7
370
    25
100
AcDbLine
 10
6257.5382605398
 20
4801.5714180801
 30
0.0
 11
6257.5617447699
 21
4801.6504985425
 31
0.0
  0
ARC
  5
203
330
1F
100
AcDbEntity
  8
0
  6
Continuous
 62
     7
370
    25
100
AcDbCircle
 10
6332.6463330694
 20
4844.4160887749
 30
0.0
 40
12.99177466695525
100
AcDbArc
 50
128.8563162674
 51
143.1229654031
  0
SPLINE
  5
204
330
1F
100
AcDbEntity
  8
0
  6
Continuous
 62
     7
370
    25
100
AcDbSpline
210
0.0
220
0.0
230
1.0
 70
     8
 71
     3
 72
     9
 73
     5
 74
     0
 42
0.000000001
 43
0.00000001
 40
0.0
 40
0.0
 40
0.0
 40
0.0
 40
0.6985017375526801
 40
1.0
 40
1.0
 40
1.0
 40
1.0
 10
6325.162024816315
 20
4852.067698273396
 30
0.0
 10
6324.826003887502
 20
4852.162492418467
 30
0.0
 10
6324.34494434141
 20
4852.298203097445
 30
0.0
 10
6323.859729626605
 20
4852.269798493667
 30
0.0
 10
6323.713438233178
 20
4852.261234554981
 30
0.0
  0
LINE
  5
205
330
1F
100
AcDbEntity
  8
0
  6
Continuous
 62
     7
370
    25
100
AcDbLine
 10
6323.7134382332
 20
4852.261234555
 30
0.0
 11
6322.2538843954
 21
4852.2124481532
 31
0.0
  0
LINE
  5
206
330
1F
100
AcDbEntity
  8
0
  6
Continuous
 62
     7
370
    25
100
AcDbLine
 10
6329.4985607469
 20
4850.3486556146
 30
0.0
 11
6568.3503762091
 21
4631.3460716191
 31
0.0
  0
LINE
  5
207
330
1F
100
AcDbEntity
  8
0
  6
Continuous
 62
     7
370
    25
100
AcDbLine
 10
6565.5658260191
 20
4628.3091199729
 30
0.0
 11
6322.6159528101
 21
4851.0691714618
 31
0.0
  0
SPLINE
  5
208
330
1F
100
AcDbEntity
  8
0
  6
Continuous
 62
     7
370
    25
100
AcDbSpline
210
0.0
220
0.0
230
1.0
 70
     8
 71
     3
 72
     9
 73
     5
 74
     0
 42
0.000000001
 43
0.00000001
 40
0.0
 40
0.0
 40
0.0
 40
0.0
 40
0.4710455584060653
 40
1.0
 40
1.0
 40
1.0
 40
1.0
 10
6323.713438233178
 20
4852.261234554981
 30
0.0
 10
6323.5532122769
 20
4852.049616975394
 30
0.0
 10
6323.213062681137
 20
4851.600366205887
 30
0.0
 10
6322.822527911228
 20
4851.252942679299
 30
0.0
 10
6322.61595281009
 20
4851.069171461796
 30
0.0
  0
LINE
  5
209
330
1F
100
AcDbEntity
  8
0
  6
Continuous
 62
     7
370
    25
100
AcDbLine
 10
6322.9654446447
 20
4811.9003963802
 30
0.0
 11
6548.1492594088
 21
4326.6787124011
 31
0.0
  0
LINE
  5
20A
330
1F
100
AcDbEntity
  8
0
  6
Continuous
 62
     7
370
    25
100
AcDbLine
 10
5979.6871260012
 20
4631.3460716191
 30
0.0
 11
6218.5389489139
 21
4850.3486556146
 31
0.0
  0
LINE
  5
20B
330
1F
100
AcDbEntity
  8
0
  6
Continuous
 62
     7
370
    25
100
AcDbLine
 10
5999.8882651532
 20
4326.6787124011
 30
0.0
 11
6225.0720650161
 21
4811.9003963802
 31
0.0
  0
ARC
  5
20C
330
1F
100
AcDbEntity
  8
0
  6
Continuous
 62
     7
370
    25
100
AcDbCircle
 10
6012.7856482547
 20
4320.6932311618
 30
0.0
 40
14.21860065151204
100
AcDbArc
 50
155.1047224007
 51
334.1778321936
  0
LINE
  5
20D
330
1F
100
AcDbEntity
  8
0
  6
Continuous
 62
     7
370
    25
100
AcDbLine
 10
6254.8285737837
 20
4790.6344575021
 30
0.0
 11
6025.5845278705
 21
4314.4999039504
 31
0.0
  0
LINE
  5
20E
330
1F
100
AcDbEntity
  8
0
  6
Continuous
 62
     7
370
    25
100
AcDbLine
 10
6522.451104244
 20
4314.503837857
 30
0.0
 11
6293.2089433277
 21
4790.6344575021
 31
0.0
  0
ARC
  5
20F
330
1F
100
AcDbEntity
  8
0
  6
Continuous
 62
     7
370
    25
100
AcDbCircle
 10
6535.2518624175
 20
4320.6932311618
 30
0.0
 40
14.21859635247963
100
AcDbArc
 50
205.8045681195
 51
24.8952775993
  0
SPLINE
  5
210
330
1F
100
AcDbEntity
  8
0
  6
Continuous
 62
     7
370
    25
100
AcDbSpline
210
0.0
220
0.0
230
1.0
 70
     8
 71
     3
 72
     9
 73
     5
 74
     0
 42
0.000000001
 43
0.00000001
 40
0.0
 40
0.0
 40
0.0
 40
0.0
 40
0.4999962026098883
 40
1.0
 40
1.0
 40
1.0
 40
1.0
 10
6522.451104244034
 20
4314.503837856983
 30
0.0
 10
6523.104860094284
 20
4314.818611031877
 30
0.0
 10
6524.412381725123
 20
4315.448162162967
 30
0.0
 10
6525.579804245752
 20
4316.010227261074
 30
0.0
 10
6526.163519939225
 20
4316.291261944508
 30
0.0
  0
LINE
  5
211
330
1F
100
AcDbEntity
  8
0
  6
Continuous
 62
     7
370
    25
100
AcDbLine
 10
6293.0673226917
 20
4800.4266214702
 30
0.0
 11
6526.1635199392
 21
4316.2912619445
 31
0.0
  0
ARC
  5
212
330
1F
100
AcDbEntity
  8
0
  6
Continuous
 62
     7
370
    25
100
AcDbCircle
 10
6535.2518624175
 20
4320.6932311618
 30
0.0
 40
10.09829175319834
100
AcDbArc
 50
205.8435413545
 51
24.8952775993
  0
LWPOLYLINE
  5
213
330
1F
100
AcDbEntity
  8
0
  6
Continuous
 62
     7
370
    25
100
AcDbPolyline
 90
        9
 70
   128
 43
0.0
 10
6548.1492594088
 20
4326.6787124011
 10
6547.6588323915
 20
4326.4511120651
 10
6547.1706703508
 20
4326.2245846126
 10
6546.6870084608
 20
4326.0001135204
 10
6546.2099924887
 20
4325.7787418697
 10
6545.7418576086
 20
4325.5614829395
 10
6545.2847495878
 20
4325.3493202064
 10
6544.8406949842
 20
4325.1432669494
 10
6544.4118097628
 20
4324.9442172382
  0
SPLINE
  5
214
330
1F
100
AcDbEntity
  8
0
  6
Continuous
 62
     7
370
    25
100
AcDbSpline
210
0.0
220
0.0
230
1.0
 70
     8
 71
     3
 72
     9
 73
     5
 74
     0
 42
0.000000001
 43
0.00000001
 40
0.0
 40
0.0
 40
0.0
 40
0.0
 40
0.6991901936493068
 40
1.0
 40
1.0
 40
1.0
 40
1.0
 10
6224.324071427624
 20
4852.261234554981
 30
0.0
 10
6223.979457345349
 20
4852.268313239761
 30
0.0
 10
6223.486581321908
 20
4852.278437358841
 30
0.0
 10
6223.016794020937
 20
4852.116431288148
 30
0.0
 10
6222.875477393906
 20
4852.067698273396
 30
0.0
  0
SPLINE
  5
215
330
1F
100
AcDbEntity
  8
0
  6
Continuous
 62
     7
370
    25
100
AcDbSpline
210
0.0
220
0.0
230
1.0
 70
     8
 71
     3
 72
     9
 73
     5
 74
     0
 42
0.000000001
 43
0.00000001
 40
0.0
 40
0.0
 40
0.0
 40
0.0
 40
0.528953184751617
 40
0.9999999999999999
 40
0.9999999999999999
 40
0.9999999999999999
 40
0.9999999999999999
 10
6225.421549400132
 20
4851.069171461796
 30
0.0
 10
6225.214977204902
 20
4851.252943007606
 30
0.0
 10
6224.824447000746
 20
4851.600367980379
 30
0.0
 10
6224.484297681272
 20
4852.049617159774
 30
0.0
 10
6224.324071427624
 20
4852.261234554981
 30
0.0
  0
LINE
  5
216
330
1F
100
AcDbEntity
  8
0
  6
Continuous
 62
     7
370
    25
100
AcDbLine
 10
6225.4215494001
 20
4851.0691714618
 30
0.0
 11
5982.4716910923
 21
4628.3091199729
 31
0.0
  0
LINE
  5
217
330
1F
100
AcDbEntity
  8
0
  6
Continuous
 62
     7
370
    25
100
AcDbLine
 10
6544.4118097628
 20
4324.9442172382
 30
0.0
 11
6314.871670326
 21
4819.5528579089
 31
0.0
  0
SPLINE
  5
218
330
1F
100
AcDbEntity
  8
0
  6
Continuous
 62
     7
370
    25
100
AcDbSpline
210
0.0
220
0.0
230
1.0
 70
     8
 71
     3
 72
     9
 73
     5
 74
     0
 42
0.000000001
 43
0.00000001
 40
0.0
 40
0.0
 40
0.0
 40
0.0
 40
0.3396110607530532
 40
1.0
 40
1.0
 40
1.0
 40
1.0
 10
6316.583724340241
 20
4820.185158881878
 30
0.0
 10
6316.388691350529
 20
4820.092435344664
 30
0.0
 10
6315.814407965061
 20
4819.819406730673
 30
0.0
 10
6315.246626756248
 20
4819.658872764545
 30
0.0
 10
6314.871670326035
 20
4819.55285790894
 30
0.0
  0
LINE
  5
219
330
1F
100
AcDbEntity
  8
0
  6
Continuous
 62
     7
370
    25
100
AcDbLine
 10
6317.3503443802
 20
4819.4619459245
 30
0.0
 11
6316.5837243402
 21
4820.1851588819
 31
0.0
  0
LWPOLYLINE
  5
21A
330
1F
100
AcDbEntity
  8
0
  6
Continuous
 62
     7
370
    25
100
AcDbPolyline
 90
        9
 70
   128
 43
0.0
 10
6003.625699898
 20
4324.9442172382
 10
6003.1967997754
 20
4325.1432669494
 10
6002.7527749741
 20
4325.3493202064
 10
6002.2956446016
 20
4325.5614829395
 10
6001.8275097216
 20
4325.7787418697
 10
6001.3505086506
 20
4326.0001135204
 10
6000.8668244088
 20
4326.2245846126
 10
6000.3786623681
 20
4326.4511120651
 10
5999.8882651532
 20
4326.6787124011
  0
LINE
  5
21B
330
1F
100
AcDbEntity
  8
0
  6
Continuous
 62
     7
370
    25
100
AcDbLine
 10
6231.4537927711
 20
4820.1851588819
 30
0.0
 11
6230.6871727312
 21
4819.4619459245
 31
0.0
  0
SPLINE
  5
21C
330
1F
100
AcDbEntity
  8
0
  6
Continuous
 62
     7
370
    25
100
AcDbSpline
210
0.0
220
0.0
230
1.0
 70
     8
 71
     3
 72
     9
 73
     5
 74
     0
 42
0.000000001
 43
0.00000001
 40
0.0
 40
0.0
 40
0.0
 40
0.0
 40
0.6603910552528109
 40
1.0
 40
1.0
 40
1.0
 40
1.0
 10
6233.165839334767
 20
4819.55285790894
 30
0.0
 10
6232.790882492934
 20
4819.658872176628
 30
0.0
 10
6232.22310248009
 20
4819.819404738125
 30
0.0
 10
6231.648823163753
 20
4820.092435270794
 30
0.0
 10
6231.453792771142
 20
4820.185158881878
 30
0.0
  0
LINE
  5
21D
330
1F
100
AcDbEntity
  8
0
  6
Continuous
 62
     7
370
    25
100
AcDbLine
 10
6233.1658393348
 20
4819.5528579089
 30
0.0
 11
6003.625699898
 21
4324.9442172382
 31
0.0
  0
LWPOLYLINE
  5
21E
330
1F
100
AcDbEntity
  8
0
  6
Continuous
 62
     7
370
    25
100
AcDbPolyline
 90
        9
 70
   128
 43
0.0
 10
6021.8756288493
 20
4316.2946296069
 10
6022.3012507165
 20
4316.0886657569
 10
6022.7418929542
 20
4315.8754301402
 10
6023.1955290044
 20
4315.6559360358
 10
6023.6600876058
 20
4315.4311371181
 10
6024.1334453428
 20
4315.2020764682
 10
6024.6134340966
 20
4314.9697971675
 10
6025.097870847
 20
4314.7354019019
 10
6025.5845278705
 20
4314.4999039504
  0
LINE
  5
21F
330
1F
100
AcDbEntity
  8
0
  6
Continuous
 62
     7
370
    25
100
AcDbLine
 10
6021.8756288493
 20
4316.2946296069
 30
0.0
 11
6254.9701795185
 21
4800.4266214702
 31
0.0
  0
ARC
  5
220
330
1F
100
AcDbEntity
  8
0
  6
Continuous
 62
     7
370
    25
100
AcDbCircle
 10
6012.7856482547
 20
4320.6932311618
 30
0.0
 40
10.09829175319908
100
AcDbArc
 50
155.1047224007
 51
334.1778321595
  0
ARC
  5
221
330
1F
100
AcDbEntity
  8
0
  6
Continuous
 62
     7
370
    25
100
AcDbCircle
 10
6215.3909370313
 20
4844.4157978146
 30
0.0
 40
12.99214686253112
100
AcDbArc
 50
36.8774073127
 51
51.1436916304
  0
LINE
  5
222
330
1F
100
AcDbEntity
  8
0
  6
Continuous
 62
     7
370
    25
100
AcDbLine
 10
6225.783632716
 20
4852.2124481532
 30
0.0
 11
6224.3240714276
 21
4852.261234555
 31
0.0
  0
ARC
  5
223
330
1F
100
AcDbEntity
  8
0
  6
Continuous
 62
     7
370
    25
100
AcDbCircle
 10
6318.1206878148
 20
4808.308825833
 30
0.0
 40
13.26752167718086
100
AcDbArc
 50
89.2219685423
 51
103.0222961217
  0
LINE
  5
224
330
1F
100
AcDbEntity
  8
0
  6
Continuous
 62
     7
370
    25
100
AcDbLine
 10
6316.5837243402
 20
4820.1851588819
 30
0.0
 11
6315.1311144436
 21
4821.2351394031
 31
0.0
  0
ARC
  5
225
330
1F
100
AcDbEntity
  8
0
  6
Continuous
 62
     7
370
    25
100
AcDbCircle
 10
6229.916815456
 20
4808.3087007426
 30
0.0
 40
13.26764666929486
100
AcDbArc
 50
76.9777673681
 51
90.7779965299
  0
LINE
  5
226
330
1F
100
AcDbEntity
  8
0
  6
Continuous
 62
     7
370
    25
100
AcDbLine
 10
6232.9064026678
 20
4821.2351394031
 30
0.0
 11
6231.4537927711
 21
4820.1851588819
 31
0.0
  0
ARC
  5
227
330
1F
100
AcDbEntity
  8
0
  6
Continuous
 62
     7
370
    25
100
AcDbCircle
 10
6222.6248854522
 20
4820.1617103178
 30
0.0
 40
10.55852309793105
100
AcDbArc
 50
356.6942312747
 51
6.8109976633
  0
LINE
  5
228
330
1F
100
AcDbEntity
  8
0
  6
Continuous
 62
     7
370
    25
100
AcDbLine
 10
6232.9064026678
 20
4821.2351394031
 30
0.0
 11
6233.1088945473
 21
4821.4138937328
 31
0.0
  0
LINE
  5
229
330
1F
100
AcDbEntity
  8
0
  6
Continuous
 62
     7
370
    25
100
AcDbLine
 10
6314.9286225641
 20
4821.4138937328
 30
0.0
 11
6315.1311144436
 21
4821.2351394031
 31
0.0
  0
ARC
  5
22A
330
1F
100
AcDbEntity
  8
0
  6
Continuous
 62
     7
370
    25
100
AcDbCircle
 10
6325.4099729071
 20
4820.1617494818
 30
0.0
 40
10.55587846831623
100
AcDbArc
 50
173.1875019369
 51
183.3068107917
  0
ARC
  5
22B
330
1F
100
AcDbEntity
  8
0
  6
Continuous
 62
     7
370
    25
100
AcDbCircle
 10
6216.8496097686
 20
4856.4546634626
 30
0.0
 40
10.12332322598084
100
AcDbArc
 50
327.8600884336
 51
335.3887977295
  0
LINE
  5
22C
330
1F
100
AcDbEntity
  8
0
  6
Continuous
 62
     7
370
    25
100
AcDbLine
 10
6225.783632716
 20
4852.2124481532
 30
0.0
 11
6226.0532766784
 21
4852.2387189004
 31
0.0
  0
LINE
  5
22D
330
1F
100
AcDbEntity
  8
0
  6
Continuous
 62
     7
370
    25
100
AcDbLine
 10
6321.9842329824
 20
4852.2387189004
 30
0.0
 11
6322.2538843954
 21
4852.2124481532
 31
0.0
  0
ARC
  5
22E
330
1F
100
AcDbEntity
  8
0
  6
Continuous
 62
     7
370
    25
100
AcDbCircle
 10
6331.1915562475
 20
4856.4565838004
 30
0.0
 40
10.12744716214016
100
AcDbArc
 50
204.6124648137
 51
212.138083898
  0
SPLINE
  5
22F
330
1F
100
AcDbEntity
  8
0
  6
Continuous
 62
     7
370
    25
100
AcDbSpline
210
0.0
220
0.0
230
1.0
 70
     8
 71
     3
 72
     9
 73
     5
 74
     0
 42
0.000000001
 43
0.00000001
 40
0.0
 40
0.0
 40
0.0
 40
0.0
 40
0.013851212152315
 40
1.0
 40
1.0
 40
1.0
 40
1.0
 10
6314.258830269616
 20
4822.045375141834
 30
0.0
 10
6314.261854730994
 20
4822.042504498259
 30
0.0
 10
6314.48020828337
 20
4821.835255952581
 30
0.0
 10
6314.70597902295
 20
4821.623105572711
 30
0.0
 10
6314.928622564118
 20
4821.413893732762
 30
0.0
  0
LINE
  5
230
330
1F
100
AcDbEntity
  8
0
  6
Continuous
 62
     7
370
    25
100
AcDbLine
 10
6314.2588302696
 20
4822.0453751418
 30
0.0
 11
6312.3936221207
 21
4830.8801842067
 31
0.0
  0
ARC
  5
231
330
1F
100
AcDbEntity
  8
0
  6
Continuous
 62
     7
370
    25
100
AcDbCircle
 10
6317.5622581527
 20
4817.4277795736
 30
0.0
 40
14.41117583142883
100
AcDbArc
 50
94.3155684365
 51
111.0175998847
  0
LINE
  5
232
330
1F
100
AcDbEntity
  8
0
  6
Continuous
 62
     7
370
    25
100
AcDbLine
 10
6316.4778217876
 20
4831.7980957362
 30
0.0
 11
6318.3008447493
 21
4821.5751242969
 31
0.0
  0
LINE
  5
233
330
1F
100
AcDbEntity
  8
0
  6
Continuous
 62
     7
370
    25
100
AcDbLine
 10
6229.7366649115
 20
4821.5751242969
 30
0.0
 11
6231.5596878732
 21
4831.7980957362
 31
0.0
  0
ARC
  5
234
330
1F
100
AcDbEntity
  8
0
  6
Continuous
 62
     7
370
    25
100
AcDbCircle
 10
6230.4752277445
 20
4817.4276318851
 30
0.0
 40
14.41132488940532
100
AcDbArc
 50
68.9824948638
 51
85.6843815377
  0
LINE
  5
235
330
1F
100
AcDbEntity
  8
0
  6
Continuous
 62
     7
370
    25
100
AcDbLine
 10
6235.6438949907
 20
4830.8801842067
 30
0.0
 11
6233.7786793912
 21
4822.0453751418
 31
0.0
  0
SPLINE
  5
236
330
1F
100
AcDbEntity
  8
0
  6
Continuous
 62
     7
370
    25
100
AcDbSpline
210
0.0
220
0.0
230
1.0
 70
     8
 71
     3
 72
     9
 73
     5
 74
     0
 42
0.000000001
 43
0.00000001
 40
0.0
 40
0.0
 40
0.0
 40
0.0
 40
0.0138512751058972
 40
1.0
 40
1.0
 40
1.0
 40
1.0
 10
6233.778679391186
 20
4822.045375141834
 30
0.0
 10
6233.775654929666
 20
4822.042504498354
 30
0.0
 10
6233.557302359542
 20
4821.835256901437
 30
0.0
 10
6233.331534869596
 20
4821.623106037106
 30
0.0
 10
6233.108894547265
 20
4821.413893732762
 30
0.0
  0
LINE
  5
237
330
1F
100
AcDbEntity
  8
0
  6
Continuous
 62
     7
370
    25
100
AcDbLine
 10
6223.541812619
 20
4854.5330655906
 30
0.0
 11
6231.208482405
 21
4861.0512954328
 31
0.0
  0
ARC
  5
238
330
1F
100
AcDbEntity
  8
0
  6
Continuous
 62
     7
370
    25
100
AcDbCircle
 10
6221.5678036407
 20
4850.9334333656
 30
0.0
 40
13.9754720795685
100
AcDbArc
 50
29.5069476136
 51
46.3834663129
  0
LINE
  5
239
330
1F
100
AcDbEntity
  8
0
  6
Continuous
 62
     7
370
    25
100
AcDbLine
 10
6233.7306007946
 20
4857.8167599771
 30
0.0
 11
6226.8816322291
 21
4852.35792819
 31
0.0
  0
SPLINE
  5
23A
330
1F
100
AcDbEntity
  8
0
  6
Continuous
 62
     7
370
    25
100
AcDbSpline
210
0.0
220
0.0
230
1.0
 70
     8
 71
     3
 72
     9
 73
     5
 74
     0
 42
0.000000001
 43
0.00000001
 40
0.0
 40
0.0
 40
0.0
 40
0.0
 40
0.015738119971369
 40
1.0
 40
1.0
 40
1.0
 40
1.0
 10
6226.88163222913
 20
4852.357928189968
 30
0.0
 10
6226.87734613361
 20
4852.357297330659
 30
0.0
 10
6226.605007663195
 20
4852.317212535895
 30
0.0
 10
6226.326954151013
 20
4852.277654433072
 30
0.0
 10
6226.053276678364
 20
4852.238718900418
 30
0.0
  0
SPLINE
  5
23B
330
1F
100
AcDbEntity
  8
0
  6
Continuous
 62
     7
370
    25
100
AcDbSpline
210
0.0
220
0.0
230
1.0
 70
     8
 71
     3
 72
     9
 73
     5
 74
     0
 42
0.000000001
 43
0.00000001
 40
0.0
 40
0.0
 40
0.0
 40
0.0
 40
0.015738119971369
 40
1.0
 40
1.0
 40
1.0
 40
1.0
 10
6321.155877431672
 20
4852.357928189968
 30
0.0
 10
6321.160163527192
 20
4852.357297330659
 30
0.0
 10
6321.432501997608
 20
4852.317212535895
 30
0.0
 10
6321.710555509789
 20
4852.277654433072
 30
0.0
 10
6321.984232982438
 20
4852.238718900418
 30
0.0
  0
LINE
  5
23C
330
1F
100
AcDbEntity
  8
0
  6
Continuous
 62
     7
370
    25
100
AcDbLine
 10
6321.1558774317
 20
4852.35792819
 30
0.0
 11
6314.3069014156
 21
4857.8167599771
 31
0.0
  0
ARC
  5
23D
330
1F
100
AcDbEntity
  8
0
  6
Continuous
 62
     7
370
    25
100
AcDbCircle
 10
6326.470128348
 20
4850.9330760394
 30
0.0
 40
13.97602210796112
100
AcDbArc
 50
133.6167766288
 51
150.4926452939
  0
LINE
  5
23E
330
1F
100
AcDbEntity
  8
0
  6
Continuous
 62
     7
370
    25
100
AcDbLine
 10
6316.8290272558
 20
4861.0512954328
 30
0.0
 11
6324.4956895912
 21
4854.5330655906
 31
0.0
  0
LINE
  5
23F
330
1F
100
AcDbEntity
  8
0
  6
Continuous
 62
     7
370
    25
100
AcDbLine
 10
6254.9701795185
 20
4800.4266214702
 30
0.0
 11
6251.8350497091
 21
4808.7141853902
 31
0.0
  0
ARC
  5
240
330
1F
100
AcDbEntity
  8
0
  6
Continuous
 62
     7
370
    25
100
AcDbCircle
 10
6257.53806886
 20
4797.6660025169
 30
0.0
 40
12.43329289598082
100
AcDbArc
 50
100.3176860678
 51
117.3025665346
  0
LINE
  5
241
330
1F
100
AcDbEntity
  8
0
  6
Continuous
 62
     7
370
    25
100
AcDbLine
 10
6255.3111925924
 20
4809.8982465598
 30
0.0
 11
6257.82558473
 21
4802.567575607
 31
0.0
  0
SPLINE
  5
242
330
1F
100
AcDbEntity
  8
0
  6
Continuous
 62
     7
370
    25
100
AcDbSpline
210
0.0
220
0.0
230
1.0
 70
     8
 71
     3
 72
     9
 73
     5
 74
     0
 42
0.000000001
 43
0.00000001
 40
0.0
 40
0.0
 40
0.0
 40
0.0
 40
0.0133446490672281
 40
1.0
 40
1.0
 40
1.0
 40
1.0
 10
6257.825584729951
 20
4802.567575607037
 30
0.0
 10
6257.824437517906
 20
4802.563572675089
 30
0.0
 10
6257.738469573844
 20
4802.263607353568
 30
0.0
 10
6257.649513628914
 20
4801.954993778114
 30
0.0
 10
6257.561744769852
 20
4801.650498542523
 30
0.0
  0
SPLINE
  5
243
330
1F
100
AcDbEntity
  8
0
  6
Continuous
 62
     7
370
    25
100
AcDbSpline
210
0.0
220
0.0
230
1.0
 70
     8
 71
     3
 72
     9
 73
     5
 74
     0
 42
0.000000001
 43
0.00000001
 40
0.0
 40
0.0
 40
0.0
 40
0.0
 40
0.0133446490672281
 40
1.0
 40
1.0
 40
1.0
 40
1.0
 10
6290.211932381432
 20
4802.567575607037
 30
0.0
 10
6290.213079593476
 20
4802.563572675089
 30
0.0
 10
6290.299047537537
 20
4802.263607353568
 30
0.0
 10
6290.388003482468
 20
4801.954993778114
 30
0.0
 10
6290.475772341531
 20
4801.650498542523
 30
0.0
  0
LINE
  5
244
330
1F
100
AcDbEntity
  8
0
  6
Continuous
 62
     7
370
    25
100
AcDbLine
 10
6290.2119323814
 20
4802.567575607
 30
0.0
 11
6292.7263096178
 21
4809.8982465598
 31
0.0
  0
ARC
  5
245
330
1F
100
AcDbEntity
  8
0
  6
Continuous
 62
     7
370
    25
100
AcDbCircle
 10
6290.4993805498
 20
4797.6657757344
 30
0.0
 40
12.4335254682366
100
AcDbArc
 50
62.6976355949
 51
79.6822617283
  0
LINE
  5
246
330
1F
100
AcDbEntity
  8
0
  6
Continuous
 62
     7
370
    25
100
AcDbLine
 10
6296.2024674023
 20
4808.7141853902
 30
0.0
 11
6293.0673226917
 21
4800.4266214702
 31
0.0
  0
LINE
  5
247
330
1F
100
AcDbEntity
  8
0
  6
Continuous
 62
     7
370
    25
100
AcDbLine
 10
6257.82558473
 20
4802.567575607
 30
0.0
 11
6263.3098826015
 21
4806.8631035421
 31
0.0
  0
ARC
  5
248
330
1F
100
AcDbEntity
  8
0
  6
Continuous
 62
     7
370
    25
100
AcDbCircle
 10
6255.419890169
 20
4798.7554155529
 30
0.0
 40
11.31311562371218
100
AcDbArc
 50
29.9400258956
 51
45.7796297002
  0
LINE
  5
249
330
1F
100
AcDbEntity
  8
0
  6
Continuous
 62
     7
370
    25
100
AcDbLine
 10
6265.2232513035
 20
4804.4017148349
 30
0.0
 11
6258.852811178
 21
4799.7031104896
 31
0.0
  0
ARC
  5
24A
330
1F
100
AcDbEntity
  8
0
  6
Continuous
 62
     7
370
    25
100
AcDbCircle
 10
6292.6183959834
 20
4798.7548061529
 30
0.0
 40
11.31409909573731
100
AcDbArc
 50
134.221063142
 51
150.0592812622
  0
LINE
  5
24B
330
1F
100
AcDbEntity
  8
0
  6
Continuous
 62
     7
370
    25
100
AcDbLine
 10
6284.7276196087
 20
4806.8631035421
 30
0.0
 11
6290.2119323814
 21
4802.567575607
 31
0.0
  0
LINE
  5
24C
330
1F
100
AcDbEntity
  8
0
  6
Continuous
 62
     7
370
    25
100
AcDbLine
 10
6289.1847059334
 20
4799.7031104896
 30
0.0
 11
6282.8142509067
 21
4804.4017148349
 31
0.0
  0
LINE
  5
24D
330
1F
100
AcDbEntity
  8
0
  6
Continuous
 62
     7
370
    25
100
AcDbLine
 10
6233.7786793912
 20
4822.0453751418
 30
0.0
 11
6240.2542174066
 21
4822.7078062627
 31
0.0
  0
ARC
  5
24E
330
1F
100
AcDbEntity
  8
0
  6
Continuous
 62
     7
370
    25
100
AcDbCircle
 10
6229.8141916484
 20
4820.393913036
 30
0.0
 40
10.69337363485471
100
AcDbArc
 50
358.5000680174
 51
12.4968364573
  0
LINE
  5
24F
330
1F
100
AcDbEntity
  8
0
  6
Continuous
 62
     7
370
    25
100
AcDbLine
 10
6240.5039012635
 20
4820.1140058372
 30
0.0
 11
6233.1658393348
 21
4819.5528579089
 31
0.0
  0
ARC
  5
250
330
1F
100
AcDbEntity
  8
0
  6
Continuous
 62
     7
370
    25
100
AcDbCircle
 10
6318.2229862207
 20
4820.3939449749
 30
0.0
 40
10.69304279300325
100
AcDbArc
 50
167.50294593
 51
181.5001495954
  0
LINE
  5
251
330
1F
100
AcDbEntity
  8
0
  6
Continuous
 62
     7
370
    25
100
AcDbLine
 10
6307.7832922543
 20
4822.7078062627
 30
0.0
 11
6314.2588302696
 21
4822.0453751418
 31
0.0
  0
LINE
  5
252
330
1F
100
AcDbEntity
  8
0
  6
Continuous
 62
     7
370
    25
100
AcDbLine
 10
6314.871670326
 20
4819.5528579089
 30
0.0
 11
6307.5336083973
 21
4820.1140058372
 31
0.0
  0
SPLINE
  5
253
330
1F
100
AcDbEntity
  8
0
  6
Continuous
 62
     7
370
    25
100
AcDbSpline
210
0.0
220
0.0
230
1.0
 70
     8
 71
     3
 72
     9
 73
     5
 74
     0
 42
0.000000001
 43
0.00000001
 40
0.0
 40
0.0
 40
0.0
 40
0.0
 40
0.5528172937547408
 40
1.0
 40
1.0
 40
1.0
 40
1.0
 10
6311.58581527118
 20
4878.497530255055
 30
0.0
 10
6311.039477872254
 20
4877.324565760598
 30
0.0
 10
6310.05119945713
 20
4875.202771620457
 30
0.0
 10
6309.012516018774
 20
4873.099064435546
 30
0.0
 10
6308.54803474788
 20
4872.158322963452
 30
0.0
  0
ARC
  5
254
330
1F
100
AcDbEntity
  8
0
  6
Continuous
 62
     7
370
    25
100
AcDbCircle
 10
6312.1638958842
 20
4881.8435755823
 30
0.0
 40
10.33820922826277
100
AcDbArc
 50
237.4731986192
 51
249.5275465865
  0
SPLINE
  5
255
330
1F
100
AcDbEntity
  8
0
  6
Continuous
 62
     7
370
    25
100
AcDbSpline
210
0.0
220
0.0
230
1.0
 70
     8
 71
     3
 72
     9
 73
     5
 74
     0
 42
0.000000001
 43
0.00000001
 40
0.0
 40
0.0
 40
0.0
 40
0.0
 40
0.4469496101737514
 40
1.0
 40
1.0
 40
1.0
 40
1.0
 10
6306.605102142136
 20
4873.127017650341
 30
0.0
 10
6307.085477173436
 20
4874.04847377162
 30
0.0
 10
6308.160262832413
 20
4876.110129269922
 30
0.0
 10
6309.179754466904
 20
4878.19463878724
 30
0.0
 10
6309.743584712784
 20
4879.347477588391
 30
0.0
  0
SPLINE
  5
256
330
1F
100
AcDbEntity
  8
0
  6
Continuous
 62
     7
370
    25
100
AcDbSpline
210
0.0
220
0.0
230
1.0
 70
     8
 71
     3
 72
     9
 73
     5
 74
     0
 42
0.000000001
 43
0.00000001
 40
0.0
 40
0.0
 40
0.0
 40
0.0
 40
0.553050714183386
 40
1.0
 40
1.0
 40
1.0
 40
1.0
 10
6238.293917497437
 20
4879.347477588391
 30
0.0
 10
6238.857753866548
 20
4878.194639200287
 30
0.0
 10
6239.877255974855
 20
4876.110131652356
 30
0.0
 10
6240.95204070272
 20
4874.048474045378
 30
0.0
 10
6241.432414969247
 20
4873.127017650341
 30
0.0
  0
ARC
  5
257
330
1F
100
AcDbEntity
  8
0
  6
Continuous
 62
     7
370
    25
100
AcDbCircle
 10
6235.8734750609
 20
4881.8438965633
 30
0.0
 40
10.33855845312317
100
AcDbArc
 50
290.4725514459
 51
302.5265278804
  0
SPLINE
  5
258
330
1F
100
AcDbEntity
  8
0
  6
Continuous
 62
     7
370
    25
100
AcDbSpline
210
0.0
220
0.0
230
1.0
 70
     8
 71
     3
 72
     9
 73
     5
 74
     0
 42
0.000000001
 43
0.00000001
 40
0.0
 40
0.0
 40
0.0
 40
0.0
 40
0.4471823530005885
 40
1.0
 40
1.0
 40
1.0
 40
1.0
 10
6239.489474912923
 20
4872.158322963452
 30
0.0
 10
6239.024996990164
 20
4873.099064739168
 30
0.0
 10
6237.986320218502
 20
4875.202774264836
 30
0.0
 10
6236.998035578741
 20
4877.324566219342
 30
0.0
 10
6236.451694389622
 20
4878.497530255055
 30
0.0
  0
LINE
  5
259
330
1F
100
AcDbEntity
  8
0
  6
Continuous
 62
     7
370
    25
100
AcDbLine
 10
6226.8816322291
 20
4852.35792819
 30
0.0
 11
6232.4223533476
 21
4849.7539502713
 31
0.0
  0
ARC
  5
25A
330
1F
100
AcDbEntity
  8
0
  6
Continuous
 62
     7
370
    25
100
AcDbCircle
 10
6222.8576779558
 20
4853.2571963049
 30
0.0
 40
10.18605655401186
100
AcDbArc
 50
329.0409754882
 51
339.8837732803
  0
LINE
  5
25B
330
1F
100
AcDbEntity
  8
0
  6
Continuous
 62
     7
370
    25
100
AcDbLine
 10
6231.5925821865
 20
4848.0172348354
 30
0.0
 11
6225.4215494001
 21
4851.0691714618
 31
0.0
  0
ARC
  5
25C
330
1F
100
AcDbEntity
  8
0
  6
Continuous
 62
     7
370
    25
100
AcDbCircle
 10
6325.1787698179
 20
4853.2566853947
 30
0.0
 40
10.18487673472396
100
AcDbArc
 50
200.1155968219
 51
210.9596544097
  0
LINE
  5
25D
330
1F
100
AcDbEntity
  8
0
  6
Continuous
 62
     7
370
    25
100
AcDbLine
 10
6315.6151637638
 20
4849.7539502713
 30
0.0
 11
6321.1558774317
 21
4852.35792819
 31
0.0
  0
LINE
  5
25E
330
1F
100
AcDbEntity
  8
0
  6
Continuous
 62
     7
370
    25
100
AcDbLine
 10
6322.6159528101
 20
4851.0691714618
 30
0.0
 11
6316.4449349249
 21
4848.0172348354
 31
0.0
  0
LINE
  5
25F
330
1F
100
AcDbEntity
  8
0
  6
Continuous
 62
     7
370
    25
100
AcDbLine
 10
6531.9479719007
 20
4319.0762889716
 30
0.0
 11
6526.1635199392
 21
4316.2912619445
 31
0.0
  0
LINE
  5
260
330
1F
100
AcDbEntity
  8
0
  6
Continuous
 62
     7
370
    25
100
AcDbLine
 10
6531.9479420984
 20
4319.0762889716
 30
0.0
 11
6296.2024674023
 21
4808.7141853902
 31
0.0
  0
ARC
  5
261
330
1F
100
AcDbEntity
  8
0
  6
Continuous
 62
     7
370
    25
100
AcDbCircle
 10
6535.2518624175
 20
4320.6932311618
 30
0.0
 40
3.678317821848591
100
AcDbArc
 50
206.0787083379
 51
24.8952775993
  0
LINE
  5
262
330
1F
100
AcDbEntity
  8
0
  6
Continuous
 62
     7
370
    25
100
AcDbLine
 10
6538.5883763636
 20
4322.2416532371
 30
0.0
 11
6544.4118097628
 21
4324.9442172382
 31
0.0
  0
LINE
  5
263
330
1F
100
AcDbEntity
  8
0
  6
Continuous
 62
     7
370
    25
100
AcDbLine
 10
6016.0966903174
 20
4319.0910411212
 30
0.0
 11
6021.8756288493
 21
4316.2946296069
 31
0.0
  0
LINE
  5
264
330
1F
100
AcDbEntity
  8
0
  6
Continuous
 62
     7
370
    25
100
AcDbLine
 10
6016.1054894531
 20
4319.1093397472
 30
0.0
 11
6016.0966903174
 21
4319.0910411212
 31
0.0
  0
LINE
  5
265
330
1F
100
AcDbEntity
  8
0
  6
Continuous
 62
     7
370
    25
100
AcDbLine
 10
6251.8350497091
 20
4808.7141853902
 30
0.0
 11
6016.1054894531
 21
4319.1093397472
 31
0.0
  0
ARC
  5
266
330
1F
100
AcDbEntity
  8
0
  6
Continuous
 62
     7
370
    25
100
AcDbCircle
 10
6012.7856482547
 20
4320.6932311618
 30
0.0
 40
3.678317821848345
100
AcDbArc
 50
155.1047224007
 51
334.1778321595
  0
LINE
  5
267
330
1F
100
AcDbEntity
  8
0
  6
Continuous
 62
     7
370
    25
100
AcDbLine
 10
6009.4491258467
 20
4322.2416532371
 30
0.0
 11
6003.625699898
 21
4324.9442172382
 31
0.0
  0
SPLINE
  5
268
330
1F
100
AcDbEntity
  8
0
  6
Continuous
 62
     7
370
    25
100
AcDbSpline
210
0.0
220
0.0
230
1.0
 70
     8
 71
     3
 72
     9
 73
     5
 74
     0
 42
0.000000001
 43
0.00000001
 40
0.0
 40
0.0
 40
0.0
 40
0.0
 40
0.0301856811326417
 40
1.0
 40
1.0
 40
1.0
 40
1.0
 10
6560.407401641648
 20
4865.2620804641
 30
0.0
 10
6560.406328267959
 20
4865.326711756308
 30
0.0
 10
6560.370769233064
 20
4867.467835951067
 30
0.0
 10
6560.369531331581
 20
4869.608996175392
 30
0.0
 10
6560.368330796998
 20
4871.685524019932
 30
0.0
  0
LINE
  5
269
330
1F
100
AcDbEntity
  8
0
  6
Continuous
 62
     7
370
    25
100
AcDbLine
 10
6308.5480347479
 20
4872.1583229635
 30
0.0
 11
6560.4074016416
 21
4865.2620804641
 31
0.0
  0
ARC
  5
26A
330
1F
100
AcDbEntity
  8
0
  6
Continuous
 62
     7
370
    25
100
AcDbCircle
 10
6274.0187553361
 20
4847.1421652404
 30
0.0
 40
41.67831782184821
100
AcDbArc
 50
38.5693958961
 51
141.4306041039
  0
ARC
  5
26B
330
1F
100
AcDbEntity
  8
0
  6
Continuous
 62
     7
370
    25
100
AcDbCircle
 10
6560.6335717998
 20
4861.5907154174
 30
0.0
 40
3.678317821847313
100
AcDbArc
 50
276.7391838553
 51
93.5252269089
  0
SPLINE
  5
26C
330
1F
100
AcDbEntity
  8
0
  6
Continuous
 62
     7
370
    25
100
AcDbSpline
210
0.0
220
0.0
230
1.0
 70
     8
 71
     3
 72
     9
 73
     5
 74
     0
 42
0.000000001
 43
0.00000001
 40
0.0
 40
0.0
 40
0.0
 40
0.0
 40
0.0298990159229415
 40
0.9999999999999999
 40
0.9999999999999999
 40
0.9999999999999999
 40
0.9999999999999999
 10
6561.065228303712
 20
4857.937817010617
 30
0.0
 10
6561.068551504972
 20
4857.873826888229
 30
0.0
 10
6561.179699017967
 20
4855.73361857661
 30
0.0
 10
6561.240026721308
 20
4853.591964438954
 30
0.0
 10
6561.298550685685
 20
4851.514343652462
 30
0.0
  0
SPLINE
  5
26D
330
1F
100
AcDbEntity
  8
0
  6
Continuous
 62
     7
370
    25
100
AcDbSpline
210
0.0
220
0.0
230
1.0
 70
     8
 71
     3
 72
     9
 73
     5
 74
     0
 42
0.000000001
 43
0.00000001
 40
0.0
 40
0.0
 40
0.0
 40
0.0
 40
0.0301857086849937
 40
1.0
 40
1.0
 40
1.0
 40
1.0
 10
5987.630115469735
 20
4865.2620804641
 30
0.0
 10
5987.631193887781
 20
4865.326711755391
 30
0.0
 10
5987.666920001032
 20
4867.467833965397
 30
0.0
 10
5987.668070522359
 20
4869.608995227721
 30
0.0
 10
5987.669186314385
 20
4871.685524019932
 30
0.0
  0
LINE
  5
26E
330
1F
100
AcDbEntity
  8
0
  6
Continuous
 62
     7
370
    25
100
AcDbLine
 10
5987.6301154697
 20
4865.2620804641
 30
0.0
 11
6239.4894749129
 21
4872.1583229635
 31
0.0
  0
SPLINE
  5
26F
330
1F
100
AcDbEntity
  8
0
  6
Continuous
 62
     7
370
    25
100
AcDbSpline
210
0.0
220
0.0
230
1.0
 70
     8
 71
     3
 72
     9
 73
     5
 74
     0
 42
0.000000001
 43
0.00000001
 40
0.0
 40
0.0
 40
0.0
 40
0.0
 40
0.0298989269528787
 40
1.0
 40
1.0
 40
1.0
 40
1.0
 10
5986.972288807671
 20
4857.937817010617
 30
0.0
 10
5986.968970652235
 20
4857.873826885292
 30
0.0
 10
5986.857991571261
 20
4855.733612106839
 30
0.0
 10
5986.797568251689
 20
4853.591961349879
 30
0.0
 10
5986.738951524537
 20
4851.514343652462
 30
0.0
  0
LINE
  5
270
330
1F
100
AcDbEntity
  8
0
  6
Continuous
 62
     7
370
    25
100
AcDbLine
 10
6231.208482405
 20
4861.0512954328
 30
0.0
 11
5986.9722888077
 21
4857.9378170106
 31
0.0
  0
ARC
  5
271
330
1F
100
AcDbEntity
  8
0
  6
Continuous
 62
     7
370
    25
100
AcDbCircle
 10
5987.4039388724
 20
4861.5907154174
 30
0.0
 40
3.678317821847313
100
AcDbArc
 50
86.4747730911
 51
263.2608161447
  0
LINE
  5
272
330
1F
100
AcDbEntity
  8
0
  6
Continuous
 62
     7
370
    25
100
AcDbLine
 10
6561.0652283037
 20
4857.9378170106
 30
0.0
 11
6316.8290272558
 21
4861.0512954328
 31
0.0
  0
LINE
  5
273
330
1F
100
AcDbEntity
  8
0
  6
Continuous
 62
     7
370
    25
100
AcDbLine
 10
6561.2270847166
 20
4623.5771537903
 30
0.0
 11
6565.5658260191
 21
4628.3091199729
 31
0.0
  0
LINE
  5
274
330
1F
100
AcDbEntity
  8
0
  6
Continuous
 62
     7
370
    25
100
AcDbLine
 10
6316.4449349249
 20
4848.0172348354
 30
0.0
 11
6561.2270847166
 21
4623.5771537903
 31
0.0
  0
LINE
  5
275
330
1F
100
AcDbEntity
  8
0
  6
Continuous
 62
     7
370
    25
100
AcDbLine
 10
5986.8104174936
 20
4623.5771537903
 30
0.0
 11
5982.4716910923
 21
4628.3091199729
 31
0.0
  0
LINE
  5
276
330
1F
100
AcDbEntity
  8
0
  6
Continuous
 62
     7
370
    25
100
AcDbLine
 10
5986.8104174936
 20
4623.5771537903
 30
0.0
 11
6231.5925821865
 21
4848.0172348354
 31
0.0
  0
SPLINE
  5
277
330
1F
100
AcDbEntity
  8
0
  6
Continuous
 62
     7
370
    25
100
AcDbSpline
210
0.0
220
0.0
230
1.0
 70
     8
 71
     3
 72
     9
 73
     5
 74
     0
 42
0.000000001
 43
0.00000001
 40
0.0
 40
0.0
 40
0.0
 40
0.0
 40
0.0304169006091281
 40
1.0
 40
1.0
 40
1.0
 40
1.0
 10
6556.224377473633
 20
4618.183542523121
 30
0.0
 10
6556.180456500862
 20
4618.135497044291
 30
0.0
 10
6554.736490419771
 20
4616.555931806937
 30
0.0
 10
6553.299929362912
 20
4614.969642499668
 30
0.0
 10
6551.90706404094
 20
4613.431603196596
 30
0.0
  0
LINE
  5
278
330
1F
100
AcDbEntity
  8
0
  6
Continuous
 62
     7
370
    25
100
AcDbLine
 10
6556.2243774736
 20
4618.1835425231
 30
0.0
 11
6316.4778217876
 21
4831.7980957362
 31
0.0
  0
SPLINE
  5
279
330
1F
100
AcDbEntity
  8
0
  6
Continuous
 62
     7
370
    25
100
AcDbSpline
210
0.0
220
0.0
230
1.0
 70
     8
 71
     3
 72
     9
 73
     5
 74
     0
 42
0.000000001
 43
0.00000001
 40
0.0
 40
0.0
 40
0.0
 40
0.0
 40
0.0304169354859213
 40
0.9999999999999999
 40
0.9999999999999999
 40
0.9999999999999999
 40
0.9999999999999999
 10
5991.813139637749
 20
4618.183542523121
 30
0.0
 10
5991.857060612105
 20
4618.135497045159
 30
0.0
 10
5993.301025089626
 20
4616.555933647543
 30
0.0
 10
5994.737579419642
 20
4614.96964337767
 30
0.0
 10
5996.130438169282
 20
4613.431603196596
 30
0.0
  0
LINE
  5
27A
330
1F
100
AcDbEntity
  8
0
  6
Continuous
 62
     7
370
    25
100
AcDbLine
 10
6231.5596878732
 20
4831.7980957362
 30
0.0
 11
5991.8131396377
 21
4618.1835425231
 31
0.0
  0
LINE
  5
27B
330
1F
100
AcDbEntity
  8
0
  6
Continuous
 62
     7
370
    25
100
AcDbLine
 10
6307.5336083973
 20
4820.1140058372
 30
0.0
 11
6538.5883763636
 21
4322.2416532371
 31
0.0
  0
LINE
  5
27C
330
1F
100
AcDbEntity
  8
0
  6
Continuous
 62
     7
370
    25
100
AcDbLine
 10
6009.4491258467
 20
4322.2416532371
 30
0.0
 11
6240.5039012635
 21
4820.1140058372
 31
0.0
  0
SPLINE
  5
27D
330
1F
100
AcDbEntity
  8
0
  6
Continuous
 62
     7
370
    25
100
AcDbSpline
210
0.0
220
0.0
230
1.0
 70
     8
 71
     3
 72
     9
 73
     5
 74
     0
 42
0.000000001
 43
0.00000001
 40
0.0
 40
0.0
 40
0.0
 40
0.0
 40
0.0287866616265888
 40
1.0
 40
1.0
 40
1.0
 40
1.0
 10
6270.444215854447
 20
4312.701900038456
 30
0.0
 10
6270.382810184919
 20
4312.694285896802
 30
0.0
 10
6268.249680948784
 20
4312.429783477182
 30
0.0
 10
6266.109254179942
 20
4312.253917652964
 30
0.0
 10
6264.03044315223
 20
4312.08311441872
 30
0.0
  0
LINE
  5
27E
330
1F
100
AcDbEntity
  8
0
  6
Continuous
 62
     7
370
    25
100
AcDbLine
 10
6270.4442158544
 20
4312.7019000385
 30
0.0
 11
6265.2232513035
 21
4804.4017148349
 31
0.0
  0
SPLINE
  5
27F
330
1F
100
AcDbEntity
  8
0
  6
Continuous
 62
     7
370
    25
100
AcDbSpline
210
0.0
220
0.0
230
1.0
 70
     8
 71
     3
 72
     9
 73
     5
 74
     0
 42
0.000000001
 43
0.00000001
 40
0.0
 40
0.0
 40
0.0
 40
0.0
 40
0.0287850195274289
 40
1.0
 40
1.0
 40
1.0
 40
1.0
 10
6277.593301256936
 20
4312.701900038456
 30
0.0
 10
6277.654701940063
 20
4312.694285893222
 30
0.0
 10
6279.787779635888
 20
4312.429768260117
 30
0.0
 10
6281.928225738368
 20
4312.25391030204
 30
0.0
 10
6284.007059057992
 20
4312.08311441872
 30
0.0
  0
LINE
  5
280
330
1F
100
AcDbEntity
  8
0
  6
Continuous
 62
     7
370
    25
100
AcDbLine
 10
6282.8142509067
 20
4804.4017148349
 30
0.0
 11
6277.5933012569
 21
4312.7019000385
 31
0.0
  0
ARC
  5
281
330
1F
100
AcDbEntity
  8
0
  6
Continuous
 62
     7
370
    25
100
AcDbCircle
 10
6558.7412218304
 20
4620.8659774356
 30
0.0
 40
3.678317821848307
100
AcDbArc
 50
226.824056428
 51
47.4823755625
  0
ARC
  5
282
330
1F
100
AcDbEntity
  8
0
  6
Continuous
 62
     7
370
    25
100
AcDbCircle
 10
5989.2962888418
 20
4620.8659774356
 30
0.0
 40
3.678317821848807
100
AcDbArc
 50
132.5176244375
 51
313.175943572
  0
SPLINE
  5
283
330
1F
100
AcDbEntity
  8
0
  6
Continuous
 62
     7
370
    25
100
AcDbSpline
210
0.0
220
0.0
230
1.0
 70
     8
 71
     3
 72
    12
 73
     8
 74
     0
 42
0.000000001
 43
0.00000001
 40
0.0
 40
0.0
 40
0.0
 40
0.0
 40
0.252591829770367
 40
0.6516688909479483
 40
0.8480083687236266
 40
0.9508388630177089
 40
1.0
 40
1.0
 40
1.0
 40
1.0
 10
6274.018751105111
 20
4311.554927859043
 30
0.0
 10
6273.683970127933
 20
4311.577812658068
 30
0.0
 10
6272.820259103288
 20
4311.636853806046
 30
0.0
 10
6271.810069755286
 20
4312.122133047305
 30
0.0
 10
6271.068280802456
 20
4312.555850159677
 30
0.0
 10
6270.67407127246
 20
4312.710799641224
 30
0.0
 10
6270.500391833474
 20
4312.704075074845
 30
0.0
 10
6270.444215854447
 20
4312.701900038456
 30
0.0
  0
SPLINE
  5
284
330
1F
100
AcDbEntity
  8
0
  6
Continuous
 62
     7
370
    25
100
AcDbSpline
210
0.0
220
0.0
230
1.0
 70
     8
 71
     3
 72
    11
 73
     7
 74
     0
 42
0.000000001
 43
0.00000001
 40
0.0
 40
0.0
 40
0.0
 40
0.0
 40
0.0868570522174314
 40
0.3961990364308945
 40
0.8333278967527251
 40
1.0
 40
1.0
 40
1.0
 40
1.0
 10
6277.593301256936
 20
4312.701900038456
 30
0.0
 10
6277.49333452083
 20
4312.696934447536
 30
0.0
 10
6277.037335571884
 20
4312.674283870663
 30
0.0
 10
6276.163635589922
 20
4312.026484074291
 30
0.0
 10
6275.037288440422
 20
4311.601316474038
 30
0.0
 10
6274.239085555753
 20
4311.564962847106
 30
0.0
 10
6274.018751105111
 20
4311.554927859043
 30
0.0
  0
ARC
  5
285
330
1F
100
AcDbEntity
  8
0
  6
Continuous
 62
     7
370
    25
100
AcDbCircle
 10
6274.0187553361
 20
4847.1421652404
 30
0.0
 40
41.67831782184807
100
AcDbArc
 50
165.1601229442
 51
176.4071798057
  0
ARC
  5
286
330
1F
100
AcDbEntity
  8
0
  6
Continuous
 62
     7
370
    25
100
AcDbCircle
 10
6274.0187553361
 20
4847.1421652404
 30
0.0
 40
41.67831782184787
100
AcDbArc
 50
202.9656126467
 51
215.8921139248
  0
ARC
  5
287
330
1F
100
AcDbEntity
  8
0
  6
Continuous
 62
     7
370
    25
100
AcDbCircle
 10
6274.0187553361
 20
4847.1421652404
 30
0.0
 40
41.67831782184898
100
AcDbArc
 50
3.5928201943
 51
14.8398770558
  0
ARC
  5
288
330
1F
100
AcDbEntity
  8
0
  6
Continuous
 62
     7
370
    25
100
AcDbCircle
 10
6274.0187553361
 20
4847.1421652404
 30
0.0
 40
41.6783178218488
100
AcDbArc
 50
324.1078860752
 51
337.0343873533
  0
ARC
  5
289
330
1F
100
AcDbEntity
  8
0
  6
Continuous
 62
     7
370
    25
100
AcDbCircle
 10
6274.0187553361
 20
4847.1421652404
 30
0.0
 40
41.67831782184883
100
AcDbArc
 50
284.8886326549
 51
296.6702995538
  0
ARC
  5
28A
330
1F
100
AcDbEntity
  8
0
  6
Continuous
 62
     7
370
    25
100
AcDbCircle
 10
6274.0187553361
 20
4847.1421652404
 30
0.0
 40
41.67831782184856
100
AcDbArc
 50
243.3297004462
 51
255.1113673451
  0
SPLINE
  5
28B
330
1F
100
AcDbEntity
  8
0
  6
Continuous
 62
     7
370
    25
100
AcDbSpline
210
0.0
220
0.0
230
1.0
 70
     8
 71
     3
 72
    10
 73
     6
 74
     0
 42
0.000000001
 43
0.00000001
 40
0.0
 40
0.0
 40
0.0
 40
0.0
 40
0.0042398190401826
 40
0.4403421165532229
 40
1.0
 40
1.0
 40
1.0
 40
1.0
 10
6302.658067663949
 20
4822.055373820996
 30
0.0
 10
6302.665488260072
 20
4822.056272759416
 30
0.0
 10
6303.436181766681
 20
4822.14963533995
 30
0.0
 10
6305.199782927452
 20
4822.368882425109
 30
0.0
 10
6306.85371493045
 20
4822.585857442682
 30
0.0
 10
6307.78329225425
 20
4822.707806262707
 30
0.0
  0
ARC
  5
28C
330
1F
100
AcDbEntity
  8
0
  6
Continuous
 62
     7
370
    25
100
AcDbCircle
 10
6274.0187553361
 20
4847.1421652404
 30
0.0
 40
38.07305129747826
100
AcDbArc
 50
318.7830456167
 51
350.6883907526
  0
SPLINE
  5
28D
330
1F
100
AcDbEntity
  8
0
  6
Continuous
 62
     7
370
    25
100
AcDbSpline
210
0.0
220
0.0
230
1.0
 70
     8
 71
     3
 72
    11
 73
     7
 74
     0
 42
0.000000001
 43
0.00000001
 40
0.0
 40
0.0
 40
0.0
 40
0.0
 40
0.3175842139785978
 40
0.6385010460298972
 40
0.9978826936820145
 40
1.0
 40
1.0
 40
1.0
 40
1.0
 10
6312.39362212066
 20
4830.8801842067
 30
0.0
 10
6312.364903048528
 20
4831.939523918242
 30
0.0
 10
6312.307163536329
 20
4834.069319683113
 30
0.0
 10
6312.050206901869
 20
4837.451413405933
 30
0.0
 10
6311.771879967941
 20
4839.757728417842
 30
0.0
 10
6311.59118006954
 20
4840.974672921959
 30
0.0
 10
6311.590121706765
 20
4840.981800589298
 30
0.0
  0
SPLINE
  5
28E
330
1F
100
AcDbEntity
  8
0
  6
Continuous
 62
     7
370
    25
100
AcDbSpline
210
0.0
220
0.0
230
1.0
 70
     8
 71
     3
 72
    12
 73
     8
 74
     0
 42
0.000000001
 43
0.00000001
 40
0.0
 40
0.0
 40
0.0
 40
0.0
 40
0.0020636924222822
 40
0.1790465528152622
 40
0.3558327621186467
 40
0.6780416763755285
 40
0.9999999999999999
 40
0.9999999999999999
 40
0.9999999999999999
 40
0.9999999999999999
 10
6311.590121706765
 20
4840.981800589298
 30
0.0
 10
6311.593777633638
 20
4840.975591881752
 30
0.0
 10
6311.910966908971
 20
4840.436922615147
 30
0.0
 10
6312.533472670322
 20
4839.361464886917
 30
0.0
 10
6313.681205010587
 20
4837.302002468321
 30
0.0
 10
6315.024050025469
 20
4834.773787810959
 30
0.0
 10
6315.99335689184
 20
4832.789735819239
 30
0.0
 10
6316.477821787636
 20
4831.798095736241
 30
0.0
  0
SPLINE
  5
28F
330
1F
100
AcDbEntity
  8
0
  6
Continuous
 62
     7
370
    25
100
AcDbSpline
210
0.0
220
0.0
230
1.0
 70
     8
 71
     3
 72
    12
 73
     8
 74
     0
 42
0.000000001
 43
0.00000001
 40
0.0
 40
0.0
 40
0.0
 40
0.0
 40
0.3219582088938578
 40
0.6441673398677579
 40
0.8209527938190608
 40
0.9979359473060179
 40
1.0
 40
1.0
 40
1.0
 40
1.0
 10
6231.559687873166
 20
4831.798095736241
 30
0.0
 10
6232.044154870007
 20
4832.789734509367
 30
0.0
 10
6233.01346643899
 20
4834.773784901466
 30
0.0
 10
6234.356284119468
 20
4837.302015155323
 30
0.0
 10
6235.504095176238
 20
4839.361430298017
 30
0.0
 10
6236.126385438303
 20
4840.437015292947
 30
0.0
 10
6236.443736982221
 20
4840.975591888825
 30
0.0
 10
6236.447395404618
 20
4840.981800589298
 30
0.0
  0
SPLINE
  5
290
330
1F
100
AcDbEntity
  8
0
  6
Continuous
 62
     7
370
    25
100
AcDbSpline
210
0.0
220
0.0
230
1.0
 70
     8
 71
     3
 72
    11
 73
     7
 74
     0
 42
0.000000001
 43
0.00000001
 40
0.0
 40
0.0
 40
0.0
 40
0.0
 40
0.0021174163203547
 40
0.3614996166754058
 40
0.6793774986651697
 40
1.0
 40
1.0
 40
1.0
 40
1.0
 10
6236.447395404618
 20
4840.981800589298
 30
0.0
 10
6236.446334550072
 20
4840.974672923268
 30
0.0
 10
6236.265218296367
 20
4839.757789633547
 30
0.0
 10
6235.988696786055
 20
4837.461647990905
 30
0.0
 10
6235.730873674129
 20
4834.079686429088
 30
0.0
 10
6235.672970851056
 20
4831.949736838564
 30
0.0
 10
6235.643894990723
 20
4830.8801842067
 30
0.0
  0
ARC
  5
291
330
1F
100
AcDbEntity
  8
0
  6
Continuous
 62
     7
370
    25
100
AcDbCircle
 10
6274.0187553361
 20
4847.1421652404
 30
0.0
 40
38.07305129747826
100
AcDbArc
 50
189.3116092474
 51
221.2169543833
  0
SPLINE
  5
292
330
1F
100
AcDbEntity
  8
0
  6
Continuous
 62
     7
370
    25
100
AcDbSpline
210
0.0
220
0.0
230
1.0
 70
     8
 71
     3
 72
    10
 73
     6
 74
     0
 42
0.000000001
 43
0.00000001
 40
0.0
 40
0.0
 40
0.0
 40
0.0
 40
0.5596571035185458
 40
0.9957601868683459
 40
1.0
 40
1.0
 40
1.0
 40
1.0
 10
6240.254217406552
 20
4822.707806262707
 30
0.0
 10
6241.183794711079
 20
4822.585857259914
 30
0.0
 10
6242.83772899449
 20
4822.368881613495
 30
0.0
 10
6244.601332905988
 20
4822.149635637478
 30
0.0
 10
6245.372028851313
 20
4822.056272759435
 30
0.0
 10
6245.379449447434
 20
4822.055373820996
 30
0.0
  0
SPLINE
  5
293
330
1F
100
AcDbEntity
  8
0
  6
Continuous
 62
     7
370
    25
100
AcDbSpline
210
0.0
220
0.0
230
1.0
 70
     8
 71
     3
 72
    12
 73
     8
 74
     0
 42
0.000000001
 43
0.00000001
 40
0.0
 40
0.0
 40
0.0
 40
0.0
 40
0.3196811001187049
 40
0.63961173767093
 40
0.8185931660399365
 40
0.9978011941224123
 40
1.0
 40
1.0
 40
1.0
 40
1.0
 10
6231.208482404988
 20
4861.051295432781
 30
0.0
 10
6232.148604988061
 20
4861.474146352205
 30
0.0
 10
6234.029583997331
 20
4862.320178261031
 30
0.0
 10
6236.516373981253
 20
4863.344311893723
 30
0.0
 10
6238.593552336536
 20
4864.153115097559
 30
0.0
 10
6239.705634816623
 20
4864.566294861209
 30
0.0
 10
6240.266853520953
 20
4864.769944992457
 30
0.0
 10
6240.273655971329
 20
4864.772413406109
 30
0.0
  0
SPLINE
  5
294
330
1F
100
AcDbEntity
  8
0
  6
Continuous
 62
     7
370
    25
100
AcDbSpline
210
0.0
220
0.0
230
1.0
 70
     8
 71
     3
 72
    11
 73
     7
 74
     0
 42
0.000000001
 43
0.00000001
 40
0.0
 40
0.0
 40
0.0
 40
0.0
 40
0.0022549299546078
 40
0.3659565161358582
 40
0.6815808190645697
 40
1.0
 40
1.0
 40
1.0
 40
1.0
 10
6240.273655971329
 20
4864.772413406109
 30
0.0
 10
6240.268383186717
 20
4864.767456557648
 30
0.0
 10
6239.412653773598
 20
4863.963000973576
 30
0.0
 10
6237.856720888191
 20
4862.424825955554
 30
0.0
 10
6235.674909264534
 20
4860.089090624747
 30
0.0
 10
6234.380605391482
 20
4858.576426146037
 30
0.0
 10
6233.730600794594
 20
4857.816759977078
 30
0.0
  0
ARC
  5
295
330
1F
100
AcDbEntity
  8
0
  6
Continuous
 62
     7
370
    25
100
AcDbCircle
 10
6274.0187553361
 20
4847.1421652404
 30
0.0
 40
38.0730512974774
100
AcDbArc
 50
152.4150200185
 51
180.0374811882
  0
SPLINE
  5
296
330
1F
100
AcDbEntity
  8
0
  6
Continuous
 62
     7
370
    25
100
AcDbSpline
210
0.0
220
0.0
230
1.0
 70
     8
 71
     3
 72
    10
 73
     6
 74
     0
 42
0.000000001
 43
0.00000001
 40
0.0
 40
0.0
 40
0.0
 40
0.0
 40
0.5332609892745853
 40
0.9943239743703609
 40
1.0
 40
1.0
 40
1.0
 40
1.0
 10
6232.422353347581
 20
4849.753950271343
 30
0.0
 10
6233.025616483708
 20
4849.304718806819
 30
0.0
 10
6234.150467187529
 20
4848.467077156291
 30
0.0
 10
6235.374201621786
 20
4847.547605040396
 30
0.0
 10
6235.938843929868
 20
4847.122434810469
 30
0.0
 10
6235.945710560124
 20
4847.117264303898
 30
0.0
  0
SPLINE
  5
297
330
1F
100
AcDbEntity
  8
0
  6
Continuous
 62
     7
370
    25
100
AcDbSpline
210
0.0
220
0.0
230
1.0
 70
     8
 71
     3
 72
    11
 73
     7
 74
     0
 42
0.000000001
 43
0.00000001
 40
0.0
 40
0.0
 40
0.0
 40
0.0
 40
0.3153283911593801
 40
0.6340434246415684
 40
0.9977445093042852
 40
1.0
 40
1.0
 40
1.0
 40
1.0
 10
6314.306901415627
 20
4857.816759977078
 30
0.0
 10
6313.663323773431
 20
4858.569050675947
 30
0.0
 10
6312.369256433727
 20
4860.081711712533
 30
0.0
 10
6310.187764953354
 20
4862.41778231947
 30
0.0
 10
6308.625041979149
 20
4863.963201574559
 30
0.0
 10
6307.769121511373
 20
4864.767456562145
 30
0.0
 10
6307.763846238892
 20
4864.772413406109
 30
0.0
  0
SPLINE
  5
298
330
1F
100
AcDbEntity
  8
0
  6
Continuous
 62
     7
370
    25
100
AcDbSpline
210
0.0
220
0.0
230
1.0
 70
     8
 71
     3
 72
    12
 73
     8
 74
     0
 42
0.000000001
 43
0.00000001
 40
0.0
 40
0.0
 40
0.0
 40
0.0
 40
0.0021995136324243
 40
0.1814074101973362
 40
0.3603894097412875
 40
0.6803198125021445
 40
1.0
 40
1.0
 40
1.0
 40
1.0
 10
6307.763846238892
 20
4864.772413406109
 30
0.0
 10
6307.77065117486
 20
4864.769944998164
 30
0.0
 10
6308.331896075777
 20
4864.566360221037
 30
0.0
 10
6309.443948618803
 20
4864.153084398612
 30
0.0
 10
6311.521146967096
 20
4863.344329132353
 30
0.0
 10
6314.007929620199
 20
4862.320174814102
 30
0.0
 10
6315.888906656289
 20
4861.474144904431
 30
0.0
 10
6316.829027255814
 20
4861.051295432781
 30
0.0
  0
SPLINE
  5
299
330
1F
100
AcDbEntity
  8
0
  6
Continuous
 62
     7
370
    25
100
AcDbSpline
210
0.0
220
0.0
230
1.0
 70
     8
 71
     3
 72
    10
 73
     6
 74
     0
 42
0.000000001
 43
0.00000001
 40
0.0
 40
0.0
 40
0.0
 40
0.0
 40
0.0056747086543157
 40
0.4667384277960286
 40
1.0
 40
1.0
 40
1.0
 40
1.0
 10
6312.091799100678
 20
4847.117264303898
 30
0.0
 10
6312.098663241307
 20
4847.122434818857
 30
0.0
 10
6312.663231116181
 20
4847.547703880216
 30
0.0
 10
6313.887079245254
 20
4848.467028116355
 30
0.0
 10
6315.011910954257
 20
4849.304701755237
 30
0.0
 10
6315.615163763802
 20
4849.753950271343
 30
0.0
  0
ARC
  5
29A
330
1F
100
AcDbEntity
  8
0
  6
Continuous
 62
     7
370
    25
100
AcDbCircle
 10
6274.0187553361
 20
4847.1421652404
 30
0.0
 40
38.07305129747821
100
AcDbArc
 50
359.9625188118
 51
27.5849799815
  0
SPLINE
  5
29B
330
1F
100
AcDbEntity
  8
0
  6
Continuous
 62
     7
370
    25
100
AcDbSpline
210
0.0
220
0.0
230
1.0
 70
     8
 71
     3
 72
    10
 73
     6
 74
     0
 42
0.000000001
 43
0.00000001
 40
0.0
 40
0.0
 40
0.0
 40
0.0
 40
0.5298204163541012
 40
0.989612437083263
 40
0.9999999999999999
 40
0.9999999999999999
 40
0.9999999999999999
 40
0.9999999999999999
 10
6556.224377473633
 20
4618.183542523121
 30
0.0
 10
6556.633072284911
 20
4618.625070407599
 30
0.0
 10
6557.396443147428
 20
4619.44976774336
 30
0.0
 10
6558.245305195395
 20
4620.404068206045
 30
0.0
 10
6558.674044081759
 20
4620.81216797874
 30
0.0
 10
6558.683516105454
 20
4620.821184027528
 30
0.0
  0
LINE
  5
29C
330
1F
100
AcDbEntity
  8
0
  6
Continuous
 62
     7
370
    25
100
AcDbLine
 10
6311.5901217068
 20
4840.9818005893
 30
0.0
 11
6558.6835161055
 21
4620.8211840275
 31
0.0
  0
SPLINE
  5
29D
330
1F
100
AcDbEntity
  8
0
  6
Continuous
 62
     7
370
    25
100
AcDbSpline
210
0.0
220
0.0
230
1.0
 70
     8
 71
     3
 72
    10
 73
     6
 74
     0
 42
0.000000001
 43
0.00000001
 40
0.0
 40
0.0
 40
0.0
 40
0.0
 40
0.0103875605668388
 40
0.4701821639754185
 40
1.0
 40
1.0
 40
1.0
 40
1.0
 10
5989.354001005929
 20
4620.821184027528
 30
0.0
 10
5989.36347302849
 20
4620.812167977751
 30
0.0
 10
5989.792214313487
 20
4620.404065828319
 30
0.0
 10
5990.641090889294
 20
4619.449777493061
 30
0.0
 10
5991.404452025259
 20
4618.62507240607
 30
0.0
 10
5991.813139637749
 20
4618.183542523121
 30
0.0
  0
LINE
  5
29E
330
1F
100
AcDbEntity
  8
0
  6
Continuous
 62
     7
370
    25
100
AcDbLine
 10
5989.3540010059
 20
4620.8211840275
 30
0.0
 11
6236.4473954046
 21
4840.9818005893
 31
0.0
  0
SPLINE
  5
29F
330
1F
100
AcDbEntity
  8
0
  6
Continuous
 62
     7
370
    25
100
AcDbSpline
210
0.0
220
0.0
230
1.0
 70
     8
 71
     3
 72
    11
 73
     7
 74
     0
 42
0.000000001
 43
0.00000001
 40
0.0
 40
0.0
 40
0.0
 40
0.0
 40
0.5254593427344385
 40
0.8849126438663815
 40
0.9951448351998983
 40
1.0
 40
1.0
 40
1.0
 40
1.0
 10
6561.065228303712
 20
4857.937817010617
 30
0.0
 10
6561.03307631088
 20
4858.540294321755
 30
0.0
 10
6560.978929961835
 20
4859.554910956973
 30
0.0
 10
6560.851172449652
 20
4860.80566773801
 30
0.0
 10
6560.758536029603
 20
4861.410655521461
 30
0.0
 10
6560.695564457869
 20
4861.542550810791
 30
0.0
 10
6560.692907890122
 20
4861.548115048146
 30
0.0
  0
LINE
  5
2A0
330
1F
100
AcDbEntity
  8
0
  6
Continuous
 62
     7
370
    25
100
AcDbLine
 10
6307.7638462389
 20
4864.7724134061
 30
0.0
 11
6560.6929078901
 21
4861.5481150481
 31
0.0
  0
SPLINE
  5
2A1
330
1F
100
AcDbEntity
  8
0
  6
Continuous
 62
     7
370
    25
100
AcDbSpline
210
0.0
220
0.0
230
1.0
 70
     8
 71
     3
 72
    11
 73
     7
 74
     0
 42
0.000000001
 43
0.00000001
 40
0.0
 40
0.0
 40
0.0
 40
0.0
 40
0.0048551683986137
 40
0.1150865096155698
 40
0.4745404973755236
 40
1.0
 40
1.0
 40
1.0
 40
1.0
 10
5987.3445943201
 20
4861.548115048146
 30
0.0
 10
5987.341937746673
 20
4861.542550812166
 30
0.0
 10
5987.278966550203
 20
4861.410656623362
 30
0.0
 10
5987.186367787368
 20
4860.805660557013
 30
0.0
 10
5987.058549205422
 20
4859.554915668586
 30
0.0
 10
5987.004426650584
 20
4858.540295830562
 30
0.0
 10
5986.972288807671
 20
4857.937817010617
 30
0.0
  0
LINE
  5
2A2
330
1F
100
AcDbEntity
  8
0
  6
Continuous
 62
     7
370
    25
100
AcDbLine
 10
5987.3445943201
 20
4861.5481150481
 30
0.0
 11
6240.2736559713
 21
4864.7724134061
 31
0.0
  0
SPLINE
  5
2A3
330
1F
100
AcDbEntity
  8
0
  6
Continuous
 62
     7
370
    25
100
AcDbSpline
210
0.0
220
0.0
230
1.0
 70
     8
 71
     3
 72
    11
 73
     7
 74
     0
 42
0.000000001
 43
0.00000001
 40
0.0
 40
0.0
 40
0.0
 40
0.0
 40
0.6164270491929282
 40
0.8065895788780061
 40
0.9971780586042034
 40
1.0
 40
1.0
 40
1.0
 40
1.0
 10
6251.835049709122
 20
4808.714185390209
 30
0.0
 10
6251.73865076725
 20
4810.276575460196
 30
0.0
 10
6251.612513567348
 20
4812.320949648908
 30
0.0
 10
6251.552699532042
 20
4814.908011427695
 30
0.0
 10
6251.54211802917
 20
4815.903539621693
 30
0.0
 10
6251.540433625018
 20
4816.40567801589
 30
0.0
 10
6251.540409048836
 20
4816.413004431462
 30
0.0
  0
SPLINE
  5
2A4
330
1F
100
AcDbEntity
  8
0
  6
Continuous
 62
     7
370
    25
100
AcDbSpline
210
0.0
220
0.0
230
1.0
 70
     8
 71
     3
 72
    10
 73
     6
 74
     0
 42
0.000000001
 43
0.00000001
 40
0.0
 40
0.0
 40
0.0
 40
0.0
 40
0.0028866749422438
 40
0.3885768762017209
 40
1.0
 40
1.0
 40
1.0
 40
1.0
 10
6251.540409048836
 20
4816.413004431462
 30
0.0
 10
6251.543841017627
 20
4816.406532300014
 30
0.0
 10
6252.00582019388
 20
4815.535315183356
 30
0.0
 10
6253.231839945517
 20
4813.301698274801
 30
0.0
 10
6254.52080684036
 20
4811.19193753012
 30
0.0
 10
6255.311192592423
 20
4809.898246559834
 30
0.0
  0
ARC
  5
2A5
330
1F
100
AcDbEntity
  8
0
  6
Continuous
 62
     7
370
    25
100
AcDbCircle
 10
6274.0187553361
 20
4847.1421652404
 30
0.0
 40
38.0730512974781
100
AcDbArc
 50
233.8145791078
 51
262.0840369791
  0
SPLINE
  5
2A6
330
1F
100
AcDbEntity
  8
0
  6
Continuous
 62
     7
370
    25
100
AcDbSpline
210
0.0
220
0.0
230
1.0
 70
     8
 71
     3
 72
    10
 73
     6
 74
     0
 42
0.000000001
 43
0.00000001
 40
0.0
 40
0.0
 40
0.0
 40
0.0
 40
0.5831000379259157
 40
0.99639278536075
 40
1.0
 40
1.0
 40
1.0
 40
1.0
 10
6263.30988260154
 20
4806.863103542065
 30
0.0
 10
6264.357135189603
 20
4807.340687741253
 30
0.0
 10
6266.146665039248
 20
4808.156776610266
 30
0.0
 10
6268.002333108973
 20
4809.052047058143
 30
0.0
 10
6268.768684767907
 20
4809.428641348112
 30
0.0
 10
6268.775315603059
 20
4809.431899819111
 30
0.0
  0
SPLINE
  5
2A7
330
1F
100
AcDbEntity
  8
0
  6
Continuous
 62
     7
370
    25
100
AcDbSpline
210
0.0
220
0.0
230
1.0
 70
     8
 71
     3
 72
    10
 73
     6
 74
     0
 42
0.000000001
 43
0.00000001
 40
0.0
 40
0.0
 40
0.0
 40
0.0
 40
0.6114240834912695
 40
0.9971133251840784
 40
1.0
 40
1.0
 40
1.0
 40
1.0
 10
6292.726309617799
 20
4809.898246559834
 30
0.0
 10
6293.516704686816
 20
4811.191935086727
 30
0.0
 10
6294.805684752791
 20
4813.301688535492
 30
0.0
 10
6296.031683116356
 20
4815.535317308348
 30
0.0
 10
6296.493661192441
 20
4816.406532300099
 30
0.0
 10
6296.497093161385
 20
4816.413004431462
 30
0.0
  0
SPLINE
  5
2A8
330
1F
100
AcDbEntity
  8
0
  6
Continuous
 62
     7
370
    25
100
AcDbSpline
210
0.0
220
0.0
230
1.0
 70
     8
 71
     3
 72
    11
 73
     7
 74
     0
 42
0.000000001
 43
0.00000001
 40
0.0
 40
0.0
 40
0.0
 40
0.0
 40
0.0028219415963036
 40
0.193410415131403
 40
0.3835730041475269
 40
0.9999999999999999
 40
0.9999999999999999
 40
0.9999999999999999
 40
0.9999999999999999
 10
6296.497093161385
 20
4816.413004431462
 30
0.0
 10
6296.497068584246
 20
4816.405678015903
 30
0.0
 10
6296.495384114732
 20
4815.903539673795
 30
0.0
 10
6296.484829205606
 20
4814.908011064641
 30
0.0
 10
6296.42496245232
 20
4812.320950587725
 30
0.0
 10
6296.298848538754
 20
4810.276575783667
 30
0.0
 10
6296.20246740226
 20
4808.714185390209
 30
0.0
  0
SPLINE
  5
2A9
330
1F
100
AcDbEntity
  8
0
  6
Continuous
 62
     7
370
    25
100
AcDbSpline
210
0.0
220
0.0
230
1.0
 70
     8
 71
     3
 72
    10
 73
     6
 74
     0
 42
0.000000001
 43
0.00000001
 40
0.0
 40
0.0
 40
0.0
 40
0.0
 40
0.0036050460028924
 40
0.416900856774329
 40
1.0
 40
1.0
 40
1.0
 40
1.0
 10
6279.262201508324
 20
4809.431899819111
 30
0.0
 10
6279.268827371928
 20
4809.428641338631
 30
0.0
 10
6280.035066751639
 20
4809.051818601086
 30
0.0
 10
6281.890915064438
 20
4808.156924225903
 30
0.0
 10
6283.680398227962
 20
4807.340741118273
 30
0.0
 10
6284.727619608681
 20
4806.863103542065
 30
0.0
  0
ARC
  5
2AA
330
1F
100
AcDbEntity
  8
0
  6
Continuous
 62
     7
370
    25
100
AcDbCircle
 10
6274.0187553361
 20
4847.1421652404
 30
0.0
 40
38.07305129747848
100
AcDbArc
 50
277.9159630209
 51
306.1854208922
  0
SPLINE
  5
2AB
330
1F
100
AcDbEntity
  8
0
  6
Continuous
 62
     7
370
    25
100
AcDbSpline
210
0.0
220
0.0
230
1.0
 70
     8
 71
     3
 72
     9
 73
     5
 74
     0
 42
0.000000001
 43
0.00000001
 40
0.0
 40
0.0
 40
0.0
 40
0.0
 40
0.5000002954975074
 40
1.0
 40
1.0
 40
1.0
 40
1.0
 10
6531.947971900742
 20
4319.076259169316
 30
0.0
 10
6532.45714192362
 20
4319.325431335933
 30
0.0
 10
6533.475481367546
 20
4319.823775374651
 30
0.0
 10
6534.616399677617
 20
4320.381188552262
 30
0.0
 10
6535.186858495515
 20
4320.659894976353
 30
0.0
  0
LINE
  5
2AC
330
1F
100
AcDbEntity
  8
0
  6
Continuous
 62
     7
370
    25
100
AcDbLine
 10
6296.4970931614
 20
4816.4130044315
 30
0.0
 11
6535.1868584955
 21
4320.6598949764
 31
0.0
  0
SPLINE
  5
2AD
330
1F
100
AcDbEntity
  8
0
  6
Continuous
 62
     7
370
    25
100
AcDbSpline
210
0.0
220
0.0
230
1.0
 70
     8
 71
     3
 72
     9
 73
     5
 74
     0
 42
0.000000001
 43
0.00000001
 40
0.0
 40
0.0
 40
0.0
 40
0.0
 40
0.499998281376341
 40
1.0
 40
1.0
 40
1.0
 40
1.0
 10
6012.850651165288
 20
4320.659894976353
 30
0.0
 10
6013.423774901256
 20
4320.386716544911
 30
0.0
 10
6014.570026313145
 20
4319.840357804055
 30
0.0
 10
6015.593667233624
 20
4319.353012991171
 30
0.0
 10
6016.105489453118
 20
4319.109339747166
 30
0.0
  0
LINE
  5
2AE
330
1F
100
AcDbEntity
  8
0
  6
Continuous
 62
     7
370
    25
100
AcDbLine
 10
6012.8506511653
 20
4320.6598949764
 30
0.0
 11
6251.5404090488
 21
4816.4130044315
 31
0.0
  0
SPLINE
  5
2AF
330
1F
100
AcDbEntity
  8
0
  6
Continuous
 62
     7
370
    25
100
AcDbSpline
210
0.0
220
0.0
230
1.0
 70
     8
 71
     3
 72
    10
 73
     6
 74
     0
 42
0.000000001
 43
0.00000001
 40
0.0
 40
0.0
 40
0.0
 40
0.0
 40
0.5872602473956943
 40
0.9964607287619364
 40
1.0
 40
1.0
 40
1.0
 40
1.0
 10
6282.814250906747
 20
4804.401714834904
 30
0.0
 10
6282.112125900025
 20
4805.35453306722
 30
0.0
 10
6280.920763128609
 20
4806.971271054101
 30
0.0
 10
6279.741806600878
 20
4808.70747369215
 30
0.0
 10
6279.266279187987
 20
4809.425740631623
 30
0.0
 10
6279.262201508324
 20
4809.431899819111
 30
0.0
  0
SPLINE
  5
2B0
330
1F
100
AcDbEntity
  8
0
  6
Continuous
 62
     7
370
    25
100
AcDbSpline
210
0.0
220
0.0
230
1.0
 70
     8
 71
     3
 72
    10
 73
     6
 74
     0
 42
0.000000001
 43
0.00000001
 40
0.0
 40
0.0
 40
0.0
 40
0.0
 40
0.0035392665066357
 40
0.4127405376753905
 40
1.0
 40
1.0
 40
1.0
 40
1.0
 10
6268.775315603059
 20
4809.431899819111
 30
0.0
 10
6268.771237923563
 20
4809.425740631509
 30
0.0
 10
6268.295708990084
 20
4808.707471352328
 30
0.0
 10
6267.116734217439
 20
4806.97127763459
 30
0.0
 10
6265.925373913839
 20
4805.354534703046
 30
0.0
 10
6265.223251303475
 20
4804.401714834904
 30
0.0
  0
LINE
  5
2B1
330
1F
100
AcDbEntity
  8
0
  6
Continuous
 62
     7
370
    25
100
AcDbLine
 10
6274.0187511051
 20
4315.6144810054
 30
0.0
 11
6274.0187511051
 21
4311.554927859
 31
0.0
  0
LINE
  5
2B2
330
1F
100
AcDbEntity
  8
0
  6
Continuous
 62
     7
370
    25
100
AcDbLine
 10
6268.7753156031
 20
4809.4318998191
 30
0.0
 11
6274.0187511051
 21
4315.6144810054
 31
0.0
  0
LINE
  5
2B3
330
1F
100
AcDbEntity
  8
0
  6
Continuous
 62
     7
370
    25
100
AcDbLine
 10
6274.0187511051
 20
4315.6144810054
 30
0.0
 11
6279.2622015083
 21
4809.4318998191
 31
0.0
  0
SPLINE
  5
2B4
330
1F
100
AcDbEntity
  8
0
  6
Continuous
 62
     7
370
    25
100
AcDbSpline
210
0.0
220
0.0
230
1.0
 70
     8
 71
     3
 72
    10
 73
     6
 74
     0
 42
0.000000001
 43
0.00000001
 40
0.0
 40
0.0
 40
0.0
 40
0.0
 40
0.5628748517930902
 40
0.995822040293631
 40
0.9999999999999999
 40
0.9999999999999999
 40
0.9999999999999999
 40
0.9999999999999999
 10
6307.533608397286
 20
4820.114005837178
 30
0.0
 10
6306.636218070594
 20
4820.45264761721
 30
0.0
 10
6305.048580848536
 20
4821.051762939641
 30
0.0
 10
6303.383632568074
 20
4821.743710255953
 30
0.0
 10
6302.66493682231
 20
4822.052423200904
 30
0.0
 10
6302.658067663949
 20
4822.055373820996
 30
0.0
  0
SPLINE
  5
2B5
330
1F
100
AcDbEntity
  8
0
  6
Continuous
 62
     7
370
    25
100
AcDbSpline
210
0.0
220
0.0
230
1.0
 70
     8
 71
     3
 72
    10
 73
     6
 74
     0
 42
0.000000001
 43
0.00000001
 40
0.0
 40
0.0
 40
0.0
 40
0.0
 40
0.0041779542363905
 40
0.437127131987989
 40
1.0
 40
1.0
 40
1.0
 40
1.0
 10
6245.379449447434
 20
4822.055373820996
 30
0.0
 10
6245.372580289123
 20
4822.052423200789
 30
0.0
 10
6244.653880346134
 20
4821.743708438697
 30
0.0
 10
6242.988925939211
 20
4821.051768847681
 30
0.0
 10
6241.40128852893
 20
4820.452648987016
 30
0.0
 10
6240.503901263516
 20
4820.114005837178
 30
0.0
  0
LWPOLYLINE
  5
2B6
330
1F
100
AcDbEntity
  8
0
  6
Continuous
 62
     7
370
    25
100
AcDbPolyline
 90
        9
 70
   128
 43
0.0
 10
6538.5883763636
 20
4322.2416532371
 10
6538.2131055201
 20
4322.067488465
 10
6537.8245726431
 20
4321.8871844146
 10
6537.4245956743
 20
4321.7015457484
 10
6537.0149627531
 20
4321.5114665363
 10
6536.5975812281
 20
4321.3177514407
 10
6536.1743584478
 20
4321.1213541362
 10
6535.7472315634
 20
4320.9231090877
 10
6535.3181377256
 20
4320.7239699695
  0
LINE
  5
2B7
330
1F
100
AcDbEntity
  8
0
  6
Continuous
 62
     7
370
    25
100
AcDbLine
 10
6535.3181377256
 20
4320.7239699695
 30
0.0
 11
6302.6580676639
 21
4822.055373821
 31
0.0
  0
LWPOLYLINE
  5
2B8
330
1F
100
AcDbEntity
  8
0
  6
Continuous
 62
     7
370
    25
100
AcDbPolyline
 90
        9
 70
   128
 43
0.0
 10
6012.7193868363
 20
4320.7239699695
 10
6012.290285548
 20
4320.9231090877
 10
6011.8631437624
 20
4321.1213541362
 10
6011.4399135316
 20
4321.3177514407
 10
6011.0225394571
 20
4321.5114665363
 10
6010.6129214371
 20
4321.7015457484
 10
6010.2129370177
 20
4321.8871844146
 10
6009.8244115913
 20
4322.067488465
 10
6009.4491258467
 20
4322.2416532371
  0
LINE
  5
2B9
330
1F
100
AcDbEntity
  8
0
  6
Continuous
 62
     7
370
    25
100
AcDbLine
 10
6245.3794494474
 20
4822.055373821
 30
0.0
 11
6012.7193868363
 21
4320.7239699695
 31
0.0
  0
SPLINE
  5
2BA
330
1F
100
AcDbEntity
  8
0
  6
Continuous
 62
     7
370
    25
100
AcDbSpline
210
0.0
220
0.0
230
1.0
 70
     8
 71
     3
 72
    10
 73
     6
 74
     0
 42
0.000000001
 43
0.00000001
 40
0.0
 40
0.0
 40
0.0
 40
0.0
 40
0.0057098779425186
 40
0.4717617078538093
 40
1.0
 40
1.0
 40
1.0
 40
1.0
 10
5987.446041425507
 20
4861.650411519741
 30
0.0
 10
5987.44799252412
 20
4861.65735340519
 30
0.0
 10
5987.609196252729
 20
4862.230906074543
 30
0.0
 10
5987.561053576766
 20
4863.535910404553
 30
0.0
 10
5987.60615457938
 20
4864.663189096489
 30
0.0
 10
5987.630115469735
 20
4865.2620804641
 30
0.0
  0
SPLINE
  5
2BB
330
1F
100
AcDbEntity
  8
0
  6
Continuous
 62
     7
370
    25
100
AcDbSpline
210
0.0
220
0.0
230
1.0
 70
     8
 71
     3
 72
    10
 73
     6
 74
     0
 42
0.000000001
 43
0.00000001
 40
0.0
 40
0.0
 40
0.0
 40
0.0
 40
0.0047610443608545
 40
0.4555649412193312
 40
1.0
 40
1.0
 40
1.0
 40
1.0
 10
6242.593573054116
 20
4868.636701736187
 30
0.0
 10
6242.588372501233
 20
4868.642329024592
 30
0.0
 10
6242.090752779867
 20
4869.18078132982
 30
0.0
 10
6241.001310821943
 20
4870.385846180588
 30
0.0
 10
6240.024066303233
 20
4871.531567889047
 30
0.0
 10
6239.489474912923
 20
4872.158322963452
 30
0.0
  0
LINE
  5
2BC
330
1F
100
AcDbEntity
  8
0
  6
Continuous
 62
     7
370
    25
100
AcDbLine
 10
6242.5935730541
 20
4868.6367017362
 30
0.0
 11
5987.4460414255
 21
4861.6504115197
 31
0.0
  0
SPLINE
  5
2BD
330
1F
100
AcDbEntity
  8
0
  6
Continuous
 62
     7
370
    25
100
AcDbSpline
210
0.0
220
0.0
230
1.0
 70
     8
 71
     3
 72
    10
 73
     6
 74
     0
 42
0.000000001
 43
0.00000001
 40
0.0
 40
0.0
 40
0.0
 40
0.0
 40
0.5282386527483599
 40
0.9942911753818395
 40
1.0
 40
1.0
 40
1.0
 40
1.0
 10
6560.407401641648
 20
4865.2620804641
 30
0.0
 10
6560.43129034481
 20
4864.663171210437
 30
0.0
 10
6560.476255488163
 20
4863.535858427337
 30
0.0
 10
6560.428694731395
 20
4862.231012264355
 30
0.0
 10
6560.589514688587
 20
4861.657353414795
 30
0.0
 10
6560.591460784714
 20
4861.650411519741
 30
0.0
  0
LINE
  5
2BE
330
1F
100
AcDbEntity
  8
0
  6
Continuous
 62
     7
370
    25
100
AcDbLine
 10
6560.5914607847
 20
4861.6504115197
 30
0.0
 11
6305.4439440573
 21
4868.6367017362
 31
0.0
  0
SPLINE
  5
2BF
330
1F
100
AcDbEntity
  8
0
  6
Continuous
 62
     7
370
    25
100
AcDbSpline
210
0.0
220
0.0
230
1.0
 70
     8
 71
     3
 72
    10
 73
     6
 74
     0
 42
0.000000001
 43
0.00000001
 40
0.0
 40
0.0
 40
0.0
 40
0.0
 40
0.5444346213302985
 40
0.9952389510674139
 40
1.0
 40
1.0
 40
1.0
 40
1.0
 10
6308.54803474788
 20
4872.158322963452
 30
0.0
 10
6308.01344628382
 20
4871.531567532578
 30
0.0
 10
6307.036206333642
 20
4870.385844257168
 30
0.0
 10
6305.946764329756
 20
4869.180781331054
 30
0.0
 10
6305.44914461013
 20
4868.642329024605
 30
0.0
 10
6305.443944057267
 20
4868.636701736187
 30
0.0
  0
ARC
  5
2C0
330
1F
100
AcDbEntity
  8
0
  6
Continuous
 62
     7
370
    25
100
AcDbCircle
 10
6560.6335717998
 20
4861.5907154174
 30
0.0
 40
0.0730512974785244
100
AcDbArc
 50
324.3299453854
 51
125.1913285497
  0
ARC
  5
2C1
330
1F
100
AcDbEntity
  8
0
  6
Continuous
 62
     7
370
    25
100
AcDbCircle
 10
5987.4039388724
 20
4861.5907154174
 30
0.0
 40
0.0730512975173053
100
AcDbArc
 50
54.8086714731
 51
215.6700546146
  0
SPLINE
  5
2C2
330
1F
100
AcDbEntity
  8
0
  6
Continuous
 62
     7
370
    25
100
AcDbSpline
210
0.0
220
0.0
230
1.0
 70
     8
 71
     3
 72
    10
 73
     6
 74
     0
 42
0.000000001
 43
0.00000001
 40
0.0
 40
0.0
 40
0.0
 40
0.0
 40
0.0048158037011665
 40
0.4579578618440677
 40
1.0
 40
1.0
 40
1.0
 40
1.0
 10
6305.443944057267
 20
4868.636701736187
 30
0.0
 10
6305.445856295431
 20
4868.644122261459
 30
0.0
 10
6305.627700190147
 20
4869.349775585067
 30
0.0
 10
6306.029368131134
 20
4870.905632770211
 30
0.0
 10
6306.40209228774
 20
4872.343734028987
 30
0.0
 10
6306.605102142136
 20
4873.127017650341
 30
0.0
  0
ARC
  5
2C3
330
1F
100
AcDbEntity
  8
0
  6
Continuous
 62
     7
370
    25
100
AcDbCircle
 10
6274.0187553361
 20
4847.1421652404
 30
0.0
 40
38.07305129747822
100
AcDbArc
 50
34.3717656869
 51
145.6282343131
  0
SPLINE
  5
2C4
330
1F
100
AcDbEntity
  8
0
  6
Continuous
 62
     7
370
    25
100
AcDbSpline
210
0.0
220
0.0
230
1.0
 70
     8
 71
     3
 72
    10
 73
     6
 74
     0
 42
0.000000001
 43
0.00000001
 40
0.0
 40
0.0
 40
0.0
 40
0.0
 40
0.5420417564799406
 40
0.9951838066759922
 40
1.0
 40
1.0
 40
1.0
 40
1.0
 10
6241.432414969247
 20
4873.127017650341
 30
0.0
 10
6241.63546141945
 20
4872.343744112381
 30
0.0
 10
6242.008252882155
 20
4870.905660917021
 30
0.0
 10
6242.409591523408
 20
4869.349718741607
 30
0.0
 10
6242.591658318664
 20
4868.644122257867
 30
0.0
 10
6242.593573054116
 20
4868.636701736187
 30
0.0
  0
SPLINE
  5
2C5
330
1F
100
AcDbEntity
  8
0
  6
Continuous
 62
     7
370
    25
100
AcDbSpline
210
0.0
220
0.0
230
1.0
 70
     8
 71
     3
 72
    10
 73
     6
 74
     0
 42
0.000000001
 43
0.00000001
 40
0.0
 40
0.0
 40
0.0
 40
0.0
 40
0.5352052278905658
 40
0.9943766474573141
 40
1.0
 40
1.0
 40
1.0
 40
1.0
 10
6316.444934924882
 20
4848.017234835362
 30
0.0
 10
6315.6996340617
 20
4847.851392727783
 30
0.0
 10
6314.314913332049
 20
4847.543268833719
 30
0.0
 10
6312.798983131138
 20
4847.247701585924
 30
0.0
 10
6312.100252739913
 20
4847.118823544036
 30
0.0
 10
6312.091799100678
 20
4847.117264303898
 30
0.0
  0
SPLINE
  5
2C6
330
1F
100
AcDbEntity
  8
0
  6
Continuous
 62
     7
370
    25
100
AcDbSpline
210
0.0
220
0.0
230
1.0
 70
     8
 71
     3
 72
    10
 73
     6
 74
     0
 42
0.000000001
 43
0.00000001
 40
0.0
 40
0.0
 40
0.0
 40
0.0
 40
0.0056233609966925
 40
0.4647954708701902
 40
1.0
 40
1.0
 40
1.0
 40
1.0
 10
6235.945710560124
 20
4847.117264303898
 30
0.0
 10
6235.937256920895
 20
4847.118823544044
 30
0.0
 10
6235.238526530249
 20
4847.247701586574
 30
0.0
 10
6233.722598300434
 20
4847.543268048341
 30
0.0
 10
6232.337880504136
 20
4847.851392592821
 30
0.0
 10
6231.592582186501
 20
4848.017234835362
 30
0.0
  0
LWPOLYLINE
  5
2C7
330
1F
100
AcDbEntity
  8
0
  6
Continuous
 62
     7
370
    25
100
AcDbPolyline
 90
        9
 70
   128
 43
0.0
 10
5989.2469212616
 20
4620.9198204014
 10
5988.9272168482
 20
4621.2685001228
 10
5988.6089727486
 20
4621.6155835572
 10
5988.2936492765
 20
4621.9594855938
 10
5987.9826918447
 20
4622.2986341599
 10
5987.6775011623
 20
4622.6314776722
 10
5987.3794928396
 20
4622.9564962122
 10
5987.0900228823
 20
4623.2722033891
 10
5986.8104174936
 20
4623.5771537903
  0
LINE
  5
2C8
330
1F
100
AcDbEntity
  8
0
  6
Continuous
 62
     7
370
    25
100
AcDbLine
 10
6235.9457105601
 20
4847.1172643039
 30
0.0
 11
5989.2469212616
 21
4620.9198204014
 31
0.0
  0
LWPOLYLINE
  5
2C9
330
1F
100
AcDbEntity
  8
0
  6
Continuous
 62
     7
370
    25
100
AcDbPolyline
 90
        9
 70
   128
 43
0.0
 10
6561.2270847166
 20
4623.5771537903
 10
6560.947479328
 20
4623.2722033891
 10
6560.6580093706
 20
4622.9564962122
 10
6560.3600159491
 20
4622.6314776722
 10
6560.0548103655
 20
4622.2986341599
 10
6559.7438529337
 20
4621.9594855938
 10
6559.4285443628
 20
4621.6155835572
 10
6559.110285362
 20
4621.2685001228
 10
6558.7905958498
 20
4620.9198204014
  0
LINE
  5
2CA
330
1F
100
AcDbEntity
  8
0
  6
Continuous
 62
     7
370
    25
100
AcDbLine
 10
6558.7905958498
 20
4620.9198204014
 30
0.0
 11
6312.0917991007
 21
4847.1172643039
 31
0.0
  0
ARC
  5
2CB
330
1F
100
AcDbEntity
  8
0
  6
Continuous
 62
     7
370
    25
100
AcDbCircle
 10
5989.2962888418
 20
4620.8659774356
 30
0.0
 40
0.0730512974786601
100
AcDbArc
 50
132.5176244372
 51
322.1808955108
  0
ARC
  5
2CC
330
1F
100
AcDbEntity
  8
0
  6
Continuous
 62
     7
370
    25
100
AcDbCircle
 10
6558.7412218304
 20
4620.8659774356
 30
0.0
 40
0.0730512974824884
100
AcDbArc
 50
217.8191044895
 51
47.4823755628
  0
ARC
  5
2CD
330
1F
100
AcDbEntity
  8
0
  6
Continuous
 62
     7
370
    25
100
AcDbCircle
 10
6535.2518624175
 20
4320.6932311618
 30
0.0
 40
0.0730512974784311
100
AcDbArc
 50
207.155055298
 51
24.8952775989
  0
ARC
  5
2CE
330
1F
100
AcDbEntity
  8
0
  6
Continuous
 62
     7
370
    25
100
AcDbCircle
 10
6012.7856482547
 20
4320.6932311618
 30
0.0
 40
0.0730512974780025
100
AcDbArc
 50
155.1047224011
 51
332.8449446417
  0
ARC
  5
2CF
330
1F
100
AcDbEntity
  8
0
  6
Continuous
 62
     7
370
    25
100
AcDbCircle
 10
6274.0187553361
 20
4847.1421652404
 30
0.0
 40
21.50000000000079
100
AcDbArc
 50
275.5718525812
 51
290.7005765651
  0
ARC
  5
2D0
330
1F
100
AcDbEntity
  8
0
  6
Continuous
 62
     7
370
    25
100
AcDbCircle
 10
6274.0187553361
 20
4847.1421652404
 30
0.0
 40
21.5000000000008
100
AcDbArc
 50
320.5718525816
 51
335.7005765646
  0
ARC
  5
2D1
330
1F
100
AcDbEntity
  8
0
  6
Continuous
 62
     7
370
    25
100
AcDbCircle
 10
6274.0187553361
 20
4847.1421652404
 30
0.0
 40
21.50000000000049
100
AcDbArc
 50
5.5718525811
 51
20.7005765652
  0
ARC
  5
2D2
330
1F
100
AcDbEntity
  8
0
  6
Continuous
 62
     7
370
    25
100
AcDbCircle
 10
6274.0187553361
 20
4847.1421652404
 30
0.0
 40
21.49999999999988
100
AcDbArc
 50
50.5718525811
 51
65.7005765652
  0
ARC
  5
2D3
330
1F
100
AcDbEntity
  8
0
  6
Continuous
 62
     7
370
    25
100
AcDbCircle
 10
6274.0187553361
 20
4847.1421652404
 30
0.0
 40
21.5000000000001
100
AcDbArc
 50
95.5718525815
 51
110.7005765648
  0
ARC
  5
2D4
330
1F
100
AcDbEntity
  8
0
  6
Continuous
 62
     7
370
    25
100
AcDbCircle
 10
6274.0187553361
 20
4847.1421652404
 30
0.0
 40
21.49999999999955
100
AcDbArc
 50
140.5718525811
 51
155.7005765652
  0
ARC
  5
2D5
330
1F
100
AcDbEntity
  8
0
  6
Continuous
 62
     7
370
    25
100
AcDbCircle
 10
6274.0187553361
 20
4847.1421652404
 30
0.0
 40
21.4999999999994
100
AcDbArc
 50
185.5718525814
 51
200.7005765648
  0
ARC
  5
2D6
330
1F
100
AcDbEntity
  8
0
  6
Continuous
 62
     7
370
    25
100
AcDbCircle
 10
6274.0187553361
 20
4847.1421652404
 30
0.0
 40
21.49999999999991
100
AcDbArc
 50
230.5718525813
 51
245.700576565
  0
LINE
  5
2D7
330
1F
100
AcDbEntity
  8
0
  6
Continuous
 62
     8
370
    25
100
AcDbLine
 10
6248.8040939176
 20
4947.2303581569
 30
0.0
 11
6246.9331339205
 21
4947.2303581569
 31
0.0
  0
LINE
  5
2D8
330
1F
100
AcDbEntity
  8
0
  6
Continuous
 62
     8
370
    25
100
AcDbLine
 10
6301.1043831909
 20
4947.2303581569
 30
0.0
 11
6299.2334082926
 21
4947.2303581569
 31
0.0
  0
LINE
  5
2D9
330
1F
100
AcDbEntity
  8
0
  6
Continuous
 62
     8
370
    25
100
AcDbLine
 10
6270.3216091001
 20
4947.4348318908
 30
0.0
 11
6270.5151602829
 21
4947.1421730849
 31
0.0
  0
LINE
  5
2DA
330
1F
100
AcDbEntity
  8
0
  6
Continuous
 62
     8
370
    25
100
AcDbLine
 10
6277.510018667
 20
4947.1421730849
 30
0.0
 11
6277.7159080112
 21
4947.4348318908
 31
0.0
  0
LINE
  5
2DB
330
1F
100
AcDbEntity
  8
0
  6
Continuous
 62
     8
370
    25
100
AcDbLine
 10
6298.8783583248
 20
4947.1421730849
 30
0.0
 11
6298.9455625618
 21
4947.4348318908
 31
0.0
  0
LINE
  5
2DC
330
1F
100
AcDbEntity
  8
0
  6
Continuous
 62
     8
370
    25
100
AcDbLine
 10
6249.0919396484
 20
4947.4348318908
 30
0.0
 11
6249.1526171768
 21
4947.1421730849
 31
0.0
  0
SPLINE
  5
2DD
330
1F
100
AcDbEntity
  8
0
  6
Continuous
 62
     8
370
    25
100
AcDbSpline
210
0.0
220
0.0
230
1.0
 70
     8
 71
     3
 72
    11
 73
     7
 74
     0
 42
0.000000001
 43
0.00000001
 40
0.0
 40
0.0
 40
0.0
 40
0.0
 40
0.0383660279871441
 40
0.508718129772208
 40
0.9741960583774691
 40
1.0
 40
1.0
 40
1.0
 40
1.0
 10
6253.879876455109
 20
4949.587930474018
 30
0.0
 10
6253.886249704881
 20
4949.60004562185
 30
0.0
 10
6253.970756438443
 20
4949.760687618693
 30
0.0
 10
6253.941413305704
 20
4949.832006241718
 30
0.0
 10
6253.821840164882
 20
4949.861211591886
 30
0.0
 10
6253.72927453002
 20
4949.861330722426
 30
0.0
 10
6253.724412640374
 20
4949.861336979603
 30
0.0
  0
SPLINE
  5
2DE
330
1F
100
AcDbEntity
  8
0
  6
Continuous
 62
     8
370
    25
100
AcDbSpline
210
0.0
220
0.0
230
1.0
 70
     8
 71
     3
 72
    10
 73
     6
 74
     0
 42
0.000000001
 43
0.00000001
 40
0.0
 40
0.0
 40
0.0
 40
0.0
 40
0.4050260864241705
 40
0.8886739884580491
 40
1.0
 40
1.0
 40
1.0
 40
1.0
 10
6294.313104471009
 20
4949.861336979603
 30
0.0
 10
6294.249349937682
 20
4949.856204872667
 30
0.0
 10
6294.109465131955
 20
4949.844944437617
 30
0.0
 10
6294.059295622899
 20
4949.791688315487
 30
0.0
 10
6294.14202667679
 20
4949.626699305783
 30
0.0
 10
6294.157506545823
 20
4949.595828089451
 30
0.0
  0
ENDSEC
  0
SECTION
  2
OBJECTS
  0
DICTIONARY
  5
C
330
0
100
AcDbDictionary
281
     1
  3
ACAD_GROUP
350
D
  3
ACAD_LAYOUT
350
1A
  3
ACAD_MLINESTYLE
350
17
  3
ACAD_PLOTSETTINGS
350
19
  3
ACAD_PLOTSTYLENAME
350
E
  3
ACAD_SCALELIST
350
47
  0
DICTIONARY
  5
D
102
{ACAD_REACTORS
330
C
102
}
330
C
100
AcDbDictionary
281
     1
  0
DICTIONARY
  5
1A
102
{ACAD_REACTORS
330
C
102
}
330
C
100
AcDbDictionary
281
     1
  3
Layout1
350
1E
  3
Layout2
350
26
  3
Model
350
22
  0
DICTIONARY
  5
17
102
{ACAD_REACTORS
330
C
102
}
330
C
100
AcDbDictionary
281
     1
  3
Standard
350
18
  0
DICTIONARY
  5
19
102
{ACAD_REACTORS
330
C
102
}
330
C
100
AcDbDictionary
281
     1
  0
ACDBDICTIONARYWDFLT
  5
E
102
{ACAD_REACTORS
330
C
102
}
330
C
100
AcDbDictionary
281
     1
  3
Normal
350
F
100
AcDbDictionaryWithDefault
340
F
  0
DICTIONARY
  5
47
102
{ACAD_REACTORS
330
C
102
}
330
C
100
AcDbDictionary
281
     1
  3
A0
350
48
  3
A1
350
49
  3
A2
350
4A
  3
A3
350
4B
  3
A4
350
4C
  3
A5
350
4D
  3
A6
350
4E
  3
A7
350
4F
  3
A8
350
50
  3
A9
350
51
  3
B0
350
52
  3
B1
350
53
  3
B2
350
54
  3
B3
350
55
  3
B4
350
56
  3
B5
350
57
  3
B6
350
58
  3
B7
350
59
  3
B8
350
5A
  3
B9
350
5B
  3
C0
350
5C
  3
C1
350
5D
  3
C2
350
5E
  3
C3
350
5F
  3
C4
350
60
  3
C5
350
61
  3
C6
350
62
  3
C7
350
63
  3
C8
350
64
  3
C9
350
65
  3
D0
350
66
  3
D1
350
67
  3
D2
350
68
  0
LAYOUT
  5
1E
102
{ACAD_REACTORS
330
1A
102
}
330
1A
100
AcDbPlotSettings
  1

  2
none_device
  4

  6

 40
0.0
 41
0.0
 42
0.0
 43
0.0
 44
0.0
 45
0.0
 46
0.0
 47
0.0
 48
0.0
 49
0.0
140
0.0
141
0.0
142
1.0
143
1.0
 70
   688
 72
     1
 73
     0
 74
     5
  7

 75
    16
147
1.0
148
0.0
149
0.0
100
AcDbLayout
  1
Layout1
 70
     1
 71
     1
 10
0.0
 20
0.0
 11
420.0
 21
297.0
 12
0.0
 22
0.0
 32
0.0
 14
1.0000000000E+20
 24
1.0000000000E+20
 34
1.0000000000E+20
 15
-1.0000000000E+20
 25
-1.0000000000E+20
 35
-1.0000000000E+20
146
0.0
 13
0.0
 23
0.0
 33
0.0
 16
1.0
 26
0.0
 36
0.0
 17
0.0
 27
1.0
 37
0.0
 76
     0
330
1B
  0
LAYOUT
  5
26
102
{ACAD_REACTORS
330
1A
102
}
330
1A
100
AcDbPlotSettings
  1

  2
none_device
  4

  6

 40
0.0
 41
0.0
 42
0.0
 43
0.0
 44
0.0
 45
0.0
 46
0.0
 47
0.0
 48
0.0
 49
0.0
140
0.0
141
0.0
142
1.0
143
1.0
 70
   688
 72
     1
 73
     0
 74
     5
  7

 75
    16
147
1.0
148
0.0
149
0.0
100
AcDbLayout
  1
Layout2
 70
     1
 71
     2
 10
0.0
 20
0.0
 11
0.0
 21
0.0
 12
0.0
 22
0.0
 32
0.0
 14
0.0
 24
0.0
 34
0.0
 15
0.0
 25
0.0
 35
0.0
146
0.0
 13
0.0
 23
0.0
 33
0.0
 16
1.0
 26
0.0
 36
0.0
 17
0.0
 27
1.0
 37
0.0
 76
     0
330
23
  0
LAYOUT
  5
22
102
{ACAD_REACTORS
330
1A
102
}
330
1A
100
AcDbPlotSettings
  1

  2
none_device
  4
Letter_(8.50_x_11.00_Inches)
  6

 40
6.35
 41
6.35
 42
6.35000508
 43
6.35000508
 44
215.9
 45
279.4
 46
0.0
 47
0.0
 48
0.0
 49
0.0
140
0.0
141
0.0
142
1.0
143
1.0
 70
  1712
 72
     1
 73
     0
 74
     0
  7

 75
     0
147
1.0
148
0.0
149
0.0
100
AcDbLayout
  1
Model
 70
     1
 71
     0
 10
0.0
 20
0.0
 11
20000.0
 21
10000.0
 12
0.0
 22
0.0
 32
0.0
 14
0.0
 24
0.0
 34
0.0
 15
20000.0
 25
10000.0
 35
0.0
146
0.0
 13
0.0
 23
0.0
 33
0.0
 16
1.0
 26
0.0
 36
0.0
 17
0.0
 27
1.0
 37
0.0
 76
     0
330
1F
331
29
  0
MLINESTYLE
  5
18
102
{ACAD_REACTORS
330
17
102
}
330
17
100
AcDbMlineStyle
  2
Standard
 70
     0
  3

 62
   256
 51
90.0
 52
90.0
 71
     2
 49
0.5
 62
   256
  6
BYLAYER
 49
-0.5
 62
   256
  6
BYLAYER
  0
ACDBPLACEHOLDER
  5
F
102
{ACAD_REACTORS
330
E
102
}
330
E
  0
SCALE
  5
48
102
{ACAD_REACTORS
330
47
102
}
330
47
100
AcDbScale
 70
     0
300
1:1
140
1.0
141
1.0
290
     1
  0
SCALE
  5
49
102
{ACAD_REACTORS
330
47
102
}
330
47
100
AcDbScale
 70
     0
300
1:2
140
1.0
141
2.0
290
     0
  0
SCALE
  5
4A
102
{ACAD_REACTORS
330
47
102
}
330
47
100
AcDbScale
 70
     0
300
1:4
140
1.0
141
4.0
290
     0
  0
SCALE
  5
4B
102
{ACAD_REACTORS
330
47
102
}
330
47
100
AcDbScale
 70
     0
300
1:5
140
1.0
141
5.0
290
     0
  0
SCALE
  5
4C
102
{ACAD_REACTORS
330
47
102
}
330
47
100
AcDbScale
 70
     0
300
1:8
140
1.0
141
8.0
290
     0
  0
SCALE
  5
4D
102
{ACAD_REACTORS
330
47
102
}
330
47
100
AcDbScale
 70
     0
300
1:10
140
1.0
141
10.0
290
     0
  0
SCALE
  5
4E
102
{ACAD_REACTORS
330
47
102
}
330
47
100
AcDbScale
 70
     0
300
1:16
140
1.0
141
16.0
290
     0
  0
SCALE
  5
4F
102
{ACAD_REACTORS
330
47
102
}
330
47
100
AcDbScale
 70
     0
300
1:20
140
1.0
141
20.0
290
     0
  0
SCALE
  5
50
102
{ACAD_REACTORS
330
47
102
}
330
47
100
AcDbScale
 70
     0
300
1:30
140
1.0
141
30.0
290
     0
  0
SCALE
  5
51
102
{ACAD_REACTORS
330
47
102
}
330
47
100
AcDbScale
 70
     0
300
1:40
140
1.0
141
40.0
290
     0
  0
SCALE
  5
52
102
{ACAD_REACTORS
330
47
102
}
330
47
100
AcDbScale
 70
     0
300
1:50
140
1.0
141
50.0
290
     0
  0
SCALE
  5
53
102
{ACAD_REACTORS
330
47
102
}
330
47
100
AcDbScale
 70
     0
300
1:100
140
1.0
141
100.0
290
     0
  0
SCALE
  5
54
102
{ACAD_REACTORS
330
47
102
}
330
47
100
AcDbScale
 70
     0
300
2:1
140
2.0
141
1.0
290
     0
  0
SCALE
  5
55
102
{ACAD_REACTORS
330
47
102
}
330
47
100
AcDbScale
 70
     0
300
4:1
140
4.0
141
1.0
290
     0
  0
SCALE
  5
56
102
{ACAD_REACTORS
330
47
102
}
330
47
100
AcDbScale
 70
     0
300
8:1
140
8.0
141
1.0
290
     0
  0
SCALE
  5
57
102
{ACAD_REACTORS
330
47
102
}
330
47
100
AcDbScale
 70
     0
300
10:1
140
10.0
141
1.0
290
     0
  0
SCALE
  5
58
102
{ACAD_REACTORS
330
47
102
}
330
47
100
AcDbScale
 70
     0
300
100:1
140
100.0
141
1.0
290
     0
  0
SCALE
  5
59
102
{ACAD_REACTORS
330
47
102
}
330
47
100
AcDbScale
 70
     0
300
1/128" = 1'-0"
140
0.0078125
141
12.0
290
     0
  0
SCALE
  5
5A
102
{ACAD_REACTORS
330
47
102
}
330
47
100
AcDbScale
 70
     0
300
1/64" = 1'-0"
140
0.015625
141
12.0
290
     0
  0
SCALE
  5
5B
102
{ACAD_REACTORS
330
47
102
}
330
47
100
AcDbScale
 70
     0
300
1/32" = 1'-0"
140
0.03125
141
12.0
290
     0
  0
SCALE
  5
5C
102
{ACAD_REACTORS
330
47
102
}
330
47
100
AcDbScale
 70
     0
300
1/16" = 1'-0"
140
0.0625
141
12.0
290
     0
  0
SCALE
  5
5D
102
{ACAD_REACTORS
330
47
102
}
330
47
100
AcDbScale
 70
     0
300
3/32" = 1'-0"
140
0.09375
141
12.0
290
     0
  0
SCALE
  5
5E
102
{ACAD_REACTORS
330
47
102
}
330
47
100
AcDbScale
 70
     0
300
1/8" = 1'-0"
140
0.125
141
12.0
290
     0
  0
SCALE
  5
5F
102
{ACAD_REACTORS
330
47
102
}
330
47
100
AcDbScale
 70
     0
300
3/16" = 1'-0"
140
0.1875
141
12.0
290
     0
  0
SCALE
  5
60
102
{ACAD_REACTORS
330
47
102
}
330
47
100
AcDbScale
 70
     0
300
1/4" = 1'-0"
140
0.25
141
12.0
290
     0
  0
SCALE
  5
61
102
{ACAD_REACTORS
330
47
102
}
330
47
100
AcDbScale
 70
     0
300
3/8" = 1'-0"
140
0.375
141
12.0
290
     0
  0
SCALE
  5
62
102
{ACAD_REACTORS
330
47
102
}
330
47
100
AcDbScale
 70
     0
300
1/2" = 1'-0"
140
0.5
141
12.0
290
     0
  0
SCALE
  5
63
102
{ACAD_REACTORS
330
47
102
}
330
47
100
AcDbScale
 70
     0
300
3/4" = 1'-0"
140
0.75
141
12.0
290
     0
  0
SCALE
  5
64
102
{ACAD_REACTORS
330
47
102
}
330
47
100
AcDbScale
 70
     0
300
1" = 1'-0"
140
1.0
141
12.0
290
     0
  0
SCALE
  5
65
102
{ACAD_REACTORS
330
47
102
}
330
47
100
AcDbScale
 70
     0
300
1-1/2" = 1'-0"
140
1.5
141
12.0
290
     0
  0
SCALE
  5
66
102
{ACAD_REACTORS
330
47
102
}
330
47
100
AcDbScale
 70
     0
300
3" = 1'-0"
140
3.0
141
12.0
290
     0
  0
SCALE
  5
67
102
{ACAD_REACTORS
330
47
102
}
330
47
100
AcDbScale
 70
     0
300
6" = 1'-0"
140
6.0
141
12.0
290
     0
  0
SCALE
  5
68
102
{ACAD_REACTORS
330
47
102
}
330
47
100
AcDbScale
 70
     0
300
1'-0" = 1'-0"
140
12.0
141
12.0
290
     0
  0
ENDSEC
  0
EOF
