  0
SECTION
  2
HEADER
  9
$ACADVER
  1
AC1015
  9
$ACADMAINTVER
 70
     6
  9
$DWGCODEPAGE
  3
ANSI_1250
  9
$INSBASE
 10
0.0
 20
0.0
 30
0.0
  9
$EXTMIN
 10
5674.0187314942
 20
4096.525944231
 30
0.0
  9
$EXTMAX
 10
7593.0081482544
 20
5614.1826664671
 30
0.0
  9
$LIMMIN
 10
0.0
 20
0.0
  9
$LIMMAX
 10
420.0
 20
297.0
  9
$ORTHOMODE
 70
     0
  9
$REGENMODE
 70
     1
  9
$FILLMODE
 70
     1
  9
$QTEXTMODE
 70
     0
  9
$MIRRTEXT
 70
     1
  9
$LTSCALE
 40
1.0
  9
$ATTMODE
 70
     1
  9
$TEXTSIZE
 40
3.5
  9
$TRACEWID
 40
1.0
  9
$TEXTSTYLE
  7
Standard
  9
$CLAYER
  8
0
  9
$CELTYPE
  6
ByLayer
  9
$CECOLOR
 62
   256
  9
$CELTSCALE
 40
1.0
  9
$DISPSILH
 70
     0
  9
$DIMSCALE
 40
1.0
  9
$DIMASZ
 40
3.302
  9
$DIMEXO
 40
0.0
  9
$DIMDLI
 40
3.75
  9
$DIMRND
 40
0.0
  9
$DIMDLE
 40
0.0
  9
$DIMEXE
 40
1.0
  9
$DIMTP
 40
0.0
  9
$DIMTM
 40
0.0
  9
$DIMTXT
 40
3.5
  9
$DIMCEN
 40
2.5
  9
$DIMTSZ
 40
0.0
  9
$DIMTOL
 70
     0
  9
$DIMLIM
 70
     0
  9
$DIMTIH
 70
     1
  9
$DIMTOH
 70
     1
  9
$DIMSE1
 70
     0
  9
$DIMSE2
 70
     0
  9
$DIMTAD
 70
     1
  9
$DIMZIN
 70
     0
  9
$DIMBLK
  1

  9
$DIMASO
 70
     1
  9
$DIMSHO
 70
     1
  9
$DIMPOST
  1

  9
$DIMAPOST
  1

  9
$DIMALT
 70
     0
  9
$DIMALTD
 70
     3
  9
$DIMALTF
 40
0.0393700787
  9
$DIMLFAC
 40
1.0
  9
$DIMTOFL
 70
     1
  9
$DIMTVP
 40
0.0
  9
$DIMTIX
 70
     0
  9
$DIMSOXD
 70
     0
  9
$DIMSAH
 70
     0
  9
$DIMBLK1
  1

  9
$DIMBLK2
  1

  9
$DIMSTYLE
  2
ISO-25
  9
$DIMCLRD
 70
     0
  9
$DIMCLRE
 70
     0
  9
$DIMCLRT
 70
     0
  9
$DIMTFAC
 40
1.0
  9
$DIMGAP
 40
1.524
  9
$DIMJUST
 70
     0
  9
$DIMSD1
 70
     0
  9
$DIMSD2
 70
     0
  9
$DIMTOLJ
 70
     0
  9
$DIMTZIN
 70
     0
  9
$DIMALTZ
 70
     0
  9
$DIMALTTZ
 70
     0
  9
$DIMUPT
 70
     0
  9
$DIMDEC
 70
     2
  9
$DIMTDEC
 70
     2
  9
$DIMALTU
 70
     2
  9
$DIMALTTD
 70
     3
  9
$DIMTXSTY
  7
Standard
  9
$DIMAUNIT
 70
     0
  9
$DIMADEC
 70
     2
  9
$DIMALTRND
 40
0.0
  9
$DIMAZIN
 70
     0
  9
$DIMDSEP
 70
    44
  9
$DIMATFIT
 70
     3
  9
$DIMFRAC
 70
     0
  9
$DIMLDRBLK
  1

  9
$DIMLUNIT
 70
     2
  9
$DIMLWD
 70
    -2
  9
$DIMLWE
 70
    -2
  9
$DIMTMOVE
 70
     0
  9
$LUNITS
 70
     2
  9
$LUPREC
 70
     2
  9
$SKETCHINC
 40
1.0
  9
$FILLETRAD
 40
10.0
  9
$AUNITS
 70
     0
  9
$AUPREC
 70
     2
  9
$MENU
  1
.
  9
$ELEVATION
 40
0.0
  9
$PELEVATION
 40
0.0
  9
$THICKNESS
 40
0.0
  9
$LIMCHECK
 70
     0
  9
$CHAMFERA
 40
0.0
  9
$CHAMFERB
 40
0.0
  9
$CHAMFERC
 40
0.0
  9
$CHAMFERD
 40
0.0
  9
$SKPOLY
 70
     0
  9
$TDCREATE
 40
2459094.331945278
  9
$TDUCREATE
 40
2459094.248611944
  9
$TDUPDATE
 40
2459094.331988113
  9
$TDUUPDATE
 40
2459094.24865478
  9
$TDINDWG
 40
0.0000000116
  9
$TDUSRTIMER
 40
0.0000000116
  9
$USRTIMER
 70
     1
  9
$ANGBASE
 50
0.0
  9
$ANGDIR
 70
     0
  9
$PDMODE
 70
     0
  9
$PDSIZE
 40
-1.0
  9
$PLINEWID
 40
0.0
  9
$SPLFRAME
 70
     0
  9
$SPLINETYPE
 70
     6
  9
$SPLINESEGS
 70
     8
  9
$HANDSEED
  5
38F
  9
$SURFTAB1
 70
     6
  9
$SURFTAB2
 70
     6
  9
$SURFTYPE
 70
     6
  9
$SURFU
 70
     6
  9
$SURFV
 70
     6
  9
$UCSBASE
  2

  9
$UCSNAME
  2

  9
$UCSORG
 10
0.0
 20
0.0
 30
0.0
  9
$UCSXDIR
 10
1.0
 20
0.0
 30
0.0
  9
$UCSYDIR
 10
0.0
 20
1.0
 30
0.0
  9
$UCSORTHOREF
  2

  9
$UCSORTHOVIEW
 70
     0
  9
$UCSORGTOP
 10
0.0
 20
0.0
 30
0.0
  9
$UCSORGBOTTOM
 10
0.0
 20
0.0
 30
0.0
  9
$UCSORGLEFT
 10
0.0
 20
0.0
 30
0.0
  9
$UCSORGRIGHT
 10
0.0
 20
0.0
 30
0.0
  9
$UCSORGFRONT
 10
0.0
 20
0.0
 30
0.0
  9
$UCSORGBACK
 10
0.0
 20
0.0
 30
0.0
  9
$PUCSBASE
  2

  9
$PUCSNAME
  2

  9
$PUCSORG
 10
0.0
 20
0.0
 30
0.0
  9
$PUCSXDIR
 10
1.0
 20
0.0
 30
0.0
  9
$PUCSYDIR
 10
0.0
 20
1.0
 30
0.0
  9
$PUCSORTHOREF
  2

  9
$PUCSORTHOVIEW
 70
     0
  9
$PUCSORGTOP
 10
0.0
 20
0.0
 30
0.0
  9
$PUCSORGBOTTOM
 10
0.0
 20
0.0
 30
0.0
  9
$PUCSORGLEFT
 10
0.0
 20
0.0
 30
0.0
  9
$PUCSORGRIGHT
 10
0.0
 20
0.0
 30
0.0
  9
$PUCSORGFRONT
 10
0.0
 20
0.0
 30
0.0
  9
$PUCSORGBACK
 10
0.0
 20
0.0
 30
0.0
  9
$USERI1
 70
     0
  9
$USERI2
 70
     0
  9
$USERI3
 70
     0
  9
$USERI4
 70
     0
  9
$USERI5
 70
     0
  9
$USERR1
 40
0.0
  9
$USERR2
 40
0.0
  9
$USERR3
 40
0.0
  9
$USERR4
 40
0.0
  9
$USERR5
 40
0.0
  9
$WORLDVIEW
 70
     1
  9
$SHADEDGE
 70
     3
  9
$SHADEDIF
 70
    70
  9
$TILEMODE
 70
     1
  9
$MAXACTVP
 70
    64
  9
$PINSBASE
 10
0.0
 20
0.0
 30
0.0
  9
$PLIMCHECK
 70
     0
  9
$PEXTMIN
 10
1.0000000000E+20
 20
1.0000000000E+20
 30
1.0000000000E+20
  9
$PEXTMAX
 10
-1.0000000000E+20
 20
-1.0000000000E+20
 30
-1.0000000000E+20
  9
$PLIMMIN
 10
0.0
 20
0.0
  9
$PLIMMAX
 10
420.0
 20
297.0
  9
$UNITMODE
 70
     0
  9
$VISRETAIN
 70
     1
  9
$PLINEGEN
 70
     0
  9
$PSLTSCALE
 70
     1
  9
$TREEDEPTH
 70
  3020
  9
$CMLSTYLE
  2
Standard
  9
$CMLJUST
 70
     0
  9
$CMLSCALE
 40
20.0
  9
$PROXYGRAPHICS
 70
     1
  9
$MEASUREMENT
 70
     1
  9
$CELWEIGHT
370
    -1
  9
$ENDCAPS
280
     0
  9
$JOINSTYLE
280
     0
  9
$LWDISPLAY
290
     1
  9
$INSUNITS
 70
     4
  9
$HYPERLINKBASE
  1

  9
$STYLESHEET
  1

  9
$XEDIT
290
     1
  9
$CEPSNTYPE
380
     0
  9
$PSTYLEMODE
290
     1
  9
$FINGERPRINTGUID
  2
{279586d3-04bd-4341-b9a9-4c58d2544657}
  9
$VERSIONGUID
  2
{FAEB1C32-E019-11D5-929B-00C0DF256EC4}
  9
$EXTNAMES
290
     1
  9
$PSVPSCALE
 40
0.0
  9
$OLESTARTUP
290
     0
  0
ENDSEC
  0
SECTION
  2
CLASSES
  0
CLASS
  1
ACDBDICTIONARYWDFLT
  2
AcDbDictionaryWithDefault
  3
ObjectDBX Classes
 90
        0
280
     0
281
     0
  0
CLASS
  1
VISUALSTYLE
  2
AcDbVisualStyle
  3
ObjectDBX Classes
 90
     4095
280
     0
281
     0
  0
CLASS
  1
MATERIAL
  2
AcDbMaterial
  3
ObjectDBX Classes
 90
     1153
280
     0
281
     0
  0
CLASS
  1
SCALE
  2
AcDbScale
  3
ObjectDBX Classes
 90
     1153
280
     0
281
     0
  0
CLASS
  1
TABLESTYLE
  2
AcDbTableStyle
  3
ObjectDBX Classes
 90
     4095
280
     0
281
     0
  0
CLASS
  1
MLEADERSTYLE
  2
AcDbMLeaderStyle
  3
ACDB_MLEADERSTYLE_CLASS
 90
     4095
280
     0
281
     0
  0
CLASS
  1
SUN
  2
AcDbSun
  3
SCENEOE
 90
     1153
280
     0
281
     0
  0
CLASS
  1
ACDBPLACEHOLDER
  2
AcDbPlaceHolder
  3
ObjectDBX Classes
 90
        0
280
     0
281
     0
  0
CLASS
  1
LAYOUT
  2
AcDbLayout
  3
ObjectDBX Classes
 90
        0
280
     0
281
     0
  0
ENDSEC
  0
SECTION
  2
TABLES
  0
TABLE
  2
VPORT
  5
8
330
0
100
AcDbSymbolTable
 70
     1
  0
VPORT
  5
29
330
8
100
AcDbSymbolTableRecord
100
AcDbViewportTableRecord
  2
*Active
 70
     0
 10
0.0
 20
0.0
 11
1.0
 21
1.0
 12
6633.5134398743
 22
4855.3543053491
 13
0.0
 23
0.0
 14
10.0
 24
10.0
 15
10.0
 25
10.0
 16
0.0
 26
0.0
 36
1.0
 17
0.0
 27
0.0
 37
0.0
 40
1548.0098566808
 41
1.2644423397
 42
50.0
 43
0.0
 44
0.0
 50
0.0
 51
0.0
 71
     0
 72
   100
 73
     1
 74
     3
 75
     0
 76
     0
 77
     0
 78
     0
281
     0
 65
     1
110
0.0
120
0.0
130
0.0
111
1.0
121
0.0
131
0.0
112
0.0
122
1.0
132
0.0
 79
     0
146
0.0
  0
ENDTAB
  0
TABLE
  2
LTYPE
  5
5
330
0
100
AcDbSymbolTable
 70
     6
  0
LTYPE
  5
14
330
5
100
AcDbSymbolTableRecord
100
AcDbLinetypeTableRecord
  2
ByBlock
 70
     0
  3

 72
    65
 73
     0
 40
0.0
  0
LTYPE
  5
15
330
5
100
AcDbSymbolTableRecord
100
AcDbLinetypeTableRecord
  2
ByLayer
 70
     0
  3

 72
    65
 73
     0
 40
0.0
  0
LTYPE
  5
16
330
5
100
AcDbSymbolTableRecord
100
AcDbLinetypeTableRecord
  2
Continuous
 70
     0
  3
Solid line
 72
    65
 73
     0
 40
0.0
  0
LTYPE
  5
6E
330
5
100
AcDbSymbolTableRecord
100
AcDbLinetypeTableRecord
  2
HIDDEN
 70
     0
  3
Hidden __ __ __ __ __ __ __ __ __ __ __ __ __ __
 72
    65
 73
     2
 40
1.905
 49
1.27
 74
     0
 49
-0.635
 74
     0
  0
LTYPE
  5
6F
330
5
100
AcDbSymbolTableRecord
100
AcDbLinetypeTableRecord
  2
PHANTOM
 70
     0
  3
Phantom ______  __  __  ______  __  __  ______
 72
    65
 73
     6
 40
12.7
 49
6.35
 74
     0
 49
-1.27
 74
     0
 49
1.27
 74
     0
 49
-1.27
 74
     0
 49
1.27
 74
     0
 49
-1.27
 74
     0
  0
LTYPE
  5
70
330
5
100
AcDbSymbolTableRecord
100
AcDbLinetypeTableRecord
  2
CENTER
 70
     0
  3
Center ____ _ ____ _ ____ _ ____ _ ____ _ ____
 72
    65
 73
     4
 40
10.16
 49
6.35
 74
     0
 49
-1.27
 74
     0
 49
1.27
 74
     0
 49
-1.27
 74
     0
  0
LTYPE
  5
71
330
5
100
AcDbSymbolTableRecord
100
AcDbLinetypeTableRecord
  2
CENTERX2
 70
     0
  3
Center (2x) ________  __  ________  __  _____
 72
    65
 73
     4
 40
20.32
 49
12.7
 74
     0
 49
-2.54
 74
     0
 49
2.54
 74
     0
 49
-2.54
 74
     0
  0
LTYPE
  5
72
330
5
100
AcDbSymbolTableRecord
100
AcDbLinetypeTableRecord
  2
DOT2
 70
     0
  3
Dot (.5x) ........................................
 72
    65
 73
     2
 40
0.635
 49
0.0
 74
     0
 49
-0.635
 74
     0
  0
ENDTAB
  0
TABLE
  2
LAYER
  5
2
330
0
100
AcDbSymbolTable
 70
     1
  0
LAYER
  5
10
330
2
100
AcDbSymbolTableRecord
100
AcDbLayerTableRecord
  2
0
 70
     0
 62
     7
  6
Continuous
370
    -3
390
F
  0
ENDTAB
  0
TABLE
  2
STYLE
  5
3
330
0
100
AcDbSymbolTable
 70
     1
  0
STYLE
  5
11
330
3
100
AcDbSymbolTableRecord
100
AcDbTextStyleTableRecord
  2
Standard
 70
     0
 40
0.0
 41
1.0
 50
0.0
 71
     0
 42
3.5
  3
txt
  4

  0
ENDTAB
  0
TABLE
  2
VIEW
  5
6
330
0
100
AcDbSymbolTable
 70
     0
  0
ENDTAB
  0
TABLE
  2
UCS
  5
7
330
0
100
AcDbSymbolTable
 70
     0
  0
ENDTAB
  0
TABLE
  2
APPID
  5
9
330
0
100
AcDbSymbolTable
 70
     1
  0
APPID
  5
12
330
9
100
AcDbSymbolTableRecord
100
AcDbRegAppTableRecord
  2
ACAD
 70
     0
  0
ENDTAB
  0
TABLE
  2
DIMSTYLE
  5
A
330
0
100
AcDbSymbolTable
 70
     1
100
AcDbDimStyleTable
  0
DIMSTYLE
105
27
330
A
100
AcDbSymbolTableRecord
100
AcDbDimStyleTableRecord
  2
ISO-25
 70
     0
 41
2.5
 42
0.625
 43
3.75
 44
1.25
 73
     0
 74
     0
 77
     1
 78
     8
140
2.5
141
2.5
143
0.0393700787
147
0.625
171
     3
172
     1
178
     0
271
     2
272
     2
274
     3
278
    44
283
     0
284
     8
340
11
  0
ENDTAB
  0
TABLE
  2
BLOCK_RECORD
  5
1
330
0
100
AcDbSymbolTable
 70
     1
  0
BLOCK_RECORD
  5
1F
330
1
100
AcDbSymbolTableRecord
100
AcDbBlockTableRecord
  2
*Model_Space
340
22
  0
BLOCK_RECORD
  5
1B
330
1
100
AcDbSymbolTableRecord
100
AcDbBlockTableRecord
  2
*Paper_Space
340
1E
  0
BLOCK_RECORD
  5
23
330
1
100
AcDbSymbolTableRecord
100
AcDbBlockTableRecord
  2
*Paper_Space0
340
26
  0
ENDTAB
  0
ENDSEC
  0
SECTION
  2
BLOCKS
  0
BLOCK
  5
20
330
1F
100
AcDbEntity
  8
0
100
AcDbBlockBegin
  2
*Model_Space
 70
     0
 10
0.0
 20
0.0
 30
0.0
  3
*Model_Space
  1

  0
ENDBLK
  5
21
330
1F
100
AcDbEntity
  8
0
100
AcDbBlockEnd
  0
BLOCK
  5
1C
330
1B
100
AcDbEntity
 67
     1
  8
0
100
AcDbBlockBegin
  2
*Paper_Space
 70
     0
 10
0.0
 20
0.0
 30
0.0
  3
*Paper_Space
  1

  0
ENDBLK
  5
1D
330
1B
100
AcDbEntity
 67
     1
  8
0
100
AcDbBlockEnd
  0
BLOCK
  5
24
330
23
100
AcDbEntity
  8
0
100
AcDbBlockBegin
  2
*Paper_Space0
 70
     0
 10
0.0
 20
0.0
 30
0.0
  3
*Paper_Space0
  1

  0
ENDBLK
  5
25
330
23
100
AcDbEntity
  8
0
100
AcDbBlockEnd
  0
ENDSEC
  0
SECTION
  2
ENTITIES
  0
CIRCLE
  5
73
330
1F
100
AcDbEntity
  8
0
  6
Continuous
 62
     7
100
AcDbCircle
 10
6406.3187553361
 20
5063.2162663206
 30
0.0
 40
3.0
  0
CIRCLE
  5
74
330
1F
100
AcDbEntity
  8
0
  6
Continuous
 62
     7
100
AcDbCircle
 10
6406.3187553361
 20
4843.2162663206
 30
0.0
 40
3.0
  0
CIRCLE
  5
75
330
1F
100
AcDbEntity
  8
0
  6
Continuous
 62
     7
100
AcDbCircle
 10
6141.7187553361
 20
4843.2162663206
 30
0.0
 40
3.0
  0
CIRCLE
  5
76
330
1F
100
AcDbEntity
  8
0
  6
Continuous
 62
     7
100
AcDbCircle
 10
6141.7187553361
 20
5063.2162663206
 30
0.0
 40
3.0
  0
ARC
  5
77
330
1F
100
AcDbEntity
  8
0
  6
Continuous
 62
     7
100
AcDbCircle
 10
6574.018767257
 20
5533.2162712821
 30
0.0
 40
25.00000000000034
100
AcDbArc
 50
197.2564007346
 51
342.7435992654
  0
ARC
  5
78
330
1F
100
AcDbEntity
  8
0
  6
Continuous
 62
     7
100
AcDbCircle
 10
6574.018767257
 20
5533.2162712821
 30
0.0
 40
24.99999825868438
100
AcDbArc
 50
17.2563878872
 51
162.7436121128
  0
ARC
  5
79
330
1F
100
AcDbEntity
  8
0
  6
Continuous
 62
     7
100
AcDbCircle
 10
5974.0187434152
 20
5533.2162712821
 30
0.0
 40
25.00000000000122
100
AcDbArc
 50
197.2564007346
 51
342.7435992654
  0
ARC
  5
7A
330
1F
100
AcDbEntity
  8
0
  6
Continuous
 62
     7
100
AcDbCircle
 10
5974.0187434152
 20
5533.2162712821
 30
0.0
 40
24.99999825868525
100
AcDbArc
 50
17.2563878872
 51
162.7436121128
  0
ARC
  5
7B
330
1F
100
AcDbEntity
  8
0
  6
Continuous
 62
     7
100
AcDbCircle
 10
7554.1986459964
 20
5095.1662663076
 30
0.0
 40
1.950000000000012
100
AcDbArc
 50
270.0002666149
 51
314.9999999765
  0
ARC
  5
7C
330
1F
100
AcDbEntity
  8
0
  6
Continuous
 62
     7
100
AcDbCircle
 10
7540.0081570759
 20
5486.46670332
 30
0.0
 40
50.00000000000043
100
AcDbArc
 50
0.0000205157
 51
69.9999993492
  0
ARC
  5
7D
330
1F
100
AcDbEntity
  8
0
  6
Continuous
 62
     7
100
AcDbCircle
 10
7588.0581570759
 20
5129.025771741
 30
0.0
 40
1.950000000001728
100
AcDbArc
 50
314.9997992694
 51
359.9999198061
  0
ARC
  5
7E
330
1F
100
AcDbEntity
  8
0
  6
Continuous
 62
     7
100
AcDbCircle
 10
7334.9579156471
 20
5612.2326655009
 30
0.0
 40
1.950000000001646
100
AcDbArc
 50
70.0000336361
 51
180.000722583
  0
ARC
  5
7F
330
1F
100
AcDbEntity
  8
0
  6
Continuous
 62
     7
100
AcDbCircle
 10
7590.7581482544
 20
5230.9680500201
 30
0.0
 40
2.2499999999995
100
AcDbArc
 50
0.0002193091
 51
109.4710701868
  0
ARC
  5
80
330
1F
100
AcDbEntity
  8
0
  6
Continuous
 62
     7
100
AcDbCircle
 10
7590.7581482544
 20
5230.9680500201
 30
0.0
 40
0.7500044108322685
100
AcDbArc
 50
0.0006579235
 51
179.9998495516
  0
CIRCLE
  5
81
330
1F
100
AcDbEntity
  8
0
  6
Continuous
 62
     7
100
AcDbCircle
 10
6274.0187553361
 20
4205.2761761195
 30
0.0
 40
25.00000000000182
  0
ARC
  5
82
330
1F
100
AcDbEntity
  8
0
  6
Continuous
 62
     7
100
AcDbCircle
 10
6274.0187553361
 20
4205.2761761195
 30
0.0
 40
15.00000000000055
100
AcDbArc
 50
270.0
 51
298.0052543395
  0
ARC
  5
83
330
1F
100
AcDbEntity
  8
0
  6
Continuous
 62
     7
100
AcDbCircle
 10
6274.0187553361
 20
4205.2761761195
 30
0.0
 40
15.00000000000135
100
AcDbArc
 50
335.7391704773
 51
28.0052543395
  0
ARC
  5
84
330
1F
100
AcDbEntity
  8
0
  6
Continuous
 62
     7
100
AcDbCircle
 10
6274.0187553361
 20
4205.2761761195
 30
0.0
 40
14.99999999999941
100
AcDbArc
 50
61.9947456605
 51
84.2608295227
  0
ARC
  5
85
330
1F
100
AcDbEntity
  8
0
  6
Continuous
 62
     7
100
AcDbCircle
 10
6274.0187553361
 20
4205.2761761195
 30
0.0
 40
14.99999999999941
100
AcDbArc
 50
95.7391704773
 51
118.0052543395
  0
ARC
  5
86
330
1F
100
AcDbEntity
  8
0
  6
Continuous
 62
     7
100
AcDbCircle
 10
6274.0187553361
 20
4205.2761761195
 30
0.0
 40
15.00000000000055
100
AcDbArc
 50
151.9947456605
 51
204.2608295227
  0
ARC
  5
87
330
1F
100
AcDbEntity
  8
0
  6
Continuous
 62
     7
100
AcDbCircle
 10
6274.0187553361
 20
4205.2761761195
 30
0.0
 40
15.00000000000055
100
AcDbArc
 50
241.9947456605
 51
270.0
  0
ARC
  5
88
330
1F
100
AcDbEntity
  8
0
  6
Continuous
 62
     7
100
AcDbCircle
 10
6274.0187553361
 20
4205.2761761195
 30
0.0
 40
5.250000000000289
100
AcDbArc
 50
286.1516182809
 51
89.7251968774
  0
ARC
  5
89
330
1F
100
AcDbEntity
  8
0
  6
Continuous
 62
     7
100
AcDbCircle
 10
6274.0187553361
 20
4205.2761761195
 30
0.0
 40
5.250000000000284
100
AcDbArc
 50
106.1516182809
 51
269.7251968774
  0
ARC
  5
8A
330
1F
100
AcDbEntity
  8
0
  6
Continuous
 62
     7
100
AcDbCircle
 10
6274.0187553361
 20
4205.2761761195
 30
0.0
 40
5.250000000000289
100
AcDbArc
 50
89.7251968774
 51
106.1516182809
  0
ARC
  5
8B
330
1F
100
AcDbEntity
  8
0
  6
Continuous
 62
     7
100
AcDbCircle
 10
6274.0187553361
 20
4205.2761761195
 30
0.0
 40
5.250000000000284
100
AcDbArc
 50
269.7251968774
 51
286.1516182809
  0
CIRCLE
  5
8C
330
1F
100
AcDbEntity
  8
0
  6
Continuous
 62
     7
100
AcDbCircle
 10
6274.0187553361
 20
4205.2761761195
 30
0.0
 40
24.5
  0
CIRCLE
  5
8D
330
1F
100
AcDbEntity
  8
0
  6
Continuous
 62
     7
100
AcDbCircle
 10
6274.0187553361
 20
4205.2761761195
 30
0.0
 40
35.0
  0
CIRCLE
  5
8E
330
1F
100
AcDbEntity
  8
0
  6
Continuous
 62
     7
100
AcDbCircle
 10
6274.0187553361
 20
4205.2761761195
 30
0.0
 40
22.5
  0
CIRCLE
  5
8F
330
1F
100
AcDbEntity
  8
0
  6
Continuous
 62
     7
100
AcDbCircle
 10
6274.0187553361
 20
4205.2761761195
 30
0.0
 40
21.5
  0
CIRCLE
  5
90
330
1F
100
AcDbEntity
  8
0
  6
Continuous
 62
     7
100
AcDbCircle
 10
6274.0187553361
 20
4205.2761761195
 30
0.0
 40
19.55298992456301
  0
CIRCLE
  5
91
330
1F
100
AcDbEntity
  8
0
  6
Continuous
 62
     7
100
AcDbCircle
 10
6274.0187553361
 20
4205.2761761195
 30
0.0
 40
6.182050807568885
  0
ARC
  5
92
330
1F
100
AcDbEntity
  8
0
  6
Continuous
 62
     7
100
AcDbCircle
 10
6274.0187553361
 20
4205.2761761195
 30
0.0
 40
19.49999999996012
100
AcDbArc
 50
166.9496950603
 51
193.0503049397
  0
ARC
  5
93
330
1F
100
AcDbEntity
  8
0
  6
Continuous
 62
     7
100
AcDbCircle
 10
6258.9190864656
 20
4201.7761761195
 30
0.0
 40
3.999999999980276
100
AcDbArc
 50
193.0503049397
 51
13.0503049397
  0
ARC
  5
94
330
1F
100
AcDbEntity
  8
0
  6
Continuous
 62
     7
100
AcDbCircle
 10
6274.0187553361
 20
4205.2761761195
 30
0.0
 40
11.50000000000004
100
AcDbArc
 50
166.9496950603
 51
193.0503049397
  0
ARC
  5
95
330
1F
100
AcDbEntity
  8
0
  6
Continuous
 62
     7
100
AcDbCircle
 10
6258.9190864656
 20
4208.7761761195
 30
0.0
 40
4.00000000000059
100
AcDbArc
 50
346.9496950603
 51
166.9496950603
  0
ARC
  5
96
330
1F
100
AcDbEntity
  8
0
  6
Continuous
 62
     7
100
AcDbCircle
 10
6274.0187553361
 20
4205.2761761195
 30
0.0
 40
19.49999999996101
100
AcDbArc
 50
256.9496950603
 51
283.0503049397
  0
ARC
  5
97
330
1F
100
AcDbEntity
  8
0
  6
Continuous
 62
     7
100
AcDbCircle
 10
6277.5187553361
 20
4190.176507249
 30
0.0
 40
3.999999999981162
100
AcDbArc
 50
283.0503049397
 51
103.0503049397
  0
ARC
  5
98
330
1F
100
AcDbEntity
  8
0
  6
Continuous
 62
     7
100
AcDbCircle
 10
6274.0187553361
 20
4205.2761761195
 30
0.0
 40
11.49999999999936
100
AcDbArc
 50
256.9496950603
 51
283.0503049397
  0
ARC
  5
99
330
1F
100
AcDbEntity
  8
0
  6
Continuous
 62
     7
100
AcDbCircle
 10
6270.5187553361
 20
4190.176507249
 30
0.0
 40
4.000000000002362
100
AcDbArc
 50
76.9496950603
 51
256.9496950603
  0
ARC
  5
9A
330
1F
100
AcDbEntity
  8
0
  6
Continuous
 62
     7
100
AcDbCircle
 10
6274.0187553361
 20
4205.2761761195
 30
0.0
 40
19.49999999996012
100
AcDbArc
 50
346.9496950603
 51
13.0503049397
  0
ARC
  5
9B
330
1F
100
AcDbEntity
  8
0
  6
Continuous
 62
     7
100
AcDbCircle
 10
6289.1184242066
 20
4208.7761761195
 30
0.0
 40
3.999999999980481
100
AcDbArc
 50
13.0503049397
 51
193.0503049397
  0
ARC
  5
9C
330
1F
100
AcDbEntity
  8
0
  6
Continuous
 62
     7
100
AcDbCircle
 10
6274.0187553361
 20
4205.2761761195
 30
0.0
 40
11.50000000000004
100
AcDbArc
 50
346.9496950603
 51
13.0503049397
  0
ARC
  5
9D
330
1F
100
AcDbEntity
  8
0
  6
Continuous
 62
     7
100
AcDbCircle
 10
6289.1184242066
 20
4201.7761761195
 30
0.0
 40
4.00000000000059
100
AcDbArc
 50
166.9496950603
 51
346.9496950603
  0
ARC
  5
9E
330
1F
100
AcDbEntity
  8
0
  6
Continuous
 62
     7
100
AcDbCircle
 10
6274.0187553361
 20
4205.2761761195
 30
0.0
 40
19.50000000005826
100
AcDbArc
 50
76.9496950604
 51
103.0503049396
  0
ARC
  5
9F
330
1F
100
AcDbEntity
  8
0
  6
Continuous
 62
     7
100
AcDbCircle
 10
6270.5187553361
 20
4220.3758449901
 30
0.0
 40
4.000000000029211
100
AcDbArc
 50
103.0503049396
 51
283.0503049396
  0
ARC
  5
A0
330
1F
100
AcDbEntity
  8
0
  6
Continuous
 62
     7
100
AcDbCircle
 10
6274.0187553361
 20
4205.2761761195
 30
0.0
 40
11.5000000000566
100
AcDbArc
 50
76.9496950604
 51
103.0503049397
  0
ARC
  5
A1
330
1F
100
AcDbEntity
  8
0
  6
Continuous
 62
     7
100
AcDbCircle
 10
6277.5187553361
 20
4220.3758449901
 30
0.0
 40
4.00000000000127
100
AcDbArc
 50
256.9496950603
 51
76.9496950603
  0
CIRCLE
  5
A2
330
1F
100
AcDbEntity
  8
0
  6
Continuous
 62
     7
100
AcDbCircle
 10
6274.0187553361
 20
4205.2761761195
 30
0.0
 40
5.682050807568885
  0
ARC
  5
A3
330
1F
100
AcDbEntity
  8
0
  6
Continuous
 62
     7
100
AcDbCircle
 10
6574.018767257
 20
4316.5265147097
 30
0.0
 40
27.00000000000064
100
AcDbArc
 50
207.8409954059
 51
332.1590045941
  0
ARC
  5
A4
330
1F
100
AcDbEntity
  8
0
  6
Continuous
 62
     7
100
AcDbCircle
 10
5974.0187434152
 20
4316.5265147097
 30
0.0
 40
27.00000000000145
100
AcDbArc
 50
207.8409954059
 51
332.1590045941
  0
LINE
  5
A5
330
1F
100
AcDbEntity
  8
0
  6
Continuous
 62
     7
100
AcDbLine
 10
6874.018779178
 20
5614.1826664671
 30
0.0
 11
6872.5187686875
 21
5614.1826664671
 31
0.0
  0
LINE
  5
A6
330
1F
100
AcDbEntity
  8
0
  6
Continuous
 62
     7
100
AcDbLine
 10
5675.5187419847
 20
5614.1826664671
 30
0.0
 11
5674.0187314942
 21
5614.1826664671
 31
0.0
  0
LINE
  5
A7
330
1F
100
AcDbEntity
  8
0
  6
Continuous
 62
     7
100
AcDbLine
 10
6872.5187686875
 20
5233.2180445656
 30
0.0
 11
5675.5187419847
 21
5233.2180445656
 31
0.0
  0
LINE
  5
A8
330
1F
100
AcDbEntity
  8
0
  6
Continuous
 62
     7
100
AcDbLine
 10
6872.5187686875
 20
5614.1826664671
 30
0.0
 11
5675.5187419847
 21
5614.1826664671
 31
0.0
  0
LINE
  5
A9
330
1F
100
AcDbEntity
  8
0
  6
Continuous
 62
     7
100
AcDbLine
 10
6874.018779178
 20
5129.0257690117
 30
0.0
 11
6872.5187686875
 21
5129.0257690117
 31
0.0
  0
LINE
  5
AA
330
1F
100
AcDbEntity
  8
0
  6
Continuous
 62
     7
100
AcDbLine
 10
6874.018779178
 20
5127.646908687
 30
0.0
 11
6872.5187686875
 21
5127.646908687
 31
0.0
  0
LINE
  5
AB
330
1F
100
AcDbEntity
  8
0
  6
Continuous
 62
     7
100
AcDbLine
 10
6872.5187686875
 20
5127.646908687
 30
0.0
 11
6872.5187686875
 21
5129.0257690117
 31
0.0
  0
LINE
  5
AC
330
1F
100
AcDbEntity
  8
0
  6
Continuous
 62
     7
100
AcDbLine
 10
6874.018779178
 20
5127.646908687
 30
0.0
 11
6874.018779178
 21
5129.0257690117
 31
0.0
  0
LINE
  5
AD
330
1F
100
AcDbEntity
  8
0
  6
Continuous
 62
     7
100
AcDbLine
 10
6874.018779178
 20
5486.4667212233
 30
0.0
 11
6872.5187686875
 21
5486.4667212233
 31
0.0
  0
LINE
  5
AE
330
1F
100
AcDbEntity
  8
0
  6
Continuous
 62
     7
100
AcDbLine
 10
6872.5187686875
 20
5129.0257690117
 30
0.0
 11
6872.5187686875
 21
5217.8180520996
 31
0.0
  0
LINE
  5
AF
330
1F
100
AcDbEntity
  8
0
  6
Continuous
 62
     7
100
AcDbLine
 10
6872.5187686875
 20
5233.2180445656
 30
0.0
 11
6872.5187686875
 21
5486.4667212233
 31
0.0
  0
LINE
  5
B0
330
1F
100
AcDbEntity
  8
0
  6
Continuous
 62
     7
100
AcDbLine
 10
6874.018779178
 20
5129.0257690117
 30
0.0
 11
6874.018779178
 21
5486.4667212233
 31
0.0
  0
LINE
  5
B1
330
1F
100
AcDbEntity
  8
0
  6
Continuous
 62
     7
100
AcDbLine
 10
6874.018779178
 20
5533.451334165
 30
0.0
 11
6872.5187686875
 21
5533.451334165
 31
0.0
  0
LINE
  5
B2
330
1F
100
AcDbEntity
  8
0
  6
Continuous
 62
     7
100
AcDbLine
 10
6872.5187686875
 20
5486.4667212233
 30
0.0
 11
6872.5187686875
 21
5533.451334165
 31
0.0
  0
LINE
  5
B3
330
1F
100
AcDbEntity
  8
0
  6
Continuous
 62
     7
100
AcDbLine
 10
6874.018779178
 20
5486.4667212233
 30
0.0
 11
6874.018779178
 21
5533.451334165
 31
0.0
  0
LINE
  5
B4
330
1F
100
AcDbEntity
  8
0
  6
Continuous
 62
     7
100
AcDbLine
 10
6874.018779178
 20
5093.7874080837
 30
0.0
 11
6872.5187686875
 21
5093.7874080837
 31
0.0
  0
LINE
  5
B5
330
1F
100
AcDbEntity
  8
0
  6
Continuous
 62
     7
100
AcDbLine
 10
6872.5187686875
 20
5093.7874080837
 30
0.0
 11
6872.5187686875
 21
5127.646908687
 31
0.0
  0
LINE
  5
B6
330
1F
100
AcDbEntity
  8
0
  6
Continuous
 62
     7
100
AcDbLine
 10
6874.018779178
 20
5093.7874080837
 30
0.0
 11
6874.018779178
 21
5127.646908687
 31
0.0
  0
LINE
  5
B7
330
1F
100
AcDbEntity
  8
0
  6
Continuous
 62
     7
100
AcDbLine
 10
6874.018779178
 20
5614.065066503
 30
0.0
 11
6872.5187686875
 21
5614.065066503
 31
0.0
  0
LINE
  5
B8
330
1F
100
AcDbEntity
  8
0
  6
Continuous
 62
     7
100
AcDbLine
 10
6872.5187686875
 20
5533.451334165
 30
0.0
 11
6872.5187686875
 21
5614.065066503
 31
0.0
  0
LINE
  5
B9
330
1F
100
AcDbEntity
  8
0
  6
Continuous
 62
     7
100
AcDbLine
 10
6874.018779178
 20
5533.451334165
 30
0.0
 11
6874.018779178
 21
5614.065066503
 31
0.0
  0
LINE
  5
BA
330
1F
100
AcDbEntity
  8
0
  6
Continuous
 62
     7
100
AcDbLine
 10
6874.018779178
 20
5093.2162663076
 30
0.0
 11
6872.5187686875
 21
5093.2162663076
 31
0.0
  0
LINE
  5
BB
330
1F
100
AcDbEntity
  8
0
  6
Continuous
 62
     7
100
AcDbLine
 10
6872.5187686875
 20
5093.2162663076
 30
0.0
 11
6872.5187686875
 21
5093.7874080837
 31
0.0
  0
LINE
  5
BC
330
1F
100
AcDbEntity
  8
0
  6
Continuous
 62
     7
100
AcDbLine
 10
6874.018779178
 20
5093.2162663076
 30
0.0
 11
6874.018779178
 21
5093.7874080837
 31
0.0
  0
LINE
  5
BD
330
1F
100
AcDbEntity
  8
0
  6
Continuous
 62
     7
100
AcDbLine
 10
6872.5187686875
 20
5614.065066503
 30
0.0
 11
6872.5187686875
 21
5614.1826664671
 31
0.0
  0
LINE
  5
BE
330
1F
100
AcDbEntity
  8
0
  6
Continuous
 62
     7
100
AcDbLine
 10
6874.018779178
 20
5614.065066503
 30
0.0
 11
6874.018779178
 21
5614.1826664671
 31
0.0
  0
LINE
  5
BF
330
1F
100
AcDbEntity
  8
0
  6
Continuous
 62
     7
100
AcDbLine
 10
6391.5187550381
 20
4813.2162546381
 30
0.0
 11
6391.5187550381
 21
5093.2162663076
 31
0.0
  0
LINE
  5
C0
330
1F
100
AcDbEntity
  8
0
  6
Continuous
 62
     7
100
AcDbLine
 10
6390.2687562302
 20
4813.2162546381
 30
0.0
 11
6390.2687562302
 21
5093.2162663076
 31
0.0
  0
LINE
  5
C1
330
1F
100
AcDbEntity
  8
0
  6
Continuous
 62
     7
100
AcDbLine
 10
6390.2687562302
 20
4813.2162546381
 30
0.0
 11
6391.5187550381
 21
4813.2162546381
 31
0.0
  0
LINE
  5
C2
330
1F
100
AcDbEntity
  8
0
  6
Continuous
 62
     7
100
AcDbLine
 10
6157.768754442
 20
4813.2162546381
 30
0.0
 11
6390.2687562302
 21
4813.2162546381
 31
0.0
  0
LINE
  5
C3
330
1F
100
AcDbEntity
  8
0
  6
Continuous
 62
     7
100
AcDbLine
 10
6157.768754442
 20
4813.2162546381
 30
0.0
 11
6157.768754442
 21
5093.2162663076
 31
0.0
  0
LINE
  5
C4
330
1F
100
AcDbEntity
  8
0
  6
Continuous
 62
     7
100
AcDbLine
 10
6156.5187556341
 20
4813.2162546381
 30
0.0
 11
6157.768754442
 21
4813.2162546381
 31
0.0
  0
LINE
  5
C5
330
1F
100
AcDbEntity
  8
0
  6
Continuous
 62
     7
100
AcDbLine
 10
6156.5187556341
 20
4813.2162546381
 30
0.0
 11
6156.5187556341
 21
5093.2162663076
 31
0.0
  0
LINE
  5
C6
330
1F
100
AcDbEntity
  8
0
  6
Continuous
 62
     7
100
AcDbLine
 10
6391.968755205
 20
4813.2162546381
 30
0.0
 11
6391.968755205
 21
5093.2162663076
 31
0.0
  0
LINE
  5
C7
330
1F
100
AcDbEntity
  8
0
  6
Continuous
 62
     7
100
AcDbLine
 10
6391.5187550381
 20
4813.2162546381
 30
0.0
 11
6391.968755205
 21
4813.2162546381
 31
0.0
  0
LINE
  5
C8
330
1F
100
AcDbEntity
  8
0
  6
Continuous
 62
     7
100
AcDbLine
 10
6156.0687554672
 20
4813.2162546381
 30
0.0
 11
6156.5187556341
 21
4813.2162546381
 31
0.0
  0
LINE
  5
C9
330
1F
100
AcDbEntity
  8
0
  6
Continuous
 62
     7
100
AcDbLine
 10
6156.0687554672
 20
4813.2162546381
 30
0.0
 11
6156.0687554672
 21
5093.2162663076
 31
0.0
  0
LINE
  5
CA
330
1F
100
AcDbEntity
  8
0
  6
Continuous
 62
     7
100
AcDbLine
 10
6421.7187521651
 20
4813.2162546381
 30
0.0
 11
6421.7187521651
 21
5093.2162663076
 31
0.0
  0
LINE
  5
CB
330
1F
100
AcDbEntity
  8
0
  6
Continuous
 62
     7
100
AcDbLine
 10
6391.968755205
 20
4813.2162546381
 30
0.0
 11
6421.7187521651
 21
4813.2162546381
 31
0.0
  0
LINE
  5
CC
330
1F
100
AcDbEntity
  8
0
  6
Continuous
 62
     7
100
AcDbLine
 10
6126.3187585071
 20
4813.2162546381
 30
0.0
 11
6126.3187585071
 21
5093.2162663076
 31
0.0
  0
LINE
  5
CD
330
1F
100
AcDbEntity
  8
0
  6
Continuous
 62
     7
100
AcDbLine
 10
6126.3187585071
 20
4813.2162546381
 30
0.0
 11
6156.0687554672
 21
4813.2162546381
 31
0.0
  0
LINE
  5
CE
330
1F
100
AcDbEntity
  8
0
  6
Continuous
 62
     7
100
AcDbLine
 10
5674.0187314942
 20
5127.646908687
 30
0.0
 11
5675.5187419847
 21
5127.646908687
 31
0.0
  0
LINE
  5
CF
330
1F
100
AcDbEntity
  8
0
  6
Continuous
 62
     7
100
AcDbLine
 10
5674.0187314942
 20
5127.646908687
 30
0.0
 11
5674.0187314942
 21
5129.0257690117
 31
0.0
  0
LINE
  5
D0
330
1F
100
AcDbEntity
  8
0
  6
Continuous
 62
     7
100
AcDbLine
 10
5674.0187314942
 20
5129.0257690117
 30
0.0
 11
5675.5187419847
 21
5129.0257690117
 31
0.0
  0
LINE
  5
D1
330
1F
100
AcDbEntity
  8
0
  6
Continuous
 62
     7
100
AcDbLine
 10
5675.5187419847
 20
5127.646908687
 30
0.0
 11
5675.5187419847
 21
5129.0257690117
 31
0.0
  0
LINE
  5
D2
330
1F
100
AcDbEntity
  8
0
  6
Continuous
 62
     7
100
AcDbLine
 10
5674.0187314942
 20
5129.0257690117
 30
0.0
 11
5674.0187314942
 21
5486.4667212233
 31
0.0
  0
LINE
  5
D3
330
1F
100
AcDbEntity
  8
0
  6
Continuous
 62
     7
100
AcDbLine
 10
5674.0187314942
 20
5486.4667212233
 30
0.0
 11
5675.5187419847
 21
5486.4667212233
 31
0.0
  0
LINE
  5
D4
330
1F
100
AcDbEntity
  8
0
  6
Continuous
 62
     7
100
AcDbLine
 10
5675.5187419847
 20
5129.0257690117
 30
0.0
 11
5675.5187419847
 21
5217.8180520996
 31
0.0
  0
LINE
  5
D5
330
1F
100
AcDbEntity
  8
0
  6
Continuous
 62
     7
100
AcDbLine
 10
5675.5187419847
 20
5233.2180445656
 30
0.0
 11
5675.5187419847
 21
5486.4667212233
 31
0.0
  0
LINE
  5
D6
330
1F
100
AcDbEntity
  8
0
  6
Continuous
 62
     7
100
AcDbLine
 10
5674.0187314942
 20
5533.451334165
 30
0.0
 11
5675.5187419847
 21
5533.451334165
 31
0.0
  0
LINE
  5
D7
330
1F
100
AcDbEntity
  8
0
  6
Continuous
 62
     7
100
AcDbLine
 10
5674.0187314942
 20
5486.4667212233
 30
0.0
 11
5674.0187314942
 21
5533.451334165
 31
0.0
  0
LINE
  5
D8
330
1F
100
AcDbEntity
  8
0
  6
Continuous
 62
     7
100
AcDbLine
 10
5675.5187419847
 20
5486.4667212233
 30
0.0
 11
5675.5187419847
 21
5533.451334165
 31
0.0
  0
LINE
  5
D9
330
1F
100
AcDbEntity
  8
0
  6
Continuous
 62
     7
100
AcDbLine
 10
5674.0187314942
 20
5093.7874080837
 30
0.0
 11
5675.5187419847
 21
5093.7874080837
 31
0.0
  0
LINE
  5
DA
330
1F
100
AcDbEntity
  8
0
  6
Continuous
 62
     7
100
AcDbLine
 10
5674.0187314942
 20
5093.7874080837
 30
0.0
 11
5674.0187314942
 21
5127.646908687
 31
0.0
  0
LINE
  5
DB
330
1F
100
AcDbEntity
  8
0
  6
Continuous
 62
     7
100
AcDbLine
 10
5675.5187419847
 20
5093.7874080837
 30
0.0
 11
5675.5187419847
 21
5127.646908687
 31
0.0
  0
LINE
  5
DC
330
1F
100
AcDbEntity
  8
0
  6
Continuous
 62
     7
100
AcDbLine
 10
5674.0187314942
 20
5614.065066503
 30
0.0
 11
5675.5187419847
 21
5614.065066503
 31
0.0
  0
LINE
  5
DD
330
1F
100
AcDbEntity
  8
0
  6
Continuous
 62
     7
100
AcDbLine
 10
5674.0187314942
 20
5533.451334165
 30
0.0
 11
5674.0187314942
 21
5614.065066503
 31
0.0
  0
LINE
  5
DE
330
1F
100
AcDbEntity
  8
0
  6
Continuous
 62
     7
100
AcDbLine
 10
5675.5187419847
 20
5533.451334165
 30
0.0
 11
5675.5187419847
 21
5614.065066503
 31
0.0
  0
LINE
  5
DF
330
1F
100
AcDbEntity
  8
0
  6
Continuous
 62
     7
100
AcDbLine
 10
5674.0187314942
 20
5093.2162663076
 30
0.0
 11
5675.5187419847
 21
5093.2162663076
 31
0.0
  0
LINE
  5
E0
330
1F
100
AcDbEntity
  8
0
  6
Continuous
 62
     7
100
AcDbLine
 10
5674.0187314942
 20
5093.2162663076
 30
0.0
 11
5674.0187314942
 21
5093.7874080837
 31
0.0
  0
LINE
  5
E1
330
1F
100
AcDbEntity
  8
0
  6
Continuous
 62
     7
100
AcDbLine
 10
5675.5187419847
 20
5093.2162663076
 30
0.0
 11
5675.5187419847
 21
5093.7874080837
 31
0.0
  0
LINE
  5
E2
330
1F
100
AcDbEntity
  8
0
  6
Continuous
 62
     7
100
AcDbLine
 10
5674.0187314942
 20
5614.065066503
 30
0.0
 11
5674.0187314942
 21
5614.1826664671
 31
0.0
  0
LINE
  5
E3
330
1F
100
AcDbEntity
  8
0
  6
Continuous
 62
     7
100
AcDbLine
 10
5675.5187419847
 20
5614.065066503
 30
0.0
 11
5675.5187419847
 21
5614.1826664671
 31
0.0
  0
LINE
  5
E4
330
1F
100
AcDbEntity
  8
0
  6
Continuous
 62
     7
100
AcDbLine
 10
6872.5187686875
 20
5230.9680586323
 30
0.0
 11
5675.5187419847
 21
5230.9680586323
 31
0.0
  0
LINE
  5
E5
330
1F
100
AcDbEntity
  8
0
  6
Continuous
 62
     7
100
AcDbLine
 10
6872.5187686875
 20
5217.8180520996
 30
0.0
 11
6872.5187686875
 21
5230.9680586323
 31
0.0
  0
LINE
  5
E6
330
1F
100
AcDbEntity
  8
0
  6
Continuous
 62
     7
100
AcDbLine
 10
6872.5187686875
 20
5217.8180520996
 30
0.0
 11
5675.5187419847
 21
5217.8180520996
 31
0.0
  0
LINE
  5
E7
330
1F
100
AcDbEntity
  8
0
  6
Continuous
 62
     7
100
AcDbLine
 10
5675.5187419847
 20
5217.8180520996
 30
0.0
 11
5675.5187419847
 21
5230.9680586323
 31
0.0
  0
LINE
  5
E8
330
1F
100
AcDbEntity
  8
0
  6
Continuous
 62
     7
100
AcDbLine
 10
5675.5187419847
 20
5230.9680586323
 30
0.0
 11
5675.5187419847
 21
5233.2180445656
 31
0.0
  0
LINE
  5
E9
330
1F
100
AcDbEntity
  8
0
  6
Continuous
 62
     7
100
AcDbLine
 10
6872.5187686875
 20
5230.9680586323
 30
0.0
 11
6872.5187686875
 21
5233.2180445656
 31
0.0
  0
LINE
  5
EA
330
1F
100
AcDbEntity
  8
0
  6
Continuous
 62
     7
100
AcDbLine
 10
6872.5187686875
 20
5129.0257690117
 30
0.0
 11
5675.5187419847
 21
5129.0257690117
 31
0.0
  0
LINE
  5
EB
330
1F
100
AcDbEntity
  8
0
  6
Continuous
 62
     7
100
AcDbLine
 10
6872.5187686875
 20
5127.646908687
 30
0.0
 11
5675.5187419847
 21
5127.646908687
 31
0.0
  0
LINE
  5
EC
330
1F
100
AcDbEntity
  8
0
  6
Continuous
 62
     7
100
AcDbLine
 10
6872.5187686875
 20
5093.7874080837
 30
0.0
 11
5675.5187419847
 21
5093.7874080837
 31
0.0
  0
LINE
  5
ED
330
1F
100
AcDbEntity
  8
0
  6
Continuous
 62
     7
100
AcDbLine
 10
6872.5187686875
 20
5093.2162663076
 30
0.0
 11
5675.5187419847
 21
5093.2162663076
 31
0.0
  0
LINE
  5
EE
330
1F
100
AcDbEntity
  8
0
  6
Continuous
 62
     7
100
AcDbLine
 10
6872.5187686875
 20
5596.5456520781
 30
0.0
 11
5675.5187419847
 21
5596.5456520781
 31
0.0
  0
LINE
  5
EF
330
1F
100
AcDbEntity
  8
0
  6
Continuous
 62
     7
100
AcDbLine
 10
6872.5187686875
 20
5598.3780776724
 30
0.0
 11
5675.5187419847
 21
5598.3780776724
 31
0.0
  0
LINE
  5
F0
330
1F
100
AcDbEntity
  8
0
  6
Continuous
 62
     7
100
AcDbLine
 10
6872.5187686875
 20
5614.065066503
 30
0.0
 11
5675.5187419847
 21
5614.065066503
 31
0.0
  0
LINE
  5
F1
330
1F
100
AcDbEntity
  8
0
  6
Continuous
 62
     7
100
AcDbLine
 10
6872.5187686875
 20
5598.3780776724
 30
0.0
 11
6872.5187686875
 21
5614.065066503
 31
0.0
  0
LINE
  5
F2
330
1F
100
AcDbEntity
  8
0
  6
Continuous
 62
     7
100
AcDbLine
 10
5675.5187419847
 20
5598.3780776724
 30
0.0
 11
5675.5187419847
 21
5614.065066503
 31
0.0
  0
LINE
  5
F3
330
1F
100
AcDbEntity
  8
0
  6
Continuous
 62
     7
100
AcDbLine
 10
6262.0187552318
 20
5104.3232991934
 30
0.0
 11
6286.0187554404
 21
5104.3232991934
 31
0.0
  0
LINE
  5
F4
330
1F
100
AcDbEntity
  8
0
  6
Continuous
 62
     7
100
AcDbLine
 10
6262.0187552318
 20
5107.8588334486
 30
0.0
 11
6262.0187552318
 21
5104.3232991934
 31
0.0
  0
LINE
  5
F5
330
1F
100
AcDbEntity
  8
0
  6
Continuous
 62
     7
100
AcDbLine
 10
6286.0187554404
 20
5107.8588334486
 30
0.0
 11
6262.0187552318
 21
5107.8588334486
 31
0.0
  0
LINE
  5
F6
330
1F
100
AcDbEntity
  8
0
  6
Continuous
 62
     7
100
AcDbLine
 10
6286.0187554404
 20
5104.3232991934
 30
0.0
 11
6286.0187554404
 21
5107.8588334486
 31
0.0
  0
LINE
  5
F7
330
1F
100
AcDbEntity
  8
0
  6
Continuous
 62
     7
100
AcDbLine
 10
6266.1377453849
 20
5106.7981725201
 30
0.0
 11
6266.4033706903
 21
5105.3839591905
 31
0.0
  0
LINE
  5
F8
330
1F
100
AcDbEntity
  8
0
  6
Continuous
 62
     7
100
AcDbLine
 10
6266.111703743
 20
5106.7981725201
 30
0.0
 11
6266.1377453849
 21
5106.7981725201
 31
0.0
  0
LINE
  5
F9
330
1F
100
AcDbEntity
  8
0
  6
Continuous
 62
     7
100
AcDbLine
 10
6265.2879861787
 20
5105.6377920896
 30
0.0
 11
6266.111703743
 21
5106.7981725201
 31
0.0
  0
LINE
  5
FA
330
1F
100
AcDbEntity
  8
0
  6
Continuous
 62
     7
100
AcDbLine
 10
6264.4622653395
 20
5106.7981725201
 30
0.0
 11
6265.2879861787
 21
5105.6377920896
 31
0.0
  0
LINE
  5
FB
330
1F
100
AcDbEntity
  8
0
  6
Continuous
 62
     7
100
AcDbLine
 10
6264.4366241664
 20
5106.7981725201
 30
0.0
 11
6264.4622653395
 21
5106.7981725201
 31
0.0
  0
LINE
  5
FC
330
1F
100
AcDbEntity
  8
0
  6
Continuous
 62
     7
100
AcDbLine
 10
6264.172601667
 20
5105.3839591905
 30
0.0
 11
6264.4366241664
 21
5106.7981725201
 31
0.0
  0
LINE
  5
FD
330
1F
100
AcDbEntity
  8
0
  6
Continuous
 62
     7
100
AcDbLine
 10
6268.6762070887
 20
5106.7981725201
 30
0.0
 11
6268.9418323941
 21
5105.3839591905
 31
0.0
  0
LINE
  5
FE
330
1F
100
AcDbEntity
  8
0
  6
Continuous
 62
     7
100
AcDbLine
 10
6268.6501654468
 20
5106.7981725201
 30
0.0
 11
6268.6762070887
 21
5106.7981725201
 31
0.0
  0
LINE
  5
FF
330
1F
100
AcDbEntity
  8
0
  6
Continuous
 62
     7
100
AcDbLine
 10
6267.8264474168
 20
5105.6377920896
 30
0.0
 11
6268.6501654468
 21
5106.7981725201
 31
0.0
  0
LINE
  5
100
330
1F
100
AcDbEntity
  8
0
  6
Continuous
 62
     7
100
AcDbLine
 10
6267.0007265776
 20
5106.7981725201
 30
0.0
 11
6267.8264474168
 21
5105.6377920896
 31
0.0
  0
LINE
  5
101
330
1F
100
AcDbEntity
  8
0
  6
Continuous
 62
     7
100
AcDbLine
 10
6266.9750854045
 20
5106.7981725201
 30
0.0
 11
6267.0007265776
 21
5106.7981725201
 31
0.0
  0
LINE
  5
102
330
1F
100
AcDbEntity
  8
0
  6
Continuous
 62
     7
100
AcDbLine
 10
6266.7110629052
 20
5105.3839591905
 30
0.0
 11
6266.9750854045
 21
5106.7981725201
 31
0.0
  0
LINE
  5
103
330
1F
100
AcDbEntity
  8
0
  6
Continuous
 62
     7
100
AcDbLine
 10
6269.1982427284
 20
5105.1845192551
 30
0.0
 11
6270.0347808793
 21
5106.8344344958
 31
0.0
  0
LINE
  5
104
330
1F
100
AcDbEntity
  8
0
  6
Continuous
 62
     7
100
AcDbLine
 10
6270.0347808793
 20
5106.8344344958
 30
0.0
 11
6270.2238835998
 21
5106.8344344958
 31
0.0
  0
LINE
  5
105
330
1F
100
AcDbEntity
  8
0
  6
Continuous
 62
     7
100
AcDbLine
 10
6271.1114458878
 20
5106.0304963603
 30
0.0
 11
6271.8392681934
 21
5105.3839591905
 31
0.0
  0
LINE
  5
106
330
1F
100
AcDbEntity
  8
0
  6
Continuous
 62
     7
100
AcDbLine
 10
6270.5572169878
 20
5106.7981725201
 30
0.0
 11
6270.957457288
 21
5106.7981725201
 31
0.0
  0
LINE
  5
107
330
1F
100
AcDbEntity
  8
0
  6
Continuous
 62
     7
100
AcDbLine
 10
6272.8037536515
 20
5106.0304963603
 30
0.0
 11
6273.5315758407
 21
5105.3839591905
 31
0.0
  0
LINE
  5
108
330
1F
100
AcDbEntity
  8
0
  6
Continuous
 62
     7
100
AcDbLine
 10
6272.2495245187
 20
5106.7981725201
 30
0.0
 11
6272.6497649353
 21
5106.7981725201
 31
0.0
  0
LINE
  5
109
330
1F
100
AcDbEntity
  8
0
  6
Continuous
 62
     7
100
AcDbLine
 10
6274.53157583
 20
5106.0004109159
 30
0.0
 11
6275.3008066582
 21
5106.0004109159
 31
0.0
  0
LINE
  5
10A
330
1F
100
AcDbEntity
  8
0
  6
Continuous
 62
     7
100
AcDbLine
 10
6276.2367040057
 20
5105.3839591905
 30
0.0
 11
6276.8865478363
 21
5106.1016950398
 31
0.0
  0
LINE
  5
10B
330
1F
100
AcDbEntity
  8
0
  6
Continuous
 62
     7
100
AcDbLine
 10
6277.1000793807
 20
5106.1016950398
 30
0.0
 11
6277.7495246053
 21
5105.3839591905
 31
0.0
  0
LINE
  5
10C
330
1F
100
AcDbEntity
  8
0
  6
Continuous
 62
     7
100
AcDbLine
 10
6277.5167521693
 20
5106.7981725201
 30
0.0
 11
6277.7238834321
 21
5106.7981725201
 31
0.0
  0
LINE
  5
10D
330
1F
100
AcDbEntity
  8
0
  6
Continuous
 62
     7
100
AcDbLine
 10
6276.9931144219
 20
5106.2196824342
 30
0.0
 11
6277.5167521693
 21
5106.7981725201
 31
0.0
  0
LINE
  5
10E
330
1F
100
AcDbEntity
  8
0
  6
Continuous
 62
     7
100
AcDbLine
 10
6276.4694764417
 20
5106.7981725201
 30
0.0
 11
6276.9931144219
 21
5106.2196824342
 31
0.0
  0
LINE
  5
10F
330
1F
100
AcDbEntity
  8
0
  6
Continuous
 62
     7
100
AcDbLine
 10
6276.2623451788
 20
5106.7981725201
 30
0.0
 11
6276.4694764417
 21
5106.7981725201
 31
0.0
  0
LINE
  5
110
330
1F
100
AcDbEntity
  8
0
  6
Continuous
 62
     7
100
AcDbLine
 10
6277.9290118858
 20
5105.3839591905
 30
0.0
 11
6278.5788557164
 21
5106.1016950398
 31
0.0
  0
LINE
  5
111
330
1F
100
AcDbEntity
  8
0
  6
Continuous
 62
     7
100
AcDbLine
 10
6278.792387028
 20
5106.1016950398
 30
0.0
 11
6279.4418322526
 21
5105.3839591905
 31
0.0
  0
LINE
  5
112
330
1F
100
AcDbEntity
  8
0
  6
Continuous
 62
     7
100
AcDbLine
 10
6279.2090598166
 20
5106.7981725201
 30
0.0
 11
6279.4161910795
 21
5106.7981725201
 31
0.0
  0
LINE
  5
113
330
1F
100
AcDbEntity
  8
0
  6
Continuous
 62
     7
100
AcDbLine
 10
6278.6854218364
 20
5106.2196824342
 30
0.0
 11
6279.2090598166
 21
5106.7981725201
 31
0.0
  0
LINE
  5
114
330
1F
100
AcDbEntity
  8
0
  6
Continuous
 62
     7
100
AcDbLine
 10
6278.1617843218
 20
5106.7981725201
 30
0.0
 11
6278.6854218364
 21
5106.2196824342
 31
0.0
  0
LINE
  5
115
330
1F
100
AcDbEntity
  8
0
  6
Continuous
 62
     7
100
AcDbLine
 10
6277.9546525933
 20
5106.7981725201
 30
0.0
 11
6278.1617843218
 21
5106.7981725201
 31
0.0
  0
LINE
  5
116
330
1F
100
AcDbEntity
  8
0
  6
Continuous
 62
     7
100
AcDbLine
 10
6279.6213195331
 20
5105.3839591905
 30
0.0
 11
6280.2711633637
 21
5106.1016950398
 31
0.0
  0
LINE
  5
117
330
1F
100
AcDbEntity
  8
0
  6
Continuous
 62
     7
100
AcDbLine
 10
6280.4846946754
 20
5106.1016950398
 30
0.0
 11
6281.1341398999
 21
5105.3839591905
 31
0.0
  0
LINE
  5
118
330
1F
100
AcDbEntity
  8
0
  6
Continuous
 62
     7
100
AcDbLine
 10
6280.9013674639
 20
5106.7981725201
 30
0.0
 11
6281.1084987268
 21
5106.7981725201
 31
0.0
  0
LINE
  5
119
330
1F
100
AcDbEntity
  8
0
  6
Continuous
 62
     7
100
AcDbLine
 10
6280.3777294837
 20
5106.2196824342
 30
0.0
 11
6280.9013674639
 21
5106.7981725201
 31
0.0
  0
LINE
  5
11A
330
1F
100
AcDbEntity
  8
0
  6
Continuous
 62
     7
100
AcDbLine
 10
6279.8540919691
 20
5106.7981725201
 30
0.0
 11
6280.3777294837
 21
5106.2196824342
 31
0.0
  0
LINE
  5
11B
330
1F
100
AcDbEntity
  8
0
  6
Continuous
 62
     7
100
AcDbLine
 10
6279.6469602406
 20
5106.7981725201
 30
0.0
 11
6279.8540919691
 21
5106.7981725201
 31
0.0
  0
LINE
  5
11C
330
1F
100
AcDbEntity
  8
0
  6
Continuous
 62
     7
100
AcDbLine
 10
6281.3136271805
 20
5105.3839591905
 30
0.0
 11
6281.9634705454
 21
5106.1016950398
 31
0.0
  0
LINE
  5
11D
330
1F
100
AcDbEntity
  8
0
  6
Continuous
 62
     7
100
AcDbLine
 10
6282.1770023227
 20
5106.1016950398
 30
0.0
 11
6282.8264480129
 21
5105.3839591905
 31
0.0
  0
LINE
  5
11E
330
1F
100
AcDbEntity
  8
0
  6
Continuous
 62
     7
100
AcDbLine
 10
6282.5936751112
 20
5106.7981725201
 30
0.0
 11
6282.8008068398
 21
5106.7981725201
 31
0.0
  0
LINE
  5
11F
330
1F
100
AcDbEntity
  8
0
  6
Continuous
 62
     7
100
AcDbLine
 10
6282.070037131
 20
5106.2196824342
 30
0.0
 11
6282.5936751112
 21
5106.7981725201
 31
0.0
  0
LINE
  5
120
330
1F
100
AcDbEntity
  8
0
  6
Continuous
 62
     7
100
AcDbLine
 10
6281.5463996164
 20
5106.7981725201
 30
0.0
 11
6282.070037131
 21
5106.2196824342
 31
0.0
  0
LINE
  5
121
330
1F
100
AcDbEntity
  8
0
  6
Continuous
 62
     7
100
AcDbLine
 10
6281.3392683536
 20
5106.7981725201
 30
0.0
 11
6281.5463996164
 21
5106.7981725201
 31
0.0
  0
LINE
  5
122
330
1F
100
AcDbEntity
  8
0
  6
Continuous
 62
     7
100
AcDbLine
 10
6283.0059343621
 20
5105.3839591905
 30
0.0
 11
6283.6557786584
 21
5106.1016950398
 31
0.0
  0
LINE
  5
123
330
1F
100
AcDbEntity
  8
0
  6
Continuous
 62
     7
100
AcDbLine
 10
6283.8693104356
 20
5106.1016950398
 30
0.0
 11
6284.5187551945
 21
5105.3839591905
 31
0.0
  0
LINE
  5
124
330
1F
100
AcDbEntity
  8
0
  6
Continuous
 62
     7
100
AcDbLine
 10
6284.2859832242
 20
5106.7981725201
 30
0.0
 11
6284.4931140214
 21
5106.7981725201
 31
0.0
  0
LINE
  5
125
330
1F
100
AcDbEntity
  8
0
  6
Continuous
 62
     7
100
AcDbLine
 10
6283.762345244
 20
5106.2196824342
 30
0.0
 11
6284.2859832242
 21
5106.7981725201
 31
0.0
  0
LINE
  5
126
330
1F
100
AcDbEntity
  8
0
  6
Continuous
 62
     7
100
AcDbLine
 10
6283.2387072638
 20
5106.7981725201
 30
0.0
 11
6283.762345244
 21
5106.2196824342
 31
0.0
  0
LINE
  5
127
330
1F
100
AcDbEntity
  8
0
  6
Continuous
 62
     7
100
AcDbLine
 10
6283.0315755352
 20
5106.7981725201
 30
0.0
 11
6283.2387072638
 21
5106.7981725201
 31
0.0
  0
LINE
  5
128
330
1F
100
AcDbEntity
  8
0
  6
Continuous
 62
     7
100
AcDbLine
 10
6286.0187554404
 20
5107.8588334486
 30
0.0
 11
6286.0187554404
 21
5107.929544115
 31
0.0
  0
LINE
  5
129
330
1F
100
AcDbEntity
  8
0
  6
Continuous
 62
     7
100
AcDbLine
 10
6262.0187552318
 20
5107.8588334486
 30
0.0
 11
6262.0187552318
 21
5107.929544115
 31
0.0
  0
LINE
  5
12A
330
1F
100
AcDbEntity
  8
0
  6
Continuous
 62
     7
100
AcDbLine
 10
6286.0187554404
 20
5107.929544115
 30
0.0
 11
6262.0187552318
 21
5107.929544115
 31
0.0
  0
LINE
  5
12B
330
1F
100
AcDbEntity
  8
0
  6
Continuous
 62
     7
100
AcDbLine
 10
6270.0347808793
 20
5106.8273638949
 30
0.0
 11
6270.0347808793
 21
5106.8344344958
 31
0.0
  0
LINE
  5
12C
330
1F
100
AcDbEntity
  8
0
  6
Continuous
 62
     7
100
AcDbLine
 10
6269.1982427284
 20
5105.1774477228
 30
0.0
 11
6270.0347808793
 21
5106.8273638949
 31
0.0
  0
LINE
  5
12D
330
1F
100
AcDbEntity
  8
0
  6
Continuous
 62
     7
100
AcDbLine
 10
6269.1982427284
 20
5105.1774477228
 30
0.0
 11
6269.1982427284
 21
5105.1845192551
 31
0.0
  0
LINE
  5
12E
330
1F
100
AcDbEntity
  8
0
  6
Continuous
 62
     7
100
AcDbLine
 10
6270.2238835998
 20
5106.8273638949
 30
0.0
 11
6270.2238835998
 21
5106.8344344958
 31
0.0
  0
LINE
  5
12F
330
1F
100
AcDbEntity
  8
0
  6
Continuous
 62
     7
100
AcDbLine
 10
6270.0347808793
 20
5106.8273638949
 30
0.0
 11
6270.2238835998
 21
5106.8273638949
 31
0.0
  0
LINE
  5
130
330
1F
100
AcDbEntity
  8
0
  6
Continuous
 62
     7
100
AcDbLine
 10
6270.2238835998
 20
5106.8273638949
 30
0.0
 11
6269.3873449832
 21
5105.1774477228
 31
0.0
  0
LINE
  5
131
330
1F
100
AcDbEntity
  8
0
  6
Continuous
 62
     7
100
AcDbLine
 10
6269.3873449832
 20
5105.1774477228
 30
0.0
 11
6269.1982427284
 21
5105.1774477228
 31
0.0
  0
LINE
  5
132
330
1F
100
AcDbEntity
  8
0
  6
Continuous
 62
     7
100
AcDbLine
 10
6272.4290117992
 20
5106.1746501937
 30
0.0
 11
6272.795197591
 21
5106.1726664766
 31
0.0
  0
LINE
  5
133
330
1F
100
AcDbEntity
  8
0
  6
Continuous
 62
     7
100
AcDbLine
 10
6272.8040117443
 20
5106.646054016
 30
0.0
 11
6272.4290117992
 21
5106.646054016
 31
0.0
  0
LINE
  5
134
330
1F
100
AcDbEntity
  8
0
  6
Continuous
 62
     7
100
AcDbLine
 10
6272.4290117992
 20
5106.646054016
 30
0.0
 11
6272.4290117992
 21
5106.1746501937
 31
0.0
  0
LINE
  5
135
330
1F
100
AcDbEntity
  8
0
  6
Continuous
 62
     7
100
AcDbLine
 10
6272.2495245187
 20
5106.7911019191
 30
0.0
 11
6272.6497649353
 21
5106.7911019191
 31
0.0
  0
LINE
  5
136
330
1F
100
AcDbEntity
  8
0
  6
Continuous
 62
     7
100
AcDbLine
 10
6272.7968001643
 20
5106.0296022907
 30
0.0
 11
6273.5315758407
 21
5105.3768885895
 31
0.0
  0
LINE
  5
137
330
1F
100
AcDbEntity
  8
0
  6
Continuous
 62
     7
100
AcDbLine
 10
6273.5315758407
 20
5105.3768885895
 30
0.0
 11
6273.3096207164
 21
5105.3768885895
 31
0.0
  0
LINE
  5
138
330
1F
100
AcDbEntity
  8
0
  6
Continuous
 62
     7
100
AcDbLine
 10
6273.3096207164
 20
5105.3768885895
 30
0.0
 11
6272.57484504
 21
5106.0296022907
 31
0.0
  0
LINE
  5
139
330
1F
100
AcDbEntity
  8
0
  6
Continuous
 62
     7
100
AcDbLine
 10
6272.57484504
 20
5106.0296022907
 30
0.0
 11
6272.4290117992
 21
5106.0296022907
 31
0.0
  0
LINE
  5
13A
330
1F
100
AcDbEntity
  8
0
  6
Continuous
 62
     7
100
AcDbLine
 10
6272.4290117992
 20
5106.0296022907
 30
0.0
 11
6272.4290117992
 21
5105.3768885895
 31
0.0
  0
LINE
  5
13B
330
1F
100
AcDbEntity
  8
0
  6
Continuous
 62
     7
100
AcDbLine
 10
6272.4290117992
 20
5105.3768885895
 30
0.0
 11
6272.2495245187
 21
5105.3768885895
 31
0.0
  0
LINE
  5
13C
330
1F
100
AcDbEntity
  8
0
  6
Continuous
 62
     7
100
AcDbLine
 10
6272.2495245187
 20
5105.3768885895
 30
0.0
 11
6272.2495245187
 21
5106.7911019191
 31
0.0
  0
LINE
  5
13D
330
1F
100
AcDbEntity
  8
0
  6
Continuous
 62
     7
100
AcDbLine
 10
6270.957457288
 20
5106.7911019191
 30
0.0
 11
6270.957457288
 21
5106.7981725201
 31
0.0
  0
LINE
  5
13E
330
1F
100
AcDbEntity
  8
0
  6
Continuous
 62
     7
100
AcDbLine
 10
6270.5572169878
 20
5106.7911019191
 30
0.0
 11
6270.957457288
 21
5106.7911019191
 31
0.0
  0
LINE
  5
13F
330
1F
100
AcDbEntity
  8
0
  6
Continuous
 62
     7
100
AcDbLine
 10
6270.5572169878
 20
5106.7911019191
 30
0.0
 11
6270.5572169878
 21
5106.7981725201
 31
0.0
  0
LINE
  5
140
330
1F
100
AcDbEntity
  8
0
  6
Continuous
 62
     7
100
AcDbLine
 10
6266.7110629052
 20
5105.3768885895
 30
0.0
 11
6266.9750854045
 21
5106.7911019191
 31
0.0
  0
LINE
  5
141
330
1F
100
AcDbEntity
  8
0
  6
Continuous
 62
     7
100
AcDbLine
 10
6266.9750854045
 20
5106.7911019191
 30
0.0
 11
6267.0007265776
 21
5106.7911019191
 31
0.0
  0
LINE
  5
142
330
1F
100
AcDbEntity
  8
0
  6
Continuous
 62
     7
100
AcDbLine
 10
6267.0007265776
 20
5106.7911019191
 30
0.0
 11
6267.8264474168
 21
5105.6307214886
 31
0.0
  0
LINE
  5
143
330
1F
100
AcDbEntity
  8
0
  6
Continuous
 62
     7
100
AcDbLine
 10
6267.8264474168
 20
5105.6307214886
 30
0.0
 11
6268.6501654468
 21
5106.7911019191
 31
0.0
  0
LINE
  5
144
330
1F
100
AcDbEntity
  8
0
  6
Continuous
 62
     7
100
AcDbLine
 10
6268.6501654468
 20
5106.7911019191
 30
0.0
 11
6268.6762070887
 21
5106.7911019191
 31
0.0
  0
LINE
  5
145
330
1F
100
AcDbEntity
  8
0
  6
Continuous
 62
     7
100
AcDbLine
 10
6268.6762070887
 20
5106.7911019191
 30
0.0
 11
6268.9418323941
 21
5105.3768885895
 31
0.0
  0
LINE
  5
146
330
1F
100
AcDbEntity
  8
0
  6
Continuous
 62
     7
100
AcDbLine
 10
6268.9418323941
 20
5105.3768885895
 30
0.0
 11
6268.7615437105
 21
5105.3768885895
 31
0.0
  0
LINE
  5
147
330
1F
100
AcDbEntity
  8
0
  6
Continuous
 62
     7
100
AcDbLine
 10
6268.7615437105
 20
5105.3768885895
 30
0.0
 11
6268.5700372465
 21
5106.3944870248
 31
0.0
  0
LINE
  5
148
330
1F
100
AcDbEntity
  8
0
  6
Continuous
 62
     7
100
AcDbLine
 10
6268.5700372465
 20
5106.3944870248
 30
0.0
 11
6267.8480820402
 21
5105.3768885895
 31
0.0
  0
LINE
  5
149
330
1F
100
AcDbEntity
  8
0
  6
Continuous
 62
     7
100
AcDbLine
 10
6267.8480820402
 20
5105.3768885895
 30
0.0
 11
6267.8076174714
 21
5105.3768885895
 31
0.0
  0
LINE
  5
14A
330
1F
100
AcDbEntity
  8
0
  6
Continuous
 62
     7
100
AcDbLine
 10
6267.8076174714
 20
5105.3768885895
 30
0.0
 11
6267.0828580528
 21
5106.396753864
 31
0.0
  0
LINE
  5
14B
330
1F
100
AcDbEntity
  8
0
  6
Continuous
 62
     7
100
AcDbLine
 10
6267.0828580528
 20
5106.396753864
 30
0.0
 11
6266.8917520575
 21
5105.3768885895
 31
0.0
  0
LINE
  5
14C
330
1F
100
AcDbEntity
  8
0
  6
Continuous
 62
     7
100
AcDbLine
 10
6266.8917520575
 20
5105.3768885895
 30
0.0
 11
6266.7110629052
 21
5105.3768885895
 31
0.0
  0
LINE
  5
14D
330
1F
100
AcDbEntity
  8
0
  6
Continuous
 62
     7
100
AcDbLine
 10
6273.1028899805
 20
5106.7718375116
 30
0.0
 11
6273.1028899805
 21
5106.7789090439
 31
0.0
  0
LINE
  5
14E
330
1F
100
AcDbEntity
  8
0
  6
Continuous
 62
     7
100
AcDbLine
 10
6272.6497649353
 20
5106.7911019191
 30
0.0
 11
6272.6497649353
 21
5106.7981725201
 31
0.0
  0
LINE
  5
14F
330
1F
100
AcDbEntity
  8
0
  6
Continuous
 62
     7
100
AcDbLine
 10
6266.1377453849
 20
5106.7911019191
 30
0.0
 11
6266.1377453849
 21
5106.7981725201
 31
0.0
  0
LINE
  5
150
330
1F
100
AcDbEntity
  8
0
  6
Continuous
 62
     7
100
AcDbLine
 10
6266.111703743
 20
5106.7911019191
 30
0.0
 11
6266.1377453849
 21
5106.7911019191
 31
0.0
  0
LINE
  5
151
330
1F
100
AcDbEntity
  8
0
  6
Continuous
 62
     7
100
AcDbLine
 10
6266.111703743
 20
5106.7911019191
 30
0.0
 11
6266.111703743
 21
5106.7981725201
 31
0.0
  0
LINE
  5
152
330
1F
100
AcDbEntity
  8
0
  6
Continuous
 62
     7
100
AcDbLine
 10
6279.6469602406
 20
5106.7911019191
 30
0.0
 11
6279.8540919691
 21
5106.7911019191
 31
0.0
  0
LINE
  5
153
330
1F
100
AcDbEntity
  8
0
  6
Continuous
 62
     7
100
AcDbLine
 10
6279.8540919691
 20
5106.7911019191
 30
0.0
 11
6280.3777294837
 21
5106.2126118332
 31
0.0
  0
LINE
  5
154
330
1F
100
AcDbEntity
  8
0
  6
Continuous
 62
     7
100
AcDbLine
 10
6280.3777294837
 20
5106.2126118332
 30
0.0
 11
6280.9013674639
 21
5106.7911019191
 31
0.0
  0
LINE
  5
155
330
1F
100
AcDbEntity
  8
0
  6
Continuous
 62
     7
100
AcDbLine
 10
6280.9013674639
 20
5106.7911019191
 30
0.0
 11
6281.1084987268
 21
5106.7911019191
 31
0.0
  0
LINE
  5
156
330
1F
100
AcDbEntity
  8
0
  6
Continuous
 62
     7
100
AcDbLine
 10
6281.1084987268
 20
5106.7911019191
 30
0.0
 11
6280.4814955823
 21
5106.0981597394
 31
0.0
  0
LINE
  5
157
330
1F
100
AcDbEntity
  8
0
  6
Continuous
 62
     7
100
AcDbLine
 10
6280.4814955823
 20
5106.0981597394
 30
0.0
 11
6281.1341398999
 21
5105.3768885895
 31
0.0
  0
LINE
  5
158
330
1F
100
AcDbEntity
  8
0
  6
Continuous
 62
     7
100
AcDbLine
 10
6281.1341398999
 20
5105.3768885895
 30
0.0
 11
6280.927008637
 21
5105.3768885895
 31
0.0
  0
LINE
  5
159
330
1F
100
AcDbEntity
  8
0
  6
Continuous
 62
     7
100
AcDbLine
 10
6280.927008637
 20
5105.3768885895
 30
0.0
 11
6280.3777294837
 21
5105.9837085768
 31
0.0
  0
LINE
  5
15A
330
1F
100
AcDbEntity
  8
0
  6
Continuous
 62
     7
100
AcDbLine
 10
6280.3777294837
 20
5105.9837085768
 30
0.0
 11
6279.828450796
 21
5105.3768885895
 31
0.0
  0
LINE
  5
15B
330
1F
100
AcDbEntity
  8
0
  6
Continuous
 62
     7
100
AcDbLine
 10
6279.828450796
 20
5105.3768885895
 30
0.0
 11
6279.6213195331
 21
5105.3768885895
 31
0.0
  0
LINE
  5
15C
330
1F
100
AcDbEntity
  8
0
  6
Continuous
 62
     7
100
AcDbLine
 10
6279.6213195331
 20
5105.3768885895
 30
0.0
 11
6280.2743643194
 21
5106.0981597394
 31
0.0
  0
LINE
  5
15D
330
1F
100
AcDbEntity
  8
0
  6
Continuous
 62
     7
100
AcDbLine
 10
6280.2743643194
 20
5106.0981597394
 30
0.0
 11
6279.6469602406
 21
5106.7911019191
 31
0.0
  0
LINE
  5
15E
330
1F
100
AcDbEntity
  8
0
  6
Continuous
 62
     7
100
AcDbLine
 10
6282.5936751112
 20
5106.7911019191
 30
0.0
 11
6282.5936751112
 21
5106.7981725201
 31
0.0
  0
LINE
  5
15F
330
1F
100
AcDbEntity
  8
0
  6
Continuous
 62
     7
100
AcDbLine
 10
6282.070037131
 20
5106.2126118332
 30
0.0
 11
6282.5936751112
 21
5106.7911019191
 31
0.0
  0
LINE
  5
160
330
1F
100
AcDbEntity
  8
0
  6
Continuous
 62
     7
100
AcDbLine
 10
6282.070037131
 20
5106.2126118332
 30
0.0
 11
6282.070037131
 21
5106.2196824342
 31
0.0
  0
LINE
  5
161
330
1F
100
AcDbEntity
  8
0
  6
Continuous
 62
     7
100
AcDbLine
 10
6264.172601667
 20
5105.3768885895
 30
0.0
 11
6264.4366241664
 21
5106.7911019191
 31
0.0
  0
LINE
  5
162
330
1F
100
AcDbEntity
  8
0
  6
Continuous
 62
     7
100
AcDbLine
 10
6264.4366241664
 20
5106.7911019191
 30
0.0
 11
6264.4622653395
 21
5106.7911019191
 31
0.0
  0
LINE
  5
163
330
1F
100
AcDbEntity
  8
0
  6
Continuous
 62
     7
100
AcDbLine
 10
6264.4622653395
 20
5106.7911019191
 30
0.0
 11
6265.2879861787
 21
5105.6307214886
 31
0.0
  0
LINE
  5
164
330
1F
100
AcDbEntity
  8
0
  6
Continuous
 62
     7
100
AcDbLine
 10
6265.2879861787
 20
5105.6307214886
 30
0.0
 11
6266.111703743
 21
5106.7911019191
 31
0.0
  0
LINE
  5
165
330
1F
100
AcDbEntity
  8
0
  6
Continuous
 62
     7
100
AcDbLine
 10
6266.1377453849
 20
5106.7911019191
 30
0.0
 11
6266.4033706903
 21
5105.3768885895
 31
0.0
  0
LINE
  5
166
330
1F
100
AcDbEntity
  8
0
  6
Continuous
 62
     7
100
AcDbLine
 10
6266.4033706903
 20
5105.3768885895
 30
0.0
 11
6266.2230824724
 21
5105.3768885895
 31
0.0
  0
LINE
  5
167
330
1F
100
AcDbEntity
  8
0
  6
Continuous
 62
     7
100
AcDbLine
 10
6266.2230824724
 20
5105.3768885895
 30
0.0
 11
6266.0315755427
 21
5106.3944870248
 31
0.0
  0
LINE
  5
168
330
1F
100
AcDbEntity
  8
0
  6
Continuous
 62
     7
100
AcDbLine
 10
6266.0315755427
 20
5106.3944870248
 30
0.0
 11
6265.3096208021
 21
5105.3768885895
 31
0.0
  0
LINE
  5
169
330
1F
100
AcDbEntity
  8
0
  6
Continuous
 62
     7
100
AcDbLine
 10
6265.3096208021
 20
5105.3768885895
 30
0.0
 11
6265.2691557676
 21
5105.3768885895
 31
0.0
  0
LINE
  5
16A
330
1F
100
AcDbEntity
  8
0
  6
Continuous
 62
     7
100
AcDbLine
 10
6265.2691557676
 20
5105.3768885895
 30
0.0
 11
6264.5443968147
 21
5106.396753864
 31
0.0
  0
LINE
  5
16B
330
1F
100
AcDbEntity
  8
0
  6
Continuous
 62
     7
100
AcDbLine
 10
6264.5443968147
 20
5106.396753864
 30
0.0
 11
6264.3532903537
 21
5105.3768885895
 31
0.0
  0
LINE
  5
16C
330
1F
100
AcDbEntity
  8
0
  6
Continuous
 62
     7
100
AcDbLine
 10
6264.3532903537
 20
5105.3768885895
 30
0.0
 11
6264.172601667
 21
5105.3768885895
 31
0.0
  0
LINE
  5
16D
330
1F
100
AcDbEntity
  8
0
  6
Continuous
 62
     7
100
AcDbLine
 10
6282.8008068398
 20
5106.7911019191
 30
0.0
 11
6282.8008068398
 21
5106.7981725201
 31
0.0
  0
LINE
  5
16E
330
1F
100
AcDbEntity
  8
0
  6
Continuous
 62
     7
100
AcDbLine
 10
6282.5936751112
 20
5106.7911019191
 30
0.0
 11
6282.8008068398
 21
5106.7911019191
 31
0.0
  0
LINE
  5
16F
330
1F
100
AcDbEntity
  8
0
  6
Continuous
 62
     7
100
AcDbLine
 10
6277.9546525933
 20
5106.7911019191
 30
0.0
 11
6278.1617843218
 21
5106.7911019191
 31
0.0
  0
LINE
  5
170
330
1F
100
AcDbEntity
  8
0
  6
Continuous
 62
     7
100
AcDbLine
 10
6278.1617843218
 20
5106.7911019191
 30
0.0
 11
6278.6854218364
 21
5106.2126118332
 31
0.0
  0
LINE
  5
171
330
1F
100
AcDbEntity
  8
0
  6
Continuous
 62
     7
100
AcDbLine
 10
6278.6854218364
 20
5106.2126118332
 30
0.0
 11
6279.2090598166
 21
5106.7911019191
 31
0.0
  0
LINE
  5
172
330
1F
100
AcDbEntity
  8
0
  6
Continuous
 62
     7
100
AcDbLine
 10
6279.2090598166
 20
5106.7911019191
 30
0.0
 11
6279.4161910795
 21
5106.7911019191
 31
0.0
  0
LINE
  5
173
330
1F
100
AcDbEntity
  8
0
  6
Continuous
 62
     7
100
AcDbLine
 10
6279.4161910795
 20
5106.7911019191
 30
0.0
 11
6278.789187935
 21
5106.0981597394
 31
0.0
  0
LINE
  5
174
330
1F
100
AcDbEntity
  8
0
  6
Continuous
 62
     7
100
AcDbLine
 10
6278.789187935
 20
5106.0981597394
 30
0.0
 11
6279.4418322526
 21
5105.3768885895
 31
0.0
  0
LINE
  5
175
330
1F
100
AcDbEntity
  8
0
  6
Continuous
 62
     7
100
AcDbLine
 10
6279.4418322526
 20
5105.3768885895
 30
0.0
 11
6279.2347009897
 21
5105.3768885895
 31
0.0
  0
LINE
  5
176
330
1F
100
AcDbEntity
  8
0
  6
Continuous
 62
     7
100
AcDbLine
 10
6279.2347009897
 20
5105.3768885895
 30
0.0
 11
6278.6854218364
 21
5105.9837085768
 31
0.0
  0
LINE
  5
177
330
1F
100
AcDbEntity
  8
0
  6
Continuous
 62
     7
100
AcDbLine
 10
6278.6854218364
 20
5105.9837085768
 30
0.0
 11
6278.1361431487
 21
5105.3768885895
 31
0.0
  0
LINE
  5
178
330
1F
100
AcDbEntity
  8
0
  6
Continuous
 62
     7
100
AcDbLine
 10
6278.1361431487
 20
5105.3768885895
 30
0.0
 11
6277.9290118858
 21
5105.3768885895
 31
0.0
  0
LINE
  5
179
330
1F
100
AcDbEntity
  8
0
  6
Continuous
 62
     7
100
AcDbLine
 10
6277.9290118858
 20
5105.3768885895
 30
0.0
 11
6278.5820566721
 21
5106.0981597394
 31
0.0
  0
LINE
  5
17A
330
1F
100
AcDbEntity
  8
0
  6
Continuous
 62
     7
100
AcDbLine
 10
6278.5820566721
 20
5106.0981597394
 30
0.0
 11
6277.9546525933
 21
5106.7911019191
 31
0.0
  0
LINE
  5
17B
330
1F
100
AcDbEntity
  8
0
  6
Continuous
 62
     7
100
AcDbLine
 10
6272.2495245187
 20
5106.7911019191
 30
0.0
 11
6272.2495245187
 21
5106.7981725201
 31
0.0
  0
LINE
  5
17C
330
1F
100
AcDbEntity
  8
0
  6
Continuous
 62
     7
100
AcDbLine
 10
6265.2879861787
 20
5105.6307214886
 30
0.0
 11
6265.2879861787
 21
5105.6377920896
 31
0.0
  0
LINE
  5
17D
330
1F
100
AcDbEntity
  8
0
  6
Continuous
 62
     7
100
AcDbLine
 10
6264.4622653395
 20
5106.7911019191
 30
0.0
 11
6264.4622653395
 21
5106.7981725201
 31
0.0
  0
LINE
  5
17E
330
1F
100
AcDbEntity
  8
0
  6
Continuous
 62
     7
100
AcDbLine
 10
6268.6501654468
 20
5106.7911019191
 30
0.0
 11
6268.6501654468
 21
5106.7981725201
 31
0.0
  0
LINE
  5
17F
330
1F
100
AcDbEntity
  8
0
  6
Continuous
 62
     7
100
AcDbLine
 10
6267.8264474168
 20
5105.6307214886
 30
0.0
 11
6267.8264474168
 21
5105.6377920896
 31
0.0
  0
LINE
  5
180
330
1F
100
AcDbEntity
  8
0
  6
Continuous
 62
     7
100
AcDbLine
 10
6281.1084987268
 20
5106.7911019191
 30
0.0
 11
6281.1084987268
 21
5106.7981725201
 31
0.0
  0
LINE
  5
181
330
1F
100
AcDbEntity
  8
0
  6
Continuous
 62
     7
100
AcDbLine
 10
6280.9013674639
 20
5106.7911019191
 30
0.0
 11
6280.9013674639
 21
5106.7981725201
 31
0.0
  0
LINE
  5
182
330
1F
100
AcDbEntity
  8
0
  6
Continuous
 62
     7
100
AcDbLine
 10
6276.9931144219
 20
5106.2126118332
 30
0.0
 11
6276.9931144219
 21
5106.2196824342
 31
0.0
  0
LINE
  5
183
330
1F
100
AcDbEntity
  8
0
  6
Continuous
 62
     7
100
AcDbLine
 10
6276.4694764417
 20
5106.7911019191
 30
0.0
 11
6276.9931144219
 21
5106.2126118332
 31
0.0
  0
LINE
  5
184
330
1F
100
AcDbEntity
  8
0
  6
Continuous
 62
     7
100
AcDbLine
 10
6276.4694764417
 20
5106.7911019191
 30
0.0
 11
6276.4694764417
 21
5106.7981725201
 31
0.0
  0
LINE
  5
185
330
1F
100
AcDbEntity
  8
0
  6
Continuous
 62
     7
100
AcDbLine
 10
6264.4366241664
 20
5106.7911019191
 30
0.0
 11
6264.4366241664
 21
5106.7981725201
 31
0.0
  0
LINE
  5
186
330
1F
100
AcDbEntity
  8
0
  6
Continuous
 62
     7
100
AcDbLine
 10
6267.0007265776
 20
5106.7911019191
 30
0.0
 11
6267.0007265776
 21
5106.7981725201
 31
0.0
  0
LINE
  5
187
330
1F
100
AcDbEntity
  8
0
  6
Continuous
 62
     7
100
AcDbLine
 10
6266.9750854045
 20
5106.7911019191
 30
0.0
 11
6266.9750854045
 21
5106.7981725201
 31
0.0
  0
LINE
  5
188
330
1F
100
AcDbEntity
  8
0
  6
Continuous
 62
     7
100
AcDbLine
 10
6268.6762070887
 20
5106.7911019191
 30
0.0
 11
6268.6762070887
 21
5106.7981725201
 31
0.0
  0
LINE
  5
189
330
1F
100
AcDbEntity
  8
0
  6
Continuous
 62
     7
100
AcDbLine
 10
6270.7367040355
 20
5106.1746501937
 30
0.0
 11
6271.1028900601
 21
5106.1726664766
 31
0.0
  0
LINE
  5
18A
330
1F
100
AcDbEntity
  8
0
  6
Continuous
 62
     7
100
AcDbLine
 10
6271.1117040969
 20
5106.646054016
 30
0.0
 11
6270.7367040355
 21
5106.646054016
 31
0.0
  0
LINE
  5
18B
330
1F
100
AcDbEntity
  8
0
  6
Continuous
 62
     7
100
AcDbLine
 10
6270.7367040355
 20
5106.646054016
 30
0.0
 11
6270.7367040355
 21
5106.1746501937
 31
0.0
  0
LINE
  5
18C
330
1F
100
AcDbEntity
  8
0
  6
Continuous
 62
     7
100
AcDbLine
 10
6271.1044924006
 20
5106.0296022907
 30
0.0
 11
6271.8392681934
 21
5105.3768885895
 31
0.0
  0
LINE
  5
18D
330
1F
100
AcDbEntity
  8
0
  6
Continuous
 62
     7
100
AcDbLine
 10
6271.8392681934
 20
5105.3768885895
 30
0.0
 11
6271.6173130691
 21
5105.3768885895
 31
0.0
  0
LINE
  5
18E
330
1F
100
AcDbEntity
  8
0
  6
Continuous
 62
     7
100
AcDbLine
 10
6271.6173130691
 20
5105.3768885895
 30
0.0
 11
6270.8825372763
 21
5106.0296022907
 31
0.0
  0
LINE
  5
18F
330
1F
100
AcDbEntity
  8
0
  6
Continuous
 62
     7
100
AcDbLine
 10
6270.8825372763
 20
5106.0296022907
 30
0.0
 11
6270.7367040355
 21
5106.0296022907
 31
0.0
  0
LINE
  5
190
330
1F
100
AcDbEntity
  8
0
  6
Continuous
 62
     7
100
AcDbLine
 10
6270.7367040355
 20
5106.0296022907
 30
0.0
 11
6270.7367040355
 21
5105.3768885895
 31
0.0
  0
LINE
  5
191
330
1F
100
AcDbEntity
  8
0
  6
Continuous
 62
     7
100
AcDbLine
 10
6270.7367040355
 20
5105.3768885895
 30
0.0
 11
6270.5572169878
 21
5105.3768885895
 31
0.0
  0
LINE
  5
192
330
1F
100
AcDbEntity
  8
0
  6
Continuous
 62
     7
100
AcDbLine
 10
6270.5572169878
 20
5105.3768885895
 30
0.0
 11
6270.5572169878
 21
5106.7911019191
 31
0.0
  0
LINE
  5
193
330
1F
100
AcDbEntity
  8
0
  6
Continuous
 62
     7
100
AcDbLine
 10
6278.1617843218
 20
5106.7911019191
 30
0.0
 11
6278.1617843218
 21
5106.7981725201
 31
0.0
  0
LINE
  5
194
330
1F
100
AcDbEntity
  8
0
  6
Continuous
 62
     7
100
AcDbLine
 10
6277.9546525933
 20
5106.7911019191
 30
0.0
 11
6277.9546525933
 21
5106.7981725201
 31
0.0
  0
LINE
  5
195
330
1F
100
AcDbEntity
  8
0
  6
Continuous
 62
     7
100
AcDbLine
 10
6281.3392683536
 20
5106.7911019191
 30
0.0
 11
6281.5463996164
 21
5106.7911019191
 31
0.0
  0
LINE
  5
196
330
1F
100
AcDbEntity
  8
0
  6
Continuous
 62
     7
100
AcDbLine
 10
6281.5463996164
 20
5106.7911019191
 30
0.0
 11
6282.070037131
 21
5106.2126118332
 31
0.0
  0
LINE
  5
197
330
1F
100
AcDbEntity
  8
0
  6
Continuous
 62
     7
100
AcDbLine
 10
6282.8008068398
 20
5106.7911019191
 30
0.0
 11
6282.1738032296
 21
5106.0981597394
 31
0.0
  0
LINE
  5
198
330
1F
100
AcDbEntity
  8
0
  6
Continuous
 62
     7
100
AcDbLine
 10
6282.1738032296
 20
5106.0981597394
 30
0.0
 11
6282.8264480129
 21
5105.3768885895
 31
0.0
  0
LINE
  5
199
330
1F
100
AcDbEntity
  8
0
  6
Continuous
 62
     7
100
AcDbLine
 10
6282.8264480129
 20
5105.3768885895
 30
0.0
 11
6282.6193162844
 21
5105.3768885895
 31
0.0
  0
LINE
  5
19A
330
1F
100
AcDbEntity
  8
0
  6
Continuous
 62
     7
100
AcDbLine
 10
6282.6193162844
 20
5105.3768885895
 30
0.0
 11
6282.070037131
 21
5105.9837085768
 31
0.0
  0
LINE
  5
19B
330
1F
100
AcDbEntity
  8
0
  6
Continuous
 62
     7
100
AcDbLine
 10
6282.070037131
 20
5105.9837085768
 30
0.0
 11
6281.5207584433
 21
5105.3768885895
 31
0.0
  0
LINE
  5
19C
330
1F
100
AcDbEntity
  8
0
  6
Continuous
 62
     7
100
AcDbLine
 10
6281.5207584433
 20
5105.3768885895
 30
0.0
 11
6281.3136271805
 21
5105.3768885895
 31
0.0
  0
LINE
  5
19D
330
1F
100
AcDbEntity
  8
0
  6
Continuous
 62
     7
100
AcDbLine
 10
6281.3136271805
 20
5105.3768885895
 30
0.0
 11
6281.9666724324
 21
5106.0981597394
 31
0.0
  0
LINE
  5
19E
330
1F
100
AcDbEntity
  8
0
  6
Continuous
 62
     7
100
AcDbLine
 10
6281.9666724324
 20
5106.0981597394
 30
0.0
 11
6281.3392683536
 21
5106.7911019191
 31
0.0
  0
LINE
  5
19F
330
1F
100
AcDbEntity
  8
0
  6
Continuous
 62
     7
100
AcDbLine
 10
6279.8540919691
 20
5106.7911019191
 30
0.0
 11
6279.8540919691
 21
5106.7981725201
 31
0.0
  0
LINE
  5
1A0
330
1F
100
AcDbEntity
  8
0
  6
Continuous
 62
     7
100
AcDbLine
 10
6279.6469602406
 20
5106.7911019191
 30
0.0
 11
6279.6469602406
 21
5106.7981725201
 31
0.0
  0
LINE
  5
1A1
330
1F
100
AcDbEntity
  8
0
  6
Continuous
 62
     7
100
AcDbLine
 10
6276.2623451788
 20
5106.7911019191
 30
0.0
 11
6276.4694764417
 21
5106.7911019191
 31
0.0
  0
LINE
  5
1A2
330
1F
100
AcDbEntity
  8
0
  6
Continuous
 62
     7
100
AcDbLine
 10
6276.9931144219
 20
5106.2126118332
 30
0.0
 11
6277.5167521693
 21
5106.7911019191
 31
0.0
  0
LINE
  5
1A3
330
1F
100
AcDbEntity
  8
0
  6
Continuous
 62
     7
100
AcDbLine
 10
6277.5167521693
 20
5106.7911019191
 30
0.0
 11
6277.7238834321
 21
5106.7911019191
 31
0.0
  0
LINE
  5
1A4
330
1F
100
AcDbEntity
  8
0
  6
Continuous
 62
     7
100
AcDbLine
 10
6277.7238834321
 20
5106.7911019191
 30
0.0
 11
6277.0968802877
 21
5106.0981597394
 31
0.0
  0
LINE
  5
1A5
330
1F
100
AcDbEntity
  8
0
  6
Continuous
 62
     7
100
AcDbLine
 10
6277.0968802877
 20
5106.0981597394
 30
0.0
 11
6277.7495246053
 21
5105.3768885895
 31
0.0
  0
LINE
  5
1A6
330
1F
100
AcDbEntity
  8
0
  6
Continuous
 62
     7
100
AcDbLine
 10
6277.7495246053
 20
5105.3768885895
 30
0.0
 11
6277.5423931096
 21
5105.3768885895
 31
0.0
  0
LINE
  5
1A7
330
1F
100
AcDbEntity
  8
0
  6
Continuous
 62
     7
100
AcDbLine
 10
6277.5423931096
 20
5105.3768885895
 30
0.0
 11
6276.9931144219
 21
5105.9837085768
 31
0.0
  0
LINE
  5
1A8
330
1F
100
AcDbEntity
  8
0
  6
Continuous
 62
     7
100
AcDbLine
 10
6276.9931144219
 20
5105.9837085768
 30
0.0
 11
6276.4438355014
 21
5105.3768885895
 31
0.0
  0
LINE
  5
1A9
330
1F
100
AcDbEntity
  8
0
  6
Continuous
 62
     7
100
AcDbLine
 10
6276.4438355014
 20
5105.3768885895
 30
0.0
 11
6276.2367040057
 21
5105.3768885895
 31
0.0
  0
LINE
  5
1AA
330
1F
100
AcDbEntity
  8
0
  6
Continuous
 62
     7
100
AcDbLine
 10
6276.2367040057
 20
5105.3768885895
 30
0.0
 11
6276.8897490248
 21
5106.0981597394
 31
0.0
  0
LINE
  5
1AB
330
1F
100
AcDbEntity
  8
0
  6
Continuous
 62
     7
100
AcDbLine
 10
6276.8897490248
 20
5106.0981597394
 30
0.0
 11
6276.2623451788
 21
5106.7911019191
 31
0.0
  0
LINE
  5
1AC
330
1F
100
AcDbEntity
  8
0
  6
Continuous
 62
     7
100
AcDbLine
 10
6281.5463996164
 20
5106.7911019191
 30
0.0
 11
6281.5463996164
 21
5106.7981725201
 31
0.0
  0
LINE
  5
1AD
330
1F
100
AcDbEntity
  8
0
  6
Continuous
 62
     7
100
AcDbLine
 10
6271.4105822749
 20
5106.7718375116
 30
0.0
 11
6271.4105822749
 21
5106.7789090439
 31
0.0
  0
LINE
  5
1AE
330
1F
100
AcDbEntity
  8
0
  6
Continuous
 62
     7
100
AcDbLine
 10
6279.2090598166
 20
5106.7911019191
 30
0.0
 11
6279.2090598166
 21
5106.7981725201
 31
0.0
  0
LINE
  5
1AF
330
1F
100
AcDbEntity
  8
0
  6
Continuous
 62
     7
100
AcDbLine
 10
6279.4161910795
 20
5106.7911019191
 30
0.0
 11
6279.4161910795
 21
5106.7981725201
 31
0.0
  0
LINE
  5
1B0
330
1F
100
AcDbEntity
  8
0
  6
Continuous
 62
     7
100
AcDbLine
 10
6284.2859832242
 20
5106.7911019191
 30
0.0
 11
6284.2859832242
 21
5106.7981725201
 31
0.0
  0
LINE
  5
1B1
330
1F
100
AcDbEntity
  8
0
  6
Continuous
 62
     7
100
AcDbLine
 10
6283.762345244
 20
5106.2126118332
 30
0.0
 11
6284.2859832242
 21
5106.7911019191
 31
0.0
  0
LINE
  5
1B2
330
1F
100
AcDbEntity
  8
0
  6
Continuous
 62
     7
100
AcDbLine
 10
6283.762345244
 20
5106.2126118332
 30
0.0
 11
6283.762345244
 21
5106.2196824342
 31
0.0
  0
LINE
  5
1B3
330
1F
100
AcDbEntity
  8
0
  6
Continuous
 62
     7
100
AcDbLine
 10
6280.3777294837
 20
5106.2126118332
 30
0.0
 11
6280.3777294837
 21
5106.2196824342
 31
0.0
  0
LINE
  5
1B4
330
1F
100
AcDbEntity
  8
0
  6
Continuous
 62
     7
100
AcDbLine
 10
6276.2623451788
 20
5106.7911019191
 30
0.0
 11
6276.2623451788
 21
5106.7981725201
 31
0.0
  0
LINE
  5
1B5
330
1F
100
AcDbEntity
  8
0
  6
Continuous
 62
     7
100
AcDbLine
 10
6284.4931140214
 20
5106.7911019191
 30
0.0
 11
6284.4931140214
 21
5106.7981725201
 31
0.0
  0
LINE
  5
1B6
330
1F
100
AcDbEntity
  8
0
  6
Continuous
 62
     7
100
AcDbLine
 10
6284.2859832242
 20
5106.7911019191
 30
0.0
 11
6284.4931140214
 21
5106.7911019191
 31
0.0
  0
LINE
  5
1B7
330
1F
100
AcDbEntity
  8
0
  6
Continuous
 62
     7
100
AcDbLine
 10
6278.6854218364
 20
5106.2126118332
 30
0.0
 11
6278.6854218364
 21
5106.2196824342
 31
0.0
  0
LINE
  5
1B8
330
1F
100
AcDbEntity
  8
0
  6
Continuous
 62
     7
100
AcDbLine
 10
6283.0315755352
 20
5106.7911019191
 30
0.0
 11
6283.2387072638
 21
5106.7911019191
 31
0.0
  0
LINE
  5
1B9
330
1F
100
AcDbEntity
  8
0
  6
Continuous
 62
     7
100
AcDbLine
 10
6283.2387072638
 20
5106.7911019191
 30
0.0
 11
6283.762345244
 21
5106.2126118332
 31
0.0
  0
LINE
  5
1BA
330
1F
100
AcDbEntity
  8
0
  6
Continuous
 62
     7
100
AcDbLine
 10
6284.4931140214
 20
5106.7911019191
 30
0.0
 11
6283.8661113426
 21
5106.0981597394
 31
0.0
  0
LINE
  5
1BB
330
1F
100
AcDbEntity
  8
0
  6
Continuous
 62
     7
100
AcDbLine
 10
6283.8661113426
 20
5106.0981597394
 30
0.0
 11
6284.5187551945
 21
5105.3768885895
 31
0.0
  0
LINE
  5
1BC
330
1F
100
AcDbEntity
  8
0
  6
Continuous
 62
     7
100
AcDbLine
 10
6284.5187551945
 20
5105.3768885895
 30
0.0
 11
6284.311623466
 21
5105.3768885895
 31
0.0
  0
LINE
  5
1BD
330
1F
100
AcDbEntity
  8
0
  6
Continuous
 62
     7
100
AcDbLine
 10
6284.311623466
 20
5105.3768885895
 30
0.0
 11
6283.762345244
 21
5105.9837085768
 31
0.0
  0
LINE
  5
1BE
330
1F
100
AcDbEntity
  8
0
  6
Continuous
 62
     7
100
AcDbLine
 10
6283.762345244
 20
5105.9837085768
 30
0.0
 11
6283.2130660906
 21
5105.3768885895
 31
0.0
  0
LINE
  5
1BF
330
1F
100
AcDbEntity
  8
0
  6
Continuous
 62
     7
100
AcDbLine
 10
6283.2130660906
 20
5105.3768885895
 30
0.0
 11
6283.0059343621
 21
5105.3768885895
 31
0.0
  0
LINE
  5
1C0
330
1F
100
AcDbEntity
  8
0
  6
Continuous
 62
     7
100
AcDbLine
 10
6283.0059343621
 20
5105.3768885895
 30
0.0
 11
6283.6589796141
 21
5106.0981597394
 31
0.0
  0
LINE
  5
1C1
330
1F
100
AcDbEntity
  8
0
  6
Continuous
 62
     7
100
AcDbLine
 10
6283.6589796141
 20
5106.0981597394
 30
0.0
 11
6283.0315755352
 21
5106.7911019191
 31
0.0
  0
LINE
  5
1C2
330
1F
100
AcDbEntity
  8
0
  6
Continuous
 62
     7
100
AcDbLine
 10
6281.3392683536
 20
5106.7911019191
 30
0.0
 11
6281.3392683536
 21
5106.7981725201
 31
0.0
  0
LINE
  5
1C3
330
1F
100
AcDbEntity
  8
0
  6
Continuous
 62
     7
100
AcDbLine
 10
6283.2387072638
 20
5106.7911019191
 30
0.0
 11
6283.2387072638
 21
5106.7981725201
 31
0.0
  0
LINE
  5
1C4
330
1F
100
AcDbEntity
  8
0
  6
Continuous
 62
     7
100
AcDbLine
 10
6283.0315755352
 20
5106.7911019191
 30
0.0
 11
6283.0315755352
 21
5106.7981725201
 31
0.0
  0
LINE
  5
1C5
330
1F
100
AcDbEntity
  8
0
  6
Continuous
 62
     7
100
AcDbLine
 10
6264.172601667
 20
5105.3768885895
 30
0.0
 11
6264.172601667
 21
5105.3839591905
 31
0.0
  0
LINE
  5
1C6
330
1F
100
AcDbEntity
  8
0
  6
Continuous
 62
     7
100
AcDbLine
 10
6266.4033706903
 20
5105.3768885895
 30
0.0
 11
6266.4033706903
 21
5105.3839591905
 31
0.0
  0
LINE
  5
1C7
330
1F
100
AcDbEntity
  8
0
  6
Continuous
 62
     7
100
AcDbLine
 10
6277.5167521693
 20
5106.7911019191
 30
0.0
 11
6277.5167521693
 21
5106.7981725201
 31
0.0
  0
LINE
  5
1C8
330
1F
100
AcDbEntity
  8
0
  6
Continuous
 62
     7
100
AcDbLine
 10
6277.7238834321
 20
5106.7911019191
 30
0.0
 11
6277.7238834321
 21
5106.7981725201
 31
0.0
  0
LINE
  5
1C9
330
1F
100
AcDbEntity
  8
0
  6
Continuous
 62
     7
100
AcDbLine
 10
6268.9418323941
 20
5105.3768885895
 30
0.0
 11
6268.9418323941
 21
5105.3839591905
 31
0.0
  0
LINE
  5
1CA
330
1F
100
AcDbEntity
  8
0
  6
Continuous
 62
     7
100
AcDbLine
 10
6266.7110629052
 20
5105.3768885895
 30
0.0
 11
6266.7110629052
 21
5105.3839591905
 31
0.0
  0
LINE
  5
1CB
330
1F
100
AcDbEntity
  8
0
  6
Continuous
 62
     7
100
AcDbLine
 10
6273.5059348422
 20
5106.4129020661
 30
0.0
 11
6273.5059348422
 21
5106.4199726671
 31
0.0
  0
LINE
  5
1CC
330
1F
100
AcDbEntity
  8
0
  6
Continuous
 62
     7
100
AcDbLine
 10
6271.8136270203
 20
5106.4129020661
 30
0.0
 11
6271.8136270203
 21
5106.4199726671
 31
0.0
  0
LINE
  5
1CD
330
1F
100
AcDbEntity
  8
0
  6
Continuous
 62
     7
100
AcDbLine
 10
6272.4290117992
 20
5106.1817207947
 30
0.0
 11
6272.795197591
 21
5106.179738009
 31
0.0
  0
LINE
  5
1CE
330
1F
100
AcDbEntity
  8
0
  6
Continuous
 62
     7
100
AcDbLine
 10
6270.7367040355
 20
5106.1817207947
 30
0.0
 11
6271.1028900601
 21
5106.179738009
 31
0.0
  0
LINE
  5
1CF
330
1F
100
AcDbEntity
  8
0
  6
Continuous
 62
     7
100
AcDbLine
 10
6272.795197591
 20
5106.1726664766
 30
0.0
 11
6272.795197591
 21
5106.179738009
 31
0.0
  0
LINE
  5
1D0
330
1F
100
AcDbEntity
  8
0
  6
Continuous
 62
     7
100
AcDbLine
 10
6271.1028900601
 20
5106.1726664766
 30
0.0
 11
6271.1028900601
 21
5106.179738009
 31
0.0
  0
LINE
  5
1D1
330
1F
100
AcDbEntity
  8
0
  6
Continuous
 62
     7
100
AcDbLine
 10
6281.1341398999
 20
5105.3768885895
 30
0.0
 11
6281.1341398999
 21
5105.3839591905
 31
0.0
  0
LINE
  5
1D2
330
1F
100
AcDbEntity
  8
0
  6
Continuous
 62
     7
100
AcDbLine
 10
6277.7495246053
 20
5105.3768885895
 30
0.0
 11
6277.7495246053
 21
5105.3839591905
 31
0.0
  0
LINE
  5
1D3
330
1F
100
AcDbEntity
  8
0
  6
Continuous
 62
     7
100
AcDbLine
 10
6282.8264480129
 20
5105.3768885895
 30
0.0
 11
6282.8264480129
 21
5105.3839591905
 31
0.0
  0
LINE
  5
1D4
330
1F
100
AcDbEntity
  8
0
  6
Continuous
 62
     7
100
AcDbLine
 10
6284.5187551945
 20
5105.3768885895
 30
0.0
 11
6284.5187551945
 21
5105.3839591905
 31
0.0
  0
LINE
  5
1D5
330
1F
100
AcDbEntity
  8
0
  6
Continuous
 62
     7
100
AcDbLine
 10
6281.3136271805
 20
5105.3768885895
 30
0.0
 11
6281.3136271805
 21
5105.3839591905
 31
0.0
  0
LINE
  5
1D6
330
1F
100
AcDbEntity
  8
0
  6
Continuous
 62
     7
100
AcDbLine
 10
6279.4418322526
 20
5105.3768885895
 30
0.0
 11
6279.4418322526
 21
5105.3839591905
 31
0.0
  0
LINE
  5
1D7
330
1F
100
AcDbEntity
  8
0
  6
Continuous
 62
     7
100
AcDbLine
 10
6277.9290118858
 20
5105.3768885895
 30
0.0
 11
6277.9290118858
 21
5105.3839591905
 31
0.0
  0
LINE
  5
1D8
330
1F
100
AcDbEntity
  8
0
  6
Continuous
 62
     7
100
AcDbLine
 10
6276.2367040057
 20
5105.3768885895
 30
0.0
 11
6276.2367040057
 21
5105.3839591905
 31
0.0
  0
LINE
  5
1D9
330
1F
100
AcDbEntity
  8
0
  6
Continuous
 62
     7
100
AcDbLine
 10
6283.0059343621
 20
5105.3768885895
 30
0.0
 11
6283.0059343621
 21
5105.3839591905
 31
0.0
  0
LINE
  5
1DA
330
1F
100
AcDbEntity
  8
0
  6
Continuous
 62
     7
100
AcDbLine
 10
6279.6213195331
 20
5105.3768885895
 30
0.0
 11
6279.6213195331
 21
5105.3839591905
 31
0.0
  0
LINE
  5
1DB
330
1F
100
AcDbEntity
  8
0
  6
Continuous
 62
     7
100
AcDbLine
 10
6271.8392681934
 20
5105.3768885895
 30
0.0
 11
6271.8392681934
 21
5105.3839591905
 31
0.0
  0
LINE
  5
1DC
330
1F
100
AcDbEntity
  8
0
  6
Continuous
 62
     7
100
AcDbLine
 10
6273.5315758407
 20
5105.3768885895
 30
0.0
 11
6273.5315758407
 21
5105.3839591905
 31
0.0
  0
LINE
  5
1DD
330
1F
100
AcDbEntity
  8
0
  6
Continuous
 62
     7
100
AcDbLine
 10
6274.53157583
 20
5105.9933403149
 30
0.0
 11
6275.3008066582
 21
5105.9933403149
 31
0.0
  0
LINE
  5
1DE
330
1F
100
AcDbEntity
  8
0
  6
Continuous
 62
     7
100
AcDbLine
 10
6275.3008066582
 20
5105.9933403149
 30
0.0
 11
6275.3008066582
 21
5105.8482924118
 31
0.0
  0
LINE
  5
1DF
330
1F
100
AcDbEntity
  8
0
  6
Continuous
 62
     7
100
AcDbLine
 10
6275.3008066582
 20
5105.8482924118
 30
0.0
 11
6274.53157583
 21
5105.8482924118
 31
0.0
  0
LINE
  5
1E0
330
1F
100
AcDbEntity
  8
0
  6
Continuous
 62
     7
100
AcDbLine
 10
6274.53157583
 20
5105.8482924118
 30
0.0
 11
6274.53157583
 21
5105.9933403149
 31
0.0
  0
LINE
  5
1E1
330
1F
100
AcDbEntity
  8
0
  6
Continuous
 62
     7
100
AcDbLine
 10
6275.3008066582
 20
5105.9933403149
 30
0.0
 11
6275.3008066582
 21
5106.0004109159
 31
0.0
  0
LINE
  5
1E2
330
1F
100
AcDbEntity
  8
0
  6
Continuous
 62
     7
100
AcDbLine
 10
6274.53157583
 20
5105.9933403149
 30
0.0
 11
6274.53157583
 21
5106.0004109159
 31
0.0
  0
LINE
  5
1E3
330
1F
100
AcDbEntity
  8
0
  6
Continuous
 62
     7
100
AcDbLine
 10
6597.8934375241
 20
5525.8000647291
 30
0.0
 11
6550.1440969899
 21
5525.8000647291
 31
0.0
  0
LINE
  5
1E4
330
1F
100
AcDbEntity
  8
0
  6
Continuous
 62
     7
100
AcDbLine
 10
6550.1440969899
 20
5540.6324719652
 30
0.0
 11
6597.8934375241
 21
5540.6324719652
 31
0.0
  0
LINE
  5
1E5
330
1F
100
AcDbEntity
  8
0
  6
Continuous
 62
     7
100
AcDbLine
 10
5997.8934136823
 20
5525.8000647291
 30
0.0
 11
5950.1440731481
 21
5525.8000647291
 31
0.0
  0
LINE
  5
1E6
330
1F
100
AcDbEntity
  8
0
  6
Continuous
 62
     7
100
AcDbLine
 10
5950.1440731481
 20
5540.6324719652
 30
0.0
 11
5997.8934136823
 21
5540.6324719652
 31
0.0
  0
LINE
  5
1E7
330
1F
100
AcDbEntity
  8
0
  6
Continuous
 62
     7
100
AcDbLine
 10
7332.81539637
 20
4985.0426470503
 30
0.0
 11
7333.0079156473
 21
4985.0430866346
 31
0.0
  0
LINE
  5
1E8
330
1F
100
AcDbEntity
  8
0
  6
Continuous
 62
     7
100
AcDbLine
 10
7333.0079156473
 20
5041.2852434084
 30
0.0
 11
7332.6870936468
 21
5041.2845132515
 31
0.0
  0
LINE
  5
1E9
330
1F
100
AcDbEntity
  8
0
  6
Continuous
 62
     7
100
AcDbLine
 10
7321.4811410323
 20
5022.0646490916
 30
0.0
 11
7321.2778891936
 21
5022.4142675861
 31
0.0
  0
LINE
  5
1EA
330
1F
100
AcDbEntity
  8
0
  6
Continuous
 62
     7
100
AcDbLine
 10
7331.3974167719
 20
5003.160469757
 30
0.0
 11
7332.4188131407
 21
5003.1627943381
 31
0.0
  0
LINE
  5
1EB
330
1F
100
AcDbEntity
  8
0
  6
Continuous
 62
     7
100
AcDbLine
 10
7329.4435765162
 20
5003.1560068592
 30
0.0
 11
7329.6880002633
 21
5003.1565656528
 31
0.0
  0
LINE
  5
1EC
330
1F
100
AcDbEntity
  8
0
  6
Continuous
 62
     7
100
AcDbLine
 10
7327.4897362605
 20
5003.151551412
 30
0.0
 11
7327.7341600075
 21
5003.1521102056
 31
0.0
  0
LINE
  5
1ED
330
1F
100
AcDbEntity
  8
0
  6
Continuous
 62
     7
100
AcDbLine
 10
7325.5358922794
 20
5003.1470959648
 30
0.0
 11
7325.7803197518
 21
5003.1476547584
 31
0.0
  0
LINE
  5
1EE
330
1F
100
AcDbEntity
  8
0
  6
Continuous
 62
     7
100
AcDbLine
 10
7323.5820520237
 20
5003.1426405176
 30
0.0
 11
7323.8264757707
 21
5003.1431918606
 31
0.0
  0
LINE
  5
1EF
330
1F
100
AcDbEntity
  8
0
  6
Continuous
 62
     7
100
AcDbLine
 10
7322.8042002335
 20
5023.1409152612
 30
0.0
 11
7322.559899421
 21
5023.1403564676
 31
0.0
  0
LINE
  5
1F0
330
1F
100
AcDbEntity
  8
0
  6
Continuous
 62
     7
100
AcDbLine
 10
7324.7580404892
 20
5023.1453707084
 30
0.0
 11
7324.513743402
 21
5023.1448119148
 31
0.0
  0
LINE
  5
1F1
330
1F
100
AcDbEntity
  8
0
  6
Continuous
 62
     7
100
AcDbLine
 10
7326.7118844703
 20
5023.1498261556
 30
0.0
 11
7326.4675836578
 21
5023.1492748126
 31
0.0
  0
LINE
  5
1F2
330
1F
100
AcDbEntity
  8
0
  6
Continuous
 62
     7
100
AcDbLine
 10
7328.665724726
 20
5023.1542890534
 30
0.0
 11
7328.4214239135
 21
5023.1537302598
 31
0.0
  0
LINE
  5
1F3
330
1F
100
AcDbEntity
  8
0
  6
Continuous
 62
     7
100
AcDbLine
 10
7332.3731895104
 20
5023.1627454623
 30
0.0
 11
7330.3752641693
 21
5023.158185707
 31
0.0
  0
LINE
  5
1F4
330
1F
100
AcDbEntity
  8
0
  6
Continuous
 62
     7
100
AcDbLine
 10
7332.4192676261
 20
5002.9627984032
 30
0.0
 11
7332.7745113089
 21
5002.9636105165
 31
0.0
  0
LINE
  5
1F5
330
1F
100
AcDbEntity
  8
0
  6
Continuous
 62
     7
100
AcDbLine
 10
7332.7279749825
 20
5023.3635535106
 30
0.0
 11
7332.3727312997
 21
5023.3627413973
 31
0.0
  0
LINE
  5
1F6
330
1F
100
AcDbEntity
  8
0
  6
Continuous
 62
     7
100
AcDbLine
 10
7321.2116982355
 20
5022.47424476
 30
0.0
 11
7320.3766408875
 21
5021.63537644
 31
0.0
  0
LINE
  5
1F7
330
1F
100
AcDbEntity
  8
0
  6
Continuous
 62
     7
100
AcDbLine
 10
7321.2302166536
 20
5003.8243313893
 30
0.0
 11
7321.849497737
 21
5003.2078703508
 31
0.0
  0
LINE
  5
1F8
330
1F
100
AcDbEntity
  8
0
  6
Continuous
 62
     7
100
AcDbLine
 10
7320.4154211595
 20
5004.6354164943
 30
0.0
 11
7320.8588797167
 21
5004.1939770445
 31
0.0
  0
LINE
  5
1F9
330
1F
100
AcDbEntity
  8
0
  6
Continuous
 62
     7
100
AcDbLine
 10
7322.4808487609
 20
5004.1976799831
 30
0.0
 11
7322.7250787928
 21
5004.1982387766
 31
0.0
  0
LINE
  5
1FA
330
1F
100
AcDbEntity
  8
0
  6
Continuous
 62
     7
100
AcDbLine
 10
7322.7250787928
 20
5004.1982387766
 30
0.0
 11
7322.9693088248
 21
5004.1987901196
 31
0.0
  0
LINE
  5
1FB
330
1F
100
AcDbEntity
  8
0
  6
Continuous
 62
     7
100
AcDbLine
 10
7324.4346890166
 20
5004.2021354303
 30
0.0
 11
7324.9231490806
 21
5004.2032530173
 31
0.0
  0
LINE
  5
1FC
330
1F
100
AcDbEntity
  8
0
  6
Continuous
 62
     7
100
AcDbLine
 10
7326.3885292724
 20
5004.2065908775
 30
0.0
 11
7326.8769930616
 21
5004.2077084645
 31
0.0
  0
LINE
  5
1FD
330
1F
100
AcDbEntity
  8
0
  6
Continuous
 62
     7
100
AcDbLine
 10
7328.3423732534
 20
5004.2110537752
 30
0.0
 11
7328.5866032853
 21
5004.2116051182
 31
0.0
  0
LINE
  5
1FE
330
1F
100
AcDbEntity
  8
0
  6
Continuous
 62
     7
100
AcDbLine
 10
7328.5866032853
 20
5004.2116051182
 30
0.0
 11
7328.8308333173
 21
5004.2121639117
 31
0.0
  0
LINE
  5
1FF
330
1F
100
AcDbEntity
  8
0
  6
Continuous
 62
     7
100
AcDbLine
 10
7330.2962135091
 20
5004.2155092224
 30
0.0
 11
7330.5404435411
 21
5004.216068016
 31
0.0
  0
LINE
  5
200
330
1F
100
AcDbEntity
  8
0
  6
Continuous
 62
     7
100
AcDbLine
 10
7330.5404435411
 20
5004.216068016
 30
0.0
 11
7330.7846735731
 21
5004.2166193589
 31
0.0
  0
LINE
  5
201
330
1F
100
AcDbEntity
  8
0
  6
Continuous
 62
     7
100
AcDbLine
 10
7324.4346890166
 20
5004.2021354303
 30
0.0
 11
7324.9231490806
 21
5004.2032530173
 31
0.0
  0
LINE
  5
202
330
1F
100
AcDbEntity
  8
0
  6
Continuous
 62
     7
100
AcDbLine
 10
7326.3885292724
 20
5004.2065908775
 30
0.0
 11
7326.8769930616
 21
5004.2077084645
 31
0.0
  0
LINE
  5
203
330
1F
100
AcDbEntity
  8
0
  6
Continuous
 62
     7
100
AcDbLine
 10
7328.3423732534
 20
5004.2110537752
 30
0.0
 11
7328.5866032853
 21
5004.2116051182
 31
0.0
  0
LINE
  5
204
330
1F
100
AcDbEntity
  8
0
  6
Continuous
 62
     7
100
AcDbLine
 10
7328.5866032853
 20
5004.2116051182
 30
0.0
 11
7328.8308333173
 21
5004.2121639117
 31
0.0
  0
LINE
  5
205
330
1F
100
AcDbEntity
  8
0
  6
Continuous
 62
     7
100
AcDbLine
 10
7330.2962135091
 20
5004.2155092224
 30
0.0
 11
7330.5404435411
 21
5004.216068016
 31
0.0
  0
LINE
  5
206
330
1F
100
AcDbEntity
  8
0
  6
Continuous
 62
     7
100
AcDbLine
 10
7330.5404435411
 20
5004.216068016
 30
0.0
 11
7330.7846735731
 21
5004.2166193589
 31
0.0
  0
LINE
  5
207
330
1F
100
AcDbEntity
  8
0
  6
Continuous
 62
     7
100
AcDbLine
 10
7323.9054295733
 20
5022.0858757958
 30
0.0
 11
7323.6611995414
 21
5022.0853170022
 31
0.0
  0
LINE
  5
208
330
1F
100
AcDbEntity
  8
0
  6
Continuous
 62
     7
100
AcDbLine
 10
7323.6611995414
 20
5022.0853170022
 30
0.0
 11
7323.4258692279
 21
5022.0847805604
 31
0.0
  0
LINE
  5
209
330
1F
100
AcDbEntity
  8
0
  6
Continuous
 62
     7
100
AcDbLine
 10
7325.8592698291
 20
5022.090331243
 30
0.0
 11
7325.6150397971
 21
5022.0897724494
 31
0.0
  0
LINE
  5
20A
330
1F
100
AcDbEntity
  8
0
  6
Continuous
 62
     7
100
AcDbLine
 10
7325.6150397971
 20
5022.0897724494
 30
0.0
 11
7325.379713209
 21
5022.0892360076
 31
0.0
  0
LINE
  5
20B
330
1F
100
AcDbEntity
  8
0
  6
Continuous
 62
     7
100
AcDbLine
 10
7327.8131138101
 20
5022.0947866902
 30
0.0
 11
7327.5688837781
 21
5022.0942353472
 31
0.0
  0
LINE
  5
20C
330
1F
100
AcDbEntity
  8
0
  6
Continuous
 62
     7
100
AcDbLine
 10
7327.5688837781
 20
5022.0942353472
 30
0.0
 11
7327.3335534647
 21
5022.0936914548
 31
0.0
  0
LINE
  5
20D
330
1F
100
AcDbEntity
  8
0
  6
Continuous
 62
     7
100
AcDbLine
 10
7329.7669540658
 20
5022.0992495879
 30
0.0
 11
7329.5227240339
 21
5022.0986907944
 31
0.0
  0
LINE
  5
20E
330
1F
100
AcDbEntity
  8
0
  6
Continuous
 62
     7
100
AcDbLine
 10
7329.5227240339
 20
5022.0986907944
 30
0.0
 11
7329.2873937204
 21
5022.0981543526
 31
0.0
  0
LINE
  5
20F
330
1F
100
AcDbEntity
  8
0
  6
Continuous
 62
     7
100
AcDbLine
 10
7321.9515893176
 20
5022.0814203486
 30
0.0
 11
7321.7073592856
 21
5022.080861555
 31
0.0
  0
LINE
  5
210
330
1F
100
AcDbEntity
  8
0
  6
Continuous
 62
     7
100
AcDbLine
 10
7321.7073592856
 20
5022.080861555
 30
0.0
 11
7321.4720289722
 21
5022.0803251132
 31
0.0
  0
LINE
  5
211
330
1F
100
AcDbEntity
  8
0
  6
Continuous
 62
     7
100
AcDbLine
 10
7322.4808487609
 20
5004.1976799831
 30
0.0
 11
7322.7250787928
 21
5004.1982387766
 31
0.0
  0
LINE
  5
212
330
1F
100
AcDbEntity
  8
0
  6
Continuous
 62
     7
100
AcDbLine
 10
7322.7250787928
 20
5004.1982387766
 30
0.0
 11
7322.9693088248
 21
5004.1987901196
 31
0.0
  0
LINE
  5
213
330
1F
100
AcDbEntity
  8
0
  6
Continuous
 62
     7
100
AcDbLine
 10
7333.0079156473
 20
4962.3039221033
 30
0.0
 11
7332.3107499197
 21
4962.3039221033
 31
0.0
  0
LINE
  5
214
330
1F
100
AcDbEntity
  8
0
  6
Continuous
 62
     7
100
AcDbLine
 10
7332.3107499197
 20
4882.3039238915
 30
0.0
 11
7333.0079156473
 21
4882.3039238915
 31
0.0
  0
LINE
  5
215
330
1F
100
AcDbEntity
  8
0
  6
Continuous
 62
     7
100
AcDbLine
 10
7332.3107499197
 20
4942.3039262756
 30
0.0
 11
7322.3107482806
 21
4942.3039262756
 31
0.0
  0
LINE
  5
216
330
1F
100
AcDbEntity
  8
0
  6
Continuous
 62
     7
100
AcDbLine
 10
7322.3107482806
 20
4902.3039346203
 30
0.0
 11
7332.3107499197
 21
4902.3039346203
 31
0.0
  0
LINE
  5
217
330
1F
100
AcDbEntity
  8
0
  6
Continuous
 62
     7
100
AcDbLine
 10
7333.8079180136
 20
4813.2162546381
 30
0.0
 11
7333.8079180136
 21
5093.2162663076
 31
0.0
  0
LINE
  5
218
330
1F
100
AcDbEntity
  8
0
  6
Continuous
 62
     7
100
AcDbLine
 10
7333.0079156473
 20
4813.2162546381
 30
0.0
 11
7333.8079180136
 21
4813.2162546381
 31
0.0
  0
LINE
  5
219
330
1F
100
AcDbEntity
  8
0
  6
Continuous
 62
     7
100
AcDbLine
 10
7333.0079156473
 20
4813.2162546381
 30
0.0
 11
7333.0079156473
 21
5093.2162663076
 31
0.0
  0
LINE
  5
21A
330
1F
100
AcDbEntity
  8
0
  6
Continuous
 62
     7
100
AcDbLine
 10
7334.2579181805
 20
4813.2162546381
 30
0.0
 11
7334.2579181805
 21
5093.2162663076
 31
0.0
  0
LINE
  5
21B
330
1F
100
AcDbEntity
  8
0
  6
Continuous
 62
     7
100
AcDbLine
 10
7333.8079180136
 20
4813.2162546381
 30
0.0
 11
7334.2579181805
 21
4813.2162546381
 31
0.0
  0
LINE
  5
21C
330
1F
100
AcDbEntity
  8
0
  6
Continuous
 62
     7
100
AcDbLine
 10
7548.7579132929
 20
4813.2162546381
 30
0.0
 11
7548.7579132929
 21
5093.2162663076
 31
0.0
  0
LINE
  5
21D
330
1F
100
AcDbEntity
  8
0
  6
Continuous
 62
     7
100
AcDbLine
 10
7334.2579181805
 20
4813.2162546381
 30
0.0
 11
7548.7579132929
 21
4813.2162546381
 31
0.0
  0
LINE
  5
21E
330
1F
100
AcDbEntity
  8
0
  6
Continuous
 62
     7
100
AcDbLine
 10
7550.0079121008
 20
4813.2162546381
 30
0.0
 11
7550.0079121008
 21
5093.2162663076
 31
0.0
  0
LINE
  5
21F
330
1F
100
AcDbEntity
  8
0
  6
Continuous
 62
     7
100
AcDbLine
 10
7548.7579132929
 20
4813.2162546381
 30
0.0
 11
7550.0079121008
 21
4813.2162546381
 31
0.0
  0
LINE
  5
220
330
1F
100
AcDbEntity
  8
0
  6
Continuous
 62
     7
100
AcDbLine
 10
7333.0079156473
 20
5093.2162663076
 30
0.0
 11
7333.0079156473
 21
5593.2175373301
 31
0.0
  0
LINE
  5
221
330
1F
100
AcDbEntity
  8
0
  6
Continuous
 62
     7
100
AcDbLine
 10
7334.9579151287
 20
5593.2175373301
 30
0.0
 11
7334.9579151287
 21
5093.2162663076
 31
0.0
  0
LINE
  5
222
330
1F
100
AcDbEntity
  8
0
  6
Continuous
 62
     7
100
AcDbLine
 10
7333.0605502739
 20
5593.2175373301
 30
0.0
 11
7334.9579151287
 21
5593.2175373301
 31
0.0
  0
LINE
  5
223
330
1F
100
AcDbEntity
  8
0
  6
Continuous
 62
     7
100
AcDbLine
 10
7334.9579151287
 20
5093.2162663076
 30
0.0
 11
7333.0079156473
 21
5093.2162663076
 31
0.0
  0
LINE
  5
224
330
1F
100
AcDbEntity
  8
0
  6
Continuous
 62
     7
100
AcDbLine
 10
7555.5775042191
 20
5093.7874080837
 30
0.0
 11
7589.4370104685
 21
5127.646908687
 31
0.0
  0
LINE
  5
225
330
1F
100
AcDbEntity
  8
0
  6
Continuous
 62
     7
100
AcDbLine
 10
7590.0081570759
 20
5129.0257690117
 30
0.0
 11
7590.0081570759
 21
5486.4667212233
 31
0.0
  0
LINE
  5
226
330
1F
100
AcDbEntity
  8
0
  6
Continuous
 62
     7
100
AcDbLine
 10
7335.9579171553
 20
5593.2175373301
 30
0.0
 11
7334.9579151287
 21
5593.2175373301
 31
0.0
  0
LINE
  5
227
330
1F
100
AcDbEntity
  8
0
  6
Continuous
 62
     7
100
AcDbLine
 10
7335.9579171553
 20
5595.2175413832
 30
0.0
 11
7335.9579171553
 21
5593.2175373301
 31
0.0
  0
LINE
  5
228
330
1F
100
AcDbEntity
  8
0
  6
Continuous
 62
     7
100
AcDbLine
 10
7557.1091647759
 20
5533.451334165
 30
0.0
 11
7335.6248538509
 21
5614.065066503
 31
0.0
  0
LINE
  5
229
330
1F
100
AcDbEntity
  8
0
  6
Continuous
 62
     7
100
AcDbLine
 10
7333.0079156473
 20
5595.2175413832
 30
0.0
 11
7335.9579171553
 21
5595.2175413832
 31
0.0
  0
LINE
  5
22A
330
1F
100
AcDbEntity
  8
0
  6
Continuous
 62
     7
100
AcDbLine
 10
7334.9579151287
 20
5093.2162663076
 30
0.0
 11
7554.1986550703
 21
5093.2162663076
 31
0.0
  0
LINE
  5
22B
330
1F
100
AcDbEntity
  8
0
  6
Continuous
 62
     7
100
AcDbLine
 10
7333.0079156473
 20
5612.2326409086
 30
0.0
 11
7333.0079156473
 21
5595.2175413832
 31
0.0
  0
LINE
  5
22C
330
1F
100
AcDbEntity
  8
0
  6
Continuous
 62
     7
100
AcDbLine
 10
7333.0079156473
 20
5593.2175373301
 30
0.0
 11
7333.0605502739
 21
5593.2175373301
 31
0.0
  0
LINE
  5
22D
330
1F
100
AcDbEntity
  8
0
  6
Continuous
 62
     7
100
AcDbLine
 10
7333.0079156473
 20
5595.2175413832
 30
0.0
 11
7333.0079156473
 21
5593.2175373301
 31
0.0
  0
LINE
  5
22E
330
1F
100
AcDbEntity
  8
0
  6
Continuous
 62
     7
100
AcDbLine
 10
7334.5079149619
 20
5595.2175413832
 30
0.0
 11
7334.5079149619
 21
5593.2175373301
 31
0.0
  0
LINE
  5
22F
330
1F
100
AcDbEntity
  8
0
  6
Continuous
 62
     7
100
AcDbLine
 10
7593.0081482544
 20
5230.9680586323
 30
0.0
 11
7591.5081526652
 21
5230.9680586323
 31
0.0
  0
LINE
  5
230
330
1F
100
AcDbEntity
  8
0
  6
Continuous
 62
     7
100
AcDbLine
 10
7593.0081482544
 20
5217.8180520996
 30
0.0
 11
7593.0081482544
 21
5230.9680586323
 31
0.0
  0
LINE
  5
231
330
1F
100
AcDbEntity
  8
0
  6
Continuous
 62
     7
100
AcDbLine
 10
7591.5081526652
 20
5217.8180520996
 30
0.0
 11
7593.0081482544
 21
5217.8180520996
 31
0.0
  0
LINE
  5
232
330
1F
100
AcDbEntity
  8
0
  6
Continuous
 62
     7
100
AcDbLine
 10
7591.5081526652
 20
5217.8180520996
 30
0.0
 11
7591.5081526652
 21
5230.9680586323
 31
0.0
  0
LINE
  5
233
330
1F
100
AcDbEntity
  8
0
  6
Continuous
 62
     7
100
AcDbLine
 10
7332.81539637
 20
4985.0426470503
 30
0.0
 11
7332.8149903133
 21
4985.2194716796
 31
0.0
  0
LINE
  5
234
330
1F
100
AcDbEntity
  8
0
  6
Continuous
 62
     7
100
AcDbLine
 10
7332.8149903133
 20
4985.2194716796
 30
0.0
 11
7332.8137870446
 21
4985.7477029428
 31
0.0
  0
LINE
  5
235
330
1F
100
AcDbEntity
  8
0
  6
Continuous
 62
     7
100
AcDbLine
 10
7332.8137870446
 20
4985.7477029428
 30
0.0
 11
7332.8117940143
 21
4986.6207023725
 31
0.0
  0
LINE
  5
236
330
1F
100
AcDbEntity
  8
0
  6
Continuous
 62
     7
100
AcDbLine
 10
7332.8117940143
 20
4986.6207023725
 30
0.0
 11
7332.8090410247
 21
4987.8274952635
 31
0.0
  0
LINE
  5
237
330
1F
100
AcDbEntity
  8
0
  6
Continuous
 62
     7
100
AcDbLine
 10
7332.8090410247
 20
4987.8274952635
 30
0.0
 11
7332.8055616036
 21
4989.3529047832
 31
0.0
  0
LINE
  5
238
330
1F
100
AcDbEntity
  8
0
  6
Continuous
 62
     7
100
AcDbLine
 10
7332.8055616036
 20
4989.3529047832
 30
0.0
 11
7332.8014004543
 21
4991.177753137
 31
0.0
  0
LINE
  5
239
330
1F
100
AcDbEntity
  8
0
  6
Continuous
 62
     7
100
AcDbLine
 10
7332.8014004543
 20
4991.177753137
 30
0.0
 11
7332.7966060057
 21
4993.2790776357
 31
0.0
  0
LINE
  5
23A
330
1F
100
AcDbEntity
  8
0
  6
Continuous
 62
     7
100
AcDbLine
 10
7332.7966060057
 20
4993.2790776357
 30
0.0
 11
7332.7912415877
 21
4995.6304659709
 31
0.0
  0
LINE
  5
23B
330
1F
100
AcDbEntity
  8
0
  6
Continuous
 62
     7
100
AcDbLine
 10
7332.7912415877
 20
4995.6304659709
 30
0.0
 11
7332.7853742555
 21
4998.2023467883
 31
0.0
  0
LINE
  5
23C
330
1F
100
AcDbEntity
  8
0
  6
Continuous
 62
     7
100
AcDbLine
 10
7332.7853742555
 20
4998.2023467883
 30
0.0
 11
7332.7790785149
 21
5000.962369667
 31
0.0
  0
LINE
  5
23D
330
1F
100
AcDbEntity
  8
0
  6
Continuous
 62
     7
100
AcDbLine
 10
7332.7790785149
 20
5000.962369667
 30
0.0
 11
7332.772432597
 21
5003.8758298024
 31
0.0
  0
LINE
  5
23E
330
1F
100
AcDbEntity
  8
0
  6
Continuous
 62
     7
100
AcDbLine
 10
7332.772432597
 20
5003.8758298024
 30
0.0
 11
7332.7655184582
 21
5006.9060852393
 31
0.0
  0
LINE
  5
23F
330
1F
100
AcDbEntity
  8
0
  6
Continuous
 62
     7
100
AcDbLine
 10
7332.7655184582
 20
5006.9060852393
 30
0.0
 11
7332.7584255054
 21
5010.0150337085
 31
0.0
  0
LINE
  5
240
330
1F
100
AcDbEntity
  8
0
  6
Continuous
 62
     7
100
AcDbLine
 10
7332.7584255054
 20
5010.0150337085
 30
0.0
 11
7332.7512431457
 21
5013.1635820135
 31
0.0
  0
LINE
  5
241
330
1F
100
AcDbEntity
  8
0
  6
Continuous
 62
     7
100
AcDbLine
 10
7332.7512431457
 20
5013.1635820135
 30
0.0
 11
7332.744060786
 21
5016.312122868
 31
0.0
  0
LINE
  5
242
330
1F
100
AcDbEntity
  8
0
  6
Continuous
 62
     7
100
AcDbLine
 10
7332.744060786
 20
5016.312122868
 30
0.0
 11
7332.7369678333
 21
5019.4210787877
 31
0.0
  0
LINE
  5
243
330
1F
100
AcDbEntity
  8
0
  6
Continuous
 62
     7
100
AcDbLine
 10
7332.7369678333
 20
5019.4210787877
 30
0.0
 11
7332.7300574198
 21
5022.4513342246
 31
0.0
  0
LINE
  5
244
330
1F
100
AcDbEntity
  8
0
  6
Continuous
 62
     7
100
AcDbLine
 10
7332.7300574198
 20
5022.4513342246
 30
0.0
 11
7332.7234115019
 21
5025.3647943601
 31
0.0
  0
LINE
  5
245
330
1F
100
AcDbEntity
  8
0
  6
Continuous
 62
     7
100
AcDbLine
 10
7332.7234115019
 20
5025.3647943601
 30
0.0
 11
7332.7171157613
 21
5028.1248172387
 31
0.0
  0
LINE
  5
246
330
1F
100
AcDbEntity
  8
0
  6
Continuous
 62
     7
100
AcDbLine
 10
7332.7171157613
 20
5028.1248172387
 30
0.0
 11
7332.7112484291
 21
5030.6966980561
 31
0.0
  0
LINE
  5
247
330
1F
100
AcDbEntity
  8
0
  6
Continuous
 62
     7
100
AcDbLine
 10
7332.7112484291
 20
5030.6966980561
 30
0.0
 11
7332.7058840111
 21
5033.0480826661
 31
0.0
  0
LINE
  5
248
330
1F
100
AcDbEntity
  8
0
  6
Continuous
 62
     7
100
AcDbLine
 10
7332.7058840111
 20
5033.0480826661
 30
0.0
 11
7332.7010895625
 21
5035.14941089
 31
0.0
  0
LINE
  5
249
330
1F
100
AcDbEntity
  8
0
  6
Continuous
 62
     7
100
AcDbLine
 10
7332.7010895625
 20
5035.14941089
 30
0.0
 11
7332.6969246879
 21
5036.9742517933
 31
0.0
  0
LINE
  5
24A
330
1F
100
AcDbEntity
  8
0
  6
Continuous
 62
     7
100
AcDbLine
 10
7332.6969246879
 20
5036.9742517933
 30
0.0
 11
7332.6934452668
 21
5038.4996650383
 31
0.0
  0
LINE
  5
24B
330
1F
100
AcDbEntity
  8
0
  6
Continuous
 62
     7
100
AcDbLine
 10
7332.6934452668
 20
5038.4996650383
 30
0.0
 11
7332.6906922772
 21
5039.7064579293
 31
0.0
  0
LINE
  5
24C
330
1F
100
AcDbEntity
  8
0
  6
Continuous
 62
     7
100
AcDbLine
 10
7332.6906922772
 20
5039.7064579293
 30
0.0
 11
7332.6887029722
 21
5040.5794610843
 31
0.0
  0
LINE
  5
24D
330
1F
100
AcDbEntity
  8
0
  6
Continuous
 62
     7
100
AcDbLine
 10
7332.6887029722
 20
5040.5794610843
 30
0.0
 11
7332.6874959782
 21
5041.1076923474
 31
0.0
  0
LINE
  5
24E
330
1F
100
AcDbEntity
  8
0
  6
Continuous
 62
     7
100
AcDbLine
 10
7332.6874959782
 20
5041.1076923474
 30
0.0
 11
7332.6870936468
 21
5041.2845132515
 31
0.0
  0
LINE
  5
24F
330
1F
100
AcDbEntity
  8
0
  6
Continuous
 62
     7
100
AcDbLine
 10
7332.3959994629
 20
5013.1627699002
 30
0.0
 11
7332.3915961697
 21
5015.0931259259
 31
0.0
  0
LINE
  5
250
330
1F
100
AcDbEntity
  8
0
  6
Continuous
 62
     7
100
AcDbLine
 10
7332.3915961697
 20
5015.0931259259
 30
0.0
 11
7332.3873530641
 21
5016.9537147149
 31
0.0
  0
LINE
  5
251
330
1F
100
AcDbEntity
  8
0
  6
Continuous
 62
     7
100
AcDbLine
 10
7332.3873530641
 20
5016.9537147149
 30
0.0
 11
7332.3834191575
 21
5018.6772947773
 31
0.0
  0
LINE
  5
252
330
1F
100
AcDbEntity
  8
0
  6
Continuous
 62
     7
100
AcDbLine
 10
7332.3834191575
 20
5018.6772947773
 30
0.0
 11
7332.3799434617
 21
5020.2015569076
 31
0.0
  0
LINE
  5
253
330
1F
100
AcDbEntity
  8
0
  6
Continuous
 62
     7
100
AcDbLine
 10
7332.3799434617
 20
5020.2015569076
 30
0.0
 11
7332.3770451858
 21
5021.4714264139
 31
0.0
  0
LINE
  5
254
330
1F
100
AcDbEntity
  8
0
  6
Continuous
 62
     7
100
AcDbLine
 10
7332.3770451858
 20
5021.4714264139
 30
0.0
 11
7332.3748360887
 21
5022.4409928187
 31
0.0
  0
LINE
  5
255
330
1F
100
AcDbEntity
  8
0
  6
Continuous
 62
     7
100
AcDbLine
 10
7332.3748360887
 20
5022.4409928187
 30
0.0
 11
7332.3733869508
 21
5023.0752234921
 31
0.0
  0
LINE
  5
256
330
1F
100
AcDbEntity
  8
0
  6
Continuous
 62
     7
100
AcDbLine
 10
7332.3733869508
 20
5023.0752234921
 30
0.0
 11
7332.3727573767
 21
5023.3511929974
 31
0.0
  0
LINE
  5
257
330
1F
100
AcDbEntity
  8
0
  6
Continuous
 62
     7
100
AcDbLine
 10
7332.3727573767
 20
5023.3511929974
 30
0.0
 11
7332.3727312997
 21
5023.3627413973
 31
0.0
  0
LINE
  5
258
330
1F
100
AcDbEntity
  8
0
  6
Continuous
 62
     7
100
AcDbLine
 10
7332.4192676261
 20
5002.9627984032
 30
0.0
 11
7332.4192415491
 21
5002.9743468031
 31
0.0
  0
LINE
  5
259
330
1F
100
AcDbEntity
  8
0
  6
Continuous
 62
     7
100
AcDbLine
 10
7332.4192415491
 20
5002.9743468031
 30
0.0
 11
7332.418611975
 21
5003.2503163084
 31
0.0
  0
LINE
  5
25A
330
1F
100
AcDbEntity
  8
0
  6
Continuous
 62
     7
100
AcDbLine
 10
7332.418611975
 20
5003.2503163084
 30
0.0
 11
7332.4171665624
 21
5003.8845469817
 31
0.0
  0
LINE
  5
25B
330
1F
100
AcDbEntity
  8
0
  6
Continuous
 62
     7
100
AcDbLine
 10
7332.4171665624
 20
5003.8845469817
 30
0.0
 11
7332.4149537399
 21
5004.8541208371
 31
0.0
  0
LINE
  5
25C
330
1F
100
AcDbEntity
  8
0
  6
Continuous
 62
     7
100
AcDbLine
 10
7332.4149537399
 20
5004.8541208371
 30
0.0
 11
7332.4120591894
 21
5006.1239828929
 31
0.0
  0
LINE
  5
25D
330
1F
100
AcDbEntity
  8
0
  6
Continuous
 62
     7
100
AcDbLine
 10
7332.4120591894
 20
5006.1239828929
 30
0.0
 11
7332.4085797682
 21
5007.6482450232
 31
0.0
  0
LINE
  5
25E
330
1F
100
AcDbEntity
  8
0
  6
Continuous
 62
     7
100
AcDbLine
 10
7332.4085797682
 20
5007.6482450232
 30
0.0
 11
7332.404649587
 21
5009.3718250856
 31
0.0
  0
LINE
  5
25F
330
1F
100
AcDbEntity
  8
0
  6
Continuous
 62
     7
100
AcDbLine
 10
7332.404649587
 20
5009.3718250856
 30
0.0
 11
7332.400402756
 21
5011.2324138745
 31
0.0
  0
LINE
  5
260
330
1F
100
AcDbEntity
  8
0
  6
Continuous
 62
     7
100
AcDbLine
 10
7332.400402756
 20
5011.2324138745
 30
0.0
 11
7332.3959994629
 21
5013.1627699002
 31
0.0
  0
LINE
  5
261
330
1F
100
AcDbEntity
  8
0
  6
Continuous
 62
     7
100
AcDbLine
 10
7321.2302166536
 20
5003.8243313893
 30
0.0
 11
7320.8588797167
 21
5004.1939770445
 31
0.0
  0
LINE
  5
262
330
1F
100
AcDbEntity
  8
0
  6
Continuous
 62
     7
100
AcDbLine
 10
7320.4154211595
 20
5004.6354164943
 30
0.0
 11
7320.4153168514
 21
5004.681982623
 31
0.0
  0
LINE
  5
263
330
1F
100
AcDbEntity
  8
0
  6
Continuous
 62
     7
100
AcDbLine
 10
7320.4153168514
 20
5004.681982623
 30
0.0
 11
7320.4144712105
 21
5005.0514345631
 31
0.0
  0
LINE
  5
264
330
1F
100
AcDbEntity
  8
0
  6
Continuous
 62
     7
100
AcDbLine
 10
7320.4144712105
 20
5005.0514345631
 30
0.0
 11
7320.4128246322
 21
5005.7742004856
 31
0.0
  0
LINE
  5
265
330
1F
100
AcDbEntity
  8
0
  6
Continuous
 62
     7
100
AcDbLine
 10
7320.4128246322
 20
5005.7742004856
 30
0.0
 11
7320.4104404464
 21
5006.8186824783
 31
0.0
  0
LINE
  5
266
330
1F
100
AcDbEntity
  8
0
  6
Continuous
 62
     7
100
AcDbLine
 10
7320.4104404464
 20
5006.8186824783
 30
0.0
 11
7320.4074304119
 21
5008.1392308339
 31
0.0
  0
LINE
  5
267
330
1F
100
AcDbEntity
  8
0
  6
Continuous
 62
     7
100
AcDbLine
 10
7320.4074304119
 20
5008.1392308339
 30
0.0
 11
7320.4039174631
 21
5009.6781408056
 31
0.0
  0
LINE
  5
268
330
1F
100
AcDbEntity
  8
0
  6
Continuous
 62
     7
100
AcDbLine
 10
7320.4039174631
 20
5009.6781408056
 30
0.0
 11
7320.4000617876
 21
5011.3681485519
 31
0.0
  0
LINE
  5
269
330
1F
100
AcDbEntity
  8
0
  6
Continuous
 62
     7
100
AcDbLine
 10
7320.4000617876
 20
5011.3681485519
 30
0.0
 11
7320.3960310235
 21
5013.1353964671
 31
0.0
  0
LINE
  5
26A
330
1F
100
AcDbEntity
  8
0
  6
Continuous
 62
     7
100
AcDbLine
 10
7320.3960310235
 20
5013.1353964671
 30
0.0
 11
7320.3920002594
 21
5014.9026369318
 31
0.0
  0
LINE
  5
26B
330
1F
100
AcDbEntity
  8
0
  6
Continuous
 62
     7
100
AcDbLine
 10
7320.3920002594
 20
5014.9026369318
 30
0.0
 11
7320.388144584
 21
5016.592644678
 31
0.0
  0
LINE
  5
26C
330
1F
100
AcDbEntity
  8
0
  6
Continuous
 62
     7
100
AcDbLine
 10
7320.388144584
 20
5016.592644678
 30
0.0
 11
7320.3846353605
 21
5018.1315546497
 31
0.0
  0
LINE
  5
26D
330
1F
100
AcDbEntity
  8
0
  6
Continuous
 62
     7
100
AcDbLine
 10
7320.3846353605
 20
5018.1315546497
 30
0.0
 11
7320.3816216007
 21
5019.4521104559
 31
0.0
  0
LINE
  5
26E
330
1F
100
AcDbEntity
  8
0
  6
Continuous
 62
     7
100
AcDbLine
 10
7320.3816216007
 20
5019.4521104559
 30
0.0
 11
7320.3792374149
 21
5020.4965924486
 31
0.0
  0
LINE
  5
26F
330
1F
100
AcDbEntity
  8
0
  6
Continuous
 62
     7
100
AcDbLine
 10
7320.3792374149
 20
5020.4965924486
 30
0.0
 11
7320.3775908366
 21
5021.2193583712
 31
0.0
  0
LINE
  5
270
330
1F
100
AcDbEntity
  8
0
  6
Continuous
 62
     7
100
AcDbLine
 10
7320.3775908366
 20
5021.2193583712
 30
0.0
 11
7320.376748921
 21
5021.5888103112
 31
0.0
  0
LINE
  5
271
330
1F
100
AcDbEntity
  8
0
  6
Continuous
 62
     7
100
AcDbLine
 10
7320.376748921
 20
5021.5888103112
 30
0.0
 11
7320.3766408875
 21
5021.63537644
 31
0.0
  0
LINE
  5
272
330
1F
100
AcDbEntity
  8
0
  6
Continuous
 62
     7
100
AcDbLine
 10
7332.3107499197
 20
4962.3039221033
 30
0.0
 11
7332.3107499197
 21
4882.3039238915
 31
0.0
  0
LINE
  5
273
330
1F
100
AcDbEntity
  8
0
  6
Continuous
 62
     7
100
AcDbLine
 10
7322.3107482806
 20
4942.3039262756
 30
0.0
 11
7322.3107482806
 21
4902.3039346203
 31
0.0
  0
LINE
  5
274
330
1F
100
AcDbEntity
  8
0
  6
Continuous
 62
     7
100
AcDbLine
 10
7569.7903509751
 20
5107.8588334486
 30
0.0
 11
7569.7196449652
 21
5107.929544115
 31
0.0
  0
LINE
  5
275
330
1F
100
AcDbEntity
  8
0
  6
Continuous
 62
     7
100
AcDbLine
 10
7569.7903509751
 20
5107.8588334486
 30
0.0
 11
7566.2548269644
 21
5104.3232991934
 31
0.0
  0
LINE
  5
276
330
1F
100
AcDbEntity
  8
0
  6
Continuous
 62
     7
100
AcDbLine
 10
7566.2548269644
 20
5104.3232991934
 30
0.0
 11
7566.1841060534
 21
5104.3940098598
 31
0.0
  0
LINE
  5
277
330
1F
100
AcDbEntity
  8
0
  6
Continuous
 62
     7
100
AcDbLine
 10
7568.7367643729
 20
5106.7911019191
 30
0.0
 11
7568.7297012225
 21
5106.7981725201
 31
0.0
  0
LINE
  5
278
330
1F
100
AcDbEntity
  8
0
  6
Continuous
 62
     7
100
AcDbLine
 10
7567.3225547686
 20
5105.3768885895
 30
0.0
 11
7568.7367643729
 21
5106.7911019191
 31
0.0
  0
LINE
  5
279
330
1F
100
AcDbEntity
  8
0
  6
Continuous
 62
     7
100
AcDbLine
 10
7567.3225547686
 20
5105.3768885895
 30
0.0
 11
7567.315476717
 21
5105.3839591905
 31
0.0
  0
LINE
  5
27A
330
1F
100
AcDbEntity
  8
0
  6
Continuous
 62
     7
100
AcDbLine
 10
7568.7730337992
 20
5106.8273638949
 30
0.0
 11
7568.7659557476
 21
5106.8344344958
 31
0.0
  0
LINE
  5
27B
330
1F
100
AcDbEntity
  8
0
  6
Continuous
 62
     7
100
AcDbLine
 10
7567.1231176272
 20
5105.1774477228
 30
0.0
 11
7567.3225547686
 21
5105.3768885895
 31
0.0
  0
LINE
  5
27C
330
1F
100
AcDbEntity
  8
0
  6
Continuous
 62
     7
100
AcDbLine
 10
7568.7367643729
 20
5106.7911019191
 30
0.0
 11
7568.7730337992
 21
5106.8273638949
 31
0.0
  0
LINE
  5
27D
330
1F
100
AcDbEntity
  8
0
  6
Continuous
 62
     7
100
AcDbLine
 10
7567.1231176272
 20
5105.1774477228
 30
0.0
 11
7567.1160395756
 21
5105.1845192551
 31
0.0
  0
LINE
  5
27E
330
1F
100
AcDbEntity
  8
0
  6
Continuous
 62
     7
100
AcDbLine
 10
6195.8977488473
 20
4356.7828493397
 30
0.0
 11
6195.8977488473
 21
4356.5261768381
 31
0.0
  0
LINE
  5
27F
330
1F
100
AcDbEntity
  8
0
  6
Continuous
 62
     7
100
AcDbLine
 10
6252.1397584721
 20
4356.5261768381
 30
0.0
 11
6252.1397584721
 21
4356.7828493397
 31
0.0
  0
LINE
  5
280
330
1F
100
AcDbEntity
  8
0
  6
Continuous
 62
     7
100
AcDbLine
 10
6213.818757017
 20
4357.1380930226
 30
0.0
 11
6213.818757017
 21
4356.8426290731
 31
0.0
  0
LINE
  5
281
330
1F
100
AcDbEntity
  8
0
  6
Continuous
 62
     7
100
AcDbLine
 10
6234.2187558904
 20
4356.8426290731
 30
0.0
 11
6234.2187558904
 21
4357.1380930226
 31
0.0
  0
LINE
  5
282
330
1F
100
AcDbEntity
  8
0
  6
Continuous
 62
     7
100
AcDbLine
 10
6214.0187566772
 20
4358.6478637736
 30
0.0
 11
6214.0187566772
 21
4357.1426788549
 31
0.0
  0
LINE
  5
283
330
1F
100
AcDbEntity
  8
0
  6
Continuous
 62
     7
100
AcDbLine
 10
6214.0187566772
 20
4360.6017077546
 30
0.0
 11
6214.0187566772
 21
4360.3570344131
 31
0.0
  0
LINE
  5
284
330
1F
100
AcDbEntity
  8
0
  6
Continuous
 62
     7
100
AcDbLine
 10
6214.0187566772
 20
4362.5555480103
 30
0.0
 11
6214.0187566772
 21
4362.3108746688
 31
0.0
  0
LINE
  5
285
330
1F
100
AcDbEntity
  8
0
  6
Continuous
 62
     7
100
AcDbLine
 10
6214.0187566772
 20
4364.5093882661
 30
0.0
 11
6214.0187566772
 21
4364.2647149245
 31
0.0
  0
LINE
  5
286
330
1F
100
AcDbEntity
  8
0
  6
Continuous
 62
     7
100
AcDbLine
 10
6214.0187566772
 20
4366.4632285218
 30
0.0
 11
6214.0187566772
 21
4366.2185589056
 31
0.0
  0
LINE
  5
287
330
1F
100
AcDbEntity
  8
0
  6
Continuous
 62
     7
100
AcDbLine
 10
6234.0187562302
 20
4367.1958403866
 30
0.0
 11
6234.0187562302
 21
4367.4397463183
 31
0.0
  0
LINE
  5
288
330
1F
100
AcDbEntity
  8
0
  6
Continuous
 62
     7
100
AcDbLine
 10
6234.0187562302
 20
4365.2419964056
 30
0.0
 11
6234.0187562302
 21
4365.4859060626
 31
0.0
  0
LINE
  5
289
330
1F
100
AcDbEntity
  8
0
  6
Continuous
 62
     7
100
AcDbLine
 10
6234.0187562302
 20
4363.2881561498
 30
0.0
 11
6234.0187562302
 21
4363.5320620815
 31
0.0
  0
LINE
  5
28A
330
1F
100
AcDbEntity
  8
0
  6
Continuous
 62
     7
100
AcDbLine
 10
6234.0187562302
 20
4361.3343158941
 30
0.0
 11
6234.0187562302
 21
4361.5782218258
 31
0.0
  0
LINE
  5
28B
330
1F
100
AcDbEntity
  8
0
  6
Continuous
 62
     7
100
AcDbLine
 10
6234.0187562302
 20
4357.1426788549
 30
0.0
 11
6234.0187562302
 21
4359.6243815701
 31
0.0
  0
LINE
  5
28C
330
1F
100
AcDbEntity
  8
0
  6
Continuous
 62
     7
100
AcDbLine
 10
6232.9963428572
 20
4368.6604978721
 30
0.0
 11
6232.5187569156
 21
4369.1380614619
 31
0.0
  0
LINE
  5
28D
330
1F
100
AcDbEntity
  8
0
  6
Continuous
 62
     7
100
AcDbLine
 10
6215.5187783435
 20
4369.1381061654
 30
0.0
 11
6214.4191285267
 21
4368.0384600739
 31
0.0
  0
LINE
  5
28E
330
1F
100
AcDbEntity
  8
0
  6
Continuous
 62
     7
100
AcDbLine
 10
6215.0763069883
 20
4365.6082632224
 30
0.0
 11
6215.0763069883
 21
4365.1307294349
 31
0.0
  0
LINE
  5
28F
330
1F
100
AcDbEntity
  8
0
  6
Continuous
 62
     7
100
AcDbLine
 10
6215.0763069883
 20
4363.6544229667
 30
0.0
 11
6215.0763069883
 21
4363.1768891792
 31
0.0
  0
LINE
  5
290
330
1F
100
AcDbEntity
  8
0
  6
Continuous
 62
     7
100
AcDbLine
 10
6215.0763069883
 20
4361.7005789857
 30
0.0
 11
6215.0763069883
 21
4361.2230489235
 31
0.0
  0
LINE
  5
291
330
1F
100
AcDbEntity
  8
0
  6
Continuous
 62
     7
100
AcDbLine
 10
6215.0763069883
 20
4359.7467387299
 30
0.0
 11
6215.0763069883
 21
4359.2692086677
 31
0.0
  0
LINE
  5
292
330
1F
100
AcDbEntity
  8
0
  6
Continuous
 62
     7
100
AcDbLine
 10
6232.9612059191
 20
4366.0967232864
 30
0.0
 11
6232.9612059191
 21
4366.5767381172
 31
0.0
  0
LINE
  5
293
330
1F
100
AcDbEntity
  8
0
  6
Continuous
 62
     7
100
AcDbLine
 10
6232.9612059191
 20
4364.1428830306
 30
0.0
 11
6232.9612059191
 21
4364.6228978615
 31
0.0
  0
LINE
  5
294
330
1F
100
AcDbEntity
  8
0
  6
Continuous
 62
     7
100
AcDbLine
 10
6232.9612059191
 20
4362.1890390496
 30
0.0
 11
6232.9612059191
 21
4362.6690576057
 31
0.0
  0
LINE
  5
295
330
1F
100
AcDbEntity
  8
0
  6
Continuous
 62
     7
100
AcDbLine
 10
6232.9612059191
 20
4360.2351987939
 30
0.0
 11
6232.9612059191
 21
4360.71521735
 31
0.0
  0
LINE
  5
296
330
1F
100
AcDbEntity
  8
0
  6
Continuous
 62
     7
100
AcDbLine
 10
6232.9612059191
 20
4368.0505635421
 30
0.0
 11
6232.9612059191
 21
4368.539023606
 31
0.0
  0
LINE
  5
297
330
1F
100
AcDbEntity
  8
0
  6
Continuous
 62
     7
100
AcDbLine
 10
6215.0763069883
 20
4367.5621034782
 30
0.0
 11
6215.0763069883
 21
4367.0845696907
 31
0.0
  0
LINE
  5
298
330
1F
100
AcDbEntity
  8
0
  6
Continuous
 62
     7
100
AcDbLine
 10
6314.018754442
 20
4356.5261768381
 30
0.0
 11
6314.018754442
 21
4357.2233425657
 31
0.0
  0
LINE
  5
299
330
1F
100
AcDbEntity
  8
0
  6
Continuous
 62
     7
100
AcDbLine
 10
6294.0187548891
 20
4357.2233425657
 30
0.0
 11
6294.0187548891
 21
4367.2233442049
 31
0.0
  0
LINE
  5
29A
330
1F
100
AcDbEntity
  8
0
  6
Continuous
 62
     7
100
AcDbLine
 10
6254.0187557831
 20
4367.2233442049
 30
0.0
 11
6254.0187557831
 21
4357.2233425657
 31
0.0
  0
LINE
  5
29B
330
1F
100
AcDbEntity
  8
0
  6
Continuous
 62
     7
100
AcDbLine
 10
6549.0187612966
 20
4309.5265099983
 30
0.0
 11
6549.0187612966
 21
4306.3177495933
 31
0.0
  0
LINE
  5
29C
330
1F
100
AcDbEntity
  8
0
  6
Continuous
 62
     7
100
AcDbLine
 10
6599.0187434152
 20
4306.3177495933
 30
0.0
 11
6599.0187434152
 21
4309.5265099983
 31
0.0
  0
LINE
  5
29D
330
1F
100
AcDbEntity
  8
0
  6
Continuous
 62
     7
100
AcDbLine
 10
5949.018767257
 20
4309.5265099983
 30
0.0
 11
5949.018767257
 21
4306.3177495933
 31
0.0
  0
LINE
  5
29E
330
1F
100
AcDbEntity
  8
0
  6
Continuous
 62
     7
100
AcDbLine
 10
5999.0187493756
 20
4306.3177495933
 30
0.0
 11
5999.0187493756
 21
4309.5265099983
 31
0.0
  0
LINE
  5
29F
330
1F
100
AcDbEntity
  8
0
  6
Continuous
 62
     7
100
AcDbLine
 10
6494.7093484595
 20
4356.526508389
 30
0.0
 11
6474.0187583163
 21
4356.526508389
 31
0.0
  0
LINE
  5
2A0
330
1F
100
AcDbEntity
  8
0
  6
Continuous
 62
     7
100
AcDbLine
 10
6404.3281582788
 20
4356.526508389
 30
0.0
 11
6404.3279645637
 21
4356.5261768381
 31
0.0
  0
LINE
  5
2A1
330
1F
100
AcDbEntity
  8
0
  6
Continuous
 62
     7
100
AcDbLine
 10
6494.7095421746
 20
4356.5261768381
 30
0.0
 11
6494.7093484595
 21
4356.526508389
 31
0.0
  0
LINE
  5
2A2
330
1F
100
AcDbEntity
  8
0
  6
Continuous
 62
     7
100
AcDbLine
 10
6425.018748422
 20
4356.526508389
 30
0.0
 11
6404.3281582788
 21
4356.526508389
 31
0.0
  0
LINE
  5
2A3
330
1F
100
AcDbEntity
  8
0
  6
Continuous
 62
     7
100
AcDbLine
 10
6474.0187583163
 20
4356.526508389
 30
0.0
 11
6474.0184155896
 21
4356.5261768381
 31
0.0
  0
LINE
  5
2A4
330
1F
100
AcDbEntity
  8
0
  6
Continuous
 62
     7
100
AcDbLine
 10
6425.0190911487
 20
4356.5261768381
 30
0.0
 11
6425.018748422
 21
4356.526508389
 31
0.0
  0
LINE
  5
2A5
330
1F
100
AcDbEntity
  8
0
  6
Continuous
 62
     7
100
AcDbLine
 10
6669.0190938905
 20
4356.5261768381
 30
0.0
 11
6669.0187660649
 21
4356.526508389
 31
0.0
  0
LINE
  5
2A6
330
1F
100
AcDbEntity
  8
0
  6
Continuous
 62
     7
100
AcDbLine
 10
6669.0187660649
 20
4356.526508389
 30
0.0
 11
6648.3281461194
 21
4356.526508389
 31
0.0
  0
LINE
  5
2A7
330
1F
100
AcDbEntity
  8
0
  6
Continuous
 62
     7
100
AcDbLine
 10
6648.3281461194
 20
4356.526508389
 30
0.0
 11
6648.3279673055
 21
4356.5261768381
 31
0.0
  0
LINE
  5
2A8
330
1F
100
AcDbEntity
  8
0
  6
Continuous
 62
     7
100
AcDbLine
 10
5879.0187446073
 20
4356.526508389
 30
0.0
 11
5879.0184167817
 21
4356.5261768381
 31
0.0
  0
LINE
  5
2A9
330
1F
100
AcDbEntity
  8
0
  6
Continuous
 62
     7
100
AcDbLine
 10
5899.7093645528
 20
4356.526508389
 30
0.0
 11
5879.0187446073
 21
4356.526508389
 31
0.0
  0
LINE
  5
2AA
330
1F
100
AcDbEntity
  8
0
  6
Continuous
 62
     7
100
AcDbLine
 10
5899.7095433667
 20
4356.5261768381
 30
0.0
 11
5899.7093645528
 21
4356.526508389
 31
0.0
  0
LINE
  5
2AB
330
1F
100
AcDbEntity
  8
0
  6
Continuous
 62
     7
100
AcDbLine
 10
6874.018779178
 20
4356.5261768381
 30
0.0
 11
6872.5187686875
 21
4356.5261768381
 31
0.0
  0
LINE
  5
2AC
330
1F
100
AcDbEntity
  8
0
  6
Continuous
 62
     7
100
AcDbLine
 10
6874.018779178
 20
4353.9092386346
 30
0.0
 11
6872.5187686875
 21
4353.9092386346
 31
0.0
  0
LINE
  5
2AD
330
1F
100
AcDbEntity
  8
0
  6
Continuous
 62
     7
100
AcDbLine
 10
6872.5187686875
 20
4353.9092386346
 30
0.0
 11
6872.5187686875
 21
4356.5261768381
 31
0.0
  0
LINE
  5
2AE
330
1F
100
AcDbEntity
  8
0
  6
Continuous
 62
     7
100
AcDbLine
 10
6874.018779178
 20
4353.9092386346
 30
0.0
 11
6874.018779178
 21
4356.5261768381
 31
0.0
  0
LINE
  5
2AF
330
1F
100
AcDbEntity
  8
0
  6
Continuous
 62
     7
100
AcDbLine
 10
6874.018779178
 20
4132.4249277096
 30
0.0
 11
6872.5187686875
 21
4132.4249277096
 31
0.0
  0
LINE
  5
2B0
330
1F
100
AcDbEntity
  8
0
  6
Continuous
 62
     7
100
AcDbLine
 10
6872.5187686875
 20
4132.4249277096
 30
0.0
 11
6872.5187686875
 21
4353.9092386346
 31
0.0
  0
LINE
  5
2B1
330
1F
100
AcDbEntity
  8
0
  6
Continuous
 62
     7
100
AcDbLine
 10
6874.018779178
 20
4132.4249277096
 30
0.0
 11
6874.018779178
 21
4353.9092386346
 31
0.0
  0
LINE
  5
2B2
330
1F
100
AcDbEntity
  8
0
  6
Continuous
 62
     7
100
AcDbLine
 10
6874.018779178
 20
4099.5259354095
 30
0.0
 11
6872.5187686875
 21
4099.5259354095
 31
0.0
  0
LINE
  5
2B3
330
1F
100
AcDbEntity
  8
0
  6
Continuous
 62
     7
100
AcDbLine
 10
6872.5187686875
 20
4099.5259354095
 30
0.0
 11
6872.5187686875
 21
4132.4249277096
 31
0.0
  0
LINE
  5
2B4
330
1F
100
AcDbEntity
  8
0
  6
Continuous
 62
     7
100
AcDbLine
 10
6874.018779178
 20
4099.5259354095
 30
0.0
 11
6874.018779178
 21
4132.4249277096
 31
0.0
  0
LINE
  5
2B5
330
1F
100
AcDbEntity
  8
0
  6
Continuous
 62
     7
100
AcDbLine
 10
5674.0187314942
 20
4353.9092386346
 30
0.0
 11
5675.5187419847
 21
4353.9092386346
 31
0.0
  0
LINE
  5
2B6
330
1F
100
AcDbEntity
  8
0
  6
Continuous
 62
     7
100
AcDbLine
 10
5674.0187314942
 20
4353.9092386346
 30
0.0
 11
5674.0187314942
 21
4356.5261768381
 31
0.0
  0
LINE
  5
2B7
330
1F
100
AcDbEntity
  8
0
  6
Continuous
 62
     7
100
AcDbLine
 10
5674.0187314942
 20
4356.5261768381
 30
0.0
 11
5675.5187419847
 21
4356.5261768381
 31
0.0
  0
LINE
  5
2B8
330
1F
100
AcDbEntity
  8
0
  6
Continuous
 62
     7
100
AcDbLine
 10
5675.5187419847
 20
4353.9092386346
 30
0.0
 11
5675.5187419847
 21
4356.5261768381
 31
0.0
  0
LINE
  5
2B9
330
1F
100
AcDbEntity
  8
0
  6
Continuous
 62
     7
100
AcDbLine
 10
5674.0187314942
 20
4132.4249277096
 30
0.0
 11
5675.5187419847
 21
4132.4249277096
 31
0.0
  0
LINE
  5
2BA
330
1F
100
AcDbEntity
  8
0
  6
Continuous
 62
     7
100
AcDbLine
 10
5675.5187419847
 20
4132.4249277096
 30
0.0
 11
5675.5187419847
 21
4353.9092386346
 31
0.0
  0
LINE
  5
2BB
330
1F
100
AcDbEntity
  8
0
  6
Continuous
 62
     7
100
AcDbLine
 10
5674.0187314942
 20
4132.4249277096
 30
0.0
 11
5674.0187314942
 21
4353.9092386346
 31
0.0
  0
LINE
  5
2BC
330
1F
100
AcDbEntity
  8
0
  6
Continuous
 62
     7
100
AcDbLine
 10
5674.0187314942
 20
4099.5259354095
 30
0.0
 11
5675.5187419847
 21
4099.5259354095
 31
0.0
  0
LINE
  5
2BD
330
1F
100
AcDbEntity
  8
0
  6
Continuous
 62
     7
100
AcDbLine
 10
5675.5187419847
 20
4099.5259354095
 30
0.0
 11
5675.5187419847
 21
4132.4249277096
 31
0.0
  0
LINE
  5
2BE
330
1F
100
AcDbEntity
  8
0
  6
Continuous
 62
     7
100
AcDbLine
 10
5674.0187314942
 20
4099.5259354095
 30
0.0
 11
5674.0187314942
 21
4132.4249277096
 31
0.0
  0
LINE
  5
2BF
330
1F
100
AcDbEntity
  8
0
  6
Continuous
 62
     7
100
AcDbLine
 10
6872.5187686875
 20
4356.5261768381
 30
0.0
 11
5675.5187419847
 21
4356.5261768381
 31
0.0
  0
LINE
  5
2C0
330
1F
100
AcDbEntity
  8
0
  6
Continuous
 62
     7
100
AcDbLine
 10
6872.5187686875
 20
4353.9092386346
 30
0.0
 11
5675.5187419847
 21
4353.9092386346
 31
0.0
  0
LINE
  5
2C1
330
1F
100
AcDbEntity
  8
0
  6
Continuous
 62
     7
100
AcDbLine
 10
6872.5187686875
 20
4310.8095707576
 30
0.0
 11
6872.5187686875
 21
4353.9092386346
 31
0.0
  0
LINE
  5
2C2
330
1F
100
AcDbEntity
  8
0
  6
Continuous
 62
     7
100
AcDbLine
 10
6872.5187686875
 20
4310.8095707576
 30
0.0
 11
5675.5187419847
 21
4310.8095707576
 31
0.0
  0
LINE
  5
2C3
330
1F
100
AcDbEntity
  8
0
  6
Continuous
 62
     7
100
AcDbLine
 10
5675.5187419847
 20
4310.8095707576
 30
0.0
 11
5675.5187419847
 21
4353.9092386346
 31
0.0
  0
LINE
  5
2C4
330
1F
100
AcDbEntity
  8
0
  6
Continuous
 62
     7
100
AcDbLine
 10
6872.5187686875
 20
4309.5265099983
 30
0.0
 11
5675.5187419847
 21
4309.5265099983
 31
0.0
  0
LINE
  5
2C5
330
1F
100
AcDbEntity
  8
0
  6
Continuous
 62
     7
100
AcDbLine
 10
6872.5187686875
 20
4101.0259458999
 30
0.0
 11
5675.5187419847
 21
4101.0259458999
 31
0.0
  0
LINE
  5
2C6
330
1F
100
AcDbEntity
  8
0
  6
Continuous
 62
     7
100
AcDbLine
 10
6872.5187686875
 20
4096.525944231
 30
0.0
 11
6872.5187686875
 21
4099.5259354095
 31
0.0
  0
LINE
  5
2C7
330
1F
100
AcDbEntity
  8
0
  6
Continuous
 62
     7
100
AcDbLine
 10
6872.5187686875
 20
4096.525944231
 30
0.0
 11
5675.5187419847
 21
4096.525944231
 31
0.0
  0
LINE
  5
2C8
330
1F
100
AcDbEntity
  8
0
  6
Continuous
 62
     7
100
AcDbLine
 10
5675.5187419847
 20
4096.525944231
 30
0.0
 11
5675.5187419847
 21
4099.5259354095
 31
0.0
  0
LINE
  5
2C9
330
1F
100
AcDbEntity
  8
0
  6
Continuous
 62
     7
100
AcDbLine
 10
6872.5187686875
 20
4101.1577466707
 30
0.0
 11
5675.5187419847
 21
4101.1577466707
 31
0.0
  0
LINE
  5
2CA
330
1F
100
AcDbEntity
  8
0
  6
Continuous
 62
     7
100
AcDbLine
 10
6872.5187686875
 20
4275.5352067034
 30
0.0
 11
5675.5187419847
 21
4275.5352067034
 31
0.0
  0
LINE
  5
2CB
330
1F
100
AcDbEntity
  8
0
  6
Continuous
 62
     7
100
AcDbLine
 10
6872.5187686875
 20
4135.017238019
 30
0.0
 11
5675.5187419847
 21
4135.017238019
 31
0.0
  0
LINE
  5
2CC
330
1F
100
AcDbEntity
  8
0
  6
Continuous
 62
     7
100
AcDbLine
 10
6872.5187686875
 20
4275.2170073073
 30
0.0
 11
5675.5187419847
 21
4275.2170073073
 31
0.0
  0
LINE
  5
2CD
330
1F
100
AcDbEntity
  8
0
  6
Continuous
 62
     7
100
AcDbLine
 10
6872.5187686875
 20
4135.3354374151
 30
0.0
 11
5675.5187419847
 21
4135.3354374151
 31
0.0
  0
LINE
  5
2CE
330
1F
100
AcDbEntity
  8
0
  6
Continuous
 62
     7
100
AcDbLine
 10
6224.018754591
 20
4356.8469988386
 30
0.0
 11
6227.1673103467
 21
4356.8465965073
 31
0.0
  0
LINE
  5
2CF
330
1F
100
AcDbEntity
  8
0
  6
Continuous
 62
     7
100
AcDbLine
 10
6227.1673103467
 20
4356.8465965073
 30
0.0
 11
6230.2762662664
 21
4356.8453895132
 31
0.0
  0
LINE
  5
2D0
330
1F
100
AcDbEntity
  8
0
  6
Continuous
 62
     7
100
AcDbLine
 10
6230.2762662664
 20
4356.8453895132
 30
0.0
 11
6233.3065328792
 21
4356.8434002082
 31
0.0
  0
LINE
  5
2D1
330
1F
100
AcDbEntity
  8
0
  6
Continuous
 62
     7
100
AcDbLine
 10
6233.3065328792
 20
4356.8434002082
 30
0.0
 11
6236.2200004652
 21
4356.8406472187
 31
0.0
  0
LINE
  5
2D2
330
1F
100
AcDbEntity
  8
0
  6
Continuous
 62
     7
100
AcDbLine
 10
6236.2200004652
 20
4356.8406472187
 30
0.0
 11
6238.9800307944
 21
4356.8371677975
 31
0.0
  0
LINE
  5
2D3
330
1F
100
AcDbEntity
  8
0
  6
Continuous
 62
     7
100
AcDbLine
 10
6238.9800307944
 20
4356.8371677975
 30
0.0
 11
6241.5519153371
 21
4356.833002923
 31
0.0
  0
LINE
  5
2D4
330
1F
100
AcDbEntity
  8
0
  6
Continuous
 62
     7
100
AcDbLine
 10
6241.5519153371
 20
4356.833002923
 30
0.0
 11
6243.9033073977
 21
4356.8282084744
 31
0.0
  0
LINE
  5
2D5
330
1F
100
AcDbEntity
  8
0
  6
Continuous
 62
     7
100
AcDbLine
 10
6243.9033073977
 20
4356.8282084744
 30
0.0
 11
6246.0046412095
 21
4356.8228440563
 31
0.0
  0
LINE
  5
2D6
330
1F
100
AcDbEntity
  8
0
  6
Continuous
 62
     7
100
AcDbLine
 10
6246.0046412095
 20
4356.8228440563
 30
0.0
 11
6247.8294895634
 21
4356.8169767241
 31
0.0
  0
LINE
  5
2D7
330
1F
100
AcDbEntity
  8
0
  6
Continuous
 62
     7
100
AcDbLine
 10
6247.8294895634
 20
4356.8169767241
 30
0.0
 11
6249.354904671
 21
4356.8106809835
 31
0.0
  0
LINE
  5
2D8
330
1F
100
AcDbEntity
  8
0
  6
Continuous
 62
     7
100
AcDbLine
 10
6249.354904671
 20
4356.8106809835
 30
0.0
 11
6250.56170315
 21
4356.8040350656
 31
0.0
  0
LINE
  5
2D9
330
1F
100
AcDbEntity
  8
0
  6
Continuous
 62
     7
100
AcDbLine
 10
6250.56170315
 20
4356.8040350656
 30
0.0
 11
6251.434706305
 21
4356.7971246521
 31
0.0
  0
LINE
  5
2DA
330
1F
100
AcDbEntity
  8
0
  6
Continuous
 62
     7
100
AcDbLine
 10
6251.434706305
 20
4356.7971246521
 30
0.0
 11
6251.9629412934
 21
4356.7900316994
 31
0.0
  0
LINE
  5
2DB
330
1F
100
AcDbEntity
  8
0
  6
Continuous
 62
     7
100
AcDbLine
 10
6251.9629412934
 20
4356.7900316994
 30
0.0
 11
6252.1397584721
 21
4356.7828493397
 31
0.0
  0
LINE
  5
2DC
330
1F
100
AcDbEntity
  8
0
  6
Continuous
 62
     7
100
AcDbLine
 10
6195.8977488473
 20
4356.7828493397
 30
0.0
 11
6196.0745734766
 21
4356.7900316994
 31
0.0
  0
LINE
  5
2DD
330
1F
100
AcDbEntity
  8
0
  6
Continuous
 62
     7
100
AcDbLine
 10
6196.0745734766
 20
4356.7900316994
 30
0.0
 11
6196.6028047398
 21
4356.7971246521
 31
0.0
  0
LINE
  5
2DE
330
1F
100
AcDbEntity
  8
0
  6
Continuous
 62
     7
100
AcDbLine
 10
6196.6028047398
 20
4356.7971246521
 30
0.0
 11
6197.4758116201
 21
4356.8040350656
 31
0.0
  0
LINE
  5
2DF
330
1F
100
AcDbEntity
  8
0
  6
Continuous
 62
     7
100
AcDbLine
 10
6197.4758116201
 20
4356.8040350656
 30
0.0
 11
6198.6826045111
 21
4356.8106809835
 31
0.0
  0
LINE
  5
2E0
330
1F
100
AcDbEntity
  8
0
  6
Continuous
 62
     7
100
AcDbLine
 10
6198.6826045111
 20
4356.8106809835
 30
0.0
 11
6200.2080214813
 21
4356.8169767241
 31
0.0
  0
LINE
  5
2E1
330
1F
100
AcDbEntity
  8
0
  6
Continuous
 62
     7
100
AcDbLine
 10
6200.2080214813
 20
4356.8169767241
 30
0.0
 11
6202.0328698352
 21
4356.8228440563
 31
0.0
  0
LINE
  5
2E2
330
1F
100
AcDbEntity
  8
0
  6
Continuous
 62
     7
100
AcDbLine
 10
6202.0328698352
 20
4356.8228440563
 30
0.0
 11
6204.1342017844
 21
4356.8282084744
 31
0.0
  0
LINE
  5
2E3
330
1F
100
AcDbEntity
  8
0
  6
Continuous
 62
     7
100
AcDbLine
 10
6204.1342017844
 20
4356.8282084744
 30
0.0
 11
6206.4855975702
 21
4356.833002923
 31
0.0
  0
LINE
  5
2E4
330
1F
100
AcDbEntity
  8
0
  6
Continuous
 62
     7
100
AcDbLine
 10
6206.4855975702
 20
4356.833002923
 30
0.0
 11
6209.0574783876
 21
4356.8371677975
 31
0.0
  0
LINE
  5
2E5
330
1F
100
AcDbEntity
  8
0
  6
Continuous
 62
     7
100
AcDbLine
 10
6209.0574783876
 20
4356.8371677975
 30
0.0
 11
6211.8175087169
 21
4356.8406472187
 31
0.0
  0
LINE
  5
2E6
330
1F
100
AcDbEntity
  8
0
  6
Continuous
 62
     7
100
AcDbLine
 10
6211.8175087169
 20
4356.8406472187
 30
0.0
 11
6214.7309763029
 21
4356.8434002082
 31
0.0
  0
LINE
  5
2E7
330
1F
100
AcDbEntity
  8
0
  6
Continuous
 62
     7
100
AcDbLine
 10
6214.7309763029
 20
4356.8434002082
 30
0.0
 11
6217.7612429157
 21
4356.8453895132
 31
0.0
  0
LINE
  5
2E8
330
1F
100
AcDbEntity
  8
0
  6
Continuous
 62
     7
100
AcDbLine
 10
6217.7612429157
 20
4356.8453895132
 30
0.0
 11
6220.8702025607
 21
4356.8465965073
 31
0.0
  0
LINE
  5
2E9
330
1F
100
AcDbEntity
  8
0
  6
Continuous
 62
     7
100
AcDbLine
 10
6220.8702025607
 20
4356.8465965073
 30
0.0
 11
6224.018754591
 21
4356.8469988386
 31
0.0
  0
LINE
  5
2EA
330
1F
100
AcDbEntity
  8
0
  6
Continuous
 62
     7
100
AcDbLine
 10
6213.818757017
 20
4357.1380930226
 30
0.0
 11
6214.0030843809
 21
4357.1424963157
 31
0.0
  0
LINE
  5
2EB
330
1F
100
AcDbEntity
  8
0
  6
Continuous
 62
     7
100
AcDbLine
 10
6214.0030843809
 20
4357.1424963157
 30
0.0
 11
6214.5494019285
 21
4357.1467394213
 31
0.0
  0
LINE
  5
2EC
330
1F
100
AcDbEntity
  8
0
  6
Continuous
 62
     7
100
AcDbLine
 10
6214.5494019285
 20
4357.1467394213
 30
0.0
 11
6215.4379693463
 21
4357.1506733279
 31
0.0
  0
LINE
  5
2ED
330
1F
100
AcDbEntity
  8
0
  6
Continuous
 62
     7
100
AcDbLine
 10
6215.4379693463
 20
4357.1506733279
 30
0.0
 11
6216.6366671815
 21
4357.1541490237
 31
0.0
  0
LINE
  5
2EE
330
1F
100
AcDbEntity
  8
0
  6
Continuous
 62
     7
100
AcDbLine
 10
6216.6366671815
 20
4357.1541490237
 30
0.0
 11
6218.1021740332
 21
4357.1570472996
 31
0.0
  0
LINE
  5
2EF
330
1F
100
AcDbEntity
  8
0
  6
Continuous
 62
     7
100
AcDbLine
 10
6218.1021740332
 20
4357.1570472996
 30
0.0
 11
6219.7815237239
 21
4357.1592563967
 31
0.0
  0
LINE
  5
2F0
330
1F
100
AcDbEntity
  8
0
  6
Continuous
 62
     7
100
AcDbLine
 10
6219.7815237239
 20
4357.1592563967
 30
0.0
 11
6221.6140126482
 21
4357.1607055347
 31
0.0
  0
LINE
  5
2F1
330
1F
100
AcDbEntity
  8
0
  6
Continuous
 62
     7
100
AcDbLine
 10
6221.6140126482
 20
4357.1607055347
 30
0.0
 11
6223.5334200457
 21
4357.1613351087
 31
0.0
  0
LINE
  5
2F2
330
1F
100
AcDbEntity
  8
0
  6
Continuous
 62
     7
100
AcDbLine
 10
6223.5334200457
 20
4357.1613351087
 30
0.0
 11
6225.4703661099
 21
4357.1611227672
 31
0.0
  0
LINE
  5
2F3
330
1F
100
AcDbEntity
  8
0
  6
Continuous
 62
     7
100
AcDbLine
 10
6225.4703661099
 20
4357.1611227672
 30
0.0
 11
6227.3548489109
 21
4357.1600796859
 31
0.0
  0
LINE
  5
2F4
330
1F
100
AcDbEntity
  8
0
  6
Continuous
 62
     7
100
AcDbLine
 10
6227.3548489109
 20
4357.1600796859
 30
0.0
 11
6229.1187552407
 21
4357.1582431178
 31
0.0
  0
LINE
  5
2F5
330
1F
100
AcDbEntity
  8
0
  6
Continuous
 62
     7
100
AcDbLine
 10
6229.1187552407
 20
4357.1582431178
 30
0.0
 11
6230.6983342066
 21
4357.1556763928
 31
0.0
  0
LINE
  5
2F6
330
1F
100
AcDbEntity
  8
0
  6
Continuous
 62
     7
100
AcDbLine
 10
6230.6983342066
 20
4357.1556763928
 30
0.0
 11
6232.0364957347
 21
4357.1524763684
 31
0.0
  0
LINE
  5
2F7
330
1F
100
AcDbEntity
  8
0
  6
Continuous
 62
     7
100
AcDbLine
 10
6232.0364957347
 20
4357.1524763684
 30
0.0
 11
6233.0848781064
 21
4357.1487548034
 31
0.0
  0
LINE
  5
2F8
330
1F
100
AcDbEntity
  8
0
  6
Continuous
 62
     7
100
AcDbLine
 10
6233.0848781064
 20
4357.1487548034
 30
0.0
 11
6233.8055839434
 21
4357.1446495335
 31
0.0
  0
LINE
  5
2F9
330
1F
100
AcDbEntity
  8
0
  6
Continuous
 62
     7
100
AcDbLine
 10
6233.8055839434
 20
4357.1446495335
 30
0.0
 11
6234.1725697413
 21
4357.140305845
 31
0.0
  0
LINE
  5
2FA
330
1F
100
AcDbEntity
  8
0
  6
Continuous
 62
     7
100
AcDbLine
 10
6234.1725697413
 20
4357.140305845
 30
0.0
 11
6234.2187558904
 21
4357.1380930226
 31
0.0
  0
LINE
  5
2FB
330
1F
100
AcDbEntity
  8
0
  6
Continuous
 62
     7
100
AcDbLine
 10
6215.5187783435
 20
4369.1381061654
 30
0.0
 11
6215.704498966
 21
4369.142092226
 31
0.0
  0
LINE
  5
2FC
330
1F
100
AcDbEntity
  8
0
  6
Continuous
 62
     7
100
AcDbLine
 10
6215.704498966
 20
4369.142092226
 30
0.0
 11
6216.2536179319
 21
4369.1459479015
 31
0.0
  0
LINE
  5
2FD
330
1F
100
AcDbEntity
  8
0
  6
Continuous
 62
     7
100
AcDbLine
 10
6216.2536179319
 20
4369.1459479015
 30
0.0
 11
6217.142110844
 21
4369.1494571249
 31
0.0
  0
LINE
  5
2FE
330
1F
100
AcDbEntity
  8
0
  6
Continuous
 62
     7
100
AcDbLine
 10
6217.142110844
 20
4369.1494571249
 30
0.0
 11
6218.3311452761
 21
4369.1524708848
 31
0.0
  0
LINE
  5
2FF
330
1F
100
AcDbEntity
  8
0
  6
Continuous
 62
     7
100
AcDbLine
 10
6218.3311452761
 20
4369.1524708848
 30
0.0
 11
6219.768757154
 21
4369.1548550706
 31
0.0
  0
LINE
  5
300
330
1F
100
AcDbEntity
  8
0
  6
Continuous
 62
     7
100
AcDbLine
 10
6219.768757154
 20
4369.1548550706
 30
0.0
 11
6221.3921120062
 21
4369.1565016489
 31
0.0
  0
LINE
  5
301
330
1F
100
AcDbEntity
  8
0
  6
Continuous
 62
     7
100
AcDbLine
 10
6221.3921120062
 20
4369.1565016489
 30
0.0
 11
6223.130261679
 21
4369.1573435645
 31
0.0
  0
LINE
  5
302
330
1F
100
AcDbEntity
  8
0
  6
Continuous
 62
     7
100
AcDbLine
 10
6223.130261679
 20
4369.1573435645
 30
0.0
 11
6224.9072475031
 21
4369.1573435645
 31
0.0
  0
LINE
  5
303
330
1F
100
AcDbEntity
  8
0
  6
Continuous
 62
     7
100
AcDbLine
 10
6224.9072475031
 20
4369.1573435645
 30
0.0
 11
6226.6454009011
 21
4369.1565016489
 31
0.0
  0
LINE
  5
304
330
1F
100
AcDbEntity
  8
0
  6
Continuous
 62
     7
100
AcDbLine
 10
6226.6454009011
 20
4369.1565016489
 30
0.0
 11
6228.2687557533
 21
4369.1548550706
 31
0.0
  0
LINE
  5
305
330
1F
100
AcDbEntity
  8
0
  6
Continuous
 62
     7
100
AcDbLine
 10
6228.2687557533
 20
4369.1548550706
 30
0.0
 11
6229.706363906
 21
4369.1524708848
 31
0.0
  0
LINE
  5
306
330
1F
100
AcDbEntity
  8
0
  6
Continuous
 62
     7
100
AcDbLine
 10
6229.706363906
 20
4369.1524708848
 30
0.0
 11
6230.8953983381
 21
4369.1494571249
 31
0.0
  0
LINE
  5
307
330
1F
100
AcDbEntity
  8
0
  6
Continuous
 62
     7
100
AcDbLine
 10
6230.8953983381
 20
4369.1494571249
 30
0.0
 11
6231.7838912502
 21
4369.1459479015
 31
0.0
  0
LINE
  5
308
330
1F
100
AcDbEntity
  8
0
  6
Continuous
 62
     7
100
AcDbLine
 10
6231.7838912502
 20
4369.1459479015
 30
0.0
 11
6232.3330102161
 21
4369.142092226
 31
0.0
  0
LINE
  5
309
330
1F
100
AcDbEntity
  8
0
  6
Continuous
 62
     7
100
AcDbLine
 10
6232.3330102161
 20
4369.142092226
 30
0.0
 11
6232.5187569156
 21
4369.1380614619
 31
0.0
  0
LINE
  5
30A
330
1F
100
AcDbEntity
  8
0
  6
Continuous
 62
     7
100
AcDbLine
 10
6310.3293349639
 20
4357.2233425657
 30
0.0
 11
6234.0187562302
 21
4357.2233425657
 31
0.0
  0
LINE
  5
30B
330
1F
100
AcDbEntity
  8
0
  6
Continuous
 62
     7
100
AcDbLine
 10
6314.018754442
 20
4357.2233425657
 30
0.0
 11
6310.3293349639
 21
4357.2233425657
 31
0.0
  0
LINE
  5
30C
330
1F
100
AcDbEntity
  8
0
  6
Continuous
 62
     7
100
AcDbLine
 10
6292.17404515
 20
4367.2233442049
 30
0.0
 11
6254.0187557831
 21
4367.2233442049
 31
0.0
  0
LINE
  5
30D
330
1F
100
AcDbEntity
  8
0
  6
Continuous
 62
     7
100
AcDbLine
 10
6294.0187548891
 20
4367.2233442049
 30
0.0
 11
6292.17404515
 21
4367.2233442049
 31
0.0
  0
LINE
  5
30E
330
1F
100
AcDbEntity
  8
0
  6
Continuous
 62
     7
100
AcDbLine
 10
6258.1557111487
 20
4197.8496978264
 30
0.0
 11
6262.7012069941
 21
4200.4740381818
 31
0.0
  0
LINE
  5
30F
330
1F
100
AcDbEntity
  8
0
  6
Continuous
 62
     7
100
AcDbLine
 10
6285.3363036781
 20
4200.4740381818
 30
0.0
 11
6289.8817995235
 21
4197.8496978264
 31
0.0
  0
LINE
  5
310
330
1F
100
AcDbEntity
  8
0
  6
Continuous
 62
     7
100
AcDbLine
 10
6272.5187553231
 20
4216.677933393
 30
0.0
 11
6272.5187553231
 21
4224.7183988075
 31
0.0
  0
LINE
  5
311
330
1F
100
AcDbEntity
  8
0
  6
Continuous
 62
     7
100
AcDbLine
 10
6275.5187553491
 20
4224.7183988075
 30
0.0
 11
6275.5187553491
 21
4216.677933393
 31
0.0
  0
LINE
  5
312
330
1F
100
AcDbEntity
  8
0
  6
Continuous
 62
     7
100
AcDbLine
 10
6275.4792009409
 20
4200.2333992421
 30
0.0
 11
6275.3173496246
 21
4201.3940805773
 31
0.0
  0
LINE
  5
313
330
1F
100
AcDbEntity
  8
0
  6
Continuous
 62
     7
100
AcDbLine
 10
6275.3173496246
 20
4201.3940805773
 30
0.0
 11
6275.1405864626
 21
4202.6617074589
 31
0.0
  0
LINE
  5
314
330
1F
100
AcDbEntity
  8
0
  6
Continuous
 62
     7
100
AcDbLine
 10
6275.1405864626
 20
4202.6617074589
 30
0.0
 11
6274.9536541894
 21
4204.0022531728
 31
0.0
  0
LINE
  5
315
330
1F
100
AcDbEntity
  8
0
  6
Continuous
 62
     7
100
AcDbLine
 10
6274.9536541894
 20
4204.0022531728
 30
0.0
 11
6274.7615681517
 21
4205.3797537665
 31
0.0
  0
LINE
  5
316
330
1F
100
AcDbEntity
  8
0
  6
Continuous
 62
     7
100
AcDbLine
 10
6274.7615681517
 20
4205.3797537665
 30
0.0
 11
6274.569482114
 21
4206.7572618108
 31
0.0
  0
LINE
  5
317
330
1F
100
AcDbEntity
  8
0
  6
Continuous
 62
     7
100
AcDbLine
 10
6274.569482114
 20
4206.7572618108
 30
0.0
 11
6274.3825498408
 21
4208.0978075247
 31
0.0
  0
LINE
  5
318
330
1F
100
AcDbEntity
  8
0
  6
Continuous
 62
     7
100
AcDbLine
 10
6274.3825498408
 20
4208.0978075247
 30
0.0
 11
6274.2057867224
 21
4209.3654344063
 31
0.0
  0
LINE
  5
319
330
1F
100
AcDbEntity
  8
0
  6
Continuous
 62
     7
100
AcDbLine
 10
6274.2057867224
 20
4209.3654344063
 30
0.0
 11
6274.0439353908
 21
4210.5261157349
 31
0.0
  0
LINE
  5
31A
330
1F
100
AcDbEntity
  8
0
  6
Continuous
 62
     7
100
AcDbLine
 10
6272.5583097314
 20
4210.3189529969
 30
0.0
 11
6272.7201610476
 21
4209.1582710128
 31
0.0
  0
LINE
  5
31B
330
1F
100
AcDbEntity
  8
0
  6
Continuous
 62
     7
100
AcDbLine
 10
6272.7201610476
 20
4209.1582710128
 30
0.0
 11
6272.8969242096
 21
4207.8906515817
 31
0.0
  0
LINE
  5
31C
330
1F
100
AcDbEntity
  8
0
  6
Continuous
 62
     7
100
AcDbLine
 10
6272.8969242096
 20
4207.8906515817
 30
0.0
 11
6273.0838564828
 21
4206.5500984173
 31
0.0
  0
LINE
  5
31D
330
1F
100
AcDbEntity
  8
0
  6
Continuous
 62
     7
100
AcDbLine
 10
6273.0838564828
 20
4206.5500984173
 30
0.0
 11
6273.2759425205
 21
4205.1725978236
 31
0.0
  0
LINE
  5
31E
330
1F
100
AcDbEntity
  8
0
  6
Continuous
 62
     7
100
AcDbLine
 10
6273.2759425205
 20
4205.1725978236
 30
0.0
 11
6273.4680285582
 21
4203.7950897793
 31
0.0
  0
LINE
  5
31F
330
1F
100
AcDbEntity
  8
0
  6
Continuous
 62
     7
100
AcDbLine
 10
6273.4680285582
 20
4203.7950897793
 30
0.0
 11
6273.6549608314
 21
4202.4545440654
 31
0.0
  0
LINE
  5
320
330
1F
100
AcDbEntity
  8
0
  6
Continuous
 62
     7
100
AcDbLine
 10
6273.6549608314
 20
4202.4545440654
 30
0.0
 11
6273.8317239498
 21
4201.1869171838
 31
0.0
  0
LINE
  5
321
330
1F
100
AcDbEntity
  8
0
  6
Continuous
 62
     7
100
AcDbLine
 10
6273.8317239498
 20
4201.1869171838
 30
0.0
 11
6273.9935752814
 21
4200.0262365041
 31
0.0
  0
LINE
  5
322
330
1F
100
AcDbEntity
  8
0
  6
Continuous
 62
     7
100
AcDbLine
 10
6597.8934375241
 20
4303.9169897529
 30
0.0
 11
6550.1440969899
 21
4303.9169897529
 31
0.0
  0
LINE
  5
323
330
1F
100
AcDbEntity
  8
0
  6
Continuous
 62
     7
100
AcDbLine
 10
5997.8934136823
 20
4303.9169897529
 30
0.0
 11
5950.1440731481
 21
4303.9169897529
 31
0.0
  0
LINE
  5
324
330
1F
100
AcDbEntity
  8
0
  6
Continuous
 62
     7
100
AcDbLine
 10
6872.5187686875
 20
4309.3947080488
 30
0.0
 11
6599.0187434152
 21
4309.3947080488
 31
0.0
  0
LINE
  5
325
330
1F
100
AcDbEntity
  8
0
  6
Continuous
 62
     7
100
AcDbLine
 10
6549.0187612966
 20
4309.3947080488
 30
0.0
 11
5999.0187493756
 21
4309.3947080488
 31
0.0
  0
LINE
  5
326
330
1F
100
AcDbEntity
  8
0
  6
Continuous
 62
     7
100
AcDbLine
 10
5949.018767257
 20
4309.3947080488
 30
0.0
 11
5675.5187419847
 21
4309.3947080488
 31
0.0
  0
LINE
  5
327
330
1F
100
AcDbEntity
  8
0
  6
Continuous
 62
     7
100
AcDbLine
 10
6274.0187553361
 20
4224.77617806
 30
0.0
 11
6274.0187553361
 21
4216.7761767487
 31
0.0
  0
LWPOLYLINE
  5
328
330
1F
100
AcDbEntity
  8
0
  6
Continuous
 62
     7
100
AcDbPolyline
 90
        3
 70
   128
 43
0.0
 10
6271.4080810547
 20
5106.7789090439
 10
6271.7304496601
 20
5106.6272524375
 10
6271.8136270203
 20
5106.4199726671
  0
LWPOLYLINE
  5
329
330
1F
100
AcDbEntity
  8
0
  6
Continuous
 62
     7
100
AcDbPolyline
 90
        3
 70
   128
 43
0.0
 10
6270.9541320801
 20
5106.7981725201
 10
6271.2118505576
 20
5106.7943334389
 10
6271.4105822749
 20
5106.7789090439
  0
LWPOLYLINE
  5
32A
330
1F
100
AcDbEntity
  8
0
  6
Continuous
 62
     7
100
AcDbPolyline
 90
        3
 70
   128
 43
0.0
 10
6273.1018066406
 20
5106.7789090439
 10
6273.4227573756
 20
5106.627252427
 10
6273.5059348422
 20
5106.4199726671
  0
LWPOLYLINE
  5
32B
330
1F
100
AcDbEntity
  8
0
  6
Continuous
 62
     7
100
AcDbPolyline
 90
        3
 70
   128
 43
0.0
 10
6272.647857666
 20
5106.7981725201
 10
6272.904158238
 20
5106.7943334431
 10
6273.1028899805
 20
5106.7789090439
  0
LWPOLYLINE
  5
32C
330
1F
100
AcDbEntity
  8
0
  6
Continuous
 62
     7
100
AcDbPolyline
 90
        4
 70
   128
 43
0.0
 10
6272.7928161621
 20
5106.1726664766
 10
6273.1463106989
 20
5106.2100157523
 10
6273.2777686699
 20
5106.2924914407
 10
6273.3264476199
 20
5106.4131851882
  0
LWPOLYLINE
  5
32D
330
1F
100
AcDbEntity
  8
0
  6
Continuous
 62
     7
100
AcDbPolyline
 90
        4
 70
   128
 43
0.0
 10
6273.323059082
 20
5106.4131851882
 10
6273.277674851
 20
5106.5301009264
 10
6273.1491881053
 20
5106.6116946934
 10
6272.8040117443
 20
5106.646054016
  0
LWPOLYLINE
  5
32E
330
1F
100
AcDbEntity
  8
0
  6
Continuous
 62
     7
100
AcDbPolyline
 90
        3
 70
   128
 43
0.0
 10
6272.647857666
 20
5106.7911019191
 10
6272.9041582319
 20
5106.7872619112
 10
6273.1028899805
 20
5106.7718375116
  0
LWPOLYLINE
  5
32F
330
1F
100
AcDbEntity
  8
0
  6
Continuous
 62
     7
100
AcDbPolyline
 90
        3
 70
   128
 43
0.0
 10
6273.1018066406
 20
5106.7718375116
 10
6273.4227530572
 20
5106.6201854784
 10
6273.5059348422
 20
5106.4129020661
  0
LWPOLYLINE
  5
330
330
1F
100
AcDbEntity
  8
0
  6
Continuous
 62
     7
100
AcDbPolyline
 90
        4
 70
   128
 43
0.0
 10
6273.5023498535
 20
5106.4129020661
 10
6273.4525070525
 20
5106.2397548129
 10
6273.2850001598
 20
5106.1072536128
 10
6272.7968001643
 20
5106.0296022907
  0
LWPOLYLINE
  5
331
330
1F
100
AcDbEntity
  8
0
  6
Continuous
 62
     7
100
AcDbPolyline
 90
        4
 70
   128
 43
0.0
 10
6271.0990905762
 20
5106.1726664766
 10
6271.4540030946
 20
5106.210015747
 10
6271.5854609412
 20
5106.2924914822
 10
6271.6341399725
 20
5106.4131851882
  0
LWPOLYLINE
  5
332
330
1F
100
AcDbEntity
  8
0
  6
Continuous
 62
     7
100
AcDbPolyline
 90
        4
 70
   128
 43
0.0
 10
6271.6331481934
 20
5106.4131851882
 10
6271.5853671166
 20
5106.5301008946
 10
6271.4568804073
 20
5106.61169467
 10
6271.1117040969
 20
5106.646054016
  0
LWPOLYLINE
  5
333
330
1F
100
AcDbEntity
  8
0
  6
Continuous
 62
     7
100
AcDbPolyline
 90
        3
 70
   128
 43
0.0
 10
6270.9541320801
 20
5106.7911019191
 10
6271.2118505515
 20
5106.7872619071
 10
6271.4105822749
 20
5106.7718375116
  0
LWPOLYLINE
  5
334
330
1F
100
AcDbEntity
  8
0
  6
Continuous
 62
     7
100
AcDbPolyline
 90
        3
 70
   128
 43
0.0
 10
6271.4080810547
 20
5106.7718375116
 10
6271.7304453418
 20
5106.6201854889
 10
6271.8136270203
 20
5106.4129020661
  0
LWPOLYLINE
  5
335
330
1F
100
AcDbEntity
  8
0
  6
Continuous
 62
     7
100
AcDbPolyline
 90
        4
 70
   128
 43
0.0
 10
6271.8124389648
 20
5106.4129020661
 10
6271.760199288
 20
5106.2397548073
 10
6271.5926923978
 20
5106.1072535989
 10
6271.1044924006
 20
5106.0296022907
  0
LWPOLYLINE
  5
336
330
1F
100
AcDbEntity
  8
0
  6
Continuous
 62
     7
100
AcDbPolyline
 90
        4
 70
   128
 43
0.0
 10
6272.7928161621
 20
5106.179738009
 10
6273.1463087421
 20
5106.21708567
 10
6273.2777641365
 20
5106.2995565992
 10
6273.3264476199
 20
5106.4202557891
  0
LWPOLYLINE
  5
337
330
1F
100
AcDbEntity
  8
0
  6
Continuous
 62
     7
100
AcDbPolyline
 90
        4
 70
   128
 43
0.0
 10
6271.0990905762
 20
5106.179738009
 10
6271.4540011378
 20
5106.2170856647
 10
6271.5854564078
 20
5106.2995566407
 10
6271.6341399725
 20
5106.4202557891
  0
LWPOLYLINE
  5
338
330
1F
100
AcDbEntity
  8
0
  6
Continuous
 62
     7
100
AcDbPolyline
 90
        3
 70
   128
 43
0.0
 10
6550.1403808594
 20
5540.6324719652
 10
6549.0378985441
 20
5532.2586477203
 10
6550.1440969899
 20
5525.8000647291
  0
LWPOLYLINE
  5
339
330
1F
100
AcDbEntity
  8
0
  6
Continuous
 62
     7
100
AcDbPolyline
 90
        3
 70
   128
 43
0.0
 10
6597.8927612305
 20
5525.8000647291
 10
6598.9996065554
 20
5534.1738883531
 10
6597.8934375241
 20
5540.6324719652
  0
LWPOLYLINE
  5
33A
330
1F
100
AcDbEntity
  8
0
  6
Continuous
 62
     7
100
AcDbPolyline
 90
        3
 70
   128
 43
0.0
 10
5950.1419067383
 20
5540.6324719652
 10
5949.0379041168
 20
5532.2586483413
 10
5950.1440731481
 20
5525.8000647291
  0
LWPOLYLINE
  5
33B
330
1F
100
AcDbEntity
  8
0
  6
Continuous
 62
     7
100
AcDbPolyline
 90
        3
 70
   128
 43
0.0
 10
5997.8904724121
 20
5525.8000647291
 10
5998.9996121281
 20
5534.1738889741
 10
5997.8934136823
 20
5540.6324719652
  0
LWPOLYLINE
  5
33C
330
1F
100
AcDbEntity
  8
0
  6
Continuous
 62
     7
100
AcDbPolyline
 90
        3
 70
   128
 43
0.0
 10
7323.8410949707
 20
5003.1572213039
 10
7324.1791028698
 20
5003.7423966501
 10
7324.4435924604
 20
5004.202157782
  0
LWPOLYLINE
  5
33D
330
1F
100
AcDbEntity
  8
0
  6
Continuous
 62
     7
100
AcDbPolyline
 90
        3
 70
   128
 43
0.0
 10
7325.7942199707
 20
5003.1616767511
 10
7326.1329458712
 20
5003.746850518
 10
7326.3974327162
 20
5004.2066132292
  0
LWPOLYLINE
  5
33E
330
1F
100
AcDbEntity
  8
0
  6
Continuous
 62
     7
100
AcDbPolyline
 90
        3
 70
   128
 43
0.0
 10
7327.7473449707
 20
5003.1661321983
 10
7328.086786127
 20
5003.7513059652
 10
7328.3512729719
 20
5004.2110686764
  0
LWPOLYLINE
  5
33F
330
1F
100
AcDbEntity
  8
0
  6
Continuous
 62
     7
100
AcDbPolyline
 90
        3
 70
   128
 43
0.0
 10
7329.7004699707
 20
5003.1705876454
 10
7330.040623511
 20
5003.7557640071
 10
7330.3051132276
 20
5004.2155241236
  0
LWPOLYLINE
  5
340
330
1F
100
AcDbEntity
  8
0
  6
Continuous
 62
     7
100
AcDbPolyline
 90
        3
 70
   128
 43
0.0
 10
7323.4329223633
 20
5022.0691045388
 10
7323.0905988386
 20
5022.6614978825
 10
7322.8200476184
 20
5023.1269677743
  0
LWPOLYLINE
  5
341
330
1F
100
AcDbEntity
  8
0
  6
Continuous
 62
     7
100
AcDbPolyline
 90
        3
 70
   128
 43
0.0
 10
7325.3860473633
 20
5022.0735674366
 10
7325.0444375093
 20
5022.6659556865
 10
7324.7738878742
 20
5023.1314232215
  0
LWPOLYLINE
  5
342
330
1F
100
AcDbEntity
  8
0
  6
Continuous
 62
     7
100
AcDbPolyline
 90
        3
 70
   128
 43
0.0
 10
7327.3391723633
 20
5022.0780228838
 10
7326.9982780408
 20
5022.6704103411
 10
7326.7277281299
 20
5023.1358786687
  0
LWPOLYLINE
  5
343
330
1F
100
AcDbEntity
  8
0
  6
Continuous
 62
     7
100
AcDbPolyline
 90
        3
 70
   128
 43
0.0
 10
7329.2961120605
 20
5022.082478331
 10
7328.9521241931
 20
5022.674869216
 10
7328.6815683856
 20
5023.1403341159
  0
LWPOLYLINE
  5
344
330
1F
100
AcDbEntity
  8
0
  6
Continuous
 62
     7
100
AcDbPolyline
 90
        3
 70
   128
 43
0.0
 10
7321.8879699707
 20
5003.1527584061
 10
7322.2303224521
 20
5003.7467380224
 10
7322.498789759
 20
5004.2134156093
  0
LWPOLYLINE
  5
345
330
1F
100
AcDbEntity
  8
0
  6
Continuous
 62
     7
100
AcDbPolyline
 90
        3
 70
   128
 43
0.0
 10
7324.8519897461
 20
5004.4176583752
 10
7325.1985585866
 20
5003.8373996322
 10
7325.4686098113
 20
5003.3812453612
  0
LWPOLYLINE
  5
346
330
1F
100
AcDbEntity
  8
0
  6
Continuous
 62
     7
100
AcDbPolyline
 90
        3
 70
   128
 43
0.0
 10
7326.8051147461
 20
5004.4221138224
 10
7327.1523995648
 20
5003.8418543021
 10
7327.4224537924
 20
5003.3857008084
  0
LWPOLYLINE
  5
347
330
1F
100
AcDbEntity
  8
0
  6
Continuous
 62
     7
100
AcDbPolyline
 90
        3
 70
   128
 43
0.0
 10
7328.7620544434
 20
5004.4265692696
 10
7329.1062398205
 20
5003.8463097493
 10
7329.3762940481
 20
5003.3901562556
  0
LWPOLYLINE
  5
348
330
1F
100
AcDbEntity
  8
0
  6
Continuous
 62
     7
100
AcDbPolyline
 90
        3
 70
   128
 43
0.0
 10
7330.7151794434
 20
5004.4310247168
 10
7331.0600834606
 20
5003.8507664653
 10
7331.3301343038
 20
5003.3946117028
  0
LWPOLYLINE
  5
349
330
1F
100
AcDbEntity
  8
0
  6
Continuous
 62
     7
100
AcDbPolyline
 90
        3
 70
   128
 43
0.0
 10
7324.4972229004
 20
5023.1310506925
 10
7324.1561315446
 20
5022.5371169542
 10
7323.8876860156
 20
5022.0704754457
  0
LWPOLYLINE
  5
34A
330
1F
100
AcDbEntity
  8
0
  6
Continuous
 62
     7
100
AcDbPolyline
 90
        3
 70
   128
 43
0.0
 10
7326.4503479004
 20
5023.1355135903
 10
7326.1099718003
 20
5022.5415798519
 10
7325.8415262714
 20
5022.0749383434
  0
LWPOLYLINE
  5
34B
330
1F
100
AcDbEntity
  8
0
  6
Continuous
 62
     7
100
AcDbPolyline
 90
        3
 70
   128
 43
0.0
 10
7328.4034729004
 20
5023.1399690375
 10
7328.063812056
 20
5022.5460352991
 10
7327.7953665271
 20
5022.0793937906
  0
LWPOLYLINE
  5
34C
330
1F
100
AcDbEntity
  8
0
  6
Continuous
 62
     7
100
AcDbPolyline
 90
        3
 70
   128
 43
0.0
 10
7330.3565979004
 20
5023.1444244846
 10
7330.0176532959
 20
5022.550492323
 10
7329.7492105081
 20
5022.0838492378
  0
LWPOLYLINE
  5
34D
330
1F
100
AcDbEntity
  8
0
  6
Continuous
 62
     7
100
AcDbPolyline
 90
        3
 70
   128
 43
0.0
 10
7322.5402832031
 20
5023.1265952453
 10
7322.2022885477
 20
5022.5326630837
 10
7321.9338457599
 20
5022.0660199985
  0
LWPOLYLINE
  5
34E
330
1F
100
AcDbEntity
  8
0
  6
Continuous
 62
     7
100
AcDbPolyline
 90
        3
 70
   128
 43
0.0
 10
7322.8988647461
 20
5004.4131954774
 10
7323.2447187124
 20
5003.832937226
 10
7323.5147695556
 20
5003.3767824635
  0
LWPOLYLINE
  5
34F
330
1F
100
AcDbEntity
  8
0
  6
Continuous
 62
     7
100
AcDbPolyline
 90
        8
 70
   128
 43
0.0
 10
7321.8879699707
 20
5003.2478874191
 10
7321.882486961
 20
5003.2373853541
 10
7321.8790491247
 20
5003.2344013882
 10
7321.8755953031
 20
5003.2341379021
 10
7321.870956132
 20
5003.2395857996
 10
7321.8122147455
 20
5003.9425570051
 10
7321.5628599939
 20
5012.8938815666
 10
7321.22625667
 20
5022.4597533807
  0
LWPOLYLINE
  5
350
330
1F
100
AcDbEntity
  8
0
  6
Continuous
 62
     7
100
AcDbPolyline
 90
        8
 70
   128
 43
0.0
 10
7321.4797973633
 20
5021.9424968228
 10
7321.4966071256
 20
5021.9419755433
 10
7321.5114359968
 20
5021.9294442151
 10
7321.6035824584
 20
5021.2346648069
 10
7321.9817245233
 20
5012.8721791688
 10
7322.359866821
 20
5004.829167924
 10
7322.4209252661
 20
5004.3915207886
 10
7322.4804874077
 20
5004.2881598338
  0
LWPOLYLINE
  5
351
330
1F
100
AcDbEntity
  8
0
  6
Continuous
 62
     7
100
AcDbPolyline
 90
        8
 70
   128
 43
0.0
 10
7323.4329223633
 20
5021.9469522699
 10
7323.4504487776
 20
5021.9464309946
 10
7323.4652789115
 20
5021.9338996735
 10
7323.5574269027
 20
5021.239120394
 10
7323.9355653985
 20
5012.8766352882
 10
7324.3137071652
 20
5004.8336229792
 10
7324.3747655061
 20
5004.3959762984
 10
7324.4343276635
 20
5004.292615281
  0
LWPOLYLINE
  5
352
330
1F
100
AcDbEntity
  8
0
  6
Continuous
 62
     7
100
AcDbPolyline
 90
        8
 70
   128
 43
0.0
 10
7325.3860473633
 20
5021.9514077171
 10
7325.4042913669
 20
5021.9508864356
 10
7325.4191202384
 20
5021.9383551111
 10
7325.5112665981
 20
5021.24357591
 10
7325.8894054208
 20
5012.8810921525
 10
7326.2675465811
 20
5004.8380842734
 10
7326.3286065015
 20
5004.4004382687
 10
7326.3881716445
 20
5004.2970707282
  0
LWPOLYLINE
  5
353
330
1F
100
AcDbEntity
  8
0
  6
Continuous
 62
     7
100
AcDbPolyline
 90
        8
 70
   128
 43
0.0
 10
7327.3429870605
 20
5021.9558631643
 10
7327.3581316139
 20
5021.955341883
 10
7327.3729604814
 20
5021.9428105635
 10
7327.4651069302
 20
5021.2480315614
 10
7327.8432488832
 20
5012.8855496008
 10
7328.2213885405
 20
5004.8425413884
 10
7328.2824463999
 20
5004.4048945048
 10
7328.3420119002
 20
5004.301533626
  0
LWPOLYLINE
  5
354
330
1F
100
AcDbEntity
  8
0
  6
Continuous
 62
     7
100
AcDbPolyline
 90
        8
 70
   128
 43
0.0
 10
7329.2961120605
 20
5021.9603186115
 10
7329.3119718776
 20
5021.9598001082
 10
7329.3268007523
 20
5021.947271295
 10
7329.4189472179
 20
5021.2524950557
 10
7329.7970892772
 20
5012.8900082625
 10
7330.1752315706
 20
5004.8469971488
 10
7330.236290015
 20
5004.4093500255
 10
7330.295852156
 20
5004.3059890732
  0
LWPOLYLINE
  5
355
330
1F
100
AcDbEntity
  8
0
  6
Continuous
 62
     7
100
AcDbPolyline
 90
        8
 70
   128
 43
0.0
 10
7322.8187561035
 20
5023.0113124117
 10
7323.3245792563
 20
5012.8717559285
 10
7323.7046876445
 20
5003.8517287825
 10
7323.7742836497
 20
5003.2903170348
 10
7323.7855407909
 20
5003.264384119
 10
7323.7966987337
 20
5003.254851677
 10
7323.8114684421
 20
5003.2599227394
 10
7323.8261740222
 20
5003.2755961284
  0
LWPOLYLINE
  5
356
330
1F
100
AcDbEntity
  8
0
  6
Continuous
 62
     7
100
AcDbPolyline
 90
        8
 70
   128
 43
0.0
 10
7324.7718811035
 20
5023.0157678589
 10
7325.2784231559
 20
5012.8762114962
 10
7325.6585278658
 20
5003.8561842285
 10
7325.7281239064
 20
5003.294772482
 10
7325.7393810505
 20
5003.2688395663
 10
7325.7505389939
 20
5003.2593071243
 10
7325.7653087008
 20
5003.2643781867
 10
7325.780014278
 20
5003.2800515756
  0
LWPOLYLINE
  5
357
330
1F
100
AcDbEntity
  8
0
  6
Continuous
 62
     7
100
AcDbPolyline
 90
        8
 70
   128
 43
0.0
 10
7326.7288208008
 20
5023.0202233061
 10
7327.2322633009
 20
5012.8806705987
 10
7327.6123676474
 20
5003.8606434915
 10
7327.6819642728
 20
5003.2992278406
 10
7327.693222002
 20
5003.2732947384
 10
7327.7043806669
 20
5003.2637622579
 10
7327.7191514837
 20
5003.2688334293
 10
7327.733858259
 20
5003.2845070228
  0
LWPOLYLINE
  5
358
330
1F
100
AcDbEntity
  8
0
  6
Continuous
 62
     7
100
AcDbPolyline
 90
        8
 70
   128
 43
0.0
 10
7328.6819458008
 20
5023.0246862039
 10
7329.1861038022
 20
5012.8851285025
 10
7329.5662079895
 20
5003.8651034653
 10
7329.635804529
 20
5003.303690584
 10
7329.6470622492
 20
5003.2777565053
 10
7329.6582209115
 20
5003.2682226257
 10
7329.6729917318
 20
5003.2732914734
 10
7329.6876985147
 20
5003.28896247
  0
LWPOLYLINE
  5
359
330
1F
100
AcDbEntity
  8
0
  6
Continuous
 62
     7
100
AcDbPolyline
 90
        8
 70
   128
 43
0.0
 10
7322.5593566895
 20
5023.010366188
 10
7322.5752073195
 20
5023.0156126478
 10
7322.590266296
 20
5023.0119117001
 10
7322.6835918072
 20
5022.4077055693
 10
7323.0709002651
 20
5013.1410593618
 10
7323.4586729162
 20
5003.8780173363
 10
7323.5210764113
 20
5003.3647240425
 10
7323.5818210557
 20
5003.2440652713
  0
LWPOLYLINE
  5
35A
330
1F
100
AcDbEntity
  8
0
  6
Continuous
 62
     7
100
AcDbPolyline
 90
        8
 70
   128
 43
0.0
 10
7324.5124816895
 20
5023.0148290857
 10
7324.5290474054
 20
5023.0200757634
 10
7324.5441062719
 20
5023.016374958
 10
7324.6374344073
 20
5022.4121653401
 10
7325.0247403773
 20
5013.145518763
 10
7325.4125131966
 20
5003.8824804312
 10
7325.4749166685
 20
5003.3691868536
 10
7325.5356613114
 20
5003.2485281691
  0
LWPOLYLINE
  5
35B
330
1F
100
AcDbEntity
  8
0
  6
Continuous
 62
     7
100
AcDbPolyline
 90
        8
 70
   128
 43
0.0
 10
7326.4656066895
 20
5023.0192845329
 10
7326.482890337
 20
5023.0245312082
 10
7326.4979482143
 20
5023.0208304005
 10
7326.5912741064
 20
5022.4166207863
 10
7326.9785842611
 20
5013.1499746893
 10
7327.3663530245
 20
5003.8869358528
 10
7327.4287570181
 20
5003.3736422898
 10
7327.4895015672
 20
5003.2529836163
  0
LWPOLYLINE
  5
35C
330
1F
100
AcDbEntity
  8
0
  6
Continuous
 62
     7
100
AcDbPolyline
 90
        8
 70
   128
 43
0.0
 10
7328.4187316895
 20
5023.0237399801
 10
7328.4367317806
 20
5023.0289866599
 10
7328.4517907363
 20
5023.0252858565
 10
7328.5451165824
 20
5022.4210762392
 10
7328.9324245238
 20
5013.1544300756
 10
7329.3201928372
 20
5003.891391261
 10
7329.3825978448
 20
5003.3780977218
 10
7329.4433455482
 20
5003.2574390635
  0
LWPOLYLINE
  5
35D
330
1F
100
AcDbEntity
  8
0
  6
Continuous
 62
     7
100
AcDbPolyline
 90
        8
 70
   128
 43
0.0
 10
7330.3718566895
 20
5023.0281954273
 10
7330.3905720694
 20
5023.0334418872
 10
7330.4056310471
 20
5023.0297409382
 10
7330.4989565525
 20
5022.4255347356
 10
7330.8862648161
 20
5013.1588878817
 10
7331.2740375687
 20
5003.8958469852
 10
7331.3364411757
 20
5003.3825532224
 10
7331.3971858039
 20
5003.2618945107
  0
LWPOLYLINE
  5
35E
330
1F
100
AcDbEntity
  8
0
  6
Continuous
 62
     7
100
AcDbPolyline
 90
        6
 70
   128
 43
0.0
 10
7321.949005127
 20
5021.9652657971
 10
7321.9798818496
 20
5021.9679434975
 10
7322.0224757018
 20
5021.8596566235
 10
7322.0662859954
 20
5021.5206615083
 10
7322.4239911362
 20
5014.1226204325
 10
7322.9006107464
 20
5004.4460301861
  0
ARC
  5
35F
330
1F
100
AcDbEntity
  8
0
  6
Continuous
 62
     7
100
AcDbCircle
 10
7053.9335500271
 20
4998.5091197357
 30
0.0
 40
270.9860409945073
100
AcDbArc
 50
1.2563099869
 51
4.9665980395
  0
LWPOLYLINE
  5
360
330
1F
100
AcDbEntity
  8
0
  6
Continuous
 62
     7
100
AcDbPolyline
 90
        6
 70
   128
 43
0.0
 10
7325.8590698242
 20
5021.974184142
 10
7325.8875639854
 20
5021.9768618366
 10
7325.9301561705
 20
5021.8685748533
 10
7325.9739675245
 20
5021.5295795058
 10
7326.3316712279
 20
5014.1315344021
 10
7326.8082912579
 20
5004.4549410805
  0
LWPOLYLINE
  5
361
330
1F
100
AcDbEntity
  8
0
  6
Continuous
 62
     7
100
AcDbPolyline
 90
        6
 70
   128
 43
0.0
 10
7327.8121948242
 20
5021.9786395892
 10
7327.8414042247
 20
5021.9813172776
 10
7327.8839964344
 20
5021.8730303135
 10
7327.9278078707
 20
5021.5340350205
 10
7328.2855157825
 20
5014.1359914655
 10
7328.7621315136
 20
5004.4593965277
  0
LWPOLYLINE
  5
362
330
1F
100
AcDbEntity
  8
0
  6
Continuous
 62
     7
100
AcDbPolyline
 90
        6
 70
   128
 43
0.0
 10
7329.7653198242
 20
5021.9830950364
 10
7329.7952444763
 20
5021.9857727267
 10
7329.8378366796
 20
5021.8774858148
 10
7329.8816481092
 20
5021.5384906426
 10
7330.2393559704
 20
5014.1404487549
 10
7330.7159717694
 20
5004.4638594255
  0
LWPOLYLINE
  5
363
330
1F
100
AcDbEntity
  8
0
  6
Continuous
 62
     7
100
AcDbPolyline
 90
        3
 70
   128
 43
0.0
 10
6215.0955200195
 20
4365.1423001866
 10
6214.5030863446
 20
4364.7992043119
 10
6214.0369435444
 20
4364.5296612959
  0
LWPOLYLINE
  5
364
330
1F
100
AcDbEntity
  8
0
  6
Continuous
 62
     7
100
AcDbPolyline
 90
        3
 70
   128
 43
0.0
 10
6215.0955200195
 20
4363.1884599309
 10
6214.5030855543
 20
4362.8453633368
 10
6214.0369435444
 20
4362.5758173148
  0
LWPOLYLINE
  5
365
330
1F
100
AcDbEntity
  8
0
  6
Continuous
 62
     7
100
AcDbPolyline
 90
        3
 70
   128
 43
0.0
 10
6215.0955200195
 20
4361.2346196751
 10
6214.5030855288
 20
4360.8915230664
 10
6214.0369435444
 20
4360.6219770591
  0
LWPOLYLINE
  5
366
330
1F
100
AcDbEntity
  8
0
  6
Continuous
 62
     7
100
AcDbPolyline
 90
        3
 70
   128
 43
0.0
 10
6215.0955200195
 20
4359.2807794194
 10
6214.5030871352
 20
4358.9376800916
 10
6214.0369435444
 20
4358.6681368034
  0
LWPOLYLINE
  5
367
330
1F
100
AcDbEntity
  8
0
  6
Continuous
 62
     7
100
AcDbPolyline
 90
        3
 70
   128
 43
0.0
 10
6234.0049743652
 20
4365.5014591496
 10
6233.4205209653
 20
4365.8395094117
 10
6232.9612059191
 20
4366.1051647942
  0
LWPOLYLINE
  5
368
330
1F
100
AcDbEntity
  8
0
  6
Continuous
 62
     7
100
AcDbPolyline
 90
        3
 70
   128
 43
0.0
 10
6234.0049743652
 20
4363.5476188938
 10
6233.4205217689
 20
4363.8856684593
 10
6232.9612059191
 20
4364.1513208132
  0
LWPOLYLINE
  5
369
330
1F
100
AcDbEntity
  8
0
  6
Continuous
 62
     7
100
AcDbPolyline
 90
        3
 70
   128
 43
0.0
 10
6234.0049743652
 20
4361.5937786381
 10
6233.4205201896
 20
4361.9318254628
 10
6232.9612059191
 20
4362.1974805574
  0
LWPOLYLINE
  5
36A
330
1F
100
AcDbEntity
  8
0
  6
Continuous
 62
     7
100
AcDbPolyline
 90
        3
 70
   128
 43
0.0
 10
6234.0049743652
 20
4359.6399383824
 10
6233.4205201635
 20
4359.9779852222
 10
6232.9612059191
 20
4360.2436403017
  0
LWPOLYLINE
  5
36B
330
1F
100
AcDbEntity
  8
0
  6
Continuous
 62
     7
100
AcDbPolyline
 90
        3
 70
   128
 43
0.0
 10
6234.0049743652
 20
4367.4553031306
 10
6233.4205201635
 20
4367.7933499705
 10
6232.9612059191
 20
4368.0590050499
  0
LWPOLYLINE
  5
36C
330
1F
100
AcDbEntity
  8
0
  6
Continuous
 62
     7
100
AcDbPolyline
 90
        3
 70
   128
 43
0.0
 10
6215.0955200195
 20
4367.0961404423
 10
6214.5030863446
 20
4366.7530445677
 10
6214.0369435444
 20
4366.4835015516
  0
LWPOLYLINE
  5
36D
330
1F
100
AcDbEntity
  8
0
  6
Continuous
 62
     7
100
AcDbPolyline
 90
        3
 70
   128
 43
0.0
 10
6214.0350341797
 20
4366.1994146387
 10
6214.6182291576
 20
4365.8622638547
 10
6215.0763069883
 20
4365.5973257701
  0
LWPOLYLINE
  5
36E
330
1F
100
AcDbEntity
  8
0
  6
Continuous
 62
     7
100
AcDbPolyline
 90
        3
 70
   128
 43
0.0
 10
6214.0350341797
 20
4364.245574383
 10
6214.6182275906
 20
4363.9084208498
 10
6215.0763069883
 20
4363.6434855144
  0
LWPOLYLINE
  5
36F
330
1F
100
AcDbEntity
  8
0
  6
Continuous
 62
     7
100
AcDbPolyline
 90
        3
 70
   128
 43
0.0
 10
6214.0350341797
 20
4362.2917341273
 10
6214.6182275906
 20
4361.9545805941
 10
6215.0763069883
 20
4361.6896452586
  0
LWPOLYLINE
  5
370
330
1F
100
AcDbEntity
  8
0
  6
Continuous
 62
     7
100
AcDbPolyline
 90
        3
 70
   128
 43
0.0
 10
6214.0350341797
 20
4360.3378938715
 10
6214.6182275906
 20
4360.0007403384
 10
6215.0763069883
 20
4359.7358050029
  0
LWPOLYLINE
  5
371
330
1F
100
AcDbEntity
  8
0
  6
Continuous
 62
     7
100
AcDbPolyline
 90
        3
 70
   128
 43
0.0
 10
6232.9444885254
 20
4366.5686877649
 10
6233.5405284266
 20
4366.9117949758
 10
6234.006652762
 20
4367.1813303809
  0
LWPOLYLINE
  5
372
330
1F
100
AcDbEntity
  8
0
  6
Continuous
 62
     7
100
AcDbPolyline
 90
        3
 70
   128
 43
0.0
 10
6232.9444885254
 20
4364.6148475091
 10
6233.5405300381
 20
4364.957952004
 10
6234.006652762
 20
4365.2274901252
  0
LWPOLYLINE
  5
373
330
1F
100
AcDbEntity
  8
0
  6
Continuous
 62
     7
100
AcDbPolyline
 90
        3
 70
   128
 43
0.0
 10
6232.9444885254
 20
4362.6610035281
 10
6233.5405292475
 20
4363.0041114761
 10
6234.006652762
 20
4363.2736498694
  0
LWPOLYLINE
  5
374
330
1F
100
AcDbEntity
  8
0
  6
Continuous
 62
     7
100
AcDbPolyline
 90
        3
 70
   128
 43
0.0
 10
6232.9444885254
 20
4360.7071632724
 10
6233.5405292169
 20
4361.0502712026
 10
6234.006652762
 20
4361.3198096137
  0
LWPOLYLINE
  5
375
330
1F
100
AcDbEntity
  8
0
  6
Continuous
 62
     7
100
AcDbPolyline
 90
        3
 70
   128
 43
0.0
 10
6214.412689209
 20
4367.9341631214
 10
6214.7849310498
 20
4367.7196969605
 10
6215.0763069883
 20
4367.5511697511
  0
LWPOLYLINE
  5
376
330
1F
100
AcDbEntity
  8
0
  6
Continuous
 62
     7
100
AcDbPolyline
 90
        9
 70
   128
 43
0.0
 10
6233.8676452637
 20
4367.181267051
 10
6233.8788719232
 20
4367.1671051845
 10
6233.8786477206
 20
4367.1600398155
 10
6233.872702679
 20
4367.1529931236
 10
6233.105202122
 20
4367.0700018454
 10
6223.7685646867
 20
4366.7219427125
 10
6214.7339035324
 20
4366.3477843409
 10
6214.2458594198
 20
4366.2834624718
 10
6214.1003219083
 20
4366.2185365538
  0
LWPOLYLINE
  5
377
330
1F
100
AcDbEntity
  8
0
  6
Continuous
 62
     7
100
AcDbPolyline
 90
        9
 70
   128
 43
0.0
 10
6233.8676452637
 20
4365.2274230699
 10
6233.8788718373
 20
4365.2132627046
 10
6233.8786476123
 20
4365.2061980357
 10
6233.8727025729
 20
4365.1991519834
 10
6233.105204551
 20
4365.1161621254
 10
6223.768566276
 20
4364.7681021193
 10
6214.7339036745
 20
4364.3939440023
 10
6214.2458594449
 20
4364.3296222556
 10
6214.1003219083
 20
4364.2646962981
  0
LWPOLYLINE
  5
378
330
1F
100
AcDbEntity
  8
0
  6
Continuous
 62
     7
100
AcDbPolyline
 90
        9
 70
   128
 43
0.0
 10
6233.8676452637
 20
4363.2735828142
 10
6233.8788716856
 20
4363.259422454
 10
6233.8786473582
 20
4363.2523577674
 10
6233.8727021844
 20
4363.2453116731
 10
6233.1052019688
 20
4363.1623189489
 10
6223.7685651822
 20
4362.8142583415
 10
6214.7339045587
 20
4362.4401038015
 10
6214.2458588817
 20
4362.3757819403
 10
6214.1003219083
 20
4362.3108560424
  0
LWPOLYLINE
  5
379
330
1F
100
AcDbEntity
  8
0
  6
Continuous
 62
     7
100
AcDbPolyline
 90
        9
 70
   128
 43
0.0
 10
6233.8676452637
 20
4361.3197425585
 10
6233.8788719217
 20
4361.3055806943
 10
6233.8786477209
 20
4361.2985153265
 10
6233.8727026839
 20
4361.2914686357
 10
6233.1052024095
 20
4361.2084773691
 10
6223.7685655413
 20
4360.8604180961
 10
6214.7339033476
 20
4360.48626087
 10
6214.2458593623
 20
4360.4219376516
 10
6214.1003219083
 20
4360.3570120613
  0
LWPOLYLINE
  5
37A
330
1F
100
AcDbEntity
  8
0
  6
Continuous
 62
     7
100
AcDbPolyline
 90
       16
 70
   128
 43
0.0
 10
6233.8943481445
 20
4367.4397649448
 10
6233.9421798482
 20
4367.4254196328
 10
6233.9572688949
 20
4367.4182704843
 10
6233.9638188752
 20
4367.4111495447
 10
6233.9614810962
 20
4367.4058327109
 10
6233.9524916964
 20
4367.4005366829
 10
6233.9155522314
 20
4367.3899966586
 10
6233.2707755588
 20
4367.3271076403
 10
6224.0182772341
 20
4366.9740296286
 10
6214.7921233914
 20
4366.5936372916
 10
6213.9952603059
 20
4366.4959298839
 10
6213.9907127957
 20
4366.4918553464
 10
6213.9894129752
 20
4366.4877779548
 10
6213.9937942325
 20
4366.4816558613
 10
6214.0061039716
 20
4366.475525663
 10
6214.0537371531
 20
4366.4632396977
  0
LWPOLYLINE
  5
37B
330
1F
100
AcDbEntity
  8
0
  6
Continuous
 62
     7
100
AcDbPolyline
 90
       16
 70
   128
 43
0.0
 10
6233.8943481445
 20
4365.4859209637
 10
6233.9421798528
 20
4365.4715775754
 10
6233.9572688991
 20
4365.464429294
 10
6233.9638188755
 20
4365.4573091079
 10
6233.9614810912
 20
4365.4519927428
 10
6233.9524916848
 20
4365.4466970967
 10
6233.9155522036
 20
4365.4361576006
 10
6233.2707753913
 20
4365.3732677719
 10
6224.0182757292
 20
4365.0201869188
 10
6214.7921234929
 20
4364.6397971468
 10
6213.9952603158
 20
4364.5420895943
 10
6213.990712802
 20
4364.5380150654
 10
6213.9894129784
 20
4364.5339376814
 10
6213.9937942324
 20
4364.5278155974
 10
6214.0061039697
 20
4364.5216854055
 10
6214.0537371531
 20
4364.5093994419
  0
LWPOLYLINE
  5
37C
330
1F
100
AcDbEntity
  8
0
  6
Continuous
 62
     7
100
AcDbPolyline
 90
       16
 70
   128
 43
0.0
 10
6233.8943481445
 20
4363.532080708
 10
6233.9421797693
 20
4363.5177353145
 10
6233.957268818
 20
4363.510586167
 10
6233.9638188498
 20
4363.5034652785
 10
6233.9614811517
 20
4363.4981485255
 10
6233.9524918703
 20
4363.4928526156
 10
6233.9155527339
 20
4363.4823129236
 10
6233.2707783747
 20
4363.4194268874
 10
6224.0182770391
 20
4363.0663466438
 10
6214.7921236682
 20
4362.6859583761
 10
6213.9952602803
 20
4362.5882385607
 10
6213.9907127657
 20
4362.5841646282
 10
6213.9894129425
 20
4362.5800880361
 10
6213.9937941997
 20
4362.5739675335
 10
6214.0061039435
 20
4362.5678394323
 10
6214.0537371531
 20
4362.5555591862
  0
LWPOLYLINE
  5
37D
330
1F
100
AcDbEntity
  8
0
  6
Continuous
 62
     7
100
AcDbPolyline
 90
       16
 70
   128
 43
0.0
 10
6233.8943481445
 20
4361.5782404523
 10
6233.9421797641
 20
4361.563895068
 10
6233.9572688132
 20
4361.5567459214
 10
6233.9638188491
 20
4361.5496250294
 10
6233.961481157
 20
4361.5443082699
 10
6233.9524918832
 20
4361.5390123505
 10
6233.9155527664
 20
4361.5284726329
 10
6233.2707786251
 20
4361.4655865633
 10
6224.0182820201
 20
4361.1125054215
 10
6214.7921268354
 20
4360.732118239
 10
6213.9952582224
 20
4360.6343990516
 10
6213.9907107479
 20
4360.6303250707
 10
6213.9894110161
 20
4360.6262484185
 10
6213.993792514
 20
4360.6201278019
 10
6214.0061026337
 20
4360.6139995564
 10
6214.0537371531
 20
4360.6017189305
  0
LWPOLYLINE
  5
37E
330
1F
100
AcDbEntity
  8
0
  6
Continuous
 62
     7
100
AcDbPolyline
 90
       16
 70
   128
 43
0.0
 10
6233.8943481445
 20
4359.6244001965
 10
6233.9421798804
 20
4359.6100546771
 10
6233.9572689129
 20
4359.6029054816
 10
6233.9638188425
 20
4359.5957845629
 10
6233.9614810066
 20
4359.5904678022
 10
6233.9524915733
 20
4359.5851718973
 10
6233.9155521077
 20
4359.5746322446
 10
6233.2707757473
 20
4359.5117463768
 10
6224.0182761143
 20
4359.1586648064
 10
6214.7921232897
 20
4358.7782725352
 10
6213.9952603026
 20
4358.6805651335
 10
6213.9907127943
 20
4358.6764905963
 10
6213.9894129753
 20
4358.672413205
 10
6213.9937942341
 20
4358.6662911119
 10
6214.0061039737
 20
4358.660160914
 10
6214.0537371531
 20
4358.6478749494
  0
LWPOLYLINE
  5
37F
330
1F
100
AcDbEntity
  8
0
  6
Continuous
 62
     7
100
AcDbPolyline
 90
        8
 70
   128
 43
0.0
 10
6232.8491210938
 20
4368.0504182558
 10
6232.911932547
 20
4368.0221590204
 10
6232.9106567378
 20
4368.0169062332
 10
6232.903662646
 20
4368.0116737923
 10
6232.8733093729
 20
4368.001260466
 10
6232.323351327
 20
4367.9391904681
 10
6224.3116508881
 20
4367.5922262466
 10
6215.1503173307
 20
4367.0953544061
  0
LWPOLYLINE
  5
380
330
1F
100
AcDbEntity
  8
0
  6
Continuous
 62
     7
100
AcDbPolyline
 90
        8
 70
   128
 43
0.0
 10
6232.8491210938
 20
4366.0965742747
 10
6232.911932549
 20
4366.0683185153
 10
6232.9106567298
 20
4366.0630661948
 10
6232.9036626254
 20
4366.0578341362
 10
6232.8733093203
 20
4366.0474213447
 10
6232.3233509686
 20
4365.9853506381
 10
6224.3116476556
 20
4365.6383860922
 10
6215.1503173307
 20
4365.1415141504
  0
LWPOLYLINE
  5
381
330
1F
100
AcDbEntity
  8
0
  6
Continuous
 62
     7
100
AcDbPolyline
 90
        8
 70
   128
 43
0.0
 10
6232.8491210938
 20
4364.142734019
 10
6232.9119325645
 20
4364.1144785208
 10
6232.9106568272
 20
4364.1092261389
 10
6232.903662797
 20
4364.1039939702
 10
6232.8733096004
 20
4364.093580834
 10
6232.323351031
 20
4364.0315069865
 10
6224.311649814
 20
4363.6845459458
 10
6215.1503173307
 20
4363.1876738946
  0
LWPOLYLINE
  5
382
330
1F
100
AcDbEntity
  8
0
  6
Continuous
 62
     7
100
AcDbPolyline
 90
        8
 70
   128
 43
0.0
 10
6232.8491210938
 20
4362.1888937633
 10
6232.9119325653
 20
4362.1606347423
 10
6232.9106568275
 20
4362.1553819856
 10
6232.903662796
 20
4362.1501495707
 10
6232.8733095944
 20
4362.1397362829
 10
6232.323350973
 20
4362.0776660974
 10
6224.311649435
 20
4361.7307023714
 10
6215.1503173307
 20
4361.2338299136
  0
LWPOLYLINE
  5
383
330
1F
100
AcDbEntity
  8
0
  6
Continuous
 62
     7
100
AcDbPolyline
 90
        8
 70
   128
 43
0.0
 10
6232.8491210938
 20
4360.2350535075
 10
6232.9119325471
 20
4360.2067942693
 10
6232.9106567377
 20
4360.2015414888
 10
6232.9036626456
 20
4360.1963090575
 10
6232.8733093716
 20
4360.1858957571
 10
6232.3233513235
 20
4360.1238258162
 10
6224.3116508636
 20
4359.7768621643
 10
6215.1503173307
 20
4359.2799896578
  0
LWPOLYLINE
  5
384
330
1F
100
AcDbEntity
  8
0
  6
Continuous
 62
     7
100
AcDbPolyline
 90
       10
 70
   128
 43
0.0
 10
6214.4775390625
 20
4367.9775180499
 10
6214.5970133323
 20
4368.0195507726
 10
6215.1026402592
 20
4368.0609698713
 10
6223.77984174
 20
4368.3028204708
 10
6232.4248241267
 20
4368.5246058003
 10
6232.9430727672
 20
4368.5643367292
 10
6232.9626470296
 20
4368.5710846232
 10
6232.9662354948
 20
4368.5744743392
 10
6232.966410202
 20
4368.5778727397
 10
6232.9319400385
 20
4368.5960876028
  0
LWPOLYLINE
  5
385
330
1F
100
AcDbEntity
  8
0
  6
Continuous
 62
     7
100
AcDbPolyline
 90
       16
 70
   128
 43
0.0
 10
6232.852935791
 20
4368.5389043967
 10
6232.8833881367
 20
4368.5243983163
 10
6232.8929953442
 20
4368.5171670941
 10
6232.8966410789
 20
4368.5099620537
 10
6232.8942677639
 20
4368.504580705
 10
6232.8866144308
 20
4368.4992224862
 10
6232.8548459222
 20
4368.488572687
 10
6232.2912862283
 20
4368.4252701559
 10
6224.0183766109
 20
4368.0706542385
 10
6215.7669503549
 20
4367.6916679308
 10
6215.0552776778
 20
4367.5946191307
 10
6215.0512725261
 20
4367.5905734154
 10
6215.0501725075
 20
4367.5865249698
 10
6215.0541853775
 20
4367.580446531
 10
6215.0652896429
 20
4367.5743602749
 10
6215.1080203846
 20
4367.5621630828
  0
LWPOLYLINE
  5
386
330
1F
100
AcDbEntity
  8
0
  6
Continuous
 62
     7
100
AcDbPolyline
 90
       13
 70
   128
 43
0.0
 10
6232.8681945801
 20
4366.568587182
 10
6232.8917780607
 20
4366.552608896
 10
6232.8908923132
 20
4366.5473171431
 10
6232.8801344166
 20
4366.5403023437
 10
6232.102320102
 20
4366.4571977058
 10
6223.7680124634
 20
4366.1082305477
 10
6215.7414863003
 20
4365.7355069927
 10
6215.0545327299
 20
4365.6402021774
 10
6215.0509746762
 20
4365.6362282159
 10
6215.0502309808
 20
4365.632251587
 10
6215.0545967991
 20
4365.6262810268
 10
6215.0658206263
 20
4365.6203028822
 10
6215.1080203846
 20
4365.6083228271
  0
LWPOLYLINE
  5
387
330
1F
100
AcDbEntity
  8
0
  6
Continuous
 62
     7
100
AcDbPolyline
 90
       13
 70
   128
 43
0.0
 10
6232.8681945801
 20
4364.6147469263
 10
6232.8917780615
 20
4364.5987686809
 10
6232.8908923147
 20
4364.593476876
 10
6232.8801344187
 20
4364.5864619295
 10
6232.1023203647
 20
4364.5033537354
 10
6223.7680099391
 20
4364.1543902453
 10
6215.7414832983
 20
4363.781666447
 10
6215.0545323253
 20
4363.6863618827
 10
6215.0509743778
 20
4363.6823879308
 10
6215.0502307751
 20
4363.6784113103
 10
6215.0545967044
 20
4363.6724407603
 10
6215.0658206039
 20
4363.6664626227
 10
6215.1080203846
 20
4363.6544825713
  0
LWPOLYLINE
  5
388
330
1F
100
AcDbEntity
  8
0
  6
Continuous
 62
     7
100
AcDbPolyline
 90
       13
 70
   128
 43
0.0
 10
6232.8681945801
 20
4362.6609066705
 10
6232.89177806
 20
4362.6449284293
 10
6232.8908923188
 20
4362.6396366258
 10
6232.8801344357
 20
4362.6326216811
 10
6232.1023207786
 20
4362.5495135093
 10
6223.7680135547
 20
4362.2005501425
 10
6215.7414862425
 20
4361.8278228512
 10
6215.0545303048
 20
4361.7325186054
 10
6215.050972403
 20
4361.7285446258
 10
6215.0502288948
 20
4361.7245679626
 10
6215.0545950642
 20
4361.7185973173
 10
6215.065819332
 20
4361.712619043
 10
6215.1080203846
 20
4361.7006385903
  0
LWPOLYLINE
  5
389
330
1F
100
AcDbEntity
  8
0
  6
Continuous
 62
     7
100
AcDbPolyline
 90
       13
 70
   128
 43
0.0
 10
6232.8681945801
 20
4360.7070664148
 10
6232.8917780616
 20
4360.6910881598
 10
6232.8908923152
 20
4360.6857963691
 10
6232.8801344201
 20
4360.6787814615
 10
6232.1023204247
 20
4360.5956731969
 10
6223.7680103858
 20
4360.246707225
 10
6215.7414860637
 20
4359.8739827025
 10
6215.0545327257
 20
4359.7786775819
 10
6215.0509746755
 20
4359.774703645
 10
6215.0502309827
 20
4359.7707270384
 10
6215.0545968036
 20
4359.7647565061
 10
6215.0658206313
 20
4359.7587783808
 10
6215.1080203846
 20
4359.7467983346
  0
LWPOLYLINE
  5
38A
330
1F
100
AcDbEntity
  8
0
  6
Continuous
 62
     7
100
AcDbPolyline
 90
       10
 70
   128
 43
0.0
 10
6550.1403808594
 20
4303.9169897529
 10
6549.0682778058
 20
4306.2071269729
 10
6549.0018483203
 20
4306.3675579045
 10
6549.0002989399
 20
4306.3715962393
 10
6549.0002572985
 20
4306.3717567406
 10
6549.000261252
 20
4306.3717674357
 10
6549.0002804708
 20
4306.3717482092
 10
6549.0006548005
 20
4306.3709927123
 10
6549.0018790957
 20
4306.368241837
 10
6549.0232614472
 20
4306.3177495933
  0
LWPOLYLINE
  5
38B
330
1F
100
AcDbEntity
  8
0
  6
Continuous
 62
     7
100
AcDbPolyline
 90
        3
 70
   128
 43
0.0
 10
6599.0104675293
 20
4306.3177495933
 10
6598.6431415037
 20
4305.4513098616
 10
6597.8934375241
 20
4303.9169897529
  0
LWPOLYLINE
  5
38C
330
1F
100
AcDbEntity
  8
0
  6
Continuous
 62
     7
100
AcDbPolyline
 90
       10
 70
   128
 43
0.0
 10
5950.1419067383
 20
4303.9169897529
 10
5949.0682827351
 20
4306.2071272581
 10
5949.0018539965
 20
4306.3675579028
 10
5949.0003047102
 20
4306.3715962215
 10
5949.0002630849
 20
4306.3717567206
 10
5949.0002670437
 20
4306.3717674149
 10
5949.0002862695
 20
4306.3717481875
 10
5949.0006606343
 20
4306.3709926867
 10
5949.0018849708
 20
4306.3682418084
 10
5949.0232674077
 20
4306.3177495933
  0
LWPOLYLINE
  5
38D
330
1F
100
AcDbEntity
  8
0
  6
Continuous
 62
     7
100
AcDbPolyline
 90
        3
 70
   128
 43
0.0
 10
5999.0119934082
 20
4306.3177495933
 10
5998.6431489382
 20
4305.4513082286
 10
5997.8934136823
 20
4303.9169897529
  0
ENDSEC
  0
SECTION
  2
OBJECTS
  0
DICTIONARY
  5
C
330
0
100
AcDbDictionary
281
     1
  3
ACAD_GROUP
350
D
  3
ACAD_LAYOUT
350
1A
  3
ACAD_MLINESTYLE
350
17
  3
ACAD_PLOTSETTINGS
350
19
  3
ACAD_PLOTSTYLENAME
350
E
  3
ACAD_SCALELIST
350
47
  3
DWGPROPS
350
38E
  0
DICTIONARY
  5
D
102
{ACAD_REACTORS
330
C
102
}
330
C
100
AcDbDictionary
281
     1
  0
DICTIONARY
  5
1A
102
{ACAD_REACTORS
330
C
102
}
330
C
100
AcDbDictionary
281
     1
  3
Layout1
350
1E
  3
Layout2
350
26
  3
Model
350
22
  0
DICTIONARY
  5
17
102
{ACAD_REACTORS
330
C
102
}
330
C
100
AcDbDictionary
281
     1
  3
Standard
350
18
  0
DICTIONARY
  5
19
102
{ACAD_REACTORS
330
C
102
}
330
C
100
AcDbDictionary
281
     1
  0
ACDBDICTIONARYWDFLT
  5
E
102
{ACAD_REACTORS
330
C
102
}
330
C
100
AcDbDictionary
281
     1
  3
Normal
350
F
100
AcDbDictionaryWithDefault
340
F
  0
DICTIONARY
  5
47
102
{ACAD_REACTORS
330
C
102
}
330
C
100
AcDbDictionary
281
     1
  3
A0
350
48
  3
A1
350
49
  3
A2
350
4A
  3
A3
350
4B
  3
A4
350
4C
  3
A5
350
4D
  3
A6
350
4E
  3
A7
350
4F
  3
A8
350
50
  3
A9
350
51
  3
B0
350
52
  3
B1
350
53
  3
B2
350
54
  3
B3
350
55
  3
B4
350
56
  3
B5
350
57
  3
B6
350
58
  3
B7
350
59
  3
B8
350
5A
  3
B9
350
5B
  3
C0
350
5C
  3
C1
350
5D
  3
C2
350
5E
  3
C3
350
5F
  3
C4
350
60
  3
C5
350
61
  3
C6
350
62
  3
C7
350
63
  3
C8
350
64
  3
C9
350
65
  3
D0
350
66
  3
D1
350
67
  3
D2
350
68
  0
XRECORD
  5
38E
102
{ACAD_REACTORS
330
C
102
}
330
C
100
AcDbXrecord
280
     1
  1
DWGPROPS COOKIE
  2

  3

  4

  6

  7

  8
radek.stransky
  9

300
=
301
=
302
=
303
=
304
=
305
=
306
=
307
=
308
=
309
=
 40
0.0
 41
2459094.248611944
 42
2459094.24865478
  1

 90
        0
  0
LAYOUT
  5
1E
102
{ACAD_REACTORS
330
1A
102
}
330
1A
100
AcDbPlotSettings
  1

  2
none_device
  4

  6

 40
0.0
 41
0.0
 42
0.0
 43
0.0
 44
0.0
 45
0.0
 46
0.0
 47
0.0
 48
0.0
 49
0.0
140
0.0
141
0.0
142
1.0
143
1.0
 70
   688
 72
     1
 73
     0
 74
     5
  7

 75
    16
147
1.0
148
0.0
149
0.0
100
AcDbLayout
  1
Layout1
 70
     1
 71
     1
 10
0.0
 20
0.0
 11
420.0
 21
297.0
 12
0.0
 22
0.0
 32
0.0
 14
1.0000000000E+20
 24
1.0000000000E+20
 34
1.0000000000E+20
 15
-1.0000000000E+20
 25
-1.0000000000E+20
 35
-1.0000000000E+20
146
0.0
 13
0.0
 23
0.0
 33
0.0
 16
1.0
 26
0.0
 36
0.0
 17
0.0
 27
1.0
 37
0.0
 76
     0
330
1B
  0
LAYOUT
  5
26
102
{ACAD_REACTORS
330
1A
102
}
330
1A
100
AcDbPlotSettings
  1

  2
none_device
  4

  6

 40
0.0
 41
0.0
 42
0.0
 43
0.0
 44
0.0
 45
0.0
 46
0.0
 47
0.0
 48
0.0
 49
0.0
140
0.0
141
0.0
142
1.0
143
1.0
 70
   688
 72
     1
 73
     0
 74
     5
  7

 75
    16
147
1.0
148
0.0
149
0.0
100
AcDbLayout
  1
Layout2
 70
     1
 71
     2
 10
0.0
 20
0.0
 11
0.0
 21
0.0
 12
0.0
 22
0.0
 32
0.0
 14
0.0
 24
0.0
 34
0.0
 15
0.0
 25
0.0
 35
0.0
146
0.0
 13
0.0
 23
0.0
 33
0.0
 16
1.0
 26
0.0
 36
0.0
 17
0.0
 27
1.0
 37
0.0
 76
     0
330
23
  0
LAYOUT
  5
22
102
{ACAD_REACTORS
330
1A
102
}
330
1A
100
AcDbPlotSettings
  1

  2
none_device
  4
ANSI_A_(11.00_x_8.50_Inches)
  6

 40
6.35
 41
19.05
 42
6.35000508
 43
19.05000254
 44
279.4
 45
215.9
 46
-800.8888033033
 47
-594.9096331679
 48
0.0
 49
0.0
140
0.0
141
0.0
142
0.0055447321
143
1.0
 70
  1696
 72
     0
 73
     0
 74
     0
  7

 75
     0
147
0.0179189148
148
-1300.4909072572
149
0.0
100
AcDbLayout
  1
Model
 70
     1
 71
     0
 10
0.0
 20
0.0
 11
420.0
 21
297.0
 12
0.0
 22
0.0
 32
0.0
 14
5674.0187314942
 24
4096.525944231
 34
0.0
 15
7593.0081482544
 25
5614.1826664671
 35
0.0
146
0.0
 13
0.0
 23
0.0
 33
0.0
 16
1.0
 26
0.0
 36
0.0
 17
0.0
 27
1.0
 37
0.0
 76
     0
330
1F
331
29
  0
MLINESTYLE
  5
18
102
{ACAD_REACTORS
330
17
102
}
330
17
100
AcDbMlineStyle
  2
Standard
 70
     0
  3

 62
   256
 51
90.0
 52
90.0
 71
     2
 49
0.5
 62
   256
  6
BYLAYER
 49
-0.5
 62
   256
  6
BYLAYER
  0
ACDBPLACEHOLDER
  5
F
102
{ACAD_REACTORS
330
E
102
}
330
E
  0
SCALE
  5
48
102
{ACAD_REACTORS
330
47
102
}
330
47
100
AcDbScale
 70
     0
300
1:1
140
1.0
141
1.0
290
     1
  0
SCALE
  5
49
102
{ACAD_REACTORS
330
47
102
}
330
47
100
AcDbScale
 70
     0
300
1:2
140
1.0
141
2.0
290
     0
  0
SCALE
  5
4A
102
{ACAD_REACTORS
330
47
102
}
330
47
100
AcDbScale
 70
     0
300
1:4
140
1.0
141
4.0
290
     0
  0
SCALE
  5
4B
102
{ACAD_REACTORS
330
47
102
}
330
47
100
AcDbScale
 70
     0
300
1:5
140
1.0
141
5.0
290
     0
  0
SCALE
  5
4C
102
{ACAD_REACTORS
330
47
102
}
330
47
100
AcDbScale
 70
     0
300
1:8
140
1.0
141
8.0
290
     0
  0
SCALE
  5
4D
102
{ACAD_REACTORS
330
47
102
}
330
47
100
AcDbScale
 70
     0
300
1:10
140
1.0
141
10.0
290
     0
  0
SCALE
  5
4E
102
{ACAD_REACTORS
330
47
102
}
330
47
100
AcDbScale
 70
     0
300
1:16
140
1.0
141
16.0
290
     0
  0
SCALE
  5
4F
102
{ACAD_REACTORS
330
47
102
}
330
47
100
AcDbScale
 70
     0
300
1:20
140
1.0
141
20.0
290
     0
  0
SCALE
  5
50
102
{ACAD_REACTORS
330
47
102
}
330
47
100
AcDbScale
 70
     0
300
1:30
140
1.0
141
30.0
290
     0
  0
SCALE
  5
51
102
{ACAD_REACTORS
330
47
102
}
330
47
100
AcDbScale
 70
     0
300
1:40
140
1.0
141
40.0
290
     0
  0
SCALE
  5
52
102
{ACAD_REACTORS
330
47
102
}
330
47
100
AcDbScale
 70
     0
300
1:50
140
1.0
141
50.0
290
     0
  0
SCALE
  5
53
102
{ACAD_REACTORS
330
47
102
}
330
47
100
AcDbScale
 70
     0
300
1:100
140
1.0
141
100.0
290
     0
  0
SCALE
  5
54
102
{ACAD_REACTORS
330
47
102
}
330
47
100
AcDbScale
 70
     0
300
2:1
140
2.0
141
1.0
290
     0
  0
SCALE
  5
55
102
{ACAD_REACTORS
330
47
102
}
330
47
100
AcDbScale
 70
     0
300
4:1
140
4.0
141
1.0
290
     0
  0
SCALE
  5
56
102
{ACAD_REACTORS
330
47
102
}
330
47
100
AcDbScale
 70
     0
300
8:1
140
8.0
141
1.0
290
     0
  0
SCALE
  5
57
102
{ACAD_REACTORS
330
47
102
}
330
47
100
AcDbScale
 70
     0
300
10:1
140
10.0
141
1.0
290
     0
  0
SCALE
  5
58
102
{ACAD_REACTORS
330
47
102
}
330
47
100
AcDbScale
 70
     0
300
100:1
140
100.0
141
1.0
290
     0
  0
SCALE
  5
59
102
{ACAD_REACTORS
330
47
102
}
330
47
100
AcDbScale
 70
     0
300
1/128" = 1'-0"
140
0.0078125
141
12.0
290
     0
  0
SCALE
  5
5A
102
{ACAD_REACTORS
330
47
102
}
330
47
100
AcDbScale
 70
     0
300
1/64" = 1'-0"
140
0.015625
141
12.0
290
     0
  0
SCALE
  5
5B
102
{ACAD_REACTORS
330
47
102
}
330
47
100
AcDbScale
 70
     0
300
1/32" = 1'-0"
140
0.03125
141
12.0
290
     0
  0
SCALE
  5
5C
102
{ACAD_REACTORS
330
47
102
}
330
47
100
AcDbScale
 70
     0
300
1/16" = 1'-0"
140
0.0625
141
12.0
290
     0
  0
SCALE
  5
5D
102
{ACAD_REACTORS
330
47
102
}
330
47
100
AcDbScale
 70
     0
300
3/32" = 1'-0"
140
0.09375
141
12.0
290
     0
  0
SCALE
  5
5E
102
{ACAD_REACTORS
330
47
102
}
330
47
100
AcDbScale
 70
     0
300
1/8" = 1'-0"
140
0.125
141
12.0
290
     0
  0
SCALE
  5
5F
102
{ACAD_REACTORS
330
47
102
}
330
47
100
AcDbScale
 70
     0
300
3/16" = 1'-0"
140
0.1875
141
12.0
290
     0
  0
SCALE
  5
60
102
{ACAD_REACTORS
330
47
102
}
330
47
100
AcDbScale
 70
     0
300
1/4" = 1'-0"
140
0.25
141
12.0
290
     0
  0
SCALE
  5
61
102
{ACAD_REACTORS
330
47
102
}
330
47
100
AcDbScale
 70
     0
300
3/8" = 1'-0"
140
0.375
141
12.0
290
     0
  0
SCALE
  5
62
102
{ACAD_REACTORS
330
47
102
}
330
47
100
AcDbScale
 70
     0
300
1/2" = 1'-0"
140
0.5
141
12.0
290
     0
  0
SCALE
  5
63
102
{ACAD_REACTORS
330
47
102
}
330
47
100
AcDbScale
 70
     0
300
3/4" = 1'-0"
140
0.75
141
12.0
290
     0
  0
SCALE
  5
64
102
{ACAD_REACTORS
330
47
102
}
330
47
100
AcDbScale
 70
     0
300
1" = 1'-0"
140
1.0
141
12.0
290
     0
  0
SCALE
  5
65
102
{ACAD_REACTORS
330
47
102
}
330
47
100
AcDbScale
 70
     0
300
1-1/2" = 1'-0"
140
1.5
141
12.0
290
     0
  0
SCALE
  5
66
102
{ACAD_REACTORS
330
47
102
}
330
47
100
AcDbScale
 70
     0
300
3" = 1'-0"
140
3.0
141
12.0
290
     0
  0
SCALE
  5
67
102
{ACAD_REACTORS
330
47
102
}
330
47
100
AcDbScale
 70
     0
300
6" = 1'-0"
140
6.0
141
12.0
290
     0
  0
SCALE
  5
68
102
{ACAD_REACTORS
330
47
102
}
330
47
100
AcDbScale
 70
     0
300
1'-0" = 1'-0"
140
12.0
141
12.0
290
     0
  0
ENDSEC
  0
EOF
