  0
SECTION
  2
HEADER
  9
$ACADVER
  1
AC1015
  9
$ACADMAINTVER
 70
     6
  9
$DWGCODEPAGE
  3
ANSI_1250
  9
$INSBASE
 10
0.0
 20
0.0
 30
0.0
  9
$EXTMIN
 10
0.0
 20
0.0
 30
0.0
  9
$EXTMAX
 10
20000.0
 20
10000.0
 30
0.0
  9
$LIMMIN
 10
0.0
 20
0.0
  9
$LIMMAX
 10
20000.0
 20
10000.0
  9
$ORTHOMODE
 70
     0
  9
$REGENMODE
 70
     1
  9
$FILLMODE
 70
     1
  9
$QTEXTMODE
 70
     0
  9
$MIRRTEXT
 70
     1
  9
$LTSCALE
 40
1.0
  9
$ATTMODE
 70
     1
  9
$TEXTSIZE
 40
2.0
  9
$TRACEWID
 40
1.0
  9
$TEXTSTYLE
  7
Standard
  9
$CLAYER
  8
0
  9
$CELTYPE
  6
ByLayer
  9
$CECOLOR
 62
   256
  9
$CELTSCALE
 40
1.0
  9
$DISPSILH
 70
     0
  9
$DIMSCALE
 40
1.0
  9
$DIMASZ
 40
2.0
  9
$DIMEXO
 40
1.0
  9
$DIMDLI
 40
3.75
  9
$DIMRND
 40
0.0
  9
$DIMDLE
 40
0.0
  9
$DIMEXE
 40
1.0
  9
$DIMTP
 40
0.0
  9
$DIMTM
 40
0.0
  9
$DIMTXT
 40
2.0
  9
$DIMCEN
 40
2.5
  9
$DIMTSZ
 40
0.0
  9
$DIMTOL
 70
     0
  9
$DIMLIM
 70
     0
  9
$DIMTIH
 70
     1
  9
$DIMTOH
 70
     1
  9
$DIMSE1
 70
     0
  9
$DIMSE2
 70
     0
  9
$DIMTAD
 70
     1
  9
$DIMZIN
 70
     0
  9
$DIMBLK
  1

  9
$DIMASO
 70
     1
  9
$DIMSHO
 70
     1
  9
$DIMPOST
  1

  9
$DIMAPOST
  1

  9
$DIMALT
 70
     0
  9
$DIMALTD
 70
     3
  9
$DIMALTF
 40
0.0393700787
  9
$DIMLFAC
 40
1.0
  9
$DIMTOFL
 70
     1
  9
$DIMTVP
 40
0.0
  9
$DIMTIX
 70
     0
  9
$DIMSOXD
 70
     0
  9
$DIMSAH
 70
     0
  9
$DIMBLK1
  1

  9
$DIMBLK2
  1

  9
$DIMSTYLE
  2
ISO-25
  9
$DIMCLRD
 70
     0
  9
$DIMCLRE
 70
     0
  9
$DIMCLRT
 70
     0
  9
$DIMTFAC
 40
1.0
  9
$DIMGAP
 40
1.524
  9
$DIMJUST
 70
     0
  9
$DIMSD1
 70
     0
  9
$DIMSD2
 70
     0
  9
$DIMTOLJ
 70
     0
  9
$DIMTZIN
 70
     0
  9
$DIMALTZ
 70
     0
  9
$DIMALTTZ
 70
     0
  9
$DIMUPT
 70
     0
  9
$DIMDEC
 70
     2
  9
$DIMTDEC
 70
     0
  9
$DIMALTU
 70
     2
  9
$DIMALTTD
 70
     3
  9
$DIMTXSTY
  7
Standard
  9
$DIMAUNIT
 70
     0
  9
$DIMADEC
 70
     2
  9
$DIMALTRND
 40
0.0
  9
$DIMAZIN
 70
     0
  9
$DIMDSEP
 70
    44
  9
$DIMATFIT
 70
     3
  9
$DIMFRAC
 70
     0
  9
$DIMLDRBLK
  1

  9
$DIMLUNIT
 70
     2
  9
$DIMLWD
 70
    -2
  9
$DIMLWE
 70
    -2
  9
$DIMTMOVE
 70
     0
  9
$LUNITS
 70
     2
  9
$LUPREC
 70
     3
  9
$SKETCHINC
 40
1.0
  9
$FILLETRAD
 40
10.0
  9
$AUNITS
 70
     0
  9
$AUPREC
 70
     2
  9
$MENU
  1
.
  9
$ELEVATION
 40
0.0
  9
$PELEVATION
 40
0.0
  9
$THICKNESS
 40
0.0
  9
$LIMCHECK
 70
     0
  9
$CHAMFERA
 40
0.0
  9
$CHAMFERB
 40
0.0
  9
$CHAMFERC
 40
0.0
  9
$CHAMFERD
 40
0.0
  9
$SKPOLY
 70
     0
  9
$TDCREATE
 40
2458676.578366724
  9
$TDUCREATE
 40
2458676.495033391
  9
$TDUPDATE
 40
2458676.578366956
  9
$TDUUPDATE
 40
2458676.495033623
  9
$TDINDWG
 40
0.0000000116
  9
$TDUSRTIMER
 40
0.0000000116
  9
$USRTIMER
 70
     1
  9
$ANGBASE
 50
0.0
  9
$ANGDIR
 70
     0
  9
$PDMODE
 70
     0
  9
$PDSIZE
 40
-1.0
  9
$PLINEWID
 40
0.0
  9
$SPLFRAME
 70
     0
  9
$SPLINETYPE
 70
     6
  9
$SPLINESEGS
 70
     8
  9
$HANDSEED
  5
19E
  9
$SURFTAB1
 70
     6
  9
$SURFTAB2
 70
     6
  9
$SURFTYPE
 70
     6
  9
$SURFU
 70
     6
  9
$SURFV
 70
     6
  9
$UCSBASE
  2

  9
$UCSNAME
  2

  9
$UCSORG
 10
0.0
 20
0.0
 30
0.0
  9
$UCSXDIR
 10
1.0
 20
0.0
 30
0.0
  9
$UCSYDIR
 10
0.0
 20
1.0
 30
0.0
  9
$UCSORTHOREF
  2

  9
$UCSORTHOVIEW
 70
     0
  9
$UCSORGTOP
 10
0.0
 20
0.0
 30
0.0
  9
$UCSORGBOTTOM
 10
0.0
 20
0.0
 30
0.0
  9
$UCSORGLEFT
 10
0.0
 20
0.0
 30
0.0
  9
$UCSORGRIGHT
 10
0.0
 20
0.0
 30
0.0
  9
$UCSORGFRONT
 10
0.0
 20
0.0
 30
0.0
  9
$UCSORGBACK
 10
0.0
 20
0.0
 30
0.0
  9
$PUCSBASE
  2

  9
$PUCSNAME
  2

  9
$PUCSORG
 10
0.0
 20
0.0
 30
0.0
  9
$PUCSXDIR
 10
1.0
 20
0.0
 30
0.0
  9
$PUCSYDIR
 10
0.0
 20
1.0
 30
0.0
  9
$PUCSORTHOREF
  2

  9
$PUCSORTHOVIEW
 70
     0
  9
$PUCSORGTOP
 10
0.0
 20
0.0
 30
0.0
  9
$PUCSORGBOTTOM
 10
0.0
 20
0.0
 30
0.0
  9
$PUCSORGLEFT
 10
0.0
 20
0.0
 30
0.0
  9
$PUCSORGRIGHT
 10
0.0
 20
0.0
 30
0.0
  9
$PUCSORGFRONT
 10
0.0
 20
0.0
 30
0.0
  9
$PUCSORGBACK
 10
0.0
 20
0.0
 30
0.0
  9
$USERI1
 70
     0
  9
$USERI2
 70
     0
  9
$USERI3
 70
     0
  9
$USERI4
 70
     0
  9
$USERI5
 70
     0
  9
$USERR1
 40
0.0
  9
$USERR2
 40
0.0
  9
$USERR3
 40
0.0
  9
$USERR4
 40
0.0
  9
$USERR5
 40
0.0
  9
$WORLDVIEW
 70
     1
  9
$SHADEDGE
 70
     3
  9
$SHADEDIF
 70
    70
  9
$TILEMODE
 70
     1
  9
$MAXACTVP
 70
    64
  9
$PINSBASE
 10
0.0
 20
0.0
 30
0.0
  9
$PLIMCHECK
 70
     0
  9
$PEXTMIN
 10
1.0000000000E+20
 20
1.0000000000E+20
 30
1.0000000000E+20
  9
$PEXTMAX
 10
-1.0000000000E+20
 20
-1.0000000000E+20
 30
-1.0000000000E+20
  9
$PLIMMIN
 10
0.0
 20
0.0
  9
$PLIMMAX
 10
420.0
 20
297.0
  9
$UNITMODE
 70
     0
  9
$VISRETAIN
 70
     1
  9
$PLINEGEN
 70
     0
  9
$PSLTSCALE
 70
     1
  9
$TREEDEPTH
 70
  3020
  9
$CMLSTYLE
  2
Standard
  9
$CMLJUST
 70
     0
  9
$CMLSCALE
 40
20.0
  9
$PROXYGRAPHICS
 70
     1
  9
$MEASUREMENT
 70
     1
  9
$CELWEIGHT
370
    -1
  9
$ENDCAPS
280
     0
  9
$JOINSTYLE
280
     0
  9
$LWDISPLAY
290
     1
  9
$INSUNITS
 70
     4
  9
$HYPERLINKBASE
  1

  9
$STYLESHEET
  1

  9
$XEDIT
290
     1
  9
$CEPSNTYPE
380
     0
  9
$PSTYLEMODE
290
     1
  9
$FINGERPRINTGUID
  2
{84EF424C-DA1F-4A65-9774-568D673F3450}
  9
$VERSIONGUID
  2
{FAEB1C32-E019-11D5-929B-00C0DF256EC4}
  9
$EXTNAMES
290
     1
  9
$PSVPSCALE
 40
0.0
  9
$OLESTARTUP
290
     0
  0
ENDSEC
  0
SECTION
  2
CLASSES
  0
CLASS
  1
ACDBDICTIONARYWDFLT
  2
AcDbDictionaryWithDefault
  3
ObjectDBX Classes
 90
        0
280
     0
281
     0
  0
CLASS
  1
VISUALSTYLE
  2
AcDbVisualStyle
  3
ObjectDBX Classes
 90
     4095
280
     0
281
     0
  0
CLASS
  1
MATERIAL
  2
AcDbMaterial
  3
ObjectDBX Classes
 90
     1153
280
     0
281
     0
  0
CLASS
  1
SCALE
  2
AcDbScale
  3
ObjectDBX Classes
 90
     1153
280
     0
281
     0
  0
CLASS
  1
TABLESTYLE
  2
AcDbTableStyle
  3
ObjectDBX Classes
 90
     4095
280
     0
281
     0
  0
CLASS
  1
MLEADERSTYLE
  2
AcDbMLeaderStyle
  3
ACDB_MLEADERSTYLE_CLASS
 90
     4095
280
     0
281
     0
  0
CLASS
  1
SUN
  2
AcDbSun
  3
SCENEOE
 90
     1153
280
     0
281
     0
  0
CLASS
  1
ACDBPLACEHOLDER
  2
AcDbPlaceHolder
  3
ObjectDBX Classes
 90
        0
280
     0
281
     0
  0
CLASS
  1
LAYOUT
  2
AcDbLayout
  3
ObjectDBX Classes
 90
        0
280
     0
281
     0
  0
ENDSEC
  0
SECTION
  2
TABLES
  0
TABLE
  2
VPORT
  5
8
330
0
100
AcDbSymbolTable
 70
     1
  0
VPORT
  5
29
330
8
100
AcDbSymbolTableRecord
100
AcDbViewportTableRecord
  2
*Active
 70
     0
 10
0.0
 20
0.0
 11
1.0
 21
1.0
 12
10000.0
 22
5000.0
 13
0.0
 23
0.0
 14
10.0
 24
10.0
 15
10.0
 25
10.0
 16
0.0
 26
0.0
 36
1.0
 17
0.0
 27
0.0
 37
0.0
 40
10000.0
 41
2.0
 42
50.0
 43
0.0
 44
0.0
 50
0.0
 51
0.0
 71
     0
 72
  2000
 73
     1
 74
     3
 75
     0
 76
     0
 77
     0
 78
     0
281
     0
 65
     1
110
0.0
120
0.0
130
0.0
111
1.0
121
0.0
131
0.0
112
0.0
122
1.0
132
0.0
 79
     0
146
0.0
  0
ENDTAB
  0
TABLE
  2
LTYPE
  5
5
330
0
100
AcDbSymbolTable
 70
     6
  0
LTYPE
  5
14
330
5
100
AcDbSymbolTableRecord
100
AcDbLinetypeTableRecord
  2
ByBlock
 70
     0
  3

 72
    65
 73
     0
 40
0.0
  0
LTYPE
  5
15
330
5
100
AcDbSymbolTableRecord
100
AcDbLinetypeTableRecord
  2
ByLayer
 70
     0
  3

 72
    65
 73
     0
 40
0.0
  0
LTYPE
  5
16
330
5
100
AcDbSymbolTableRecord
100
AcDbLinetypeTableRecord
  2
Continuous
 70
     0
  3
Solid line
 72
    65
 73
     0
 40
0.0
  0
LTYPE
  5
6E
330
5
100
AcDbSymbolTableRecord
100
AcDbLinetypeTableRecord
  2
HIDDEN
 70
     0
  3
Hidden __ __ __ __ __ __ __ __ __ __ __ __ __ __
 72
    65
 73
     2
 40
1.905
 49
1.27
 74
     0
 49
-0.635
 74
     0
  0
LTYPE
  5
6F
330
5
100
AcDbSymbolTableRecord
100
AcDbLinetypeTableRecord
  2
PHANTOM
 70
     0
  3
Phantom ______  __  __  ______  __  __  ______
 72
    65
 73
     6
 40
12.7
 49
6.35
 74
     0
 49
-1.27
 74
     0
 49
1.27
 74
     0
 49
-1.27
 74
     0
 49
1.27
 74
     0
 49
-1.27
 74
     0
  0
LTYPE
  5
70
330
5
100
AcDbSymbolTableRecord
100
AcDbLinetypeTableRecord
  2
CENTER
 70
     0
  3
Center ____ _ ____ _ ____ _ ____ _ ____ _ ____
 72
    65
 73
     4
 40
10.16
 49
6.35
 74
     0
 49
-1.27
 74
     0
 49
1.27
 74
     0
 49
-1.27
 74
     0
  0
LTYPE
  5
71
330
5
100
AcDbSymbolTableRecord
100
AcDbLinetypeTableRecord
  2
CENTERX2
 70
     0
  3
Center (2x) ________  __  ________  __  _____
 72
    65
 73
     4
 40
20.32
 49
12.7
 74
     0
 49
-2.54
 74
     0
 49
2.54
 74
     0
 49
-2.54
 74
     0
  0
LTYPE
  5
72
330
5
100
AcDbSymbolTableRecord
100
AcDbLinetypeTableRecord
  2
DOT2
 70
     0
  3
Dot (.5x) ........................................
 72
    65
 73
     2
 40
0.635
 49
0.0
 74
     0
 49
-0.635
 74
     0
  0
ENDTAB
  0
TABLE
  2
LAYER
  5
2
330
0
100
AcDbSymbolTable
 70
    13
  0
LAYER
  5
10
330
2
100
AcDbSymbolTableRecord
100
AcDbLayerTableRecord
  2
0
 70
     0
 62
     7
  6
Continuous
370
    -3
390
F
  0
LAYER
  5
73
330
2
100
AcDbSymbolTableRecord
100
AcDbLayerTableRecord
  2
FORMAT
 70
     0
 62
     7
  6
Continuous
370
    -3
390
F
  0
LAYER
  5
74
330
2
100
AcDbSymbolTableRecord
100
AcDbLayerTableRecord
  2
OSA
 70
     0
 62
     7
  6
CENTER
370
    -3
390
F
  0
LAYER
  5
75
330
2
100
AcDbSymbolTableRecord
100
AcDbLayerTableRecord
  2
0_35
 70
     0
 62
     7
  6
Continuous
370
    35
390
F
  0
LAYER
  5
76
330
2
100
AcDbSymbolTableRecord
100
AcDbLayerTableRecord
  2
0_5
 70
     0
 62
     7
  6
Continuous
370
    50
390
F
  0
LAYER
  5
77
330
2
100
AcDbSymbolTableRecord
100
AcDbLayerTableRecord
  2
0_25
 70
     0
 62
     7
  6
Continuous
370
    25
390
F
  0
LAYER
  5
78
330
2
100
AcDbSymbolTableRecord
100
AcDbLayerTableRecord
  2
0_18
 70
     0
 62
     7
  6
Continuous
370
    -3
390
F
  0
LAYER
  5
79
330
2
100
AcDbSymbolTableRecord
100
AcDbLayerTableRecord
  2
SLD-0
 70
     0
 62
   179
  6
Continuous
370
    -3
390
F
  0
LAYER
  5
7A
330
2
100
AcDbSymbolTableRecord
100
AcDbLayerTableRecord
  2
KOTY
 70
     0
 62
     7
  6
Continuous
370
    -3
390
F
  0
LAYER
  5
7B
330
2
100
AcDbSymbolTableRecord
100
AcDbLayerTableRecord
  2
SILNA
 70
     0
 62
   179
  6
Continuous
370
    -3
390
F
  0
LAYER
  5
7C
330
2
100
AcDbSymbolTableRecord
100
AcDbLayerTableRecord
  2
0_18_1
 70
     0
 62
   179
  6
Continuous
370
    -3
390
F
  0
LAYER
  5
7D
330
2
100
AcDbSymbolTableRecord
100
AcDbLayerTableRecord
  2
0_35_1
 70
     0
 62
   179
  6
Continuous
370
    35
390
F
  0
LAYER
  5
7E
330
2
100
AcDbSymbolTableRecord
100
AcDbLayerTableRecord
  2
0_5_1
 70
     0
 62
   179
  6
Continuous
370
    50
390
F
  0
ENDTAB
  0
TABLE
  2
STYLE
  5
3
330
0
100
AcDbSymbolTable
 70
     1
  0
STYLE
  5
11
330
3
100
AcDbSymbolTableRecord
100
AcDbTextStyleTableRecord
  2
Standard
 70
     0
 40
0.0
 41
1.0
 50
0.0
 71
     0
 42
2.0
  3
txt
  4

  0
ENDTAB
  0
TABLE
  2
VIEW
  5
6
330
0
100
AcDbSymbolTable
 70
     0
  0
ENDTAB
  0
TABLE
  2
UCS
  5
7
330
0
100
AcDbSymbolTable
 70
     0
  0
ENDTAB
  0
TABLE
  2
APPID
  5
9
330
0
100
AcDbSymbolTable
 70
     1
  0
APPID
  5
12
330
9
100
AcDbSymbolTableRecord
100
AcDbRegAppTableRecord
  2
ACAD
 70
     0
  0
ENDTAB
  0
TABLE
  2
DIMSTYLE
  5
A
330
0
100
AcDbSymbolTable
 70
     1
100
AcDbDimStyleTable
  0
DIMSTYLE
105
27
330
A
100
AcDbSymbolTableRecord
100
AcDbDimStyleTableRecord
  2
ISO-25
 70
     0
 41
2.5
 42
0.625
 43
3.75
 44
1.25
 73
     0
 74
     0
 77
     1
 78
     8
140
2.5
141
2.5
143
0.0393700787
147
0.625
171
     3
172
     1
178
     0
271
     2
272
     2
274
     3
278
    44
283
     0
284
     8
340
11
  0
ENDTAB
  0
TABLE
  2
BLOCK_RECORD
  5
1
330
0
100
AcDbSymbolTable
 70
     1
  0
BLOCK_RECORD
  5
1F
330
1
100
AcDbSymbolTableRecord
100
AcDbBlockTableRecord
  2
*Model_Space
340
22
  0
BLOCK_RECORD
  5
1B
330
1
100
AcDbSymbolTableRecord
100
AcDbBlockTableRecord
  2
*Paper_Space
340
1E
  0
BLOCK_RECORD
  5
23
330
1
100
AcDbSymbolTableRecord
100
AcDbBlockTableRecord
  2
*Paper_Space0
340
26
  0
ENDTAB
  0
ENDSEC
  0
SECTION
  2
BLOCKS
  0
BLOCK
  5
20
330
1F
100
AcDbEntity
  8
0
100
AcDbBlockBegin
  2
*Model_Space
 70
     0
 10
0.0
 20
0.0
 30
0.0
  3
*Model_Space
  1

  0
ENDBLK
  5
21
330
1F
100
AcDbEntity
  8
0
100
AcDbBlockEnd
  0
BLOCK
  5
1C
330
1B
100
AcDbEntity
 67
     1
  8
0
100
AcDbBlockBegin
  2
*Paper_Space
 70
     0
 10
0.0
 20
0.0
 30
0.0
  3
*Paper_Space
  1

  0
ENDBLK
  5
1D
330
1B
100
AcDbEntity
 67
     1
  8
0
100
AcDbBlockEnd
  0
BLOCK
  5
24
330
23
100
AcDbEntity
  8
0
100
AcDbBlockBegin
  2
*Paper_Space0
 70
     0
 10
0.0
 20
0.0
 30
0.0
  3
*Paper_Space0
  1

  0
ENDBLK
  5
25
330
23
100
AcDbEntity
  8
0
100
AcDbBlockEnd
  0
ENDSEC
  0
SECTION
  2
ENTITIES
  0
LINE
  5
7F
330
1F
100
AcDbEntity
  8
0
  6
Continuous
 62
     7
370
    25
100
AcDbLine
 10
6250.0187553361
 20
5218.9904503807
 30
0.0
 11
6250.0187553361
 21
5218.3904503807
 31
0.0
  0
LINE
  5
80
330
1F
100
AcDbEntity
  8
0
  6
Continuous
 62
     7
370
    25
100
AcDbLine
 10
6298.0187553361
 20
5218.3904503807
 30
0.0
 11
6298.0187553361
 21
5218.9904503807
 31
0.0
  0
ARC
  5
81
330
1F
100
AcDbEntity
  8
0
  6
Continuous
 62
     7
370
    25
100
AcDbCircle
 10
6297.8187553361
 20
5218.3904503807
 30
0.0
 40
0.2000000000007276
100
AcDbArc
 50
275.6627999084
 51
0.0
  0
ARC
  5
82
330
1F
100
AcDbEntity
  8
0
  6
Continuous
 62
     7
370
    25
100
AcDbCircle
 10
6250.2187553361
 20
5218.3904503807
 30
0.0
 40
0.2000000000007276
100
AcDbArc
 50
180.0
 51
264.3372000916
  0
ARC
  5
83
330
1F
100
AcDbEntity
  8
0
  6
Continuous
 62
     7
370
    25
100
AcDbCircle
 10
6297.8187553361
 20
5218.9904503807
 30
0.0
 40
0.2000000000007276
100
AcDbArc
 50
0.0
 51
89.9999999997
  0
ARC
  5
84
330
1F
100
AcDbEntity
  8
0
  6
Continuous
 62
     7
370
    25
100
AcDbCircle
 10
6250.2187553361
 20
5218.9904503807
 30
0.0
 40
0.2000000000007276
100
AcDbArc
 50
90.0000000003
 51
180.0
  0
LINE
  5
85
330
1F
100
AcDbEntity
  8
0
  6
Continuous
 62
     7
370
    25
100
AcDbLine
 10
6260.0187553361
 20
5287.2430029982
 30
0.0
 11
6260.0187553361
 21
5276.3500542421
 31
0.0
  0
LINE
  5
86
330
1F
100
AcDbEntity
  8
0
  6
Continuous
 62
     7
370
    25
100
AcDbLine
 10
6288.0187553361
 20
5276.3500542421
 30
0.0
 11
6288.0187553361
 21
5287.2430029982
 31
0.0
  0
LINE
  5
87
330
1F
100
AcDbEntity
  8
0
  6
Continuous
 62
     7
370
    25
100
AcDbLine
 10
6262.1187553361
 20
5276.3500542421
 30
0.0
 11
6262.1187553361
 21
5268.9230437265
 31
0.0
  0
LINE
  5
88
330
1F
100
AcDbEntity
  8
0
  6
Continuous
 62
     7
370
    25
100
AcDbLine
 10
6285.9187553361
 20
5268.9230437265
 30
0.0
 11
6285.9187553361
 21
5276.3500542421
 31
0.0
  0
SPLINE
  5
89
330
1F
100
AcDbEntity
  8
0
  6
Continuous
 62
     7
370
    25
100
AcDbSpline
210
0.0
220
0.0
230
1.0
 70
     8
 71
     3
 72
    19
 73
    15
 74
     0
 42
0.000000001
 43
0.00000001
 40
0.0
 40
0.0
 40
0.0
 40
0.0
 40
0.0477255671462883
 40
0.1430631566559622
 40
0.2272021522843131
 40
0.3149026536621338
 40
0.3976042308097636
 40
0.4781837728234709
 40
0.5580457021040239
 40
0.6380710438377615
 40
0.7189720690235399
 40
0.8020076899539949
 40
0.8895131312371407
 40
1.0
 40
1.0
 40
1.0
 40
1.0
 10
6281.598137675232
 20
5295.554564705395
 30
0.0
 10
6281.394233747185
 20
5295.598987337177
 30
0.0
 10
6280.783007074667
 20
5295.732149545813
 30
0.0
 10
6279.770803227571
 20
5295.886433612019
 30
0.0
 10
6278.478557044952
 20
5296.028185226082
 30
0.0
 10
6277.152847696255
 20
5296.125333102635
 30
0.0
 10
6275.773075832271
 20
5296.186148562882
 30
0.0
 10
6274.396231097231
 20
5296.211688524074
 30
0.0
 10
6273.025995499539
 20
5296.204331690108
 30
0.0
 10
6271.676501795276
 20
5296.16435293517
 30
0.0
 10
6270.361340715323
 20
5296.091589923548
 30
0.0
 10
6269.085276105708
 20
5295.980960985411
 30
0.0
 10
6267.763116891829
 20
5295.823239677291
 30
0.0
 10
6266.913493547184
 20
5295.650795045719
 30
0.0
 10
6266.439372996968
 20
5295.554564705395
 30
0.0
  0
SPLINE
  5
8A
330
1F
100
AcDbEntity
  8
0
  6
Continuous
 62
     7
370
    25
100
AcDbSpline
210
0.0
220
0.0
230
1.0
 70
     8
 71
     3
 72
    17
 73
    13
 74
     0
 42
0.000000001
 43
0.00000001
 40
0.0
 40
0.0
 40
0.0
 40
0.0
 40
0.040387721892075
 40
0.1404124729655982
 40
0.241957319791885
 40
0.3424791089504813
 40
0.4434750750140709
 40
0.5477616229447213
 40
0.6573834433244702
 40
0.7682395236438347
 40
0.8818000220628692
 40
1.0
 40
1.0
 40
1.0
 40
1.0
 10
6266.456122016042
 20
5295.53878423341
 30
0.0
 10
6266.302151458324
 20
5295.508056028191
 30
0.0
 10
6265.766855438636
 20
5295.401225955025
 30
0.0
 10
6264.892809629904
 20
5295.049381614104
 30
0.0
 10
6263.867566169475
 20
5294.494241625614
 30
0.0
 10
6262.938313084009
 20
5293.791402999525
 30
0.0
 10
6262.113729797011
 20
5292.968134639761
 30
0.0
 10
6261.395099453897
 20
5292.017479349155
 30
0.0
 10
6260.802088462895
 20
5290.947980148091
 30
0.0
 10
6260.362005547297
 20
5289.780284875612
 30
0.0
 10
6260.074081574594
 20
5288.537406655943
 30
0.0
 10
6260.03744190508
 20
5287.680190920222
 30
0.0
 10
6260.0187553361
 20
5287.243002998268
 30
0.0
  0
SPLINE
  5
8B
330
1F
100
AcDbEntity
  8
0
  6
Continuous
 62
     7
370
    25
100
AcDbSpline
210
0.0
220
0.0
230
1.0
 70
     8
 71
     3
 72
    17
 73
    13
 74
     0
 42
0.000000001
 43
0.00000001
 40
0.0
 40
0.0
 40
0.0
 40
0.0
 40
0.1143624949008613
 40
0.2380225841984959
 40
0.3494837130693585
 40
0.4594046455767194
 40
0.5674881827261827
 40
0.6730321014671822
 40
0.7772066185318885
 40
0.8807722078016437
 40
0.9837604380517811
 40
1.0
 40
1.0
 40
1.0
 40
1.0
 10
6288.0187553361
 20
5287.243002998268
 30
0.0
 10
6288.001107878285
 20
5287.666207028708
 30
0.0
 10
6287.96437823613
 20
5288.547021294396
 30
0.0
 10
6287.667834026749
 20
5289.816035838895
 30
0.0
 10
6287.202303468544
 20
5291.019375408932
 30
0.0
 10
6286.589699322907
 20
5292.099718518711
 30
0.0
 10
6285.838304090393
 20
5293.068471194223
 30
0.0
 10
6284.96370086389
 20
5293.909424309675
 30
0.0
 10
6283.983596722259
 20
5294.614614771577
 30
0.0
 10
6282.909432853603
 20
5295.150164470162
 30
0.0
 10
6282.096235228526
 20
5295.460645775657
 30
0.0
 10
6281.638523091235
 20
5295.537070801619
 30
0.0
 10
6281.576179870153
 20
5295.547480362348
 30
0.0
  0
LINE
  5
8C
330
1F
100
AcDbEntity
  8
0
  6
Continuous
 62
     7
370
    25
100
AcDbLine
 10
6288.0187553361
 20
5265.2202158806
 30
0.0
 11
6288.0187553361
 21
5276.3500542421
 31
0.0
  0
LINE
  5
8D
330
1F
100
AcDbEntity
  8
0
  6
Continuous
 62
     7
370
    25
100
AcDbLine
 10
6260.0187553361
 20
5276.3500542421
 30
0.0
 11
6260.0187553361
 21
5265.2202158806
 31
0.0
  0
LINE
  5
8E
330
1F
100
AcDbEntity
  8
0
  6
Continuous
 62
     7
370
    25
100
AcDbLine
 10
6288.0187553361
 20
5165.1605239875
 30
0.0
 11
6288.0187553361
 21
5265.2202158806
 31
0.0
  0
LINE
  5
8F
330
1F
100
AcDbEntity
  8
0
  6
Continuous
 62
     7
370
    25
100
AcDbLine
 10
6260.0187553361
 20
5265.2202158806
 30
0.0
 11
6260.0187553361
 21
5165.1656398665
 31
0.0
  0
ARC
  5
90
330
1F
100
AcDbEntity
  8
0
  6
Continuous
 62
     7
370
    25
100
AcDbCircle
 10
6295.0187553361
 20
5241.2725665994
 30
0.0
 40
3.0
100
AcDbArc
 50
0.0
 51
35.0560342971
  0
ARC
  5
91
330
1F
100
AcDbEntity
  8
0
  6
Continuous
 62
     7
370
    25
100
AcDbCircle
 10
6253.0187553361
 20
5241.2725665994
 30
0.0
 40
3.0
100
AcDbArc
 50
144.9439657029
 51
180.0
  0
LINE
  5
92
330
1F
100
AcDbEntity
  8
0
  6
Continuous
 62
     7
370
    25
100
AcDbLine
 10
6250.0187553361
 20
5180.1914264117
 30
0.0
 11
6250.0187553361
 21
5155.4914264117
 31
0.0
  0
LINE
  5
93
330
1F
100
AcDbEntity
  8
0
  6
Continuous
 62
     7
370
    25
100
AcDbLine
 10
6298.0187553361
 20
5155.4914264117
 30
0.0
 11
6298.0187553361
 21
5180.1914264117
 31
0.0
  0
LINE
  5
94
330
1F
100
AcDbEntity
  8
0
  6
Continuous
 62
     7
370
    25
100
AcDbLine
 10
6250.0187553361
 20
5241.2725665994
 30
0.0
 11
6250.0187553361
 21
5219.1914264117
 31
0.0
  0
LINE
  5
95
330
1F
100
AcDbEntity
  8
0
  6
Continuous
 62
     7
370
    25
100
AcDbLine
 10
6298.0187553361
 20
5219.1914264117
 30
0.0
 11
6298.0187553361
 21
5241.2725665994
 31
0.0
  0
LINE
  5
96
330
1F
100
AcDbEntity
  8
0
  6
Continuous
 62
     7
370
    25
100
AcDbLine
 10
6250.0187553361
 20
5218.1914264117
 30
0.0
 11
6250.0187553361
 21
5180.4914264117
 31
0.0
  0
LINE
  5
97
330
1F
100
AcDbEntity
  8
0
  6
Continuous
 62
     7
370
    25
100
AcDbLine
 10
6298.0187553361
 20
5180.4914264117
 30
0.0
 11
6298.0187553361
 21
5218.1914264117
 31
0.0
  0
LINE
  5
98
330
1F
100
AcDbEntity
  8
0
  6
Continuous
 62
     7
370
    25
100
AcDbLine
 10
6250.0187553361
 20
5155.1914264117
 30
0.0
 11
6250.0187553361
 21
5131.1914264117
 31
0.0
  0
LINE
  5
99
330
1F
100
AcDbEntity
  8
0
  6
Continuous
 62
     7
370
    25
100
AcDbLine
 10
6298.0187553361
 20
5131.1914264117
 30
0.0
 11
6298.0187553361
 21
5155.1914264117
 31
0.0
  0
ARC
  5
9A
330
1F
100
AcDbEntity
  8
0
  6
Continuous
 62
     7
370
    25
100
AcDbCircle
 10
6274.0187553361
 20
5226.5375802579
 30
0.0
 40
28.65384615384596
100
AcDbArc
 50
35.0560342971
 51
60.7520119066
  0
ARC
  5
9B
330
1F
100
AcDbEntity
  8
0
  6
Continuous
 62
     7
370
    25
100
AcDbCircle
 10
6274.0187553361
 20
5226.5375802579
 30
0.0
 40
28.65384615384596
100
AcDbArc
 50
119.2479880934
 51
144.9439657029
  0
LINE
  5
9C
330
1F
100
AcDbEntity
  8
0
  6
Continuous
 62
     7
370
    25
100
AcDbLine
 10
6252.0187553361
 20
5155.4914264117
 30
0.0
 11
6252.0187553361
 21
5155.1914264117
 31
0.0
  0
LINE
  5
9D
330
1F
100
AcDbEntity
  8
0
  6
Continuous
 62
     7
370
    25
100
AcDbLine
 10
6296.0187553361
 20
5155.1914264117
 30
0.0
 11
6296.0187553361
 21
5155.4914264117
 31
0.0
  0
LINE
  5
9E
330
1F
100
AcDbEntity
  8
0
  6
Continuous
 62
     7
370
    25
100
AcDbLine
 10
6252.0187553361
 20
5180.4914264117
 30
0.0
 11
6252.0187553361
 21
5180.1914264117
 31
0.0
  0
LINE
  5
9F
330
1F
100
AcDbEntity
  8
0
  6
Continuous
 62
     7
370
    25
100
AcDbLine
 10
6296.0187553361
 20
5180.1914264117
 30
0.0
 11
6296.0187553361
 21
5180.4914264117
 31
0.0
  0
LINE
  5
A0
330
1F
100
AcDbEntity
  8
0
  6
Continuous
 62
     7
370
    25
100
AcDbLine
 10
6252.0187553361
 20
5219.1914264117
 30
0.0
 11
6252.0187553361
 21
5219.1904503807
 31
0.0
  0
LINE
  5
A1
330
1F
100
AcDbEntity
  8
0
  6
Continuous
 62
     7
370
    25
100
AcDbLine
 10
6296.0187553361
 20
5219.1904503807
 30
0.0
 11
6296.0187553361
 21
5219.1914264117
 31
0.0
  0
LINE
  5
A2
330
1F
100
AcDbEntity
  8
0
  6
Continuous
 62
     7
370
    25
100
AcDbLine
 10
6296.9953506489
 20
5219.1904503807
 30
0.0
 11
6297.8187553361
 21
5219.1904503807
 31
0.0
  0
LINE
  5
A3
330
1F
100
AcDbEntity
  8
0
  6
Continuous
 62
     7
370
    25
100
AcDbLine
 10
6250.2187553361
 20
5219.1904503807
 30
0.0
 11
6260.0187553361
 21
5219.1904503807
 31
0.0
  0
LINE
  5
A4
330
1F
100
AcDbEntity
  8
0
  6
Continuous
 62
     7
370
    25
100
AcDbLine
 10
6288.0187553361
 20
5219.1904503807
 30
0.0
 11
6296.9953506489
 21
5219.1904503807
 31
0.0
  0
LWPOLYLINE
  5
A5
330
1F
100
AcDbEntity
  8
0
  6
Continuous
 62
     7
370
    25
100
AcDbPolyline
 90
       36
 70
   128
 43
0.0
 10
6285.9187553361
 20
5275.3236585197
 10
6285.9907540182
 20
5275.3400060247
 10
6286.8205320583
 20
5275.561364899
 10
6287.4401052786
 20
5275.7956740305
 10
6287.8393003039
 20
5276.0390860698
 10
6288.0115623629
 20
5276.2876041979
 10
6287.9540629174
 20
5276.537147754
 10
6287.6677461066
 20
5276.7836192398
 10
6287.1573132448
 20
5277.0229716003
 10
6286.4311456253
 20
5277.2512746764
 10
6285.5011669005
 20
5277.4647797379
 10
6284.3826472952
 20
5277.6599810376
 10
6283.0939528704
 20
5277.8336733755
 10
6281.656243953
 20
5277.9830047282
 10
6280.0931276837
 20
5278.1055230791
 10
6278.4302703884
 20
5278.1992166802
 10
6276.6949761379
 20
5278.2625470853
 10
6274.9157384158
 20
5278.2944744107
 10
6273.1217722564
 20
5278.2944744107
 10
6271.3425345343
 20
5278.2625470853
 10
6269.6072402838
 20
5278.1992166802
 10
6267.9443829885
 20
5278.1055230791
 10
6266.3812667192
 20
5277.9830047282
 10
6264.9435578018
 20
5277.8336733755
 10
6263.654863377
 20
5277.6599810376
 10
6262.5363437717
 20
5277.4647797379
 10
6261.6063650469
 20
5277.2512746764
 10
6260.8801974274
 20
5277.0229716003
 10
6260.3697645656
 20
5276.7836192398
 10
6260.0834477548
 20
5276.537147754
 10
6260.0259483093
 20
5276.2876041979
 10
6260.1982103683
 20
5276.0390860698
 10
6260.5974053936
 20
5275.7956740305
 10
6261.2169786139
 20
5275.561364899
 10
6262.046756654
 20
5275.3400060247
 10
6262.1187553361
 20
5275.3236585197
  0
SPLINE
  5
A6
330
1F
100
AcDbEntity
  8
0
  6
Continuous
 62
     7
370
    25
100
AcDbSpline
210
0.0
220
0.0
230
1.0
 70
     8
 71
     3
 72
    16
 73
    12
 74
     0
 42
0.000000001
 43
0.00000001
 40
0.0
 40
0.0
 40
0.0
 40
0.0
 40
0.2499999999999974
 40
0.2499999999999974
 40
0.4999999999999949
 40
0.4999999999999949
 40
0.7499999999999923
 40
0.7499999999999923
 40
0.8749999999999961
 40
0.8749999999999961
 40
1.0
 40
1.0
 40
1.0
 40
1.0
 10
6262.018755336101
 20
5289.236862570362
 30
0.0
 10
6261.688868979065
 20
5289.160461536902
 30
0.0
 10
6261.400095534095
 20
5289.04314480933
 30
0.0
 10
6260.901047378774
 20
5288.762007450217
 30
0.0
 10
6260.690656158964
 20
5288.596622855322
 30
0.0
 10
6260.355881235163
 20
5288.241133358923
 30
0.0
 10
6260.230049547008
 20
5288.050225843505
 30
0.0
 10
6260.103330491655
 20
5287.7523931893
 30
0.0
 10
6260.071618165346
 20
5287.651473786977
 30
0.0
 10
6260.029328450841
 20
5287.448018041434
 30
0.0
 10
6260.0187553361
 20
5287.344920717254
 30
0.0
 10
6260.0187553361
 20
5287.243002998268
 30
0.0
  0
ARC
  5
A7
330
1F
100
AcDbEntity
  8
0
  6
Continuous
 62
     7
370
    25
100
AcDbCircle
 10
6274.0187553361
 20
5217.7678157494
 30
0.0
 40
72.46947394249126
100
AcDbArc
 50
80.4686660497
 51
99.5313339503
  0
SPLINE
  5
A8
330
1F
100
AcDbEntity
  8
0
  6
Continuous
 62
     7
370
    25
100
AcDbSpline
210
0.0
220
0.0
230
1.0
 70
     8
 71
     3
 72
    16
 73
    12
 74
     0
 42
0.000000001
 43
0.00000001
 40
0.0
 40
0.0
 40
0.0
 40
0.0
 40
0.2500000000000017
 40
0.2500000000000017
 40
0.5000000000000034
 40
0.5000000000000034
 40
0.7500000000000051
 40
0.7500000000000051
 40
0.8750000000000026
 40
0.8750000000000026
 40
1.0
 40
1.0
 40
1.0
 40
1.0
 10
6286.018755336101
 20
5289.236862570362
 30
0.0
 10
6286.348641693136
 20
5289.160461536902
 30
0.0
 10
6286.637415138105
 20
5289.04314480933
 30
0.0
 10
6287.136463293426
 20
5288.762007450217
 30
0.0
 10
6287.346854513236
 20
5288.596622855322
 30
0.0
 10
6287.681629437037
 20
5288.241133358923
 30
0.0
 10
6287.807461125192
 20
5288.050225843505
 30
0.0
 10
6287.934180180545
 20
5287.7523931893
 30
0.0
 10
6287.965892506854
 20
5287.651473786977
 30
0.0
 10
6288.00818222136
 20
5287.448018041435
 30
0.0
 10
6288.0187553361
 20
5287.344920717506
 30
0.0
 10
6288.0187553361
 20
5287.243002998268
 30
0.0
  0
LWPOLYLINE
  5
A9
330
1F
100
AcDbEntity
  8
0
  6
Continuous
 62
     7
370
    25
100
AcDbPolyline
 90
       24
 70
   128
 43
0.0
 10
6285.9187553361
 20
5276.3500542421
 10
6285.853565891
 20
5276.5231700915
 10
6285.5652744788
 20
5276.7507155849
 10
6285.0522432054
 20
5276.9704626609
 10
6284.3244576411
 20
5277.1781341928
 10
6283.396083304
 20
5277.3696880904
 10
6282.2851899446
 20
5277.5413959749
 10
6281.0133998384
 20
5277.6899157478
 10
6279.6054669333
 20
5277.8123566405
 10
6278.0887950417
 20
5277.9063354803
 10
6276.4929044568
 20
5277.9700230761
 10
6274.8488573737
 20
5278.0021798213
 10
6273.1886532985
 20
5278.0021798213
 10
6271.5446062154
 20
5277.9700230761
 10
6269.9487156305
 20
5277.9063354803
 10
6268.4320437389
 20
5277.8123566405
 10
6267.0241108338
 20
5277.6899157478
 10
6265.7523207276
 20
5277.5413959749
 10
6264.6414273682
 20
5277.3696880904
 10
6263.7130530311
 20
5277.1781341928
 10
6262.9852674668
 20
5276.9704626609
 10
6262.4722361934
 20
5276.7507155849
 10
6262.1839447812
 20
5276.5231700915
 10
6262.1187553361
 20
5276.3500542421
  0
LWPOLYLINE
  5
AA
330
1F
100
AcDbEntity
  8
0
  6
Continuous
 62
     7
370
    25
100
AcDbPolyline
 90
       46
 70
   128
 43
0.0
 10
6274.0187553361
 20
5267.2668838251
 10
6275.6749152375
 20
5267.2830014594
 10
6277.2988398703
 20
5267.331040651
 10
6278.8589213887
 20
5267.4100663715
 10
6280.3247945805
 20
5267.5185404752
 10
6281.6679278914
 20
5267.6543516371
 10
6282.8621787593
 20
5267.8148564475
 10
6283.8843024495
 20
5267.9969308627
 10
6284.7144044871
 20
5268.1970310113
 10
6285.33632788
 20
5268.4112621716
 10
6285.7379675969
 20
5268.6354545777
 10
6285.9115061776
 20
5268.8652445795
 10
6285.853565891
 20
5269.096159576
 10
6285.5652744788
 20
5269.3237050693
 10
6285.0522432054
 20
5269.5434521454
 10
6284.3244576411
 20
5269.7511236773
 10
6283.396083304
 20
5269.9426775748
 10
6282.2851899446
 20
5270.1143854594
 10
6281.0133998384
 20
5270.2629052322
 10
6279.6054669333
 20
5270.3853461249
 10
6278.0887950417
 20
5270.4793249648
 10
6276.4929044568
 20
5270.5430125606
 10
6274.8488573737
 20
5270.5751693057
 10
6273.1886532985
 20
5270.5751693057
 10
6271.5446062154
 20
5270.5430125606
 10
6269.9487156305
 20
5270.4793249648
 10
6268.4320437389
 20
5270.3853461249
 10
6267.0241108338
 20
5270.2629052322
 10
6265.7523207276
 20
5270.1143854594
 10
6264.6414273682
 20
5269.9426775748
 10
6263.7130530311
 20
5269.7511236773
 10
6262.9852674668
 20
5269.5434521454
 10
6262.4722361934
 20
5269.3237050693
 10
6262.1839447812
 20
5269.096159576
 10
6262.1260044946
 20
5268.8652445795
 10
6262.2995430753
 20
5268.6354545777
 10
6262.7011827922
 20
5268.4112621716
 10
6263.3231061851
 20
5268.1970310113
 10
6264.1532082227
 20
5267.9969308627
 10
6265.1753319129
 20
5267.8148564475
 10
6266.3695827808
 20
5267.6543516371
 10
6267.7127160917
 20
5267.5185404752
 10
6269.1785892835
 20
5267.4100663715
 10
6270.7386708019
 20
5267.331040651
 10
6272.3625954347
 20
5267.2830014594
 10
6274.0187553361
 20
5267.2668838251
  0
LWPOLYLINE
  5
AB
330
1F
100
AcDbEntity
  8
0
  6
Continuous
 62
     7
370
    25
100
AcDbPolyline
 90
       42
 70
   128
 43
0.0
 10
6274.0187553361
 20
5267.5313127169
 10
6275.5452481783
 20
5267.5476232146
 10
6277.0359613221
 20
5267.5961724033
 10
6278.4559537148
 20
5267.6758223312
 10
6279.7719419383
 20
5267.7847060715
 10
6280.953080344
 20
5267.9202714816
 10
6281.9716840488
 20
5268.0793410233
 10
6282.8038778452
 20
5268.2581862412
 10
6283.4301558159
 20
5268.4526151551
 10
6283.8358385361
 20
5268.658070516
 10
6284.0114171466
 20
5268.8697366243
 10
6283.9527762337
 20
5269.082652206
 10
6283.6612902906
 20
5269.2918267001
 10
6283.1437915009
 20
5269.492357234
 10
6282.4124095974
 20
5269.6795435417
 10
6281.4842875522
 20
5269.848998135
 10
6280.3811797594
 20
5269.9967491417
 10
6279.1289421306
 20
5270.1193334035
 10
6277.7569260545
 20
5270.2138776492
 10
6276.2972904251
 20
5270.2781658419
 10
6274.7842478645
 20
5270.3106911207
 10
6273.2532628077
 20
5270.3106911207
 10
6271.7402202471
 20
5270.2781658419
 10
6270.2805846177
 20
5270.2138776492
 10
6268.9085685416
 20
5270.1193334035
 10
6267.6563309128
 20
5269.9967491417
 10
6266.55322312
 20
5269.848998135
 10
6265.6251010748
 20
5269.6795435417
 10
6264.8937191713
 20
5269.492357234
 10
6264.3762203816
 20
5269.2918267001
 10
6264.0847344385
 20
5269.082652206
 10
6264.0260935256
 20
5268.8697366243
 10
6264.2016721361
 20
5268.658070516
 10
6264.6073548563
 20
5268.4526151551
 10
6265.233632827
 20
5268.2581862412
 10
6266.0658266234
 20
5268.0793410233
 10
6267.0844303282
 20
5267.9202714816
 10
6268.2655687339
 20
5267.7847060715
 10
6269.5815569574
 20
5267.6758223312
 10
6271.0015493501
 20
5267.5961724033
 10
6272.4922624939
 20
5267.5476232146
 10
6274.0187553361
 20
5267.5313127169
  0
LINE
  5
AC
330
1F
100
AcDbEntity
  8
0
  6
Continuous
 62
     7
370
    25
100
AcDbLine
 10
6268.0187553361
 20
5258.5879153001
 30
0.0
 11
6280.0187553361
 21
5258.5879153001
 31
0.0
  0
LINE
  5
AD
330
1F
100
AcDbEntity
  8
0
  6
Continuous
 62
     7
370
    25
100
AcDbLine
 10
6268.0187553361
 20
5258.5879153001
 30
0.0
 11
6268.0187553361
 21
5158.0276399351
 31
0.0
  0
LINE
  5
AE
330
1F
100
AcDbEntity
  8
0
  6
Continuous
 62
     7
370
    25
100
AcDbLine
 10
6280.0187553361
 20
5258.5879153001
 30
0.0
 11
6280.0187553361
 21
5158.0276399351
 31
0.0
  0
ELLIPSE
  5
AF
330
1F
100
AcDbEntity
  8
0
  6
Continuous
 62
     7
370
    25
100
AcDbEllipse
 10
6274.0187553361
 20
5142.3534784195
 30
0.0
 11
24.0
 21
0.0
 31
0.0
210
0.0
220
0.0
230
1.0
 40
0.6745085168
 41
1.31811607165282
 42
1.823476581936973
  0
SPLINE
  5
B0
330
1F
100
AcDbEntity
  8
0
  6
Continuous
 62
     7
370
    25
100
AcDbSpline
210
0.0
220
0.0
230
1.0
 70
     8
 71
     3
 72
    14
 73
    10
 74
     0
 42
0.000000001
 43
0.00000001
 40
0.0
 40
0.0
 40
0.0
 40
0.0
 40
0.0386160293541207
 40
0.1448438863944202
 40
0.3197431137915937
 40
0.4951373589930543
 40
0.6612273304502342
 40
0.8403300924899972
 40
1.0
 40
1.0
 40
1.0
 40
1.0
 10
6288.000496831639
 20
5165.160253083289
 30
0.0
 10
6288.005316359699
 20
5164.991873806757
 30
0.0
 10
6288.023393805425
 20
5164.360304243311
 30
0.0
 10
6287.84526438243
 20
5162.972948900268
 30
0.0
 10
6287.247867093627
 20
5161.085869377726
 30
0.0
 10
6285.929829503406
 20
5159.381729535261
 30
0.0
 10
6284.135275027953
 20
5158.289863972734
 30
0.0
 10
6282.108124262218
 20
5157.808516331893
 30
0.0
 10
6280.688058799611
 20
5157.957446402144
 30
0.0
 10
6280.0187553361
 20
5158.027639935094
 30
0.0
  0
SPLINE
  5
B1
330
1F
100
AcDbEntity
  8
0
  6
Continuous
 62
     7
370
    25
100
AcDbSpline
210
0.0
220
0.0
230
1.0
 70
     8
 71
     3
 72
    16
 73
    12
 74
     0
 42
0.000000001
 43
0.00000001
 40
0.0
 40
0.0
 40
0.0
 40
0.0
 40
0.10250834217028
 40
0.207804377119539
 40
0.3103717553320157
 40
0.4163560324450984
 40
0.511437225420988
 40
0.6100193885158834
 40
0.7807818304908551
 40
0.9485122184314528
 40
0.9999999999999999
 40
0.9999999999999999
 40
0.9999999999999999
 40
0.9999999999999999
 10
6268.0187553361
 20
5158.027639935094
 30
0.0
 10
6267.589614028657
 20
5157.97193417032
 30
0.0
 10
6266.719661006282
 20
5157.859007734232
 30
0.0
 10
6265.436012644979
 20
5157.952249954943
 30
0.0
 10
6264.195775628958
 20
5158.252596579441
 30
0.0
 10
6263.086795871445
 20
5158.76842052622
 30
0.0
 10
6262.120081477982
 20
5159.488974520299
 30
0.0
 10
6261.129937284521
 20
5160.60135000079
 30
0.0
 10
6260.335075985964
 20
5162.288807342402
 30
0.0
 10
6260.010220817681
 20
5163.982750825026
 30
0.0
 10
6260.040606184719
 20
5164.940317933593
 30
0.0
 10
6260.047742797275
 20
5165.165221764482
 30
0.0
  0
LINE
  5
B2
330
1F
100
AcDbEntity
  8
0
  6
Continuous
 62
     7
370
    25
100
AcDbLine
 10
6250.0187553361
 20
5180.1914264117
 30
0.0
 11
6260.0187553361
 21
5180.1914264117
 31
0.0
  0
LINE
  5
B3
330
1F
100
AcDbEntity
  8
0
  6
Continuous
 62
     7
370
    25
100
AcDbLine
 10
6288.0187553361
 20
5180.1914264117
 30
0.0
 11
6298.0187553361
 21
5180.1914264117
 31
0.0
  0
LINE
  5
B4
330
1F
100
AcDbEntity
  8
0
  6
Continuous
 62
     7
370
    25
100
AcDbLine
 10
6250.0187553361
 20
5155.4914264117
 30
0.0
 11
6298.0187553361
 21
5155.4914264117
 31
0.0
  0
LINE
  5
B5
330
1F
100
AcDbEntity
  8
0
  6
Continuous
 62
     7
370
    25
100
AcDbLine
 10
6250.0187553361
 20
5219.1914264117
 30
0.0
 11
6260.0187553361
 21
5219.1914264117
 31
0.0
  0
LINE
  5
B6
330
1F
100
AcDbEntity
  8
0
  6
Continuous
 62
     7
370
    25
100
AcDbLine
 10
6288.0187553361
 20
5219.1914264117
 30
0.0
 11
6298.0187553361
 21
5219.1914264117
 31
0.0
  0
LINE
  5
B7
330
1F
100
AcDbEntity
  8
0
  6
Continuous
 62
     7
370
    25
100
AcDbLine
 10
6250.0187553361
 20
5180.4914264117
 30
0.0
 11
6260.0187553361
 21
5180.4914264117
 31
0.0
  0
LINE
  5
B8
330
1F
100
AcDbEntity
  8
0
  6
Continuous
 62
     7
370
    25
100
AcDbLine
 10
6288.0187553361
 20
5180.4914264117
 30
0.0
 11
6298.0187553361
 21
5180.4914264117
 31
0.0
  0
LINE
  5
B9
330
1F
100
AcDbEntity
  8
0
  6
Continuous
 62
     7
370
    25
100
AcDbLine
 10
6250.0187553361
 20
5218.1914264117
 30
0.0
 11
6260.0187553361
 21
5218.1914264117
 31
0.0
  0
LINE
  5
BA
330
1F
100
AcDbEntity
  8
0
  6
Continuous
 62
     7
370
    25
100
AcDbLine
 10
6288.0187553361
 20
5218.1914264117
 30
0.0
 11
6298.0187553361
 21
5218.1914264117
 31
0.0
  0
LINE
  5
BB
330
1F
100
AcDbEntity
  8
0
  6
Continuous
 62
     7
370
    25
100
AcDbLine
 10
6250.0187553361
 20
5155.1914264117
 30
0.0
 11
6298.0187553361
 21
5155.1914264117
 31
0.0
  0
LINE
  5
BC
330
1F
100
AcDbEntity
  8
0
  6
Continuous
 62
     7
370
    25
100
AcDbLine
 10
6266.4687553361
 20
5141.8914264117
 30
0.0
 11
6281.5687553361
 21
5141.8914264117
 31
0.0
  0
SPLINE
  5
BD
330
1F
100
AcDbEntity
  8
0
  6
Continuous
 62
     7
370
    25
100
AcDbSpline
210
0.0
220
0.0
230
1.0
 70
     8
 71
     3
 72
    46
 73
    42
 74
     0
 42
0.000000001
 43
0.00000001
 40
0.0
 40
0.0
 40
0.0
 40
0.0
 40
0.0625000000000007
 40
0.0625000000000007
 40
0.1250000000000014
 40
0.1250000000000014
 40
0.1875000000000022
 40
0.1875000000000022
 40
0.2187500000000024
 40
0.2187500000000024
 40
0.2500000000000027
 40
0.2500000000000027
 40
0.3125000000000026
 40
0.3125000000000026
 40
0.3750000000000024
 40
0.3750000000000024
 40
0.4375000000000023
 40
0.4375000000000023
 40
0.4687500000000023
 40
0.4687500000000023
 40
0.5000000000000022
 40
0.5000000000000022
 40
0.5312500000000021
 40
0.5312500000000021
 40
0.562500000000002
 40
0.562500000000002
 40
0.625000000000002
 40
0.625000000000002
 40
0.656250000000002
 40
0.656250000000002
 40
0.687500000000002
 40
0.687500000000002
 40
0.7500000000000016
 40
0.7500000000000016
 40
0.8125000000000011
 40
0.8125000000000011
 40
0.8750000000000008
 40
0.8750000000000008
 40
0.9375000000000003
 40
0.9375000000000003
 40
1.0
 40
1.0
 40
1.0
 40
1.0
 10
6281.5687553361
 20
5141.891426411708
 30
0.0
 10
6281.917644651602
 20
5141.891426411708
 30
0.0
 10
6282.258079790789
 20
5141.925517636143
 30
0.0
 10
6282.923477419028
 20
5142.056283617741
 30
0.0
 10
6283.250627698339
 20
5142.153913636651
 30
0.0
 10
6283.879535320093
 20
5142.409635380378
 30
0.0
 10
6284.177133692059
 20
5142.565481909598
 30
0.0
 10
6284.599798031523
 20
5142.840446036594
 30
0.0
 10
6284.736702420342
 20
5142.939020509899
 30
0.0
 10
6285.002458051755
 20
5143.150568787045
 30
0.0
 10
6285.131470532711
 20
5143.263827802953
 30
0.0
 10
6285.498467701721
 20
5143.618858380424
 30
0.0
 10
6285.71941138443
 20
5143.877719047066
 30
0.0
 10
6286.113338336745
 20
5144.442723539391
 30
0.0
 10
6286.287969628611
 20
5144.753460845292
 30
0.0
 10
6286.569654470186
 20
5145.400988618215
 30
0.0
 10
6286.678434132912
 20
5145.738487640589
 30
0.0
 10
6286.790662557649
 20
5146.267225627601
 30
0.0
 10
6286.819633660285
 20
5146.448621328315
 30
0.0
 10
6286.858360341146
 20
5146.812531363058
 30
0.0
 10
6286.868188279423
 20
5146.994186960566
 30
0.0
 10
6286.869274835329
 20
5147.356913450933
 30
0.0
 10
6286.860532443088
 20
5147.537984315761
 30
0.0
 10
6286.824379271372
 20
5147.899539666711
 30
0.0
 10
6286.796707741105
 20
5148.081178893141
 30
0.0
 10
6286.686639388223
 20
5148.616153100538
 30
0.0
 10
6286.578619319414
 20
5148.95714691448
 30
0.0
 10
6286.367981156412
 20
5149.447320476586
 30
0.0
 10
6286.289168712539
 20
5149.607754927129
 30
0.0
 10
6286.118553192469
 20
5149.915446493329
 30
0.0
 10
6286.026535989303
 20
5150.063388634984
 30
0.0
 10
6285.731126985316
 20
5150.49060262855
 30
0.0
 10
6285.506319925185
 20
5150.755464380775
 30
0.0
 10
6285.016014484652
 20
5151.231622681803
 30
0.0
 10
6284.752051898591
 20
5151.442401845151
 30
0.0
 10
6284.186452096017
 20
5151.812230758748
 30
0.0
 10
6283.882870772796
 20
5151.97144879874
 30
0.0
 10
6283.258315329103
 20
5152.226218493307
 30
0.0
 10
6282.935022657392
 20
5152.323677373639
 30
0.0
 10
6282.264891193237
 20
5152.456602685859
 30
0.0
 10
6281.918033411352
 20
5152.491426411708
 30
0.0
 10
6281.5687553361
 20
5152.491426411708
 30
0.0
  0
LINE
  5
BE
330
1F
100
AcDbEntity
  8
0
  6
Continuous
 62
     7
370
    25
100
AcDbLine
 10
6281.5687553361
 20
5152.4914264117
 30
0.0
 11
6266.4687553361
 21
5152.4914264117
 31
0.0
  0
SPLINE
  5
BF
330
1F
100
AcDbEntity
  8
0
  6
Continuous
 62
     7
370
    25
100
AcDbSpline
210
0.0
220
0.0
230
1.0
 70
     8
 71
     3
 72
    46
 73
    42
 74
     0
 42
0.000000001
 43
0.00000001
 40
0.0
 40
0.0
 40
0.0
 40
0.0
 40
0.0624999999999998
 40
0.0624999999999998
 40
0.1249999999999995
 40
0.1249999999999995
 40
0.1874999999999993
 40
0.1874999999999993
 40
0.2187499999999992
 40
0.2187499999999992
 40
0.2499999999999992
 40
0.2499999999999992
 40
0.3124999999999994
 40
0.3124999999999994
 40
0.3749999999999996
 40
0.3749999999999996
 40
0.4374999999999998
 40
0.4374999999999998
 40
0.4687499999999996
 40
0.4687499999999996
 40
0.4999999999999993
 40
0.4999999999999993
 40
0.5312499999999991
 40
0.5312499999999991
 40
0.5624999999999992
 40
0.5624999999999992
 40
0.6249999999999991
 40
0.6249999999999991
 40
0.6562499999999991
 40
0.6562499999999991
 40
0.6874999999999991
 40
0.6874999999999991
 40
0.7499999999999992
 40
0.7499999999999992
 40
0.8124999999999994
 40
0.8124999999999994
 40
0.8749999999999997
 40
0.8749999999999997
 40
0.9374999999999999
 40
0.9374999999999999
 40
1.0
 40
1.0
 40
1.0
 40
1.0
 10
6266.4687553361
 20
5152.491426411708
 30
0.0
 10
6266.119866020598
 20
5152.491426411708
 30
0.0
 10
6265.779430881412
 20
5152.457335187273
 30
0.0
 10
6265.114033253172
 20
5152.326569205676
 30
0.0
 10
6264.786882973862
 20
5152.228939186765
 30
0.0
 10
6264.157975352107
 20
5151.973217443038
 30
0.0
 10
6263.860376980141
 20
5151.817370913819
 30
0.0
 10
6263.437712640677
 20
5151.542406786823
 30
0.0
 10
6263.300808251859
 20
5151.443832313518
 30
0.0
 10
6263.035052620446
 20
5151.232284036372
 30
0.0
 10
6262.906040139489
 20
5151.119025020465
 30
0.0
 10
6262.539042970479
 20
5150.763994442992
 30
0.0
 10
6262.318099287771
 20
5150.505133776352
 30
0.0
 10
6261.924172335455
 20
5149.940129284025
 30
0.0
 10
6261.749541043589
 20
5149.629391978125
 30
0.0
 10
6261.467856202014
 20
5148.981864205202
 30
0.0
 10
6261.359076539288
 20
5148.644365182828
 30
0.0
 10
6261.246848114552
 20
5148.115627195817
 30
0.0
 10
6261.217877011916
 20
5147.934231495102
 30
0.0
 10
6261.179150331054
 20
5147.570321460359
 30
0.0
 10
6261.169322392778
 20
5147.388665862851
 30
0.0
 10
6261.168235836872
 20
5147.025939372483
 30
0.0
 10
6261.176978229112
 20
5146.844868507656
 30
0.0
 10
6261.213131400828
 20
5146.483313156707
 30
0.0
 10
6261.240802931095
 20
5146.301673930276
 30
0.0
 10
6261.350871283978
 20
5145.766699722879
 30
0.0
 10
6261.458891352788
 20
5145.425705908937
 30
0.0
 10
6261.669529515788
 20
5144.935532346831
 30
0.0
 10
6261.748341959661
 20
5144.775097896289
 30
0.0
 10
6261.918957479731
 20
5144.467406330087
 30
0.0
 10
6262.010974682898
 20
5144.319464188433
 30
0.0
 10
6262.306383686885
 20
5143.892250194866
 30
0.0
 10
6262.531190747015
 20
5143.627388442643
 30
0.0
 10
6263.021496187548
 20
5143.151230141614
 30
0.0
 10
6263.285458773609
 20
5142.940450978265
 30
0.0
 10
6263.851058576184
 20
5142.570622064668
 30
0.0
 10
6264.154639899404
 20
5142.411404024677
 30
0.0
 10
6264.779195343097
 20
5142.15663433011
 30
0.0
 10
6265.102488014808
 20
5142.059175449778
 30
0.0
 10
6265.772619478963
 20
5141.926250137558
 30
0.0
 10
6266.119477260849
 20
5141.891426411708
 30
0.0
 10
6266.4687553361
 20
5141.891426411708
 30
0.0
  0
LINE
  5
C0
330
1F
100
AcDbEntity
  8
0
  6
Continuous
 62
     7
370
    25
100
AcDbLine
 10
6250.0187553361
 20
5131.1914264117
 30
0.0
 11
6298.0187553361
 21
5131.1914264117
 31
0.0
  0
SPLINE
  5
C1
330
1F
100
AcDbEntity
  8
0
  6
Continuous
 62
     7
370
    25
100
AcDbSpline
210
0.0
220
0.0
230
1.0
 70
     8
 71
     3
 72
    11
 73
     7
 74
     0
 42
0.000000001
 43
0.00000001
 40
0.0
 40
0.0
 40
0.0
 40
0.0
 40
0.2446415862571482
 40
0.4963777950888977
 40
0.7444832491375469
 40
1.0
 40
1.0
 40
1.0
 40
1.0
 10
6266.495270617026
 20
5152.46208392984
 30
0.0
 10
6267.691178036956
 20
5152.462083926781
 30
0.0
 10
6270.117674273012
 20
5152.462083920575
 30
0.0
 10
6273.920959770547
 20
5152.462083930433
 30
0.0
 10
6277.781206538108
 20
5152.462083920015
 30
0.0
 10
6280.245162743201
 20
5152.462083926534
 30
0.0
 10
6281.495270617027
 20
5152.46208392984
 30
0.0
  0
LINE
  5
C2
330
1F
100
AcDbEntity
  8
0
  6
Continuous
 62
     7
370
    25
100
AcDbLine
 10
6281.495270617
 20
5152.4620839298
 30
0.0
 11
6281.4950200046
 21
5152.4214753645
 31
0.0
  0
SPLINE
  5
C3
330
1F
100
AcDbEntity
  8
0
  6
Continuous
 62
     7
370
    25
100
AcDbSpline
210
0.0
220
0.0
230
1.0
 70
     8
 71
     3
 72
    13
 73
     9
 74
     0
 42
0.000000001
 43
0.00000001
 40
0.0
 40
0.0
 40
0.0
 40
0.0
 40
0.0000039410575976
 40
0.230494869564353
 40
0.4609857147274841
 40
0.7304915655171906
 40
0.9999960589432907
 40
0.9999999999999999
 40
0.9999999999999999
 40
0.9999999999999999
 40
0.9999999999999999
 10
6266.495521229333
 20
5152.421475364492
 30
0.0
 10
6266.495540286078
 20
5152.421475376153
 30
0.0
 10
6267.610084270937
 20
5152.422157393687
 30
0.0
 10
6269.893478157562
 20
5152.42315659363
 30
0.0
 10
6273.595042241668
 20
5152.423750268376
 30
0.0
 10
6277.51121432112
 20
5152.423363750766
 30
0.0
 10
6280.191812082818
 20
5152.422272658799
 30
0.0
 10
6281.495000947884
 20
5152.421475376158
 30
0.0
 10
6281.495020004583
 20
5152.421475364499
 30
0.0
  0
LINE
  5
C4
330
1F
100
AcDbEntity
  8
0
  6
Continuous
 62
     7
370
    25
100
AcDbLine
 10
6266.495270617
 20
5152.4620839298
 30
0.0
 11
6266.4955212293
 21
5152.4214753645
 31
0.0
  0
LWPOLYLINE
  5
C5
330
1F
100
AcDbEntity
  8
0
  6
Continuous
 62
     7
370
    25
100
AcDbPolyline
 90
        9
 70
   128
 43
0.0
 10
6281.4950200046
 20
5152.4214753645
 10
6281.512541445
 20
5152.4147762213
 10
6281.5293357901
 20
5152.397070767
 10
6281.5447727105
 20
5152.369023527
 10
6281.5582728237
 20
5152.3316871774
 10
6281.5693294403
 20
5152.2864630352
 10
6281.5775275805
 20
5152.2350484642
 10
6281.5825595498
 20
5152.1793731688
 10
6281.5842364869
 20
5152.1215267679
  0
SPLINE
  5
C6
330
1F
100
AcDbEntity
  8
0
  6
Continuous
 62
     7
370
    25
100
AcDbSpline
210
0.0
220
0.0
230
1.0
 70
     8
 71
     3
 72
    11
 73
     7
 74
     0
 42
0.000000001
 43
0.00000001
 40
0.0
 40
0.0
 40
0.0
 40
0.0
 40
0.2695041189019517
 40
0.5390082375805968
 40
0.7671673972096724
 40
0.9999999999999999
 40
0.9999999999999999
 40
0.9999999999999999
 40
0.9999999999999999
 10
6281.584236486901
 20
5152.121526767873
 30
0.0
 10
6280.243684953585
 20
5152.122178276593
 30
0.0
 10
6277.562581888063
 20
5152.123481294031
 30
0.0
 10
6273.602407090312
 20
5152.123765660219
 30
0.0
 10
6269.849574722396
 20
5152.123253495073
 30
0.0
 10
6267.561792432755
 20
5152.122106220553
 30
0.0
 10
6266.406304746122
 20
5152.121526767873
 30
0.0
  0
LWPOLYLINE
  5
C7
330
1F
100
AcDbEntity
  8
0
  6
Continuous
 62
     7
370
    25
100
AcDbPolyline
 90
        9
 70
   128
 43
0.0
 10
6266.4063047461
 20
5152.1215267679
 10
6266.4079816832
 20
5152.1793731687
 10
6266.4130136525
 20
5152.2350484641
 10
6266.4212117928
 20
5152.2864630351
 10
6266.4322684095
 20
5152.3316871773
 10
6266.4457685229
 20
5152.3690235269
 10
6266.4612054434
 20
5152.3970707669
 10
6266.4779997887
 20
5152.4147762212
 10
6266.4955212293
 20
5152.4214753645
  0
SPLINE
  5
C8
330
1F
100
AcDbEntity
  8
0
  6
Continuous
 62
     7
370
    25
100
AcDbSpline
210
0.0
220
0.0
230
1.0
 70
     8
 71
     3
 72
    13
 73
     9
 74
     0
 42
0.000000001
 43
0.00000001
 40
0.0
 40
0.0
 40
0.0
 40
0.0
 40
0.0000039410478011
 40
0.2695084344841187
 40
0.5390142852839427
 40
0.7695051304556764
 40
0.9999960589710362
 40
1.0
 40
1.0
 40
1.0
 40
1.0
 10
6281.495020004721
 20
5141.902692495196
 30
0.0
 10
6281.495000947975
 20
5141.902692483532
 30
0.0
 10
6280.191805993953
 20
5141.901894828431
 30
0.0
 10
6277.51121709291
 20
5141.900804287284
 30
0.0
 10
6273.595041834741
 20
5141.900417537453
 30
0.0
 10
6269.893477589763
 20
5141.901011321747
 30
0.0
 10
6267.610085872972
 20
5141.902010368029
 30
0.0
 10
6266.4955402863
 20
5141.90269248353
 30
0.0
 10
6266.495521229665
 20
5141.902692495193
 30
0.0
  0
LWPOLYLINE
  5
C9
330
1F
100
AcDbEntity
  8
0
  6
Continuous
 62
     7
370
    25
100
AcDbPolyline
 90
        9
 70
   128
 43
0.0
 10
6266.4063047465
 20
5142.2026410918
 10
6266.4079816836
 20
5142.144794691
 10
6266.4130136528
 20
5142.0891193956
 10
6266.4212117931
 20
5142.0377048247
 10
6266.4322684097
 20
5141.9924806825
 10
6266.4457685231
 20
5141.9551443329
 10
6266.4612054435
 20
5141.9270970929
 10
6266.4779997888
 20
5141.9093916385
 10
6266.4955212297
 20
5141.9026924952
  0
SPLINE
  5
CA
330
1F
100
AcDbEntity
  8
0
  6
Continuous
 62
     7
370
    25
100
AcDbSpline
210
0.0
220
0.0
230
1.0
 70
     8
 71
     3
 72
    11
 73
     7
 74
     0
 42
0.000000001
 43
0.00000001
 40
0.0
 40
0.0
 40
0.0
 40
0.0
 40
0.2281591590677958
 40
0.4609917623771491
 40
0.7304958810419266
 40
1.0
 40
1.0
 40
1.0
 40
1.0
 10
6266.40630474646
 20
5142.202641091806
 30
0.0
 10
6267.538277803718
 20
5142.202071532082
 30
0.0
 10
6269.82541042097
 20
5142.200920746192
 30
0.0
 10
6273.578348616624
 20
5142.200400226068
 30
0.0
 10
6277.562564346886
 20
5142.200686629543
 30
0.0
 10
6280.243679107096
 20
5142.201989604385
 30
0.0
 10
6281.584236487931
 20
5142.202641091807
 30
0.0
  0
LWPOLYLINE
  5
CB
330
1F
100
AcDbEntity
  8
0
  6
Continuous
 62
     7
370
    25
100
AcDbPolyline
 90
        9
 70
   128
 43
0.0
 10
6281.4950200047
 20
5141.9026924952
 10
6281.5125414457
 20
5141.9093916385
 10
6281.5293357914
 20
5141.927097093
 10
6281.5447727121
 20
5141.955144333
 10
6281.5582728255
 20
5141.9924806826
 10
6281.5693294422
 20
5142.0377048247
 10
6281.5775275823
 20
5142.0891193957
 10
6281.5825595512
 20
5142.144794691
 10
6281.5842364879
 20
5142.2026410918
  0
SPLINE
  5
CC
330
1F
100
AcDbEntity
  8
0
  6
Continuous
 62
     7
370
    25
100
AcDbSpline
210
0.0
220
0.0
230
1.0
 70
     8
 71
     3
 72
    17
 73
    13
 74
     0
 42
0.000000001
 43
0.00000001
 40
0.0
 40
0.0
 40
0.0
 40
0.0
 40
0.0416287229591714
 40
0.15821152763633
 40
0.2646303405756782
 40
0.3592629140412359
 40
0.4480777103290412
 40
0.542927262843213
 40
0.6520994170764648
 40
0.769366946918345
 40
0.8844781194102861
 40
1.0
 40
1.0
 40
1.0
 40
1.0
 10
6281.584236487931
 20
5142.202641091807
 30
0.0
 10
6281.799150016785
 20
5142.21119579386
 30
0.0
 10
6282.615936968022
 20
5142.243708260831
 30
0.0
 10
6283.924976466926
 20
5142.672563680655
 30
0.0
 10
6285.236175215291
 20
5143.648144142321
 30
0.0
 10
6286.121914396773
 20
5144.891839895635
 30
0.0
 10
6286.603656623788
 20
5146.325411968275
 30
0.0
 10
6286.63075035669
 20
5147.952512168172
 30
0.0
 10
6286.064141685434
 20
5149.623236211363
 30
0.0
 10
6284.917314924995
 20
5150.997774692926
 30
0.0
 10
6283.370320596944
 20
5151.93486237431
 30
0.0
 10
6282.180304245044
 20
5152.059231478435
 30
0.0
 10
6281.584236486901
 20
5152.121526767873
 30
0.0
  0
SPLINE
  5
CD
330
1F
100
AcDbEntity
  8
0
  6
Continuous
 62
     7
370
    25
100
AcDbSpline
210
0.0
220
0.0
230
1.0
 70
     8
 71
     3
 72
    17
 73
    13
 74
     0
 42
0.000000001
 43
0.00000001
 40
0.0
 40
0.0
 40
0.0
 40
0.0
 40
0.0417269276769042
 40
0.1582370466788894
 40
0.2646377925314675
 40
0.3592513445211259
 40
0.4481163251305738
 40
0.5430172137287597
 40
0.6521428006963744
 40
0.7693567266694087
 40
0.8844754889123136
 40
1.0
 40
1.0
 40
1.0
 40
1.0
 10
6266.406304746122
 20
5152.121526767873
 30
0.0
 10
6266.19088652624
 20
5152.112927983213
 30
0.0
 10
6265.373976563948
 20
5152.080319632555
 30
0.0
 10
6264.064969766507
 20
5151.651363144267
 30
0.0
 10
6262.754405727962
 20
5150.675867533752
 30
0.0
 10
6261.86846057499
 20
5149.432287572778
 30
0.0
 10
6261.386771916209
 20
5147.998162197779
 30
0.0
 10
6261.359930332881
 20
5146.370724402431
 30
0.0
 10
6261.926891379841
 20
5144.700495390053
 30
0.0
 10
6263.073387564881
 20
5143.326389483927
 30
0.0
 10
6264.620162298432
 20
5142.389340307673
 30
0.0
 10
6265.810226074991
 20
5142.264947108149
 30
0.0
 10
6266.40630474646
 20
5142.202641091806
 30
0.0
  0
SPLINE
  5
CE
330
1F
100
AcDbEntity
  8
0
  6
Continuous
 62
     7
370
    25
100
AcDbSpline
210
0.0
220
0.0
230
1.0
 70
     8
 71
     3
 72
    19
 73
    15
 74
     0
 42
0.000000001
 43
0.00000001
 40
0.0
 40
0.0
 40
0.0
 40
0.0
 40
0.0000035111426661
 40
0.1147826295883837
 40
0.2293069364055677
 40
0.3466112574745391
 40
0.4566141957015585
 40
0.5524843571757595
 40
0.6419734716474356
 40
0.73677115593168
 40
0.8427866816979039
 40
0.958618906035875
 40
0.9999964888592
 40
1.0
 40
1.0
 40
1.0
 40
1.0
 10
6281.495020004583
 20
5152.421475364499
 30
0.0
 10
6281.495039159613
 20
5152.421475346619
 30
0.0
 10
6282.12123550149
 20
5152.420890804809
 30
0.0
 10
6283.367272834609
 20
5152.192261475883
 30
0.0
 10
6284.991856607329
 20
5151.233430481358
 30
0.0
 10
6286.191549168675
 20
5149.761907750444
 30
0.0
 10
6286.781056713625
 20
5147.997103287729
 30
0.0
 10
6286.752873233168
 20
5146.278002181038
 30
0.0
 10
6286.250644256209
 20
5144.759977757843
 30
0.0
 10
6285.324411141387
 20
5143.441268792183
 30
0.0
 10
6283.950473403725
 20
5142.398901673581
 30
0.0
 10
6282.575265831872
 20
5141.95862708292
 30
0.0
 10
6281.720778428537
 20
5141.902902268225
 30
0.0
 10
6281.495039158453
 20
5141.902692512994
 30
0.0
 10
6281.495020004721
 20
5141.902692495196
 30
0.0
  0
SPLINE
  5
CF
330
1F
100
AcDbEntity
  8
0
  6
Continuous
 62
     7
370
    25
100
AcDbSpline
210
0.0
220
0.0
230
1.0
 70
     8
 71
     3
 72
    19
 73
    15
 74
     0
 42
0.000000001
 43
0.00000001
 40
0.0
 40
0.0
 40
0.0
 40
0.0
 40
0.000003511167595
 40
0.1147808924749836
 40
0.2293154037045156
 40
0.3465684805282253
 40
0.4565215233108317
 40
0.5524406024803469
 40
0.6419810746397095
 40
0.7367600133914196
 40
0.8427607340094831
 40
0.9585216494009055
 40
0.9999964888507695
 40
1.0
 40
1.0
 40
1.0
 40
1.0
 10
6266.495521229665
 20
5141.902692495193
 30
0.0
 10
6266.495502075795
 20
5141.902692512992
 30
0.0
 10
6265.869357564235
 20
5141.903274379559
 30
0.0
 10
6264.623235451161
 20
5142.131934096108
 30
0.0
 10
6262.998879955921
 20
5143.090704807031
 30
0.0
 10
6261.799510389101
 20
5144.561771685759
 30
0.0
 10
6261.209641047541
 20
5146.326043678402
 30
0.0
 10
6261.237537634668
 20
5148.045469324637
 30
0.0
 10
6261.73969079907
 20
5149.56407215439
 30
0.0
 10
6262.666129117584
 20
5150.882701123129
 30
0.0
 10
6264.039425540833
 20
5151.925003439829
 30
0.0
 10
6265.414620532853
 20
5152.365369184691
 30
0.0
 10
6266.269231261508
 20
5152.421264998889
 30
0.0
 10
6266.495502075471
 20
5152.421475346686
 30
0.0
 10
6266.495521229333
 20
5152.421475364492
 30
0.0
  0
ARC
  5
D0
330
1F
100
AcDbEntity
  8
0
  6
Continuous
 62
     7
370
    25
100
AcDbCircle
 10
6274.0160528769
 20
5334.0659739518
 30
0.0
 40
65.37047662280939
100
AcDbArc
 50
268.7193424039
 51
272.0688701585
  0
ARC
  5
D1
330
1F
100
AcDbEntity
  8
0
  6
Continuous
 62
     7
370
    25
100
AcDbCircle
 10
6274.7193381214
 20
5316.4877602588
 30
0.0
 40
48.76756952857882
100
AcDbArc
 50
272.2033665696
 51
275.3920725133
  0
LINE
  5
D2
330
1F
100
AcDbEntity
  8
0
  6
Continuous
 62
     7
370
    25
100
AcDbLine
 10
6279.302054219
 20
5268.926256466
 30
0.0
 11
6279.302054219
 21
5267.9359883973
 31
0.0
  0
ARC
  5
D3
330
1F
100
AcDbEntity
  8
0
  6
Continuous
 62
     7
370
    25
100
AcDbCircle
 10
6277.1769325404
 20
5292.6276093211
 30
0.0
 40
23.79643396201089
100
AcDbArc
 50
275.1235799383
 51
280.8197627465
  0
ARC
  5
D4
330
1F
100
AcDbEntity
  8
0
  6
Continuous
 62
     7
370
    25
100
AcDbCircle
 10
6281.5525065445
 20
5271.2919002297
 30
0.0
 40
2.975067487049058
100
AcDbArc
 50
281.0360126692
 51
301.8732958535
  0
LINE
  5
D5
330
1F
100
AcDbEntity
  8
0
  6
Continuous
 62
     7
370
    25
100
AcDbLine
 10
6283.1234688936
 20
5269.4986248907
 30
0.0
 11
6283.1234688936
 21
5268.7654197033
 31
0.0
  0
LINE
  5
D6
330
1F
100
AcDbEntity
  8
0
  6
Continuous
 62
     7
370
    25
100
AcDbLine
 10
6282.9029640419
 20
5269.5618897327
 30
0.0
 11
6282.9029640419
 21
5269.3511334443
 31
0.0
  0
ARC
  5
D7
330
1F
100
AcDbEntity
  8
0
  6
Continuous
 62
     7
370
    25
100
AcDbCircle
 10
6280.6287916189
 20
5263.9587944043
 30
0.0
 40
5.852279943013388
100
AcDbArc
 50
67.1328350404
 51
80.3334979781
  0
LINE
  5
D8
330
1F
100
AcDbEntity
  8
0
  6
Continuous
 62
     7
370
    25
100
AcDbLine
 10
6281.6114658478
 20
5269.8287468009
 30
0.0
 11
6281.6114658478
 21
5269.7279825527
 31
0.0
  0
LINE
  5
D9
330
1F
100
AcDbEntity
  8
0
  6
Continuous
 62
     7
370
    25
100
AcDbLine
 10
6278.4796674526
 20
5270.168625588
 30
0.0
 11
6278.4796674526
 21
5270.1204447747
 31
0.0
  0
ARC
  5
DA
330
1F
100
AcDbEntity
  8
0
  6
Continuous
 62
     7
370
    25
100
AcDbCircle
 10
6274.338743628
 20
5214.8604530128
 30
0.0
 40
55.41492524257178
100
AcDbArc
 50
85.7145332338
 51
88.6422952716
  0
LINE
  5
DB
330
1F
100
AcDbEntity
  8
0
  6
Continuous
 62
     7
370
    25
100
AcDbLine
 10
6275.6517559593
 20
5270.2960927639
 30
0.0
 11
6275.6517559593
 21
5270.259820683
 31
0.0
  0
LINE
  5
DC
330
1F
100
AcDbEntity
  8
0
  6
Continuous
 62
     7
370
    25
100
AcDbLine
 10
6271.443229046
 20
5270.2678236773
 30
0.0
 11
6271.443229046
 21
5270.229132339
 31
0.0
  0
ARC
  5
DD
330
1F
100
AcDbEntity
  8
0
  6
Continuous
 62
     7
370
    25
100
AcDbCircle
 10
6273.3181725507
 20
5221.4976186704
 30
0.0
 40
48.76756952708234
100
AcDbArc
 50
92.2033665695
 51
95.3920725134
  0
LINE
  5
DE
330
1F
100
AcDbEntity
  8
0
  6
Continuous
 62
     7
370
    25
100
AcDbLine
 10
6268.7354564532
 20
5270.1046778817
 30
0.0
 11
6268.7354564532
 21
5270.0493905305
 31
0.0
  0
LINE
  5
DF
330
1F
100
AcDbEntity
  8
0
  6
Continuous
 62
     7
370
    25
100
AcDbLine
 10
6265.9154990099
 20
5269.7385700364
 30
0.0
 11
6265.9154990099
 21
5269.6135284362
 31
0.0
  0
ARC
  5
E0
330
1F
100
AcDbEntity
  8
0
  6
Continuous
 62
     7
370
    25
100
AcDbCircle
 10
6266.4850041277
 20
5266.6934786981
 30
0.0
 40
2.975067487027076
100
AcDbArc
 50
101.0360126691
 51
121.8732958535
  0
LINE
  5
E1
330
1F
100
AcDbEntity
  8
0
  6
Continuous
 62
     7
370
    25
100
AcDbLine
 10
6264.9140417786
 20
5269.4986248907
 30
0.0
 11
6264.9140417786
 21
5269.2199592245
 31
0.0
  0
LINE
  5
E2
330
1F
100
AcDbEntity
  8
0
  6
Continuous
 62
     7
370
    25
100
AcDbLine
 10
6265.1345466303
 20
5269.2090914643
 30
0.0
 11
6265.1345466303
 21
5268.6342454835
 31
0.0
  0
ARC
  5
E3
330
1F
100
AcDbEntity
  8
0
  6
Continuous
 62
     7
370
    25
100
AcDbCircle
 10
6267.4087190533
 20
5274.0265845232
 30
0.0
 40
5.852279942816228
100
AcDbArc
 50
247.1328350402
 51
260.3334979784
  0
ARC
  5
E4
330
1F
100
AcDbEntity
  8
0
  6
Continuous
 62
     7
370
    25
100
AcDbCircle
 10
6271.5941350141
 20
5298.2521990136
 30
0.0
 40
29.46743804015487
100
AcDbArc
 50
260.8017749078
 51
266.0375251856
  0
LINE
  5
E5
330
1F
100
AcDbEntity
  8
0
  6
Continuous
 62
     7
370
    25
100
AcDbLine
 10
6269.5578432196
 20
5268.8552022218
 30
0.0
 11
6269.5578432196
 21
5267.8649341531
 31
0.0
  0
ARC
  5
E6
330
1F
100
AcDbEntity
  8
0
  6
Continuous
 62
     7
370
    25
100
AcDbCircle
 10
6273.698767044
 20
5323.1249259097
 30
0.0
 40
55.41492523740619
100
AcDbArc
 50
265.7145332337
 51
268.6422952717
  0
LINE
  5
E7
330
1F
100
AcDbEntity
  8
0
  6
Continuous
 62
     7
370
    25
100
AcDbLine
 10
6266.5723807059
 20
5269.488667559
 30
0.0
 11
6266.3181960789
 21
5269.5709513893
 31
0.0
  0
ARC
  5
E8
330
1F
100
AcDbEntity
  8
0
  6
Continuous
 62
     7
370
    25
100
AcDbCircle
 10
6273.947342409
 20
5306.0709591305
 30
0.0
 40
37.31828126725682
100
AcDbArc
 50
258.6019899155
 51
282.0205083214
  0
ARC
  5
E9
330
1F
100
AcDbEntity
  8
0
  6
Continuous
 62
     7
370
    25
100
AcDbCircle
 10
6280.1889354156
 20
5275.3567504922
 30
0.0
 40
6.145805841527046
100
AcDbArc
 50
283.6952527887
 51
287.2638324598
  0
LINE
  5
EA
330
1F
100
AcDbEntity
  8
0
  6
Continuous
 62
     7
370
    25
100
AcDbLine
 10
6279.302054219
 20
5268.926256466
 30
0.0
 11
6279.0837487031
 21
5268.9899563143
 31
0.0
  0
ARC
  5
EB
330
1F
100
AcDbEntity
  8
0
  6
Continuous
 62
     7
370
    25
100
AcDbCircle
 10
6274.6788783009
 20
5314.8625201302
 30
0.0
 40
46.08356533841545
100
AcDbArc
 50
272.1104819734
 51
275.4849571095
  0
ARC
  5
EC
330
1F
100
AcDbEntity
  8
0
  6
Continuous
 62
     7
370
    25
100
AcDbCircle
 10
6273.7180169332
 20
5321.1376552641
 30
0.0
 40
52.36821810044945
100
AcDbArc
 50
265.6293465685
 51
268.7274819369
  0
LINE
  5
ED
330
1F
100
AcDbEntity
  8
0
  6
Continuous
 62
     7
370
    25
100
AcDbLine
 10
6269.7271223084
 20
5268.9217283155
 30
0.0
 11
6269.5578432196
 21
5268.8552022218
 31
0.0
  0
ARC
  5
EE
330
1F
100
AcDbEntity
  8
0
  6
Continuous
 62
     7
370
    25
100
AcDbCircle
 10
6268.3633152227
 20
5277.2010859129
 30
0.0
 40
8.06000447509288
100
AcDbArc
 50
253.13281425
 51
259.4222783661
  0
LINE
  5
EF
330
1F
100
AcDbEntity
  8
0
  6
Continuous
 62
     7
370
    25
100
AcDbLine
 10
6278.3103883638
 20
5270.053918681
 30
0.0
 11
6278.4796674526
 21
5270.1204447747
 31
0.0
  0
ARC
  5
F0
330
1F
100
AcDbEntity
  8
0
  6
Continuous
 62
     7
370
    25
100
AcDbCircle
 10
6274.319493739
 20
5217.837991733
 30
0.0
 40
52.3682180997355
100
AcDbArc
 50
85.6293465685
 51
88.727481937
  0
LINE
  5
F1
330
1F
100
AcDbEntity
  8
0
  6
Continuous
 62
     7
370
    25
100
AcDbLine
 10
6275.4824768705
 20
5270.1932945894
 30
0.0
 11
6275.6517559593
 21
5270.259820683
 31
0.0
  0
LWPOLYLINE
  5
F2
330
1F
100
AcDbEntity
  8
0
  6
Continuous
 62
     7
370
    25
100
AcDbPolyline
 90
        3
 70
   128
 43
0.0
 10
6267.2493238541
 20
5269.5336030112
 10
6266.7915009594
 20
5269.7040276184
 10
6266.5773378183
 20
5269.8527503057
  0
ARC
  5
F3
330
1F
100
AcDbEntity
  8
0
  6
Continuous
 62
     7
370
    25
100
AcDbCircle
 10
6273.8823667097
 20
5301.3185212977
 30
0.0
 40
32.46965179985313
100
AcDbArc
 50
258.2123891463
 51
283.0423711633
  0
LINE
  5
F4
330
1F
100
AcDbEntity
  8
0
  6
Continuous
 62
     7
370
    25
100
AcDbLine
 10
6275.4824768705
 20
5270.2997852303
 30
0.0
 11
6275.4824768705
 21
5270.1932945894
 31
0.0
  0
LINE
  5
F5
330
1F
100
AcDbEntity
  8
0
  6
Continuous
 62
     7
370
    25
100
AcDbLine
 10
6271.443229046
 20
5270.229132339
 30
0.0
 11
6271.6615345619
 21
5270.1654324907
 31
0.0
  0
ARC
  5
F6
330
1F
100
AcDbEntity
  8
0
  6
Continuous
 62
     7
370
    25
100
AcDbCircle
 10
6273.3586323712
 20
5224.1131268681
 30
0.0
 40
46.08356533659048
100
AcDbArc
 50
92.1104819733
 51
95.4849571096
  0
LINE
  5
F7
330
1F
100
AcDbEntity
  8
0
  6
Continuous
 62
     7
370
    25
100
AcDbLine
 10
6268.7354564532
 20
5270.0493905305
 30
0.0
 11
6268.9537619691
 21
5269.9856906822
 31
0.0
  0
LINE
  5
F8
330
1F
100
AcDbEntity
  8
0
  6
Continuous
 62
     7
370
    25
100
AcDbLine
 10
6271.6615345619
 20
5270.2755564651
 30
0.0
 11
6271.6615345619
 21
5270.1654324907
 31
0.0
  0
LINE
  5
F9
330
1F
100
AcDbEntity
  8
0
  6
Continuous
 62
     7
370
    25
100
AcDbLine
 10
6281.6114658478
 20
5269.7279825527
 30
0.0
 11
6281.1537635486
 21
5269.6976002971
 31
0.0
  0
LINE
  5
FA
330
1F
100
AcDbEntity
  8
0
  6
Continuous
 62
     7
370
    25
100
AcDbLine
 10
6282.9029640419
 20
5269.3511334443
 30
0.0
 11
6282.4452617428
 21
5269.3207511887
 31
0.0
  0
ARC
  5
FB
330
1F
100
AcDbEntity
  8
0
  6
Continuous
 62
     7
370
    25
100
AcDbCircle
 10
6280.2647832325
 20
5264.2495102127
 30
0.0
 40
5.52014235050927
100
AcDbArc
 50
66.7337741945
 51
80.7325588239
  0
LINE
  5
FC
330
1F
100
AcDbEntity
  8
0
  6
Continuous
 62
     7
370
    25
100
AcDbLine
 10
6281.1537635486
 20
5269.8981661719
 30
0.0
 11
6281.1537635486
 21
5269.6976002971
 31
0.0
  0
LINE
  5
FD
330
1F
100
AcDbEntity
  8
0
  6
Continuous
 62
     7
370
    25
100
AcDbLine
 10
6266.3935087201
 20
5269.8234368361
 30
0.0
 11
6266.3935087201
 21
5269.5899693405
 31
0.0
  0
LINE
  5
FE
330
1F
100
AcDbEntity
  8
0
  6
Continuous
 62
     7
370
    25
100
AcDbLine
 10
6266.3935087201
 20
5269.5899693405
 30
0.0
 11
6265.9154990099
 21
5269.6135284362
 31
0.0
  0
ARC
  5
FF
330
1F
100
AcDbEntity
  8
0
  6
Continuous
 62
     7
370
    25
100
AcDbCircle
 10
6266.8993974241
 20
5266.83179486
 30
0.0
 40
2.804184345934792
100
AcDbArc
 50
100.3933472012
 51
122.5159613215
  0
LINE
  5
100
330
1F
100
AcDbEntity
  8
0
  6
Continuous
 62
     7
370
    25
100
AcDbLine
 10
6265.3920514888
 20
5269.1964001287
 30
0.0
 11
6264.9140417786
 21
5269.2199592245
 31
0.0
  0
LINE
  5
101
330
1F
100
AcDbEntity
  8
0
  6
Continuous
 62
     7
370
    25
100
AcDbLine
 10
6282.6454591834
 20
5269.3340402847
 30
0.0
 11
6282.6454591834
 21
5268.788978799
 31
0.0
  0
LINE
  5
102
330
1F
100
AcDbEntity
  8
0
  6
Continuous
 62
     7
370
    25
100
AcDbLine
 10
6282.6454591834
 20
5268.788978799
 30
0.0
 11
6283.1234688936
 21
5268.7654197033
 31
0.0
  0
ARC
  5
103
330
1F
100
AcDbEntity
  8
0
  6
Continuous
 62
     7
370
    25
100
AcDbCircle
 10
6281.1381132481
 20
5271.1535840677
 30
0.0
 40
2.804184345890688
100
AcDbArc
 50
280.393347201
 51
302.5159613217
  0
LINE
  5
104
330
1F
100
AcDbEntity
  8
0
  6
Continuous
 62
     7
370
    25
100
AcDbLine
 10
6281.6440019521
 20
5268.3954095872
 30
0.0
 11
6282.1220116623
 21
5268.3718504915
 31
0.0
  0
LINE
  5
105
330
1F
100
AcDbEntity
  8
0
  6
Continuous
 62
     7
370
    25
100
AcDbLine
 10
6281.6440019521
 20
5269.385677656
 30
0.0
 11
6281.6440019521
 21
5268.3954095872
 31
0.0
  0
LINE
  5
106
330
1F
100
AcDbEntity
  8
0
  6
Continuous
 62
     7
370
    25
100
AcDbLine
 10
6265.5922489294
 20
5269.3207511887
 30
0.0
 11
6265.5922489294
 21
5268.6646277391
 31
0.0
  0
LINE
  5
107
330
1F
100
AcDbEntity
  8
0
  6
Continuous
 62
     7
370
    25
100
AcDbLine
 10
6265.1345466303
 20
5268.6342454835
 30
0.0
 11
6265.5922489294
 21
5268.6646277391
 31
0.0
  0
ARC
  5
108
330
1F
100
AcDbEntity
  8
0
  6
Continuous
 62
     7
370
    25
100
AcDbCircle
 10
6267.7727274397
 20
5273.7358687149
 30
0.0
 40
5.520142350374934
100
AcDbArc
 50
246.7337741943
 51
260.7325588242
  0
LINE
  5
109
330
1F
100
AcDbEntity
  8
0
  6
Continuous
 62
     7
370
    25
100
AcDbLine
 10
6266.4260448244
 20
5268.257396375
 30
0.0
 11
6266.8837471236
 21
5268.2877786306
 31
0.0
  0
LINE
  5
10A
330
1F
100
AcDbEntity
  8
0
  6
Continuous
 62
     7
370
    25
100
AcDbLine
 10
6266.8837471236
 20
5269.2780466994
 30
0.0
 11
6266.8837471236
 21
5268.2877786306
 31
0.0
  0
LINE
  5
10B
330
1F
100
AcDbEntity
  8
0
  6
Continuous
 62
     7
370
    25
100
AcDbLine
 10
6269.7271223084
 20
5268.9217283155
 30
0.0
 11
6269.7271223084
 21
5267.9314602467
 31
0.0
  0
LINE
  5
10C
330
1F
100
AcDbEntity
  8
0
  6
Continuous
 62
     7
370
    25
100
AcDbLine
 10
6272.5550338017
 20
5268.7823524071
 30
0.0
 11
6272.5550338017
 21
5267.7920843384
 31
0.0
  0
ARC
  5
10D
330
1F
100
AcDbEntity
  8
0
  6
Continuous
 62
     7
370
    25
100
AcDbCircle
 10
6273.7180169333
 20
5320.1473871968
 30
0.0
 40
52.36821810185462
100
AcDbArc
 50
265.6293465685
 51
268.7274819369
  0
LINE
  5
10E
330
1F
100
AcDbEntity
  8
0
  6
Continuous
 62
     7
370
    25
100
AcDbLine
 10
6269.7271223084
 20
5267.9314602467
 30
0.0
 11
6269.5578432196
 21
5267.8649341531
 31
0.0
  0
LINE
  5
10F
330
1F
100
AcDbEntity
  8
0
  6
Continuous
 62
     7
370
    25
100
AcDbLine
 10
6272.5550338017
 20
5267.7920843384
 30
0.0
 11
6272.3857547129
 21
5267.7255582447
 31
0.0
  0
LINE
  5
110
330
1F
100
AcDbEntity
  8
0
  6
Continuous
 62
     7
370
    25
100
AcDbLine
 10
6279.0837487031
 20
5268.9899563143
 30
0.0
 11
6279.0837487031
 21
5267.9996882456
 31
0.0
  0
ARC
  5
111
330
1F
100
AcDbEntity
  8
0
  6
Continuous
 62
     7
370
    25
100
AcDbCircle
 10
6274.6788783009
 20
5313.8722520608
 30
0.0
 40
46.08356533781103
100
AcDbArc
 50
272.1104819734
 51
275.4849571096
  0
LINE
  5
112
330
1F
100
AcDbEntity
  8
0
  6
Continuous
 62
     7
370
    25
100
AcDbLine
 10
6276.3759761103
 20
5268.8102145057
 30
0.0
 11
6276.3759761103
 21
5267.819946437
 31
0.0
  0
LINE
  5
113
330
1F
100
AcDbEntity
  8
0
  6
Continuous
 62
     7
370
    25
100
AcDbLine
 10
6279.302054219
 20
5267.9359883973
 30
0.0
 11
6279.0837487031
 21
5267.9996882456
 31
0.0
  0
LINE
  5
114
330
1F
100
AcDbEntity
  8
0
  6
Continuous
 62
     7
370
    25
100
AcDbLine
 10
6276.5942816262
 20
5267.7562465887
 30
0.0
 11
6276.3759761103
 21
5267.819946437
 31
0.0
  0
LINE
  5
115
330
1F
100
AcDbEntity
  8
0
  6
Continuous
 62
     8
370
    25
100
AcDbLine
 10
6297.1884312818
 20
5218.9904503807
 30
0.0
 11
6288.0187553361
 21
5218.9904503807
 31
0.0
  0
LINE
  5
116
330
1F
100
AcDbEntity
  8
0
  6
Continuous
 62
     8
370
    25
100
AcDbLine
 10
6260.0187553361
 20
5218.9904503807
 30
0.0
 11
6250.0187553361
 21
5218.9904503807
 31
0.0
  0
LINE
  5
117
330
1F
100
AcDbEntity
  8
0
  6
Continuous
 62
     8
370
    25
100
AcDbLine
 10
6298.0187553361
 20
5218.9904503807
 30
0.0
 11
6297.1884312818
 21
5218.9904503807
 31
0.0
  0
LINE
  5
118
330
1F
100
AcDbEntity
  8
0
  6
Continuous
 62
     8
370
    25
100
AcDbLine
 10
6297.1884312818
 20
5218.3904503807
 30
0.0
 11
6298.0187553361
 21
5218.3904503807
 31
0.0
  0
LINE
  5
119
330
1F
100
AcDbEntity
  8
0
  6
Continuous
 62
     8
370
    25
100
AcDbLine
 10
6250.0187553361
 20
5218.3904503807
 30
0.0
 11
6260.0187553361
 21
5218.3904503807
 31
0.0
  0
LINE
  5
11A
330
1F
100
AcDbEntity
  8
0
  6
Continuous
 62
     8
370
    25
100
AcDbLine
 10
6288.0187553361
 20
5218.3904503807
 30
0.0
 11
6297.1884312818
 21
5218.3904503807
 31
0.0
  0
ARC
  5
11B
330
1F
100
AcDbEntity
  8
0
  6
Continuous
 62
     8
370
    25
100
AcDbCircle
 10
6268.104129915
 20
5289.6841138023
 30
0.0
 40
6.10178805189786
100
AcDbArc
 50
105.8041714074
 51
184.2034580132
  0
ARC
  5
11C
330
1F
100
AcDbEntity
  8
0
  6
Continuous
 62
     8
370
    25
100
AcDbCircle
 10
6279.9332881909
 20
5289.6840815822
 30
0.0
 40
6.101878007575911
100
AcDbArc
 50
355.7969074249
 51
74.1885935091
  0
LINE
  5
11D
330
1F
100
AcDbEntity
  8
0
  6
Continuous
 62
     8
370
    25
100
AcDbLine
 10
6280.0187553361
 20
5258.5879153001
 30
0.0
 11
6280.0187553361
 21
5267.4928073314
 31
0.0
  0
LWPOLYLINE
  5
11E
330
1F
100
AcDbEntity
  8
0
  6
Continuous
 62
     8
370
    25
100
AcDbPolyline
 90
       10
 70
   128
 43
0.0
 10
6280.0187553361
 20
5258.5879153001
 10
6281.4079407574
 20
5258.6886748486
 10
6282.7549164827
 20
5258.9878919663
 10
6284.0187553361
 20
5259.4764750924
 10
6285.1610562136
 20
5260.1395788758
 10
6286.1471108811
 20
5260.9570552437
 10
6286.9469585664
 20
5261.9040655903
 10
6287.5362963024
 20
5262.9518354855
 10
6287.8972173602
 20
5264.068528971
 10
6288.0187553361
 20
5265.2202158806
  0
LINE
  5
11F
330
1F
100
AcDbEntity
  8
0
  6
Continuous
 62
     8
370
    25
100
AcDbLine
 10
6268.0187553361
 20
5258.5879153001
 30
0.0
 11
6268.0187553361
 21
5267.4928073314
 31
0.0
  0
LWPOLYLINE
  5
120
330
1F
100
AcDbEntity
  8
0
  6
Continuous
 62
     8
370
    25
100
AcDbPolyline
 90
       10
 70
   128
 43
0.0
 10
6260.0187553361
 20
5265.2202158806
 10
6260.140293312
 20
5264.068528971
 10
6260.5012143698
 20
5262.9518354855
 10
6261.0905521058
 20
5261.9040655903
 10
6261.8903997911
 20
5260.9570552437
 10
6262.8764544586
 20
5260.1395788758
 10
6264.0187553361
 20
5259.4764750924
 10
6265.2825941895
 20
5258.9878919663
 10
6266.6295699148
 20
5258.6886748486
 10
6268.0187553361
 20
5258.5879153001
  0
LINE
  5
121
330
1F
100
AcDbEntity
  8
0
  6
Continuous
 62
     8
370
    25
100
AcDbLine
 10
6250.5629832222
 20
5242.9956984354
 30
0.0
 11
6260.0187553361
 21
5242.9956984354
 31
0.0
  0
LINE
  5
122
330
1F
100
AcDbEntity
  8
0
  6
Continuous
 62
     8
370
    25
100
AcDbLine
 10
6288.0187553361
 20
5242.9956984354
 30
0.0
 11
6297.47452745
 21
5242.9956984354
 31
0.0
  0
LINE
  5
123
330
1F
100
AcDbEntity
  8
0
  6
Continuous
 62
     8
370
    25
100
AcDbLine
 10
6298.0187553361
 20
5241.2725665994
 30
0.0
 11
6288.0187553361
 21
5241.2725665994
 31
0.0
  0
LINE
  5
124
330
1F
100
AcDbEntity
  8
0
  6
Continuous
 62
     8
370
    25
100
AcDbLine
 10
6260.0187553361
 20
5241.2725665994
 30
0.0
 11
6250.0187553361
 21
5241.2725665994
 31
0.0
  0
LINE
  5
125
330
1F
100
AcDbEntity
  8
0
  6
Continuous
 62
     8
370
    25
100
AcDbLine
 10
6266.4954517019
 20
5141.8914264117
 30
0.0
 11
6266.4955212297
 21
5141.9026924952
 31
0.0
  0
LINE
  5
126
330
1F
100
AcDbEntity
  8
0
  6
Continuous
 62
     8
370
    25
100
AcDbLine
 10
6281.4950895324
 20
5141.8914264117
 30
0.0
 11
6281.4950200047
 21
5141.9026924952
 31
0.0
  0
ARC
  5
127
330
1F
100
AcDbEntity
  8
0
  6
Continuous
 62
     7
370
    25
100
AcDbCircle
 10
6513.1807862502
 20
5218.3904503807
 30
0.0
 40
0.1999999999998181
100
AcDbArc
 50
275.6627999082
 51
0.0
  0
ARC
  5
128
330
1F
100
AcDbEntity
  8
0
  6
Continuous
 62
     7
370
    25
100
AcDbCircle
 10
6465.5807862502
 20
5218.3904503807
 30
0.0
 40
0.2000000000007276
100
AcDbArc
 50
180.0
 51
264.3372000916
  0
ARC
  5
129
330
1F
100
AcDbEntity
  8
0
  6
Continuous
 62
     7
370
    25
100
AcDbCircle
 10
6513.1807862502
 20
5218.9904503807
 30
0.0
 40
0.2000000000007276
100
AcDbArc
 50
0.0
 51
89.9999999997
  0
ARC
  5
12A
330
1F
100
AcDbEntity
  8
0
  6
Continuous
 62
     7
370
    25
100
AcDbCircle
 10
6465.5807862502
 20
5218.9904503807
 30
0.0
 40
0.2000000000007276
100
AcDbArc
 50
90.0000000003
 51
180.0
  0
LINE
  5
12B
330
1F
100
AcDbEntity
  8
0
  6
Continuous
 62
     7
370
    25
100
AcDbLine
 10
6465.3807862502
 20
5218.9904503807
 30
0.0
 11
6465.3807862502
 21
5218.3904503807
 31
0.0
  0
LINE
  5
12C
330
1F
100
AcDbEntity
  8
0
  6
Continuous
 62
     7
370
    25
100
AcDbLine
 10
6513.3807862502
 20
5218.3904503807
 30
0.0
 11
6513.3807862502
 21
5218.9904503807
 31
0.0
  0
LINE
  5
12D
330
1F
100
AcDbEntity
  8
0
  6
Continuous
 62
     7
370
    25
100
AcDbLine
 10
6465.3807862502
 20
5241.2725665994
 30
0.0
 11
6465.3807862502
 21
5219.1914264117
 31
0.0
  0
LINE
  5
12E
330
1F
100
AcDbEntity
  8
0
  6
Continuous
 62
     7
370
    25
100
AcDbLine
 10
6513.3807862502
 20
5219.1914264117
 30
0.0
 11
6513.3807862502
 21
5241.2725665994
 31
0.0
  0
ARC
  5
12F
330
1F
100
AcDbEntity
  8
0
  6
Continuous
 62
     7
370
    25
100
AcDbCircle
 10
6510.3807862502
 20
5241.2725665994
 30
0.0
 40
3.0
100
AcDbArc
 50
0.0
 51
35.0560342971
  0
ARC
  5
130
330
1F
100
AcDbEntity
  8
0
  6
Continuous
 62
     7
370
    25
100
AcDbCircle
 10
6468.3807862502
 20
5241.2725665994
 30
0.0
 40
3.0
100
AcDbArc
 50
144.9439657029
 51
180.0
  0
LINE
  5
131
330
1F
100
AcDbEntity
  8
0
  6
Continuous
 62
     7
370
    25
100
AcDbLine
 10
6465.3807862502
 20
5180.1914264117
 30
0.0
 11
6465.3807862502
 21
5155.4914264117
 31
0.0
  0
LINE
  5
132
330
1F
100
AcDbEntity
  8
0
  6
Continuous
 62
     7
370
    25
100
AcDbLine
 10
6513.3807862502
 20
5177.8411699997
 30
0.0
 11
6513.3807862502
 21
5180.1914264117
 31
0.0
  0
LINE
  5
133
330
1F
100
AcDbEntity
  8
0
  6
Continuous
 62
     7
370
    25
100
AcDbLine
 10
6513.3807862502
 20
5155.4914264117
 30
0.0
 11
6513.3807862502
 21
5158.5416828237
 31
0.0
  0
LINE
  5
134
330
1F
100
AcDbEntity
  8
0
  6
Continuous
 62
     7
370
    25
100
AcDbLine
 10
6465.3807862502
 20
5218.1914264117
 30
0.0
 11
6465.3807862502
 21
5180.4914264117
 31
0.0
  0
LINE
  5
135
330
1F
100
AcDbEntity
  8
0
  6
Continuous
 62
     7
370
    25
100
AcDbLine
 10
6513.3807862502
 20
5180.4914264117
 30
0.0
 11
6513.3807862502
 21
5218.1914264117
 31
0.0
  0
LINE
  5
136
330
1F
100
AcDbEntity
  8
0
  6
Continuous
 62
     7
370
    25
100
AcDbLine
 10
6465.3807862502
 20
5155.1914264117
 30
0.0
 11
6465.3807862502
 21
5131.1914264117
 31
0.0
  0
LINE
  5
137
330
1F
100
AcDbEntity
  8
0
  6
Continuous
 62
     7
370
    25
100
AcDbLine
 10
6513.3807862502
 20
5152.4914264117
 30
0.0
 11
6513.3807862502
 21
5155.1914264117
 31
0.0
  0
LINE
  5
138
330
1F
100
AcDbEntity
  8
0
  6
Continuous
 62
     7
370
    25
100
AcDbLine
 10
6513.3807862502
 20
5131.1914264117
 30
0.0
 11
6513.3807862502
 21
5141.8914264117
 31
0.0
  0
ARC
  5
139
330
1F
100
AcDbEntity
  8
0
  6
Continuous
 62
     7
370
    25
100
AcDbCircle
 10
6489.3807862502
 20
5226.5375802579
 30
0.0
 40
28.65384615384515
100
AcDbArc
 50
35.0560342971
 51
144.9439657029
  0
LINE
  5
13A
330
1F
100
AcDbEntity
  8
0
  6
Continuous
 62
     7
370
    25
100
AcDbLine
 10
6467.3807862502
 20
5155.4914264117
 30
0.0
 11
6467.3807862502
 21
5155.1914264117
 31
0.0
  0
LINE
  5
13B
330
1F
100
AcDbEntity
  8
0
  6
Continuous
 62
     7
370
    25
100
AcDbLine
 10
6511.3807862502
 20
5155.1914264117
 30
0.0
 11
6511.3807862502
 21
5155.4914264117
 31
0.0
  0
LINE
  5
13C
330
1F
100
AcDbEntity
  8
0
  6
Continuous
 62
     7
370
    25
100
AcDbLine
 10
6467.3807862502
 20
5180.4914264117
 30
0.0
 11
6467.3807862502
 21
5180.1914264117
 31
0.0
  0
LINE
  5
13D
330
1F
100
AcDbEntity
  8
0
  6
Continuous
 62
     7
370
    25
100
AcDbLine
 10
6511.3807862502
 20
5180.1914264117
 30
0.0
 11
6511.3807862502
 21
5180.4914264117
 31
0.0
  0
LINE
  5
13E
330
1F
100
AcDbEntity
  8
0
  6
Continuous
 62
     7
370
    25
100
AcDbLine
 10
6467.3807862502
 20
5219.1914264117
 30
0.0
 11
6467.3807862502
 21
5219.1904503807
 31
0.0
  0
LINE
  5
13F
330
1F
100
AcDbEntity
  8
0
  6
Continuous
 62
     7
370
    25
100
AcDbLine
 10
6511.3807862502
 20
5219.1904503807
 30
0.0
 11
6511.3807862502
 21
5219.1914264117
 31
0.0
  0
LINE
  5
140
330
1F
100
AcDbEntity
  8
0
  6
Continuous
 62
     7
370
    25
100
AcDbLine
 10
6712.9058382341
 20
5276.3821669662
 30
0.0
 11
6713.184184436
 21
5274.4016308287
 31
0.0
  0
LINE
  5
141
330
1F
100
AcDbEntity
  8
0
  6
Continuous
 62
     7
370
    25
100
AcDbLine
 10
6740.9116903608
 20
5278.2984776556
 30
0.0
 11
6739.2416131493
 21
5290.1816944805
 31
0.0
  0
ARC
  5
142
330
1F
100
AcDbEntity
  8
0
  6
Continuous
 62
     7
370
    25
100
AcDbCircle
 10
6732.3097366681
 20
5289.2074827737
 30
0.0
 40
7.000000000000514
100
AcDbArc
 50
8.0
 51
98.0
  0
LINE
  5
143
330
1F
100
AcDbEntity
  8
0
  6
Continuous
 62
     7
370
    25
100
AcDbLine
 10
6715.2637473804
 20
5274.6938943407
 30
0.0
 11
6716.3075456376
 21
5267.2668838251
 31
0.0
  0
LINE
  5
144
330
1F
100
AcDbEntity
  8
0
  6
Continuous
 62
     7
370
    25
100
AcDbLine
 10
6739.8759256736
 20
5270.579203628
 30
0.0
 11
6738.8321274164
 21
5278.0062141435
 31
0.0
  0
ARC
  5
145
330
1F
100
AcDbEntity
  8
0
  6
Continuous
 62
     7
370
    25
100
AcDbCircle
 10
6711.9155701654
 20
5276.2429938652
 30
0.0
 40
0.9999999999993939
100
AcDbArc
 50
8.0
 51
98.0
  0
LINE
  5
146
330
1F
100
AcDbEntity
  8
0
  6
Continuous
 62
     7
370
    25
100
AcDbLine
 10
6513.3131482852
 20
5142.2006039816
 30
0.0
 11
6513.3131482852
 21
5152.1235638781
 31
0.0
  0
ARC
  5
147
330
1F
100
AcDbEntity
  8
0
  6
Continuous
 62
     7
370
    25
100
AcDbCircle
 10
6513.0131481595
 20
5152.1236370884
 30
0.0
 40
0.300000000000032
100
AcDbArc
 50
1.3558165962
 51
90.1007496665
  0
ARC
  5
148
330
1F
100
AcDbEntity
  8
0
  6
Continuous
 62
     7
370
    25
100
AcDbCircle
 10
6513.0131481595
 20
5142.2005307713
 30
0.0
 40
0.2999999999995255
100
AcDbArc
 50
269.8992503335
 51
1.354261171
  0
LINE
  5
149
330
1F
100
AcDbEntity
  8
0
  6
Continuous
 62
     7
370
    25
100
AcDbLine
 10
6512.9760329932
 20
5152.4243306368
 30
0.0
 11
6512.0555272519
 21
5152.4403981243
 31
0.0
  0
LINE
  5
14A
330
1F
100
AcDbEntity
  8
0
  6
Continuous
 62
     7
370
    25
100
AcDbLine
 10
6512.0357429388
 20
5141.8834243989
 30
0.0
 11
6512.9760329932
 21
5141.8998372229
 31
0.0
  0
LINE
  5
14B
330
1F
100
AcDbEntity
  8
0
  6
Continuous
 62
     7
370
    25
100
AcDbLine
 10
6465.5807862502
 20
5219.1904503807
 30
0.0
 11
6513.1807862502
 21
5219.1904503807
 31
0.0
  0
LINE
  5
14C
330
1F
100
AcDbEntity
  8
0
  6
Continuous
 62
     7
370
    25
100
AcDbLine
 10
6489.3807862502
 20
5219.1914264117
 30
0.0
 11
6513.3807862502
 21
5219.1914264117
 31
0.0
  0
LINE
  5
14D
330
1F
100
AcDbEntity
  8
0
  6
Continuous
 62
     7
370
    25
100
AcDbLine
 10
6465.3807862502
 20
5219.1914264117
 30
0.0
 11
6489.3807862502
 21
5219.1914264117
 31
0.0
  0
SPLINE
  5
14E
330
1F
100
AcDbEntity
  8
0
  6
Continuous
 62
     7
370
    25
100
AcDbSpline
210
0.0
220
0.0
230
1.0
 70
     8
 71
     3
 72
    48
 73
    44
 74
     0
 42
0.000000001
 43
0.00000001
 40
0.0
 40
0.0
 40
0.0
 40
0.0
 40
0.0624999999999995
 40
0.0624999999999995
 40
0.1249999999999989
 40
0.1249999999999989
 40
0.1874999999999984
 40
0.1874999999999984
 40
0.2499999999999978
 40
0.2499999999999978
 40
0.2812499999999974
 40
0.2812499999999974
 40
0.3124999999999971
 40
0.3124999999999971
 40
0.3437499999999967
 40
0.3437499999999967
 40
0.3749999999999967
 40
0.3749999999999967
 40
0.4062499999999966
 40
0.4062499999999966
 40
0.4374999999999966
 40
0.4374999999999966
 40
0.4999999999999957
 40
0.4999999999999957
 40
0.5312499999999957
 40
0.5312499999999957
 40
0.5624999999999956
 40
0.5624999999999956
 40
0.6249999999999961
 40
0.6249999999999961
 40
0.6874999999999967
 40
0.6874999999999967
 40
0.7499999999999972
 40
0.7499999999999972
 40
0.8124999999999979
 40
0.8124999999999979
 40
0.8749999999999984
 40
0.8749999999999984
 40
0.9062499999999988
 40
0.9062499999999988
 40
0.9374999999999992
 40
0.9374999999999992
 40
1.0
 40
1.0
 40
1.0
 40
1.0
 10
6512.618686327466
 20
5158.027639935094
 30
0.0
 10
6512.467104292376
 20
5157.925396561425
 30
0.0
 10
6512.293404968687
 20
5157.885244203468
 30
0.0
 10
6511.901557267519
 20
5157.930479569489
 30
0.0
 10
6511.680629613816
 20
5158.018533285067
 30
0.0
 10
6511.219423212756
 20
5158.325528892614
 30
0.0
 10
6510.977022759505
 20
5158.543584966676
 30
0.0
 10
6510.482120735921
 20
5159.129698648708
 30
0.0
 10
6510.241419484005
 20
5159.48419935656
 30
0.0
 10
6509.904990708218
 20
5160.113777051874
 30
0.0
 10
6509.79617401529
 20
5160.342146184063
 30
0.0
 10
6509.594156495457
 20
5160.824301424789
 30
0.0
 10
6509.501410973556
 20
5161.076476067409
 30
0.0
 10
6509.333642241691
 20
5161.602151674768
 30
0.0
 10
6509.258619990788
 20
5161.875657831705
 30
0.0
 10
6509.127507606382
 20
5162.443673133797
 30
0.0
 10
6509.071967407341
 20
5162.736496469492
 30
0.0
 10
6508.982381190645
 20
5163.326512273838
 30
0.0
 10
6508.947907601396
 20
5163.625474513955
 30
0.0
 10
6508.898336993898
 20
5164.230598547789
 30
0.0
 10
6508.883254128255
 20
5164.538371427473
 30
0.0
 10
6508.865497022263
 20
5165.455425204384
 30
0.0
 10
6508.889383419985
 20
5166.060743265531
 30
0.0
 10
6508.966246124279
 20
5166.961629774064
 30
0.0
 10
6508.99877212904
 20
5167.260727858005
 30
0.0
 10
6509.076167546785
 20
5167.856712860225
 30
0.0
 10
6509.121114925528
 20
5168.153741259427
 30
0.0
 10
6509.270221964976
 20
5169.028836985759
 30
0.0
 10
6509.389038413534
 20
5169.595713206942
 30
0.0
 10
6509.65550213947
 20
5170.700723397809
 30
0.0
 10
6509.803214810835
 20
5171.238825232542
 30
0.0
 10
6510.121395179062
 20
5172.286700169123
 30
0.0
 10
6510.292416862219
 20
5172.797315738721
 30
0.0
 10
6510.643038029587
 20
5173.760573070842
 30
0.0
 10
6510.823680551828
 20
5174.216899171151
 30
0.0
 10
6511.191146346789
 20
5175.072623044779
 30
0.0
 10
6511.377987129817
 20
5175.472254425797
 30
0.0
 10
6511.660294465763
 20
5176.01678067829
 30
0.0
 10
6511.754713104448
 20
5176.188798605844
 30
0.0
 10
6511.939205174515
 20
5176.503091382917
 30
0.0
 10
6512.029822886431
 20
5176.646464391218
 30
0.0
 10
6512.295626733459
 20
5177.029749734929
 30
0.0
 10
6512.466267753984
 20
5177.224319485218
 30
0.0
 10
6512.618686327466
 20
5177.327127111156
 30
0.0
  0
LINE
  5
14F
330
1F
100
AcDbEntity
  8
0
  6
Continuous
 62
     7
370
    25
100
AcDbLine
 10
6489.3807862502
 20
5155.4914264117
 30
0.0
 11
6513.3807862502
 21
5155.4914264117
 31
0.0
  0
LINE
  5
150
330
1F
100
AcDbEntity
  8
0
  6
Continuous
 62
     7
370
    25
100
AcDbLine
 10
6465.3807862502
 20
5155.4914264117
 30
0.0
 11
6489.3807862502
 21
5155.4914264117
 31
0.0
  0
LINE
  5
151
330
1F
100
AcDbEntity
  8
0
  6
Continuous
 62
     7
370
    25
100
AcDbLine
 10
6489.3807862502
 20
5180.1914264117
 30
0.0
 11
6513.3807862502
 21
5180.1914264117
 31
0.0
  0
LINE
  5
152
330
1F
100
AcDbEntity
  8
0
  6
Continuous
 62
     7
370
    25
100
AcDbLine
 10
6465.3807862502
 20
5180.1914264117
 30
0.0
 11
6489.3807862502
 21
5180.1914264117
 31
0.0
  0
LINE
  5
153
330
1F
100
AcDbEntity
  8
0
  6
Continuous
 62
     7
370
    25
100
AcDbLine
 10
6489.3807862502
 20
5180.4914264117
 30
0.0
 11
6513.3807862502
 21
5180.4914264117
 31
0.0
  0
LINE
  5
154
330
1F
100
AcDbEntity
  8
0
  6
Continuous
 62
     7
370
    25
100
AcDbLine
 10
6465.3807862502
 20
5180.4914264117
 30
0.0
 11
6489.3807862502
 21
5180.4914264117
 31
0.0
  0
LINE
  5
155
330
1F
100
AcDbEntity
  8
0
  6
Continuous
 62
     7
370
    25
100
AcDbLine
 10
6489.3807862502
 20
5218.1914264117
 30
0.0
 11
6513.3807862502
 21
5218.1914264117
 31
0.0
  0
LINE
  5
156
330
1F
100
AcDbEntity
  8
0
  6
Continuous
 62
     7
370
    25
100
AcDbLine
 10
6465.3807862502
 20
5218.1914264117
 30
0.0
 11
6489.3807862502
 21
5218.1914264117
 31
0.0
  0
LINE
  5
157
330
1F
100
AcDbEntity
  8
0
  6
Continuous
 62
     7
370
    25
100
AcDbLine
 10
6489.3807862502
 20
5155.1914264117
 30
0.0
 11
6513.3807862502
 21
5155.1914264117
 31
0.0
  0
LINE
  5
158
330
1F
100
AcDbEntity
  8
0
  6
Continuous
 62
     7
370
    25
100
AcDbLine
 10
6465.3807862502
 20
5155.1914264117
 30
0.0
 11
6489.3807862502
 21
5155.1914264117
 31
0.0
  0
LINE
  5
159
330
1F
100
AcDbEntity
  8
0
  6
Continuous
 62
     7
370
    25
100
AcDbLine
 10
6512.162302881
 20
5141.8914264117
 30
0.0
 11
6513.3807862502
 21
5141.8914264117
 31
0.0
  0
LINE
  5
15A
330
1F
100
AcDbEntity
  8
0
  6
Continuous
 62
     7
370
    25
100
AcDbLine
 10
6513.3807862502
 20
5152.4914264117
 30
0.0
 11
6512.162302881
 21
5152.4914264117
 31
0.0
  0
SPLINE
  5
15B
330
1F
100
AcDbEntity
  8
0
  6
Continuous
 62
     7
370
    25
100
AcDbSpline
210
0.0
220
0.0
230
1.0
 70
     8
 71
     3
 72
    46
 73
    42
 74
     0
 42
0.000000001
 43
0.00000001
 40
0.0
 40
0.0
 40
0.0
 40
0.0
 40
0.0624999999999998
 40
0.0624999999999998
 40
0.1249999999999995
 40
0.1249999999999995
 40
0.1874999999999993
 40
0.1874999999999993
 40
0.2187499999999992
 40
0.2187499999999992
 40
0.2499999999999992
 40
0.2499999999999992
 40
0.3124999999999994
 40
0.3124999999999994
 40
0.3749999999999996
 40
0.3749999999999996
 40
0.4374999999999998
 40
0.4374999999999998
 40
0.4687499999999996
 40
0.4687499999999996
 40
0.4999999999999993
 40
0.4999999999999993
 40
0.5312499999999991
 40
0.5312499999999991
 40
0.5624999999999992
 40
0.5624999999999992
 40
0.6249999999999991
 40
0.6249999999999991
 40
0.6562499999999991
 40
0.6562499999999991
 40
0.6874999999999991
 40
0.6874999999999991
 40
0.7499999999999992
 40
0.7499999999999992
 40
0.8124999999999994
 40
0.8124999999999994
 40
0.8749999999999997
 40
0.8749999999999997
 40
0.9374999999999999
 40
0.9374999999999999
 40
1.0
 40
1.0
 40
1.0
 40
1.0
 10
6512.162302881034
 20
5152.491426411708
 30
0.0
 10
6512.046677816437
 20
5152.491426411708
 30
0.0
 10
6511.924974107286
 20
5152.457335187273
 30
0.0
 10
6511.670532732182
 20
5152.326569205676
 30
0.0
 10
6511.536823777431
 20
5152.228939186765
 30
0.0
 10
6511.264169999703
 20
5151.973217443038
 30
0.0
 10
6511.127171655248
 20
5151.817370913819
 30
0.0
 10
6510.922977822327
 20
5151.542406786823
 30
0.0
 10
6510.855138470771
 20
5151.443832313518
 30
0.0
 10
6510.720431693549
 20
5151.232284036372
 30
0.0
 10
6510.653461824066
 20
5151.119025020465
 30
0.0
 10
6510.459041976128
 20
5150.763994442992
 30
0.0
 10
6510.336598877825
 20
5150.505133776352
 30
0.0
 10
6510.111741290573
 20
5149.940129284025
 30
0.0
 10
6510.008278991371
 20
5149.629391978125
 30
0.0
 10
6509.838107850758
 20
5148.981864205202
 30
0.0
 10
6509.770497485568
 20
5148.644365182828
 30
0.0
 10
6509.700243275422
 20
5148.115627195817
 30
0.0
 10
6509.68196943674
 20
5147.934231495102
 30
0.0
 10
6509.657498704599
 20
5147.570321460359
 30
0.0
 10
6509.651259196081
 20
5147.388665862851
 30
0.0
 10
6509.650570388531
 20
5147.025939372483
 30
0.0
 10
6509.656121464825
 20
5146.844868507656
 30
0.0
 10
6509.678974665903
 20
5146.483313156707
 30
0.0
 10
6509.696440478687
 20
5146.301673930276
 30
0.0
 10
6509.765393463081
 20
5145.766699722879
 30
0.0
 10
6509.832601515439
 20
5145.425705908937
 30
0.0
 10
6509.959983376673
 20
5144.935532346831
 30
0.0
 10
6510.007147063435
 20
5144.775097896289
 30
0.0
 10
6510.107693802013
 20
5144.467406330087
 30
0.0
 10
6510.161211356205
 20
5144.319464188433
 30
0.0
 10
6510.330053673069
 20
5143.892250194866
 30
0.0
 10
6510.454771508559
 20
5143.627388442643
 30
0.0
 10
6510.714733050489
 20
5143.151230141614
 30
0.0
 10
6510.849252250309
 20
5142.940450978265
 30
0.0
 10
6511.122833764053
 20
5142.570622064668
 30
0.0
 10
6511.262630273693
 20
5142.411404024677
 30
0.0
 10
6511.533582966475
 20
5142.15663433011
 30
0.0
 10
6511.665958509889
 20
5142.059175449778
 30
0.0
 10
6511.922524626253
 20
5141.926250137558
 30
0.0
 10
6512.046548977952
 20
5141.891426411708
 30
0.0
 10
6512.162302881034
 20
5141.891426411708
 30
0.0
  0
LINE
  5
15C
330
1F
100
AcDbEntity
  8
0
  6
Continuous
 62
     7
370
    25
100
AcDbLine
 10
6489.3807862502
 20
5131.1914264117
 30
0.0
 11
6513.3807862502
 21
5131.1914264117
 31
0.0
  0
LINE
  5
15D
330
1F
100
AcDbEntity
  8
0
  6
Continuous
 62
     7
370
    25
100
AcDbLine
 10
6465.3807862502
 20
5131.1914264117
 30
0.0
 11
6489.3807862502
 21
5131.1914264117
 31
0.0
  0
LINE
  5
15E
330
1F
100
AcDbEntity
  8
0
  6
Continuous
 62
     7
370
    25
100
AcDbLine
 10
6652.758339111
 20
5271.852516461
 30
0.0
 11
6512.6186863275
 21
5177.3271271112
 31
0.0
  0
LINE
  5
15F
330
1F
100
AcDbEntity
  8
0
  6
Continuous
 62
     7
370
    25
100
AcDbLine
 10
6652.758339111
 20
5271.852516461
 30
0.0
 11
6661.7054255665
 21
5258.5879153001
 31
0.0
  0
LINE
  5
160
330
1F
100
AcDbEntity
  8
0
  6
Continuous
 62
     7
370
    25
100
AcDbLine
 10
6661.7054255665
 20
5258.5879153001
 30
0.0
 11
6512.6186863275
 21
5158.0276399351
 31
0.0
  0
ARC
  5
161
330
1F
100
AcDbEntity
  8
0
  6
Continuous
 62
     7
370
    25
100
AcDbCircle
 10
6713.1068702808
 20
5276.4508132807
 30
0.0
 40
0.9609915514232592
100
AcDbArc
 50
5.6144499175
 51
95.397008107
  0
SPLINE
  5
162
330
1F
100
AcDbEntity
  8
0
  6
Continuous
 62
     7
370
    25
100
AcDbSpline
210
0.0
220
0.0
230
1.0
 70
     8
 71
     3
 72
    30
 73
    26
 74
     0
 42
0.000000001
 43
0.00000001
 40
0.0
 40
0.0
 40
0.0
 40
0.0
 40
0.1249999999999975
 40
0.1249999999999975
 40
0.1874999999999974
 40
0.1874999999999974
 40
0.2499999999999972
 40
0.2499999999999972
 40
0.3749999999999951
 40
0.3749999999999951
 40
0.4374999999999953
 40
0.4374999999999953
 40
0.4999999999999957
 40
0.4999999999999957
 40
0.6249999999999968
 40
0.6249999999999968
 40
0.749999999999998
 40
0.749999999999998
 40
0.8749999999999991
 40
0.8749999999999991
 40
0.9375000000000012
 40
0.9375000000000012
 40
0.9687500000000007
 40
0.9687500000000007
 40
1.0
 40
1.0
 40
1.0
 40
1.0
 10
6713.016482945602
 20
5277.407544638781
 30
0.0
 10
6713.363542212944
 20
5277.456320637905
 30
0.0
 10
6713.753879695811
 20
5277.605354677796
 30
0.0
 10
6714.399360392298
 20
5277.936629867608
 30
0.0
 10
6714.626020125305
 20
5278.066342994658
 30
0.0
 10
6715.09110548821
 20
5278.353635245095
 30
0.0
 10
6715.329179965118
 20
5278.510819960519
 30
0.0
 10
6716.059121678582
 20
5279.016246801693
 30
0.0
 10
6716.566621284831
 20
5279.39798220041
 30
0.0
 10
6717.357600871155
 20
5280.022353353598
 30
0.0
 10
6717.62500084644
 20
5280.238266911262
 30
0.0
 10
6718.162034052727
 20
5280.67951193852
 30
0.0
 10
6718.432461105407
 20
5280.905475263115
 30
0.0
 10
6719.249601623771
 20
5281.597263820278
 30
0.0
 10
6719.802156758349
 20
5282.07687244228
 30
0.0
 10
6720.923863119273
 20
5283.065687355181
 30
0.0
 10
6721.495412624101
 20
5283.57715256834
 30
0.0
 10
6722.638065489817
 20
5284.608746983727
 30
0.0
 10
6723.210599000838
 20
5285.130120980979
 30
0.0
 10
6724.072705771233
 20
5285.918307453174
 30
0.0
 10
6724.360624582957
 20
5286.18206569985
 30
0.0
 10
6724.793517452815
 20
5286.579023774651
 30
0.0
 10
6724.937984276457
 20
5286.711563538602
 30
0.0
 10
6725.227289627815
 20
5286.977049463188
 30
0.0
 10
6725.373089836031
 20
5287.110878390607
 30
0.0
 10
6725.517033287839
 20
5287.243002998268
 30
0.0
  0
SPLINE
  5
163
330
1F
100
AcDbEntity
  8
0
  6
Continuous
 62
     7
370
    25
100
AcDbSpline
210
0.0
220
0.0
230
1.0
 70
     8
 71
     3
 72
    30
 73
    26
 74
     0
 42
0.000000001
 43
0.00000001
 40
0.0
 40
0.0
 40
0.0
 40
0.0
 40
0.1249999999999955
 40
0.1249999999999955
 40
0.1874999999999943
 40
0.1874999999999943
 40
0.2499999999999931
 40
0.2499999999999931
 40
0.3749999999999901
 40
0.3749999999999901
 40
0.43749999999999
 40
0.43749999999999
 40
0.4999999999999898
 40
0.4999999999999898
 40
0.6249999999999922
 40
0.6249999999999922
 40
0.7499999999999947
 40
0.7499999999999947
 40
0.8749999999999972
 40
0.8749999999999972
 40
0.9374999999999969
 40
0.9374999999999969
 40
0.9687499999999984
 40
0.9687499999999984
 40
1.0
 40
1.0
 40
1.0
 40
1.0
 10
6714.063251723223
 20
5276.54483082401
 30
0.0
 10
6714.380093057435
 20
5276.589359969589
 30
0.0
 10
6714.735111992868
 20
5276.740866029004
 30
0.0
 10
6715.323353184423
 20
5277.087717307767
 30
0.0
 10
6715.530151324499
 20
5277.224694759797
 30
0.0
 10
6715.955251975086
 20
5277.53044691603
 30
0.0
 10
6716.1728170948
 20
5277.698482031922
 30
0.0
 10
6716.840062347296
 20
5278.240821072505
 30
0.0
 10
6717.304219686314
 20
5278.652940320155
 30
0.0
 10
6718.028934678468
 20
5279.330640658562
 30
0.0
 10
6718.274412795079
 20
5279.565823275479
 30
0.0
 10
6718.766902691211
 20
5280.046539701677
 30
0.0
 10
6719.014843579112
 20
5280.292945827532
 30
0.0
 10
6719.76403005734
 20
5281.047985666877
 30
0.0
 10
6720.270626090332
 20
5281.572309887176
 30
0.0
 10
6721.299694876108
 20
5282.655149069242
 30
0.0
 10
6721.824683711756
 20
5283.216492554595
 30
0.0
 10
6722.873863354726
 20
5284.348948457549
 30
0.0
 10
6723.399355277055
 20
5284.921400814866
 30
0.0
 10
6724.190735577223
 20
5285.787145677641
 30
0.0
 10
6724.455050860039
 20
5286.076914537949
 30
0.0
 10
6724.852530193619
 20
5286.513129377159
 30
0.0
 10
6724.985191129136
 20
5286.658794919468
 30
0.0
 10
6725.250887693207
 20
5286.95061405174
 30
0.0
 10
6725.384904662197
 20
5287.097845802867
 30
0.0
 10
6725.517033287839
 20
5287.243002998268
 30
0.0
  0
LINE
  5
164
330
1F
100
AcDbEntity
  8
0
  6
Continuous
 62
     7
370
    25
100
AcDbLine
 10
6740.9116903608
 20
5278.2984776556
 30
0.0
 11
6713.184184436
 21
5274.4016308287
 31
0.0
  0
SPLINE
  5
165
330
1F
100
AcDbEntity
  8
0
  6
Continuous
 62
     7
370
    25
100
AcDbSpline
210
0.0
220
0.0
230
1.0
 70
     8
 71
     3
 72
    16
 73
    12
 74
     0
 42
0.000000001
 43
0.00000001
 40
0.0
 40
0.0
 40
0.0
 40
0.0
 40
0.2499999999999974
 40
0.2499999999999974
 40
0.4999999999999949
 40
0.4999999999999949
 40
0.7499999999999923
 40
0.7499999999999923
 40
0.8749999999999961
 40
0.8749999999999961
 40
1.0
 40
1.0
 40
1.0
 40
1.0
 10
6732.518784783484
 20
5289.236862570362
 30
0.0
 10
6731.975163183245
 20
5289.160461536902
 30
0.0
 10
6731.420736092511
 20
5289.04314480933
 30
0.0
 10
6730.284267620659
 20
5288.762007450217
 30
0.0
 10
6729.700368740901
 20
5288.596622855322
 30
0.0
 10
6728.52537025003
 20
5288.241133358923
 30
0.0
 10
6727.931650928038
 20
5288.050225843505
 30
0.0
 10
6727.02925857704
 20
5287.7523931893
 30
0.0
 10
6726.727412801696
 20
5287.651473786977
 30
0.0
 10
6726.122663062673
 20
5287.448018041434
 30
0.0
 10
6725.818107615181
 20
5287.344920717254
 30
0.0
 10
6725.517033287839
 20
5287.243002998268
 30
0.0
  0
LINE
  5
166
330
1F
100
AcDbEntity
  8
0
  6
Continuous
 62
     7
370
    25
100
AcDbLine
 10
6707.1861104367
 20
5292.74538038
 30
0.0
 11
6709.412880052
 21
5276.9010912802
 31
0.0
  0
LINE
  5
167
330
1F
100
AcDbEntity
  8
0
  6
Continuous
 62
     7
370
    25
100
AcDbLine
 10
6707.1861104367
 20
5292.74538038
 30
0.0
 11
6727.9741107785
 21
5295.6669432999
 31
0.0
  0
SPLINE
  5
168
330
1F
100
AcDbEntity
  8
0
  6
Continuous
 62
     7
370
    25
100
AcDbSpline
210
0.0
220
0.0
230
1.0
 70
     8
 71
     3
 72
    30
 73
    26
 74
     0
 42
0.000000001
 43
0.00000001
 40
0.0
 40
0.0
 40
0.0
 40
0.0
 40
0.1250000000000049
 40
0.1250000000000049
 40
0.1875000000000072
 40
0.1875000000000072
 40
0.2500000000000096
 40
0.2500000000000096
 40
0.3750000000000118
 40
0.3750000000000118
 40
0.5000000000000139
 40
0.5000000000000139
 40
0.625000000000016
 40
0.625000000000016
 40
0.6875000000000175
 40
0.6875000000000175
 40
0.7500000000000191
 40
0.7500000000000191
 40
0.8750000000000162
 40
0.8750000000000162
 40
0.9375000000000118
 40
0.9375000000000118
 40
0.9687500000000059
 40
0.9687500000000059
 40
1.0
 40
1.0
 40
1.0
 40
1.0
 10
6727.974110778461
 20
5295.666943299877
 30
0.0
 10
6727.863202805906
 20
5295.651356200839
 30
0.0
 10
6727.754982705606
 20
5295.58179691816
 30
0.0
 10
6727.59373947379
 20
5295.400793858763
 30
0.0
 10
6727.540178843891
 20
5295.327585970661
 30
0.0
 10
6727.432959575841
 20
5295.155031655373
 30
0.0
 10
6727.379110243624
 20
5295.055168325977
 30
0.0
 10
6727.220027530822
 20
5294.722403487294
 30
0.0
 10
6727.116249530141
 20
5294.455390874628
 30
0.0
 10
6726.909328644908
 20
5293.833399888399
 30
0.0
 10
6726.80550879146
 20
5293.474980417643
 30
0.0
 10
6726.602869178023
 20
5292.697889943332
 30
0.0
 10
6726.503121751055
 20
5292.276887452629
 30
0.0
 10
6726.352959969371
 20
5291.596790094351
 30
0.0
 10
6726.302653891855
 20
5291.361091844068
 30
0.0
 10
6726.203363079666
 20
5290.882709824554
 30
0.0
 10
6726.154152455334
 20
5290.639047305499
 30
0.0
 10
6726.007080496212
 20
5289.895065178634
 30
0.0
 10
6725.909792570907
 20
5289.381861142154
 30
0.0
 10
6725.762087427688
 20
5288.585865468203
 30
0.0
 10
6725.713014356176
 20
5288.318622407894
 30
0.0
 10
6725.639551350561
 20
5287.916475241462
 30
0.0
 10
6725.615073390621
 20
5287.782131477306
 30
0.0
 10
6725.566075516613
 20
5287.512864077125
 30
0.0
 10
6725.541261372407
 20
5287.376321035677
 30
0.0
 10
6725.517033287839
 20
5287.243002998268
 30
0.0
  0
LINE
  5
169
330
1F
100
AcDbEntity
  8
0
  6
Continuous
 62
     7
370
    25
100
AcDbLine
 10
6709.412880052
 20
5276.9010912802
 30
0.0
 11
6713.0164829456
 21
5277.4075446388
 31
0.0
  0
LWPOLYLINE
  5
16A
330
1F
100
AcDbEntity
  8
0
  6
Continuous
 62
     7
370
    25
100
AcDbPolyline
 90
        9
 70
   128
 43
0.0
 10
6732.5187847835
 20
5289.2368625704
 10
6732.260120076
 20
5290.5795627206
 10
6731.8741848444
 20
5291.8513799277
 10
6731.3758103632
 20
5293.0034389697
 10
6730.7841488841
 20
5293.9914668637
 10
6730.1219376261
 20
5294.7774942517
 10
6729.4146249965
 20
5295.3313145422
 10
6728.6893926228
 20
5295.6316447318
 10
6727.9741107785
 20
5295.6669432999
  0
ARC
  5
16B
330
1F
100
AcDbEntity
  8
0
  6
Continuous
 62
     7
370
    25
100
AcDbCircle
 10
6725.2206927789
 20
5164.4226592264
 30
0.0
 40
129.5838220015395
100
AcDbArc
 50
98.0
 51
124.0
  0
ARC
  5
16C
330
1F
100
AcDbEntity
  8
0
  6
Continuous
 62
     7
370
    25
100
AcDbCircle
 10
6725.2206927789
 20
5164.4226592264
 30
0.0
 40
113.5838220015404
100
AcDbArc
 50
98.0
 51
124.0
  0
LINE
  5
16D
330
1F
100
AcDbEntity
  8
0
  6
Continuous
 62
     7
370
    25
100
AcDbLine
 10
6727.9741107785
 20
5295.6669432999
 30
0.0
 11
6731.3355249613
 21
5296.1393592549
 31
0.0
  0
LINE
  5
16E
330
1F
100
AcDbEntity
  8
0
  6
Continuous
 62
     7
370
    25
100
AcDbLine
 10
6739.8759256736
 20
5270.579203628
 30
0.0
 11
6716.3075456376
 21
5267.2668838251
 31
0.0
  0
SPLINE
  5
16F
330
1F
100
AcDbEntity
  8
0
  6
Continuous
 62
     7
370
    25
100
AcDbSpline
210
0.0
220
0.0
230
1.0
 70
     8
 71
     3
 72
    17
 73
    13
 74
     0
 42
0.000000001
 43
0.00000001
 40
0.0
 40
0.0
 40
0.0
 40
0.0
 40
0.0417269276769042
 40
0.1582370466788894
 40
0.2646377925314679
 40
0.3592513445211261
 40
0.4481163251305739
 40
0.5430172137287598
 40
0.6521428006963745
 40
0.7693567266694084
 40
0.8844754889123134
 40
1.0
 40
1.0
 40
1.0
 40
1.0
 10
6512.133467279879
 20
5152.121526767873
 30
0.0
 10
6512.062857657332
 20
5152.112927983213
 30
0.0
 10
6511.795091522584
 20
5152.080319632555
 30
0.0
 10
6511.275708589787
 20
5151.651363144267
 30
0.0
 10
6510.654588049797
 20
5150.675867533752
 30
0.0
 10
6510.17919905819
 20
5149.432287572778
 30
0.0
 10
6509.901251532941
 20
5147.998162197779
 30
0.0
 10
6509.885031695544
 20
5146.370724402431
 30
0.0
 10
6510.215170354356
 20
5144.700495390053
 30
0.0
 10
6510.816785588939
 20
5143.326389483927
 30
0.0
 10
6511.519525115988
 20
5142.389340307673
 30
0.0
 10
6511.928580021482
 20
5142.264947108149
 30
0.0
 10
6512.133467279987
 20
5142.202641091806
 30
0.0
  0
ARC
  5
170
330
1F
100
AcDbEntity
  8
0
  6
Continuous
 62
     7
370
    25
100
AcDbCircle
 10
6511.8399914999
 20
5142.1959621071
 30
0.0
 40
0.2935517711387713
100
AcDbArc
 50
272.512332869
 51
1.3037245739
  0
ARC
  5
171
330
1F
100
AcDbEntity
  8
0
  6
Continuous
 62
     7
370
    25
100
AcDbCircle
 10
6511.8399914998
 20
5152.1282057526
 30
0.0
 40
0.2935517710789083
100
AcDbArc
 50
358.6962754156
 51
87.4876671976
  0
SPLINE
  5
172
330
1F
100
AcDbEntity
  8
0
  6
Continuous
 62
     7
370
    25
100
AcDbSpline
210
0.0
220
0.0
230
1.0
 70
     8
 71
     3
 72
    11
 73
     7
 74
     0
 42
0.000000001
 43
0.00000001
 40
0.0
 40
0.0
 40
0.0
 40
0.0
 40
0.0000078839834399
 40
0.4564385456885673
 40
0.9222131166028915
 40
1.0
 40
1.0
 40
1.0
 40
1.0
 10
6511.852859174257
 20
5152.421475364492
 30
0.0
 10
6511.852865243754
 20
5152.421475376153
 30
0.0
 10
6512.204255107414
 20
5152.422150500414
 30
0.0
 10
6512.721714655671
 20
5152.423084216051
 30
0.0
 10
6513.085222566818
 20
5152.423707101469
 30
0.0
 10
6512.989929640574
 20
5152.42354186168
 30
0.0
 10
6512.976292654941
 20
5152.423518214881
 30
0.0
  0
SPLINE
  5
173
330
1F
100
AcDbEntity
  8
0
  6
Continuous
 62
     7
370
    25
100
AcDbSpline
210
0.0
220
0.0
230
1.0
 70
     8
 71
     3
 72
    10
 73
     6
 74
     0
 42
0.000000001
 43
0.00000001
 40
0.0
 40
0.0
 40
0.0
 40
0.0
 40
0.0906696484715679
 40
0.622692404356317
 40
1.0
 40
1.0
 40
1.0
 40
1.0
 10
6512.976292654941
 20
5141.900649644798
 30
0.0
 10
6512.989774180289
 20
5141.900626342832
 30
0.0
 10
6513.082361320245
 20
5141.900466311796
 30
0.0
 10
6512.812057482409
 20
5141.900912475407
 30
0.0
 10
6512.313253087598
 20
5141.901840145094
 30
0.0
 10
6512.106284644738
 20
5141.902225062212
 30
0.0
  0
LINE
  5
174
330
1F
100
AcDbEntity
  8
0
  6
Continuous
 62
     8
370
    25
100
AcDbLine
 10
6465.3807862502
 20
5218.3904503807
 30
0.0
 11
6513.3807862502
 21
5218.3904503807
 31
0.0
  0
LINE
  5
175
330
1F
100
AcDbEntity
  8
0
  6
Continuous
 62
     8
370
    25
100
AcDbLine
 10
6513.3807862502
 20
5218.9904503807
 30
0.0
 11
6465.3807862502
 21
5218.9904503807
 31
0.0
  0
LINE
  5
176
330
1F
100
AcDbEntity
  8
0
  6
Continuous
 62
     8
370
    25
100
AcDbLine
 10
6513.3807862502
 20
5241.2725665994
 30
0.0
 11
6465.3807862502
 21
5241.2725665994
 31
0.0
  0
LINE
  5
177
330
1F
100
AcDbEntity
  8
0
  6
Continuous
 62
     8
370
    25
100
AcDbLine
 10
6465.9250141363
 20
5242.9956984354
 30
0.0
 11
6512.8365583642
 21
5242.9956984354
 31
0.0
  0
LINE
  5
178
330
1F
100
AcDbEntity
  8
0
  6
Continuous
 62
     8
370
    25
100
AcDbLine
 10
6739.2416131493
 20
5290.1816944805
 30
0.0
 11
6732.5187847835
 21
5289.2368625704
 31
0.0
  0
LINE
  5
179
330
1F
100
AcDbEntity
  8
0
  6
Continuous
 62
     8
370
    25
100
AcDbLine
 10
6714.0632517232
 20
5276.544830824
 30
0.0
 11
6712.9058382341
 21
5276.3821669662
 31
0.0
  0
SPLINE
  5
17A
330
1F
100
AcDbEntity
  8
0
  6
Continuous
 62
     8
370
    25
100
AcDbSpline
210
0.0
220
0.0
230
1.0
 70
     8
 71
     3
 72
     9
 73
     5
 74
     0
 42
0.000000001
 43
0.00000001
 40
0.0
 40
0.0
 40
0.0
 40
0.0
 40
0.2027051272729131
 40
1.0
 40
1.0
 40
1.0
 40
1.0
 10
6509.743145186154
 20
5146.059669101758
 30
0.0
 10
6509.719637939295
 20
5146.180233357974
 30
0.0
 10
6509.603670241908
 20
5146.775009907724
 30
0.0
 10
6509.653083012799
 20
5147.429936087646
 30
0.0
 10
6509.69247956168
 20
5147.95210537291
 30
0.0
  0
SPLINE
  5
17B
330
1F
100
AcDbEntity
  8
0
  6
Continuous
 62
     8
370
    25
100
AcDbSpline
210
0.0
220
0.0
230
1.0
 70
     8
 71
     3
 72
    10
 73
     6
 74
     0
 42
0.000000001
 43
0.00000001
 40
0.0
 40
0.0
 40
0.0
 40
0.0
 40
0.078047246519242
 40
0.5343503360753351
 40
1.0
 40
1.0
 40
1.0
 40
1.0
 10
6513.27041760921
 20
5152.123563878129
 30
0.0
 10
6513.284180885981
 20
5152.123587340638
 30
0.0
 10
6513.378411136203
 20
5152.123747976666
 30
0.0
 10
6513.043791697251
 20
5152.123197278956
 30
0.0
 10
6512.438952665098
 20
5152.122087355628
 30
0.0
 10
6512.133467279879
 20
5152.121526767873
 30
0.0
  0
SPLINE
  5
17C
330
1F
100
AcDbEntity
  8
0
  6
Continuous
 62
     8
370
    25
100
AcDbSpline
210
0.0
220
0.0
230
1.0
 70
     8
 71
     3
 72
    10
 73
     6
 74
     0
 42
0.000000001
 43
0.00000001
 40
0.0
 40
0.0
 40
0.0
 40
0.0
 40
0.4563030884738701
 40
0.9219527534776765
 40
1.0
 40
1.0
 40
1.0
 40
1.0
 10
6512.133467279987
 20
5142.202641091806
 30
0.0
 10
6512.43376292861
 20
5142.202089763618
 30
0.0
 10
6513.040505260844
 20
5142.200975814241
 30
0.0
 10
6513.379930257252
 20
5142.200417294106
 30
0.0
 10
6513.284164679493
 20
5142.200580546765
 30
0.0
 10
6513.27041760921
 20
5142.200603981551
 30
0.0
  0
LINE
  5
17D
330
1F
100
AcDbEntity
  8
0
  6
Continuous
 62
     7
370
    25
100
AcDbLine
 10
6260.0187553361
 20
4693.520390035
 30
0.0
 11
6260.0187553361
 21
4676.3028519915
 31
0.0
  0
LINE
  5
17E
330
1F
100
AcDbEntity
  8
0
  6
Continuous
 62
     7
370
    25
100
AcDbLine
 10
6288.0187553361
 20
4676.3028519915
 30
0.0
 11
6288.0187553361
 21
4693.520390035
 31
0.0
  0
LINE
  5
17F
330
1F
100
AcDbEntity
  8
0
  6
Continuous
 62
     7
370
    25
100
AcDbLine
 10
6288.0187553361
 20
4693.520390035
 30
0.0
 11
6288.0187553361
 21
4744.5880029406
 31
0.0
  0
LINE
  5
180
330
1F
100
AcDbEntity
  8
0
  6
Continuous
 62
     7
370
    25
100
AcDbLine
 10
6260.0187553361
 20
4744.5880029406
 30
0.0
 11
6260.0187553361
 21
4693.520390035
 31
0.0
  0
LINE
  5
181
330
1F
100
AcDbEntity
  8
0
  6
Continuous
 62
     7
370
    25
100
AcDbLine
 10
6260.0187553361
 20
4676.3028519915
 30
0.0
 11
6260.0187553361
 21
4674.771947881
 31
0.0
  0
LINE
  5
182
330
1F
100
AcDbEntity
  8
0
  6
Continuous
 62
     7
370
    25
100
AcDbLine
 10
6288.0187553361
 20
4674.771947881
 30
0.0
 11
6288.0187553361
 21
4676.3028519915
 31
0.0
  0
LINE
  5
183
330
1F
100
AcDbEntity
  8
0
  6
Continuous
 62
     7
370
    25
100
AcDbLine
 10
6260.0187553361
 20
4892.9250120601
 30
0.0
 11
6260.0187553361
 21
4744.5880029406
 31
0.0
  0
LINE
  5
184
330
1F
100
AcDbEntity
  8
0
  6
Continuous
 62
     7
370
    25
100
AcDbLine
 10
6288.0187553361
 20
4744.5880029406
 30
0.0
 11
6288.0187553361
 21
4892.9325966627
 31
0.0
  0
ARC
  5
185
330
1F
100
AcDbEntity
  8
0
  6
Continuous
 62
     7
370
    25
100
AcDbCircle
 10
6274.0187553361
 20
4676.6376318474
 30
0.0
 40
14.06501661114075
100
AcDbArc
 50
211.440681801
 51
328.559318199
  0
LWPOLYLINE
  5
186
330
1F
100
AcDbEntity
  8
0
  6
Continuous
 62
     7
370
    25
100
AcDbPolyline
 90
        9
 70
   128
 43
0.0
 10
6262.0187553361
 20
4669.3011004959
 10
6262.1340436537
 20
4669.5597652034
 10
6262.475478141
 20
4669.945700435
 10
6263.0299376623
 20
4670.4440749162
 10
6263.776114649
 20
4671.0357363952
 10
6264.685333938
 20
4671.6979476532
 10
6265.7226547419
 20
4672.4052602829
 10
6266.848213404
 20
4673.1304926566
 10
6268.0187553361
 20
4673.8457745009
  0
ARC
  5
187
330
1F
100
AcDbEntity
  8
0
  6
Continuous
 62
     7
370
    25
100
AcDbCircle
 10
6274.0187553361
 20
4677.5126762166
 30
0.0
 40
7.031796939108641
100
AcDbArc
 50
211.4311998229
 51
328.5688001771
  0
LWPOLYLINE
  5
188
330
1F
100
AcDbEntity
  8
0
  6
Continuous
 62
     7
370
    25
100
AcDbPolyline
 90
        9
 70
   128
 43
0.0
 10
6286.0187553361
 20
4669.3011004959
 10
6285.9034670185
 20
4669.5597652034
 10
6285.5620325312
 20
4669.945700435
 10
6285.0075730099
 20
4670.4440749162
 10
6284.2613960232
 20
4671.0357363952
 10
6283.3521767342
 20
4671.6979476532
 10
6282.3148559303
 20
4672.4052602829
 10
6281.1892972682
 20
4673.1304926566
 10
6280.0187553361
 20
4673.8457745009
  0
LINE
  5
189
330
1F
100
AcDbEntity
  8
0
  6
Continuous
 62
     7
370
    25
100
AcDbLine
 10
6268.0187553361
 20
4694.6337748427
 30
0.0
 11
6268.0187553361
 21
4673.8457745009
 31
0.0
  0
SPLINE
  5
18A
330
1F
100
AcDbEntity
  8
0
  6
Continuous
 62
     7
370
    25
100
AcDbSpline
210
0.0
220
0.0
230
1.0
 70
     8
 71
     3
 72
    30
 73
    26
 74
     0
 42
0.000000001
 43
0.00000001
 40
0.0
 40
0.0
 40
0.0
 40
0.0
 40
0.1250000000000049
 40
0.1250000000000049
 40
0.1875000000000072
 40
0.1875000000000072
 40
0.2500000000000096
 40
0.2500000000000096
 40
0.3750000000000118
 40
0.3750000000000118
 40
0.5000000000000139
 40
0.5000000000000139
 40
0.625000000000016
 40
0.625000000000016
 40
0.6875000000000175
 40
0.6875000000000175
 40
0.7500000000000191
 40
0.7500000000000191
 40
0.8750000000000162
 40
0.8750000000000162
 40
0.9375000000000118
 40
0.9375000000000118
 40
0.9687500000000059
 40
0.9687500000000059
 40
1.0
 40
1.0
 40
1.0
 40
1.0
 10
6268.0187553361
 20
4673.845774500911
 30
0.0
 10
6267.480336303206
 20
4673.956682473467
 30
0.0
 10
6266.952443959369
 20
4674.064902573765
 30
0.0
 10
6266.176125967263
 20
4674.226145805581
 30
0.0
 10
6265.91995857228
 20
4674.27970643548
 30
0.0
 10
6265.41301294523
 20
4674.386925703531
 30
0.0
 10
6265.161389707742
 20
4674.440775035748
 30
0.0
 10
6264.430397570074
 20
4674.599857748549
 30
0.0
 10
6263.969902968352
 20
4674.703635749231
 30
0.0
 10
6263.102043571896
 20
4674.910556634463
 30
0.0
 10
6262.692665181125
 20
4675.014376487911
 30
0.0
 10
6261.960559864027
 20
4675.217016101348
 30
0.0
 10
6261.633440512713
 20
4675.316763528316
 30
0.0
 10
6261.201913657009
 20
4675.46692531
 30
0.0
 10
6261.067692337981
 20
4675.517231387516
 30
0.0
 10
6260.824576393601
 20
4675.616522199705
 30
0.0
 10
6260.714962271963
 20
4675.665732824038
 30
0.0
 10
6260.421206532924
 20
4675.81280478316
 30
0.0
 10
6260.271844380188
 20
4675.910092708465
 30
0.0
 10
6260.120069789629
 20
4676.057797851683
 30
0.0
 10
6260.082108347686
 20
4676.106870923195
 30
0.0
 10
6260.044135518804
 20
4676.180333928811
 30
0.0
 10
6260.034629136657
 20
4676.204811888751
 30
0.0
 10
6260.021936918592
 20
4676.253809762758
 30
0.0
 10
6260.0187553361
 20
4676.278623906965
 30
0.0
 10
6260.0187553361
 20
4676.302851991532
 30
0.0
  0
LINE
  5
18B
330
1F
100
AcDbEntity
  8
0
  6
Continuous
 62
     7
370
    25
100
AcDbLine
 10
6280.0187553361
 20
4694.6337748427
 30
0.0
 11
6280.0187553361
 21
4673.8457745009
 31
0.0
  0
SPLINE
  5
18C
330
1F
100
AcDbEntity
  8
0
  6
Continuous
 62
     7
370
    25
100
AcDbSpline
210
0.0
220
0.0
230
1.0
 70
     8
 71
     3
 72
    30
 73
    26
 74
     0
 42
0.000000001
 43
0.00000001
 40
0.0
 40
0.0
 40
0.0
 40
0.0
 40
0.1249999999999968
 40
0.1249999999999968
 40
0.1874999999999956
 40
0.1874999999999956
 40
0.2499999999999946
 40
0.2499999999999946
 40
0.3749999999999946
 40
0.3749999999999946
 40
0.4999999999999946
 40
0.4999999999999946
 40
0.6249999999999947
 40
0.6249999999999947
 40
0.6874999999999947
 40
0.6874999999999947
 40
0.7499999999999947
 40
0.7499999999999947
 40
0.8749999999999949
 40
0.8749999999999949
 40
0.9374999999999981
 40
0.9374999999999981
 40
0.968749999999999
 40
0.968749999999999
 40
1.0
 40
1.0
 40
1.0
 40
1.0
 10
6280.0187553361
 20
4673.845774500911
 30
0.0
 10
6280.557174368994
 20
4673.956682473467
 30
0.0
 10
6281.085066712832
 20
4674.064902573766
 30
0.0
 10
6281.861384704937
 20
4674.226145805581
 30
0.0
 10
6282.11755209992
 20
4674.27970643548
 30
0.0
 10
6282.624497726971
 20
4674.386925703531
 30
0.0
 10
6282.876120964458
 20
4674.440775035748
 30
0.0
 10
6283.607113102126
 20
4674.59985774855
 30
0.0
 10
6284.06760770385
 20
4674.703635749231
 30
0.0
 10
6284.935467100305
 20
4674.910556634463
 30
0.0
 10
6285.344845491075
 20
4675.014376487911
 30
0.0
 10
6286.076950808174
 20
4675.217016101349
 30
0.0
 10
6286.404070159489
 20
4675.316763528316
 30
0.0
 10
6286.835597015192
 20
4675.46692531
 30
0.0
 10
6286.969818334219
 20
4675.517231387516
 30
0.0
 10
6287.212934278599
 20
4675.616522199705
 30
0.0
 10
6287.322548400237
 20
4675.665732824038
 30
0.0
 10
6287.616304139277
 20
4675.812804783161
 30
0.0
 10
6287.765666292013
 20
4675.910092708466
 30
0.0
 10
6287.917440882571
 20
4676.057797851685
 30
0.0
 10
6287.955402324515
 20
4676.106870923197
 30
0.0
 10
6287.993375153396
 20
4676.180333928813
 30
0.0
 10
6288.002881535544
 20
4676.204811888754
 30
0.0
 10
6288.015573753608
 20
4676.253809762765
 30
0.0
 10
6288.0187553361
 20
4676.278623907616
 30
0.0
 10
6288.0187553361
 20
4676.302851991532
 30
0.0
  0
SPLINE
  5
18D
330
1F
100
AcDbEntity
  8
0
  6
Continuous
 62
     7
370
    25
100
AcDbSpline
210
0.0
220
0.0
230
1.0
 70
     8
 71
     3
 72
    16
 73
    12
 74
     0
 42
0.000000001
 43
0.00000001
 40
0.0
 40
0.0
 40
0.0
 40
0.0
 40
0.2499999999999974
 40
0.2499999999999974
 40
0.4999999999999949
 40
0.4999999999999949
 40
0.7499999999999923
 40
0.7499999999999923
 40
0.8749999999999961
 40
0.8749999999999961
 40
1.0
 40
1.0
 40
1.0
 40
1.0
 10
6262.018755336101
 20
4669.301100495887
 30
0.0
 10
6261.688868979065
 20
4669.844722096126
 30
0.0
 10
6261.400095534095
 20
4670.39914918686
 30
0.0
 10
6260.901047378774
 20
4671.535617658712
 30
0.0
 10
6260.690656158964
 20
4672.119516538471
 30
0.0
 10
6260.355881235163
 20
4673.294515029342
 30
0.0
 10
6260.230049547008
 20
4673.888234351334
 30
0.0
 10
6260.103330491655
 20
4674.790626702331
 30
0.0
 10
6260.071618165346
 20
4675.092472477675
 30
0.0
 10
6260.029328450841
 20
4675.697222216698
 30
0.0
 10
6260.0187553361
 20
4676.00177766419
 30
0.0
 10
6260.0187553361
 20
4676.302851991532
 30
0.0
  0
SPLINE
  5
18E
330
1F
100
AcDbEntity
  8
0
  6
Continuous
 62
     7
370
    25
100
AcDbSpline
210
0.0
220
0.0
230
1.0
 70
     8
 71
     3
 72
    16
 73
    12
 74
     0
 42
0.000000001
 43
0.00000001
 40
0.0
 40
0.0
 40
0.0
 40
0.0
 40
0.2500000000000017
 40
0.2500000000000017
 40
0.5000000000000034
 40
0.5000000000000034
 40
0.7500000000000051
 40
0.7500000000000051
 40
0.8750000000000026
 40
0.8750000000000026
 40
1.0
 40
1.0
 40
1.0
 40
1.0
 10
6286.018755336101
 20
4669.301100495888
 30
0.0
 10
6286.348641693136
 20
4669.844722096126
 30
0.0
 10
6286.637415138105
 20
4670.399149186861
 30
0.0
 10
6287.136463293426
 20
4671.535617658713
 30
0.0
 10
6287.346854513236
 20
4672.119516538471
 30
0.0
 10
6287.681629437037
 20
4673.294515029342
 30
0.0
 10
6287.807461125192
 20
4673.888234351334
 30
0.0
 10
6287.934180180545
 20
4674.790626702331
 30
0.0
 10
6287.965892506854
 20
4675.092472477675
 30
0.0
 10
6288.00818222136
 20
4675.697222216699
 30
0.0
 10
6288.0187553361
 20
4676.001777664275
 30
0.0
 10
6288.0187553361
 20
4676.302851991532
 30
0.0
  0
LINE
  5
18F
330
1F
100
AcDbEntity
  8
0
  6
Continuous
 62
     7
370
    25
100
AcDbLine
 10
6280.0187553361
 20
4694.6337748427
 30
0.0
 11
6268.0187553361
 21
4694.6337748427
 31
0.0
  0
LINE
  5
190
330
1F
100
AcDbEntity
  8
0
  6
Continuous
 62
     7
370
    25
100
AcDbLine
 10
6280.0187553361
 20
4749.0615461684
 30
0.0
 11
6280.0187553361
 21
4694.6337748427
 31
0.0
  0
LINE
  5
191
330
1F
100
AcDbEntity
  8
0
  6
Continuous
 62
     7
370
    25
100
AcDbLine
 10
6268.0187553361
 20
4749.0615461684
 30
0.0
 11
6268.0187553361
 21
4694.6337748427
 31
0.0
  0
LINE
  5
192
330
1F
100
AcDbEntity
  8
0
  6
Continuous
 62
     7
370
    25
100
AcDbLine
 10
6280.0187553361
 20
4749.0615461684
 30
0.0
 11
6268.0187553361
 21
4749.0615461684
 31
0.0
  0
ARC
  5
193
330
1F
100
AcDbEntity
  8
0
  6
Continuous
 62
     7
370
    25
100
AcDbCircle
 10
6274.0187553361
 20
4674.8788590216
 30
0.0
 40
14.0004082080487
100
AcDbArc
 50
180.437531291
 51
359.562468709
  0
LINE
  5
194
330
1F
100
AcDbEntity
  8
0
  6
Continuous
 62
     7
370
    25
100
AcDbLine
 10
6268.0187553361
 20
4749.0615461684
 30
0.0
 11
6268.0187553361
 21
4889.2011989519
 31
0.0
  0
LINE
  5
195
330
1F
100
AcDbEntity
  8
0
  6
Continuous
 62
     7
370
    25
100
AcDbLine
 10
6280.0187553361
 20
4749.0615461684
 30
0.0
 11
6280.0187553361
 21
4889.2011989519
 31
0.0
  0
CIRCLE
  5
196
330
1F
100
AcDbEntity
  8
0
  6
Continuous
 62
     7
370
    25
100
AcDbCircle
 10
6274.0187553361
 20
4912.4390990292
 30
0.0
 40
23.45577211394266
  0
CIRCLE
  5
197
330
1F
100
AcDbEntity
  8
0
  6
Continuous
 62
     7
370
    25
100
AcDbCircle
 10
6274.0187553361
 20
4912.4390990292
 30
0.0
 40
24.0
  0
ARC
  5
198
330
1F
100
AcDbEntity
  8
0
  6
Continuous
 62
     7
370
    25
100
AcDbCircle
 10
6274.0187553361
 20
4912.4390990292
 30
0.0
 40
24.00000000000088
100
AcDbArc
 50
180.0
 51
254.8847289742
  0
ARC
  5
199
330
1F
100
AcDbEntity
  8
0
  6
Continuous
 62
     7
370
    25
100
AcDbCircle
 10
6274.0187553361
 20
4912.4390990292
 30
0.0
 40
24.0
100
AcDbArc
 50
0.0
 51
180.0
  0
LWPOLYLINE
  5
19A
330
1F
100
AcDbEntity
  8
0
  6
Continuous
 62
     8
370
    25
100
AcDbPolyline
 90
       10
 70
   128
 43
0.0
 10
6268.0187553361
 20
4694.6337748427
 10
6266.6295699148
 20
4694.6168600257
 10
6265.2825941895
 20
4694.5666295229
 10
6264.0187553361
 20
4694.4846095627
 10
6262.8764544586
 20
4694.37329228
 10
6261.8903997911
 20
4694.2360599942
 10
6261.0905521058
 20
4694.0770824389
 10
6260.5012143698
 20
4693.9011900665
 10
6260.140293312
 20
4693.7137272779
 10
6260.0187553361
 20
4693.520390035
  0
LWPOLYLINE
  5
19B
330
1F
100
AcDbEntity
  8
0
  6
Continuous
 62
     8
370
    25
100
AcDbPolyline
 90
       10
 70
   128
 43
0.0
 10
6288.0187553361
 20
4693.520390035
 10
6287.8972173602
 20
4693.7137272779
 10
6287.5362963024
 20
4693.9011900665
 10
6286.9469585664
 20
4694.0770824389
 10
6286.1471108811
 20
4694.2360599942
 10
6285.1610562136
 20
4694.37329228
 10
6284.0187553361
 20
4694.4846095627
 10
6282.7549164827
 20
4694.5666295229
 10
6281.4079407574
 20
4694.6168600257
 10
6280.0187553361
 20
4694.6337748427
  0
LWPOLYLINE
  5
19C
330
1F
100
AcDbEntity
  8
0
  6
Continuous
 62
     8
370
    25
100
AcDbPolyline
 90
       10
 70
   128
 43
0.0
 10
6288.0187553361
 20
4744.5880029406
 10
6287.8972173602
 20
4745.3648255698
 10
6287.5362963024
 20
4746.1180448365
 10
6286.9469585664
 20
4746.8247745545
 10
6286.1471108811
 20
4747.4635410988
 10
6285.1610562136
 20
4748.0149358713
 10
6284.0187553361
 20
4748.4622050208
 10
6282.7549164827
 20
4748.7917585005
 10
6281.4079407574
 20
4748.9935829947
 10
6280.0187553361
 20
4749.0615461684
  0
LWPOLYLINE
  5
19D
330
1F
100
AcDbEntity
  8
0
  6
Continuous
 62
     8
370
    25
100
AcDbPolyline
 90
       10
 70
   128
 43
0.0
 10
6268.0187553361
 20
4749.0615461684
 10
6266.6295699148
 20
4748.9935829947
 10
6265.2825941895
 20
4748.7917585005
 10
6264.0187553361
 20
4748.4622050208
 10
6262.8764544586
 20
4748.0149358713
 10
6261.8903997911
 20
4747.4635410988
 10
6261.0905521058
 20
4746.8247745545
 10
6260.5012143698
 20
4746.1180448365
 10
6260.140293312
 20
4745.3648255698
 10
6260.0187553361
 20
4744.5880029406
  0
ENDSEC
  0
SECTION
  2
OBJECTS
  0
DICTIONARY
  5
C
330
0
100
AcDbDictionary
281
     1
  3
ACAD_GROUP
350
D
  3
ACAD_LAYOUT
350
1A
  3
ACAD_MLINESTYLE
350
17
  3
ACAD_PLOTSETTINGS
350
19
  3
ACAD_PLOTSTYLENAME
350
E
  3
ACAD_SCALELIST
350
47
  0
DICTIONARY
  5
D
102
{ACAD_REACTORS
330
C
102
}
330
C
100
AcDbDictionary
281
     1
  0
DICTIONARY
  5
1A
102
{ACAD_REACTORS
330
C
102
}
330
C
100
AcDbDictionary
281
     1
  3
Layout1
350
1E
  3
Layout2
350
26
  3
Model
350
22
  0
DICTIONARY
  5
17
102
{ACAD_REACTORS
330
C
102
}
330
C
100
AcDbDictionary
281
     1
  3
Standard
350
18
  0
DICTIONARY
  5
19
102
{ACAD_REACTORS
330
C
102
}
330
C
100
AcDbDictionary
281
     1
  0
ACDBDICTIONARYWDFLT
  5
E
102
{ACAD_REACTORS
330
C
102
}
330
C
100
AcDbDictionary
281
     1
  3
Normal
350
F
100
AcDbDictionaryWithDefault
340
F
  0
DICTIONARY
  5
47
102
{ACAD_REACTORS
330
C
102
}
330
C
100
AcDbDictionary
281
     1
  3
A0
350
48
  3
A1
350
49
  3
A2
350
4A
  3
A3
350
4B
  3
A4
350
4C
  3
A5
350
4D
  3
A6
350
4E
  3
A7
350
4F
  3
A8
350
50
  3
A9
350
51
  3
B0
350
52
  3
B1
350
53
  3
B2
350
54
  3
B3
350
55
  3
B4
350
56
  3
B5
350
57
  3
B6
350
58
  3
B7
350
59
  3
B8
350
5A
  3
B9
350
5B
  3
C0
350
5C
  3
C1
350
5D
  3
C2
350
5E
  3
C3
350
5F
  3
C4
350
60
  3
C5
350
61
  3
C6
350
62
  3
C7
350
63
  3
C8
350
64
  3
C9
350
65
  3
D0
350
66
  3
D1
350
67
  3
D2
350
68
  0
LAYOUT
  5
1E
102
{ACAD_REACTORS
330
1A
102
}
330
1A
100
AcDbPlotSettings
  1

  2
none_device
  4

  6

 40
0.0
 41
0.0
 42
0.0
 43
0.0
 44
0.0
 45
0.0
 46
0.0
 47
0.0
 48
0.0
 49
0.0
140
0.0
141
0.0
142
1.0
143
1.0
 70
   688
 72
     1
 73
     0
 74
     5
  7

 75
    16
147
1.0
148
0.0
149
0.0
100
AcDbLayout
  1
Layout1
 70
     1
 71
     1
 10
0.0
 20
0.0
 11
420.0
 21
297.0
 12
0.0
 22
0.0
 32
0.0
 14
1.0000000000E+20
 24
1.0000000000E+20
 34
1.0000000000E+20
 15
-1.0000000000E+20
 25
-1.0000000000E+20
 35
-1.0000000000E+20
146
0.0
 13
0.0
 23
0.0
 33
0.0
 16
1.0
 26
0.0
 36
0.0
 17
0.0
 27
1.0
 37
0.0
 76
     0
330
1B
  0
LAYOUT
  5
26
102
{ACAD_REACTORS
330
1A
102
}
330
1A
100
AcDbPlotSettings
  1

  2
none_device
  4

  6

 40
0.0
 41
0.0
 42
0.0
 43
0.0
 44
0.0
 45
0.0
 46
0.0
 47
0.0
 48
0.0
 49
0.0
140
0.0
141
0.0
142
1.0
143
1.0
 70
   688
 72
     1
 73
     0
 74
     5
  7

 75
    16
147
1.0
148
0.0
149
0.0
100
AcDbLayout
  1
Layout2
 70
     1
 71
     2
 10
0.0
 20
0.0
 11
0.0
 21
0.0
 12
0.0
 22
0.0
 32
0.0
 14
0.0
 24
0.0
 34
0.0
 15
0.0
 25
0.0
 35
0.0
146
0.0
 13
0.0
 23
0.0
 33
0.0
 16
1.0
 26
0.0
 36
0.0
 17
0.0
 27
1.0
 37
0.0
 76
     0
330
23
  0
LAYOUT
  5
22
102
{ACAD_REACTORS
330
1A
102
}
330
1A
100
AcDbPlotSettings
  1

  2
none_device
  4
Letter_(8.50_x_11.00_Inches)
  6

 40
6.35
 41
6.35
 42
6.35000508
 43
6.35000508
 44
215.9
 45
279.4
 46
0.0
 47
0.0
 48
0.0
 49
0.0
140
0.0
141
0.0
142
1.0
143
1.0
 70
  1712
 72
     1
 73
     0
 74
     0
  7

 75
     0
147
1.0
148
0.0
149
0.0
100
AcDbLayout
  1
Model
 70
     1
 71
     0
 10
0.0
 20
0.0
 11
20000.0
 21
10000.0
 12
0.0
 22
0.0
 32
0.0
 14
0.0
 24
0.0
 34
0.0
 15
20000.0
 25
10000.0
 35
0.0
146
0.0
 13
0.0
 23
0.0
 33
0.0
 16
1.0
 26
0.0
 36
0.0
 17
0.0
 27
1.0
 37
0.0
 76
     0
330
1F
331
29
  0
MLINESTYLE
  5
18
102
{ACAD_REACTORS
330
17
102
}
330
17
100
AcDbMlineStyle
  2
Standard
 70
     0
  3

 62
   256
 51
90.0
 52
90.0
 71
     2
 49
0.5
 62
   256
  6
BYLAYER
 49
-0.5
 62
   256
  6
BYLAYER
  0
ACDBPLACEHOLDER
  5
F
102
{ACAD_REACTORS
330
E
102
}
330
E
  0
SCALE
  5
48
102
{ACAD_REACTORS
330
47
102
}
330
47
100
AcDbScale
 70
     0
300
1:1
140
1.0
141
1.0
290
     1
  0
SCALE
  5
49
102
{ACAD_REACTORS
330
47
102
}
330
47
100
AcDbScale
 70
     0
300
1:2
140
1.0
141
2.0
290
     0
  0
SCALE
  5
4A
102
{ACAD_REACTORS
330
47
102
}
330
47
100
AcDbScale
 70
     0
300
1:4
140
1.0
141
4.0
290
     0
  0
SCALE
  5
4B
102
{ACAD_REACTORS
330
47
102
}
330
47
100
AcDbScale
 70
     0
300
1:5
140
1.0
141
5.0
290
     0
  0
SCALE
  5
4C
102
{ACAD_REACTORS
330
47
102
}
330
47
100
AcDbScale
 70
     0
300
1:8
140
1.0
141
8.0
290
     0
  0
SCALE
  5
4D
102
{ACAD_REACTORS
330
47
102
}
330
47
100
AcDbScale
 70
     0
300
1:10
140
1.0
141
10.0
290
     0
  0
SCALE
  5
4E
102
{ACAD_REACTORS
330
47
102
}
330
47
100
AcDbScale
 70
     0
300
1:16
140
1.0
141
16.0
290
     0
  0
SCALE
  5
4F
102
{ACAD_REACTORS
330
47
102
}
330
47
100
AcDbScale
 70
     0
300
1:20
140
1.0
141
20.0
290
     0
  0
SCALE
  5
50
102
{ACAD_REACTORS
330
47
102
}
330
47
100
AcDbScale
 70
     0
300
1:30
140
1.0
141
30.0
290
     0
  0
SCALE
  5
51
102
{ACAD_REACTORS
330
47
102
}
330
47
100
AcDbScale
 70
     0
300
1:40
140
1.0
141
40.0
290
     0
  0
SCALE
  5
52
102
{ACAD_REACTORS
330
47
102
}
330
47
100
AcDbScale
 70
     0
300
1:50
140
1.0
141
50.0
290
     0
  0
SCALE
  5
53
102
{ACAD_REACTORS
330
47
102
}
330
47
100
AcDbScale
 70
     0
300
1:100
140
1.0
141
100.0
290
     0
  0
SCALE
  5
54
102
{ACAD_REACTORS
330
47
102
}
330
47
100
AcDbScale
 70
     0
300
2:1
140
2.0
141
1.0
290
     0
  0
SCALE
  5
55
102
{ACAD_REACTORS
330
47
102
}
330
47
100
AcDbScale
 70
     0
300
4:1
140
4.0
141
1.0
290
     0
  0
SCALE
  5
56
102
{ACAD_REACTORS
330
47
102
}
330
47
100
AcDbScale
 70
     0
300
8:1
140
8.0
141
1.0
290
     0
  0
SCALE
  5
57
102
{ACAD_REACTORS
330
47
102
}
330
47
100
AcDbScale
 70
     0
300
10:1
140
10.0
141
1.0
290
     0
  0
SCALE
  5
58
102
{ACAD_REACTORS
330
47
102
}
330
47
100
AcDbScale
 70
     0
300
100:1
140
100.0
141
1.0
290
     0
  0
SCALE
  5
59
102
{ACAD_REACTORS
330
47
102
}
330
47
100
AcDbScale
 70
     0
300
1/128" = 1'-0"
140
0.0078125
141
12.0
290
     0
  0
SCALE
  5
5A
102
{ACAD_REACTORS
330
47
102
}
330
47
100
AcDbScale
 70
     0
300
1/64" = 1'-0"
140
0.015625
141
12.0
290
     0
  0
SCALE
  5
5B
102
{ACAD_REACTORS
330
47
102
}
330
47
100
AcDbScale
 70
     0
300
1/32" = 1'-0"
140
0.03125
141
12.0
290
     0
  0
SCALE
  5
5C
102
{ACAD_REACTORS
330
47
102
}
330
47
100
AcDbScale
 70
     0
300
1/16" = 1'-0"
140
0.0625
141
12.0
290
     0
  0
SCALE
  5
5D
102
{ACAD_REACTORS
330
47
102
}
330
47
100
AcDbScale
 70
     0
300
3/32" = 1'-0"
140
0.09375
141
12.0
290
     0
  0
SCALE
  5
5E
102
{ACAD_REACTORS
330
47
102
}
330
47
100
AcDbScale
 70
     0
300
1/8" = 1'-0"
140
0.125
141
12.0
290
     0
  0
SCALE
  5
5F
102
{ACAD_REACTORS
330
47
102
}
330
47
100
AcDbScale
 70
     0
300
3/16" = 1'-0"
140
0.1875
141
12.0
290
     0
  0
SCALE
  5
60
102
{ACAD_REACTORS
330
47
102
}
330
47
100
AcDbScale
 70
     0
300
1/4" = 1'-0"
140
0.25
141
12.0
290
     0
  0
SCALE
  5
61
102
{ACAD_REACTORS
330
47
102
}
330
47
100
AcDbScale
 70
     0
300
3/8" = 1'-0"
140
0.375
141
12.0
290
     0
  0
SCALE
  5
62
102
{ACAD_REACTORS
330
47
102
}
330
47
100
AcDbScale
 70
     0
300
1/2" = 1'-0"
140
0.5
141
12.0
290
     0
  0
SCALE
  5
63
102
{ACAD_REACTORS
330
47
102
}
330
47
100
AcDbScale
 70
     0
300
3/4" = 1'-0"
140
0.75
141
12.0
290
     0
  0
SCALE
  5
64
102
{ACAD_REACTORS
330
47
102
}
330
47
100
AcDbScale
 70
     0
300
1" = 1'-0"
140
1.0
141
12.0
290
     0
  0
SCALE
  5
65
102
{ACAD_REACTORS
330
47
102
}
330
47
100
AcDbScale
 70
     0
300
1-1/2" = 1'-0"
140
1.5
141
12.0
290
     0
  0
SCALE
  5
66
102
{ACAD_REACTORS
330
47
102
}
330
47
100
AcDbScale
 70
     0
300
3" = 1'-0"
140
3.0
141
12.0
290
     0
  0
SCALE
  5
67
102
{ACAD_REACTORS
330
47
102
}
330
47
100
AcDbScale
 70
     0
300
6" = 1'-0"
140
6.0
141
12.0
290
     0
  0
SCALE
  5
68
102
{ACAD_REACTORS
330
47
102
}
330
47
100
AcDbScale
 70
     0
300
1'-0" = 1'-0"
140
12.0
141
12.0
290
     0
  0
ENDSEC
  0
EOF
