  0
SECTION
  2
HEADER
  9
$ACADVER
  1
AC1015
  9
$ACADMAINTVER
 70
     6
  9
$DWGCODEPAGE
  3
ANSI_1250
  9
$INSBASE
 10
0.0
 20
0.0
 30
0.0
  9
$EXTMIN
 10
6177.5091293395
 20
4792.9496787904
 30
0.0
  9
$EXTMAX
 10
6752.5953537331
 20
5248.6994547417
 30
0.0
  9
$LIMMIN
 10
0.0
 20
0.0
  9
$LIMMAX
 10
420.0
 20
297.0
  9
$ORTHOMODE
 70
     0
  9
$REGENMODE
 70
     1
  9
$FILLMODE
 70
     1
  9
$QTEXTMODE
 70
     0
  9
$MIRRTEXT
 70
     1
  9
$LTSCALE
 40
1.0
  9
$ATTMODE
 70
     1
  9
$TEXTSIZE
 40
3.5
  9
$TRACEWID
 40
1.0
  9
$TEXTSTYLE
  7
Standard
  9
$CLAYER
  8
0
  9
$CELTYPE
  6
ByLayer
  9
$CECOLOR
 62
   256
  9
$CELTSCALE
 40
1.0
  9
$DISPSILH
 70
     0
  9
$DIMSCALE
 40
1.0
  9
$DIMASZ
 40
3.302
  9
$DIMEXO
 40
0.0
  9
$DIMDLI
 40
3.75
  9
$DIMRND
 40
0.0
  9
$DIMDLE
 40
0.0
  9
$DIMEXE
 40
1.0
  9
$DIMTP
 40
0.0
  9
$DIMTM
 40
0.0
  9
$DIMTXT
 40
3.5
  9
$DIMCEN
 40
2.5
  9
$DIMTSZ
 40
0.0
  9
$DIMTOL
 70
     0
  9
$DIMLIM
 70
     0
  9
$DIMTIH
 70
     1
  9
$DIMTOH
 70
     1
  9
$DIMSE1
 70
     0
  9
$DIMSE2
 70
     0
  9
$DIMTAD
 70
     1
  9
$DIMZIN
 70
     0
  9
$DIMBLK
  1

  9
$DIMASO
 70
     1
  9
$DIMSHO
 70
     1
  9
$DIMPOST
  1

  9
$DIMAPOST
  1

  9
$DIMALT
 70
     0
  9
$DIMALTD
 70
     3
  9
$DIMALTF
 40
0.0393700787
  9
$DIMLFAC
 40
1.0
  9
$DIMTOFL
 70
     1
  9
$DIMTVP
 40
0.0
  9
$DIMTIX
 70
     0
  9
$DIMSOXD
 70
     0
  9
$DIMSAH
 70
     0
  9
$DIMBLK1
  1

  9
$DIMBLK2
  1

  9
$DIMSTYLE
  2
ISO-25
  9
$DIMCLRD
 70
     0
  9
$DIMCLRE
 70
     0
  9
$DIMCLRT
 70
     0
  9
$DIMTFAC
 40
1.0
  9
$DIMGAP
 40
1.524
  9
$DIMJUST
 70
     0
  9
$DIMSD1
 70
     0
  9
$DIMSD2
 70
     0
  9
$DIMTOLJ
 70
     0
  9
$DIMTZIN
 70
     0
  9
$DIMALTZ
 70
     0
  9
$DIMALTTZ
 70
     0
  9
$DIMUPT
 70
     0
  9
$DIMDEC
 70
     2
  9
$DIMTDEC
 70
     2
  9
$DIMALTU
 70
     2
  9
$DIMALTTD
 70
     3
  9
$DIMTXSTY
  7
Standard
  9
$DIMAUNIT
 70
     0
  9
$DIMADEC
 70
     2
  9
$DIMALTRND
 40
0.0
  9
$DIMAZIN
 70
     0
  9
$DIMDSEP
 70
    44
  9
$DIMATFIT
 70
     3
  9
$DIMFRAC
 70
     0
  9
$DIMLDRBLK
  1

  9
$DIMLUNIT
 70
     2
  9
$DIMLWD
 70
    -2
  9
$DIMLWE
 70
    -2
  9
$DIMTMOVE
 70
     0
  9
$LUNITS
 70
     2
  9
$LUPREC
 70
     2
  9
$SKETCHINC
 40
1.0
  9
$FILLETRAD
 40
10.0
  9
$AUNITS
 70
     0
  9
$AUPREC
 70
     2
  9
$MENU
  1
.
  9
$ELEVATION
 40
0.0
  9
$PELEVATION
 40
0.0
  9
$THICKNESS
 40
0.0
  9
$LIMCHECK
 70
     0
  9
$CHAMFERA
 40
0.0
  9
$CHAMFERB
 40
0.0
  9
$CHAMFERC
 40
0.0
  9
$CHAMFERD
 40
0.0
  9
$SKPOLY
 70
     0
  9
$TDCREATE
 40
2459093.291136759
  9
$TDUCREATE
 40
2459093.207803426
  9
$TDUPDATE
 40
2459093.291320266
  9
$TDUUPDATE
 40
2459093.207986933
  9
$TDINDWG
 40
0.0000000116
  9
$TDUSRTIMER
 40
0.0000000116
  9
$USRTIMER
 70
     1
  9
$ANGBASE
 50
0.0
  9
$ANGDIR
 70
     0
  9
$PDMODE
 70
     0
  9
$PDSIZE
 40
-1.0
  9
$PLINEWID
 40
0.0
  9
$SPLFRAME
 70
     0
  9
$SPLINETYPE
 70
     6
  9
$SPLINESEGS
 70
     8
  9
$HANDSEED
  5
248
  9
$SURFTAB1
 70
     6
  9
$SURFTAB2
 70
     6
  9
$SURFTYPE
 70
     6
  9
$SURFU
 70
     6
  9
$SURFV
 70
     6
  9
$UCSBASE
  2

  9
$UCSNAME
  2

  9
$UCSORG
 10
0.0
 20
0.0
 30
0.0
  9
$UCSXDIR
 10
1.0
 20
0.0
 30
0.0
  9
$UCSYDIR
 10
0.0
 20
1.0
 30
0.0
  9
$UCSORTHOREF
  2

  9
$UCSORTHOVIEW
 70
     0
  9
$UCSORGTOP
 10
0.0
 20
0.0
 30
0.0
  9
$UCSORGBOTTOM
 10
0.0
 20
0.0
 30
0.0
  9
$UCSORGLEFT
 10
0.0
 20
0.0
 30
0.0
  9
$UCSORGRIGHT
 10
0.0
 20
0.0
 30
0.0
  9
$UCSORGFRONT
 10
0.0
 20
0.0
 30
0.0
  9
$UCSORGBACK
 10
0.0
 20
0.0
 30
0.0
  9
$PUCSBASE
  2

  9
$PUCSNAME
  2

  9
$PUCSORG
 10
0.0
 20
0.0
 30
0.0
  9
$PUCSXDIR
 10
1.0
 20
0.0
 30
0.0
  9
$PUCSYDIR
 10
0.0
 20
1.0
 30
0.0
  9
$PUCSORTHOREF
  2

  9
$PUCSORTHOVIEW
 70
     0
  9
$PUCSORGTOP
 10
0.0
 20
0.0
 30
0.0
  9
$PUCSORGBOTTOM
 10
0.0
 20
0.0
 30
0.0
  9
$PUCSORGLEFT
 10
0.0
 20
0.0
 30
0.0
  9
$PUCSORGRIGHT
 10
0.0
 20
0.0
 30
0.0
  9
$PUCSORGFRONT
 10
0.0
 20
0.0
 30
0.0
  9
$PUCSORGBACK
 10
0.0
 20
0.0
 30
0.0
  9
$USERI1
 70
     0
  9
$USERI2
 70
     0
  9
$USERI3
 70
     0
  9
$USERI4
 70
     0
  9
$USERI5
 70
     0
  9
$USERR1
 40
0.0
  9
$USERR2
 40
0.0
  9
$USERR3
 40
0.0
  9
$USERR4
 40
0.0
  9
$USERR5
 40
0.0
  9
$WORLDVIEW
 70
     1
  9
$SHADEDGE
 70
     3
  9
$SHADEDIF
 70
    70
  9
$TILEMODE
 70
     1
  9
$MAXACTVP
 70
    64
  9
$PINSBASE
 10
0.0
 20
0.0
 30
0.0
  9
$PLIMCHECK
 70
     0
  9
$PEXTMIN
 10
1.0000000000E+20
 20
1.0000000000E+20
 30
1.0000000000E+20
  9
$PEXTMAX
 10
-1.0000000000E+20
 20
-1.0000000000E+20
 30
-1.0000000000E+20
  9
$PLIMMIN
 10
0.0
 20
0.0
  9
$PLIMMAX
 10
420.0
 20
297.0
  9
$UNITMODE
 70
     0
  9
$VISRETAIN
 70
     1
  9
$PLINEGEN
 70
     0
  9
$PSLTSCALE
 70
     1
  9
$TREEDEPTH
 70
  3020
  9
$CMLSTYLE
  2
Standard
  9
$CMLJUST
 70
     0
  9
$CMLSCALE
 40
20.0
  9
$PROXYGRAPHICS
 70
     1
  9
$MEASUREMENT
 70
     1
  9
$CELWEIGHT
370
    -1
  9
$ENDCAPS
280
     0
  9
$JOINSTYLE
280
     0
  9
$LWDISPLAY
290
     1
  9
$INSUNITS
 70
     4
  9
$HYPERLINKBASE
  1

  9
$STYLESHEET
  1

  9
$XEDIT
290
     1
  9
$CEPSNTYPE
380
     0
  9
$PSTYLEMODE
290
     1
  9
$FINGERPRINTGUID
  2
{42443a32-eab8-47a4-a532-9dab62f059a9}
  9
$VERSIONGUID
  2
{FAEB1C32-E019-11D5-929B-00C0DF256EC4}
  9
$EXTNAMES
290
     1
  9
$PSVPSCALE
 40
0.0
  9
$OLESTARTUP
290
     0
  0
ENDSEC
  0
SECTION
  2
CLASSES
  0
CLASS
  1
ACDBDICTIONARYWDFLT
  2
AcDbDictionaryWithDefault
  3
ObjectDBX Classes
 90
        0
280
     0
281
     0
  0
CLASS
  1
VISUALSTYLE
  2
AcDbVisualStyle
  3
ObjectDBX Classes
 90
     4095
280
     0
281
     0
  0
CLASS
  1
MATERIAL
  2
AcDbMaterial
  3
ObjectDBX Classes
 90
     1153
280
     0
281
     0
  0
CLASS
  1
SCALE
  2
AcDbScale
  3
ObjectDBX Classes
 90
     1153
280
     0
281
     0
  0
CLASS
  1
TABLESTYLE
  2
AcDbTableStyle
  3
ObjectDBX Classes
 90
     4095
280
     0
281
     0
  0
CLASS
  1
MLEADERSTYLE
  2
AcDbMLeaderStyle
  3
ACDB_MLEADERSTYLE_CLASS
 90
     4095
280
     0
281
     0
  0
CLASS
  1
SUN
  2
AcDbSun
  3
SCENEOE
 90
     1153
280
     0
281
     0
  0
CLASS
  1
ACDBPLACEHOLDER
  2
AcDbPlaceHolder
  3
ObjectDBX Classes
 90
        0
280
     0
281
     0
  0
CLASS
  1
LAYOUT
  2
AcDbLayout
  3
ObjectDBX Classes
 90
        0
280
     0
281
     0
  0
ENDSEC
  0
SECTION
  2
TABLES
  0
TABLE
  2
VPORT
  5
8
330
0
100
AcDbSymbolTable
 70
     1
  0
VPORT
  5
29
330
8
100
AcDbSymbolTableRecord
100
AcDbViewportTableRecord
  2
*Active
 70
     0
 10
0.0
 20
0.0
 11
1.0
 21
1.0
 12
6465.0522415363
 22
5020.8245667661
 13
0.0
 23
0.0
 14
10.0
 24
10.0
 15
10.0
 25
10.0
 16
0.0
 26
0.0
 36
1.0
 17
0.0
 27
0.0
 37
0.0
 40
464.8647714703
 41
1.2618464226
 42
50.0
 43
0.0
 44
0.0
 50
0.0
 51
0.0
 71
     0
 72
   100
 73
     1
 74
     3
 75
     0
 76
     0
 77
     0
 78
     0
281
     0
 65
     1
110
0.0
120
0.0
130
0.0
111
1.0
121
0.0
131
0.0
112
0.0
122
1.0
132
0.0
 79
     0
146
0.0
  0
ENDTAB
  0
TABLE
  2
LTYPE
  5
5
330
0
100
AcDbSymbolTable
 70
     6
  0
LTYPE
  5
14
330
5
100
AcDbSymbolTableRecord
100
AcDbLinetypeTableRecord
  2
ByBlock
 70
     0
  3

 72
    65
 73
     0
 40
0.0
  0
LTYPE
  5
15
330
5
100
AcDbSymbolTableRecord
100
AcDbLinetypeTableRecord
  2
ByLayer
 70
     0
  3

 72
    65
 73
     0
 40
0.0
  0
LTYPE
  5
16
330
5
100
AcDbSymbolTableRecord
100
AcDbLinetypeTableRecord
  2
Continuous
 70
     0
  3
Solid line
 72
    65
 73
     0
 40
0.0
  0
LTYPE
  5
6E
330
5
100
AcDbSymbolTableRecord
100
AcDbLinetypeTableRecord
  2
HIDDEN
 70
     0
  3
Hidden __ __ __ __ __ __ __ __ __ __ __ __ __ __
 72
    65
 73
     2
 40
1.905
 49
1.27
 74
     0
 49
-0.635
 74
     0
  0
LTYPE
  5
6F
330
5
100
AcDbSymbolTableRecord
100
AcDbLinetypeTableRecord
  2
PHANTOM
 70
     0
  3
Phantom ______  __  __  ______  __  __  ______
 72
    65
 73
     6
 40
12.7
 49
6.35
 74
     0
 49
-1.27
 74
     0
 49
1.27
 74
     0
 49
-1.27
 74
     0
 49
1.27
 74
     0
 49
-1.27
 74
     0
  0
LTYPE
  5
70
330
5
100
AcDbSymbolTableRecord
100
AcDbLinetypeTableRecord
  2
CENTER
 70
     0
  3
Center ____ _ ____ _ ____ _ ____ _ ____ _ ____
 72
    65
 73
     4
 40
10.16
 49
6.35
 74
     0
 49
-1.27
 74
     0
 49
1.27
 74
     0
 49
-1.27
 74
     0
  0
LTYPE
  5
71
330
5
100
AcDbSymbolTableRecord
100
AcDbLinetypeTableRecord
  2
CENTERX2
 70
     0
  3
Center (2x) ________  __  ________  __  _____
 72
    65
 73
     4
 40
20.32
 49
12.7
 74
     0
 49
-2.54
 74
     0
 49
2.54
 74
     0
 49
-2.54
 74
     0
  0
LTYPE
  5
72
330
5
100
AcDbSymbolTableRecord
100
AcDbLinetypeTableRecord
  2
DOT2
 70
     0
  3
Dot (.5x) ........................................
 72
    65
 73
     2
 40
0.635
 49
0.0
 74
     0
 49
-0.635
 74
     0
  0
ENDTAB
  0
TABLE
  2
LAYER
  5
2
330
0
100
AcDbSymbolTable
 70
     1
  0
LAYER
  5
10
330
2
100
AcDbSymbolTableRecord
100
AcDbLayerTableRecord
  2
0
 70
     0
 62
     7
  6
Continuous
370
    -3
390
F
  0
ENDTAB
  0
TABLE
  2
STYLE
  5
3
330
0
100
AcDbSymbolTable
 70
     1
  0
STYLE
  5
11
330
3
100
AcDbSymbolTableRecord
100
AcDbTextStyleTableRecord
  2
Standard
 70
     0
 40
0.0
 41
1.0
 50
0.0
 71
     0
 42
3.5
  3
txt
  4

  0
ENDTAB
  0
TABLE
  2
VIEW
  5
6
330
0
100
AcDbSymbolTable
 70
     0
  0
ENDTAB
  0
TABLE
  2
UCS
  5
7
330
0
100
AcDbSymbolTable
 70
     0
  0
ENDTAB
  0
TABLE
  2
APPID
  5
9
330
0
100
AcDbSymbolTable
 70
     1
  0
APPID
  5
12
330
9
100
AcDbSymbolTableRecord
100
AcDbRegAppTableRecord
  2
ACAD
 70
     0
  0
ENDTAB
  0
TABLE
  2
DIMSTYLE
  5
A
330
0
100
AcDbSymbolTable
 70
     1
100
AcDbDimStyleTable
  0
DIMSTYLE
105
27
330
A
100
AcDbSymbolTableRecord
100
AcDbDimStyleTableRecord
  2
ISO-25
 70
     0
 41
2.5
 42
0.625
 43
3.75
 44
1.25
 73
     0
 74
     0
 77
     1
 78
     8
140
2.5
141
2.5
143
0.0393700787
147
0.625
171
     3
172
     1
178
     0
271
     2
272
     2
274
     3
278
    44
283
     0
284
     8
340
11
  0
ENDTAB
  0
TABLE
  2
BLOCK_RECORD
  5
1
330
0
100
AcDbSymbolTable
 70
     1
  0
BLOCK_RECORD
  5
1F
330
1
100
AcDbSymbolTableRecord
100
AcDbBlockTableRecord
  2
*Model_Space
340
22
  0
BLOCK_RECORD
  5
1B
330
1
100
AcDbSymbolTableRecord
100
AcDbBlockTableRecord
  2
*Paper_Space
340
1E
  0
BLOCK_RECORD
  5
23
330
1
100
AcDbSymbolTableRecord
100
AcDbBlockTableRecord
  2
*Paper_Space0
340
26
  0
ENDTAB
  0
ENDSEC
  0
SECTION
  2
BLOCKS
  0
BLOCK
  5
20
330
1F
100
AcDbEntity
  8
0
100
AcDbBlockBegin
  2
*Model_Space
 70
     0
 10
0.0
 20
0.0
 30
0.0
  3
*Model_Space
  1

  0
ENDBLK
  5
21
330
1F
100
AcDbEntity
  8
0
100
AcDbBlockEnd
  0
BLOCK
  5
1C
330
1B
100
AcDbEntity
 67
     1
  8
0
100
AcDbBlockBegin
  2
*Paper_Space
 70
     0
 10
0.0
 20
0.0
 30
0.0
  3
*Paper_Space
  1

  0
ENDBLK
  5
1D
330
1B
100
AcDbEntity
 67
     1
  8
0
100
AcDbBlockEnd
  0
BLOCK
  5
24
330
23
100
AcDbEntity
  8
0
100
AcDbBlockBegin
  2
*Paper_Space0
 70
     0
 10
0.0
 20
0.0
 30
0.0
  3
*Paper_Space0
  1

  0
ENDBLK
  5
25
330
23
100
AcDbEntity
  8
0
100
AcDbBlockEnd
  0
ENDSEC
  0
SECTION
  2
ENTITIES
  0
ARC
  5
73
330
1F
100
AcDbEntity
  8
0
  6
Continuous
 62
     7
100
AcDbCircle
 10
6207.3458893837
 20
5213.0855565419
 30
0.0
 40
6.8952806993932
100
AcDbArc
 50
242.6732266822
 51
253.1228075874
  0
ARC
  5
74
330
1F
100
AcDbEntity
  8
0
  6
Continuous
 62
     7
100
AcDbCircle
 10
6210.9082128763
 20
5226.9337755133
 30
0.0
 40
20.26865045564449
100
AcDbArc
 50
255.3548457906
 51
263.6967907353
  0
ARC
  5
75
330
1F
100
AcDbEntity
  8
0
  6
Continuous
 62
     7
100
AcDbCircle
 10
6212.3692726668
 20
5237.7664833769
 30
0.0
 40
32.15675192681814
100
AcDbArc
 50
263.4173099072
 51
268.5923388725
  0
ARC
  5
76
330
1F
100
AcDbEntity
  8
0
  6
Continuous
 62
     7
100
AcDbCircle
 10
6212.5164671871
 20
5241.1195402017
 30
0.0
 40
34.54676654328969
100
AcDbArc
 50
268.6647248412
 51
274.9639445225
  0
ARC
  5
77
330
1F
100
AcDbEntity
  8
0
  6
Continuous
 62
     7
100
AcDbCircle
 10
6213.5519978626
 20
5229.5183963618
 30
0.0
 40
23.86075067323689
100
AcDbArc
 50
275.306027579
 51
281.6230230747
  0
ARC
  5
78
330
1F
100
AcDbEntity
  8
0
  6
Continuous
 62
     7
100
AcDbCircle
 10
6215.4100622624
 20
5221.2609973881
 30
0.0
 40
14.45225997118587
100
AcDbArc
 50
281.7747584574
 51
286.3806301413
  0
ARC
  5
79
330
1F
100
AcDbEntity
  8
0
  6
Continuous
 62
     7
100
AcDbCircle
 10
6212.5091294885
 20
5232.1721697537
 30
0.0
 40
25.38093057312637
100
AcDbArc
 50
255.7816521425
 51
284.2183478575
  0
ARC
  5
7A
330
1F
100
AcDbEntity
  8
0
  6
Continuous
 62
     7
100
AcDbCircle
 10
6213.4926357403
 20
5229.298473017
 30
0.0
 40
22.5489223888266
100
AcDbArc
 50
275.1220727376
 51
281.8069779204
  0
ARC
  5
7B
330
1F
100
AcDbEntity
  8
0
  6
Continuous
 62
     7
100
AcDbCircle
 10
6212.378229849
 20
5237.0957526464
 30
0.0
 40
30.39099244272958
100
AcDbArc
 50
263.2668602301
 51
268.7427882253
  0
ARC
  5
7C
330
1F
100
AcDbEntity
  8
0
  6
Continuous
 62
     7
100
AcDbCircle
 10
6212.5091294885
 20
5230.376030711
 30
0.0
 40
23.37906350937698
100
AcDbArc
 50
256.0574224066
 51
283.9425775934
  0
ARC
  5
7D
330
1F
100
AcDbEntity
  8
0
  6
Continuous
 62
     7
100
AcDbCircle
 10
6207.4351993114
 20
5212.3081268304
 30
0.0
 40
5.987716596897536
100
AcDbArc
 50
240.7356676248
 51
253.9889511424
  0
ARC
  5
7E
330
1F
100
AcDbEntity
  8
0
  6
Continuous
 62
     7
100
AcDbCircle
 10
6213.4926357411
 20
5228.3325471522
 30
0.0
 40
22.54892238882545
100
AcDbArc
 50
275.1220727355
 51
281.8069779182
  0
ARC
  5
7F
330
1F
100
AcDbEntity
  8
0
  6
Continuous
 62
     7
100
AcDbCircle
 10
6212.3782364699
 20
5236.1297821679
 30
0.0
 40
30.39094845061985
100
AcDbArc
 50
263.2668378694
 51
268.7427739197
  0
CIRCLE
  5
80
330
1F
100
AcDbEntity
  8
0
  6
Continuous
 62
     7
100
AcDbCircle
 10
6212.5091294885
 20
5213.6994545927
 30
0.0
 40
34.00000000000091
  0
CIRCLE
  5
81
330
1F
100
AcDbEntity
  8
0
  6
Continuous
 62
     7
100
AcDbCircle
 10
6212.5091294885
 20
5213.6994545927
 30
0.0
 40
35.0
  0
ARC
  5
82
330
1F
100
AcDbEntity
  8
0
  6
Continuous
 62
     7
100
AcDbCircle
 10
6212.5091294885
 20
5213.6994545927
 30
0.0
 40
13.35000000000094
100
AcDbArc
 50
198.5167924648
 51
341.4832075352
  0
ARC
  5
83
330
1F
100
AcDbEntity
  8
0
  6
Continuous
 62
     7
100
AcDbCircle
 10
6212.5091294885
 20
5213.6994545927
 30
0.0
 40
12.35000020446226
100
AcDbArc
 50
341.2401968194
 51
198.7598031806
  0
ARC
  5
84
330
1F
100
AcDbEntity
  8
0
  6
Continuous
 62
     7
100
AcDbCircle
 10
6212.5091294885
 20
5213.6994545927
 30
0.0
 40
13.35000000000094
100
AcDbArc
 50
341.4832075352
 51
198.5167924648
  0
ARC
  5
85
330
1F
100
AcDbEntity
  8
0
  6
Continuous
 62
     7
100
AcDbCircle
 10
6212.5115515129
 20
5241.7378975586
 30
0.0
 40
35.19730984075132
100
AcDbArc
 50
268.6974127911
 51
274.8800042964
  0
ARC
  5
86
330
1F
100
AcDbEntity
  8
0
  6
Continuous
 62
     7
100
AcDbCircle
 10
6210.9659764301
 20
5227.6395111996
 30
0.0
 40
21.01174702272185
100
AcDbArc
 50
255.7212600974
 51
263.7621378911
  0
ARC
  5
87
330
1F
100
AcDbEntity
  8
0
  6
Continuous
 62
     7
100
AcDbCircle
 10
6212.5113939564
 20
5241.2796967297
 30
0.0
 40
34.70676247707745
100
AcDbArc
 50
268.6792588807
 51
274.949410483
  0
ARC
  5
88
330
1F
100
AcDbEntity
  8
0
  6
Continuous
 62
     7
100
AcDbCircle
 10
6210.7672371967
 20
5226.1712212937
 30
0.0
 40
19.49530989589833
100
AcDbArc
 50
255.1890809144
 51
263.8625556116
  0
ARC
  5
89
330
1F
100
AcDbEntity
  8
0
  6
Continuous
 62
     7
100
AcDbCircle
 10
6595.955933314
 20
5209.779103304
 30
0.0
 40
20.00000000000038
100
AcDbArc
 50
203.3604363581
 51
209.1376717653
  0
ARC
  5
8A
330
1F
100
AcDbEntity
  8
0
  6
Continuous
 62
     7
100
AcDbCircle
 10
6595.9559333141
 20
5217.6198058819
 30
0.0
 40
19.99999999999888
100
AcDbArc
 50
150.8635018963
 51
156.6395636431
  0
ARC
  5
8B
330
1F
100
AcDbEntity
  8
0
  6
Continuous
 62
     7
100
AcDbCircle
 10
6593.5954318599
 20
5187.0540518609
 30
0.0
 40
13.39738803647225
100
AcDbArc
 50
82.9258942181
 51
96.9853571138
  0
ARC
  5
8C
330
1F
100
AcDbEntity
  8
0
  6
Continuous
 62
     7
100
AcDbCircle
 10
6208.5887332307
 20
4949.5890797866
 30
0.0
 40
20.00000000000108
100
AcDbArc
 50
113.3602960284
 51
113.8400492979
  0
ARC
  5
8D
330
1F
100
AcDbEntity
  8
0
  6
Continuous
 62
     7
100
AcDbCircle
 10
6216.4295256023
 20
4949.5890798488
 30
0.0
 40
20.0000000000023
100
AcDbArc
 50
66.1584931509
 51
66.6397035223
  0
ARC
  5
8E
330
1F
100
AcDbEntity
  8
0
  6
Continuous
 62
     7
100
AcDbCircle
 10
6365.8774003188
 20
4953.2992872133
 30
0.0
 40
12.00000000000047
100
AcDbArc
 50
80.0066663572
 51
84.7880278819
  0
ARC
  5
8F
330
1F
100
AcDbEntity
  8
0
  6
Continuous
 62
     7
100
AcDbCircle
 10
6343.6126907357
 20
4953.2992851618
 30
0.0
 40
12.00000000000101
100
AcDbArc
 50
95.2118642902
 51
100.007291766
  0
ARC
  5
90
330
1F
100
AcDbEntity
  8
0
  6
Continuous
 62
     7
100
AcDbCircle
 10
6365.877405958
 20
4974.2000587249
 30
0.0
 40
12.00000000000026
100
AcDbArc
 50
275.2119203233
 51
280.0078331
  0
ARC
  5
91
330
1F
100
AcDbEntity
  8
0
  6
Continuous
 62
     7
100
AcDbCircle
 10
6343.6126967304
 20
4974.2000587249
 30
0.0
 40
12.00000000000026
100
AcDbArc
 50
260.0056080712
 51
264.7880796767
  0
CIRCLE
  5
92
330
1F
100
AcDbEntity
  8
0
  6
Continuous
 62
     7
100
AcDbCircle
 10
6354.7450513442
 20
5213.2409924241
 30
0.0
 40
12.5
  0
CIRCLE
  5
93
330
1F
100
AcDbEntity
  8
0
  6
Continuous
 62
     7
100
AcDbCircle
 10
6354.7450513442
 20
5213.2409924241
 30
0.0
 40
14.00000000000091
  0
ARC
  5
94
330
1F
100
AcDbEntity
  8
0
  6
Continuous
 62
     7
100
AcDbCircle
 10
6352.6621748555
 20
5221.9653311791
 30
0.0
 40
1.617041624349639
100
AcDbArc
 50
0.4979614034
 51
180.4979614033
  0
ARC
  5
95
330
1F
100
AcDbEntity
  8
0
  6
Continuous
 62
     7
100
AcDbCircle
 10
6349.2812726835
 20
5212.6095127172
 30
0.0
 40
2.569012885871458
100
AcDbArc
 50
44.5924418378
 51
105.9920895767
  0
ARC
  5
96
330
1F
100
AcDbEntity
  8
0
  6
Continuous
 62
     7
100
AcDbCircle
 10
6354.9429090006
 20
5209.7131504991
 30
0.0
 40
6.32253267870348
100
AcDbArc
 50
180.4980480152
 51
270.4979812415
  0
ARC
  5
97
330
1F
100
AcDbEntity
  8
0
  6
Continuous
 62
     7
100
AcDbCircle
 10
6357.3254008318
 20
5207.9668622354
 30
0.0
 40
4.555606626765443
100
AcDbArc
 50
270.497983701
 51
0.4980288639
  0
ARC
  5
98
330
1F
100
AcDbEntity
  8
0
  6
Continuous
 62
     7
100
AcDbCircle
 10
6360.4591602358
 20
5215.8311638509
 30
0.0
 40
1.353611246209689
100
AcDbArc
 50
0.498305097
 51
90.498512003
  0
ARC
  5
99
330
1F
100
AcDbEntity
  8
0
  6
Continuous
 62
     7
100
AcDbCircle
 10
6359.9649415569
 20
5215.8268685
 30
0.0
 40
1.35361124621079
100
AcDbArc
 50
90.4980678785
 51
119.2345873794
  0
ARC
  5
9A
330
1F
100
AcDbEntity
  8
0
  6
Continuous
 62
     7
100
AcDbCircle
 10
6357.9735109708
 20
5216.7581761547
 30
0.0
 40
1.353611246208486
100
AcDbArc
 50
10.6384150409
 51
90.4979768153
  0
ARC
  5
9B
330
1F
100
AcDbEntity
  8
0
  6
Continuous
 62
     7
100
AcDbCircle
 10
6357.3942165088
 20
5216.753139589
 30
0.0
 40
1.353611246208232
100
AcDbArc
 50
90.4981072172
 51
125.2420373511
  0
ARC
  5
9C
330
1F
100
AcDbEntity
  8
0
  6
Continuous
 62
     7
100
AcDbCircle
 10
6355.4066046158
 20
5217.2450380795
 30
0.0
 40
1.353611246209205
100
AcDbArc
 50
26.9571871102
 51
90.4980276083
  0
ARC
  5
9D
330
1F
100
AcDbEntity
  8
0
  6
Continuous
 62
     7
100
AcDbCircle
 10
6354.9500062396
 20
5217.2410668815
 30
0.0
 40
1.35361124620998
100
AcDbArc
 50
90.4978394293
 51
118.2185023332
  0
ARC
  5
9E
330
1F
100
AcDbEntity
  8
0
  6
Continuous
 62
     7
100
AcDbCircle
 10
6353.9838612874
 20
5214.3056910159
 30
0.0
 40
0.6676195863068665
100
AcDbArc
 50
180.4979516866
 51
0.4979516867
  0
ARC
  5
9F
330
1F
100
AcDbEntity
  8
0
  6
Continuous
 62
     7
100
AcDbCircle
 10
6354.8659937601
 20
5217.2544999457
 30
0.0
 40
0.2401101162876469
100
AcDbArc
 50
90.4983748275
 51
180.4981411714
  0
ARC
  5
A0
330
1F
100
AcDbEntity
  8
0
  6
Continuous
 62
     7
100
AcDbCircle
 10
6355.4903812051
 20
5217.2599276526
 30
0.0
 40
0.2401101162890914
100
AcDbArc
 50
0.4974936171
 51
90.497244537
  0
ARC
  5
A1
330
1F
100
AcDbEntity
  8
0
  6
Continuous
 62
     7
100
AcDbCircle
 10
6356.4236395855
 20
5214.3268953684
 30
0.0
 40
0.6676195862568381
100
AcDbArc
 50
180.4979516867
 51
0.4979516867
  0
ARC
  5
A2
330
1F
100
AcDbEntity
  8
0
  6
Continuous
 62
     7
100
AcDbCircle
 10
6357.3101977031
 20
5216.7665725983
 30
0.0
 40
0.2401101162881353
100
AcDbArc
 50
90.4983748277
 51
180.4981411718
  0
ARC
  5
A3
330
1F
100
AcDbEntity
  8
0
  6
Continuous
 62
     7
100
AcDbCircle
 10
6358.0572887598
 20
5216.7730657705
 30
0.0
 40
0.2401101162876791
100
AcDbArc
 50
0.4974858952
 51
90.4981334458
  0
ARC
  5
A4
330
1F
100
AcDbEntity
  8
0
  6
Continuous
 62
     7
100
AcDbCircle
 10
6358.9861196329
 20
5214.3491688791
 30
0.0
 40
0.6676177236765763
100
AcDbArc
 50
180.497953076
 51
0.497953076
  0
ARC
  5
A5
330
1F
100
AcDbEntity
  8
0
  6
Continuous
 62
     7
100
AcDbCircle
 10
6359.8806405587
 20
5215.8725289714
 30
0.0
 40
0.240110116287687
100
AcDbArc
 50
90.4974858952
 51
180.498133446
  0
ARC
  5
A6
330
1F
100
AcDbEntity
  8
0
  6
Continuous
 62
     7
100
AcDbCircle
 10
6360.5426486629
 20
5215.8782845917
 30
0.0
 40
0.2401101162884676
100
AcDbArc
 50
0.4988842265
 51
90.4987725317
  0
ARC
  5
A7
330
1F
100
AcDbEntity
  8
0
  6
Continuous
 62
     7
100
AcDbCircle
 10
6357.3254008318
 20
5207.9668622354
 30
0.0
 40
3.525997598554237
100
AcDbArc
 50
270.4979918936
 51
0.4980497181
  0
ARC
  5
A8
330
1F
100
AcDbEntity
  8
0
  6
Continuous
 62
     7
100
AcDbCircle
 10
6354.9429090006
 20
5209.7131504991
 30
0.0
 40
5.292931100809144
100
AcDbArc
 50
180.4980425244
 51
270.4979855198
  0
ARC
  5
A9
330
1F
100
AcDbEntity
  8
0
  6
Continuous
 62
     7
100
AcDbCircle
 10
6349.2812726835
 20
5212.6095127172
 30
0.0
 40
1.539413359987863
100
AcDbArc
 50
0.4980312743
 51
77.6117146998
  0
ARC
  5
AA
330
1F
100
AcDbEntity
  8
0
  6
Continuous
 62
     7
100
AcDbCircle
 10
6351.5052058596
 20
5210.6743488136
 30
0.0
 40
0.667619586307768
100
AcDbArc
 50
180.4979516867
 51
0.4979516867
  0
ARC
  5
AB
330
1F
100
AcDbEntity
  8
0
  6
Continuous
 62
     7
100
AcDbCircle
 10
6352.6621748555
 20
5221.9653311791
 30
0.0
 40
0.5874427247621581
100
AcDbArc
 50
0.4979683393
 51
180.4979683393
  0
LINE
  5
AC
330
1F
100
AcDbEntity
  8
0
  6
Continuous
 62
     7
100
AcDbLine
 10
6210.9134197828
 20
5200.4451641461
 30
0.0
 11
6211.0091294755
 21
5200.3494549191
 31
0.0
  0
LINE
  5
AD
330
1F
100
AcDbEntity
  8
0
  6
Continuous
 62
     7
100
AcDbLine
 10
6214.0091295015
 20
5200.3494549191
 30
0.0
 11
6214.1048391942
 21
5200.4451641461
 31
0.0
  0
LINE
  5
AE
330
1F
100
AcDbEntity
  8
0
  6
Continuous
 62
     7
100
AcDbLine
 10
6214.1591294796
 20
5200.4492573088
 30
0.0
 11
6214.1591294796
 21
5200.4518128579
 31
0.0
  0
LINE
  5
AF
330
1F
100
AcDbEntity
  8
0
  6
Continuous
 62
     7
100
AcDbLine
 10
6214.0091295015
 20
5200.3494549191
 30
0.0
 11
6211.0091294755
 21
5200.3494549191
 31
0.0
  0
LINE
  5
B0
330
1F
100
AcDbEntity
  8
0
  6
Continuous
 62
     7
100
AcDbLine
 10
6208.682918049
 20
5206.7876529528
 30
0.0
 11
6208.682918049
 21
5205.8217266222
 31
0.0
  0
LINE
  5
B1
330
1F
100
AcDbEntity
  8
0
  6
Continuous
 62
     7
100
AcDbLine
 10
6218.359259715
 20
5207.1128507724
 30
0.0
 11
6218.359259715
 21
5206.1469253732
 31
0.0
  0
LINE
  5
B2
330
1F
100
AcDbEntity
  8
0
  6
Continuous
 62
     7
100
AcDbLine
 10
6218.106489455
 20
5207.2266299857
 30
0.0
 11
6218.359259715
 21
5207.1128507724
 31
0.0
  0
LINE
  5
B3
330
1F
100
AcDbEntity
  8
0
  6
Continuous
 62
     7
100
AcDbLine
 10
6208.682918049
 20
5206.7876529528
 30
0.0
 11
6208.8150329083
 21
5206.9143668396
 31
0.0
  0
LINE
  5
B4
330
1F
100
AcDbEntity
  8
0
  6
Continuous
 62
     7
100
AcDbLine
 10
6220.5100919247
 20
5207.0846000334
 30
0.0
 11
6220.4410995484
 21
5207.0452837853
 31
0.0
  0
LINE
  5
B5
330
1F
100
AcDbEntity
  8
0
  6
Continuous
 62
     7
100
AcDbLine
 10
6220.4410995484
 20
5207.1089792645
 30
0.0
 11
6220.4410995484
 21
5207.0452837853
 31
0.0
  0
LINE
  5
B6
330
1F
100
AcDbEntity
  8
0
  6
Continuous
 62
     7
100
AcDbLine
 10
6220.6582280934
 20
5207.0301190598
 30
0.0
 11
6220.4410995484
 21
5207.0452837853
 31
0.0
  0
LINE
  5
B7
330
1F
100
AcDbEntity
  8
0
  6
Continuous
 62
     7
100
AcDbLine
 10
6205.7836510368
 20
5206.5526825955
 30
0.0
 11
6205.3440425672
 21
5206.4872609099
 31
0.0
  0
LINE
  5
B8
330
1F
100
AcDbEntity
  8
0
  6
Continuous
 62
     7
100
AcDbLine
 10
6205.7836510368
 20
5207.4580240643
 30
0.0
 11
6205.7836510368
 21
5206.5526825955
 31
0.0
  0
LINE
  5
B9
330
1F
100
AcDbEntity
  8
0
  6
Continuous
 62
     7
100
AcDbLine
 10
6218.106489455
 20
5207.2266299857
 30
0.0
 11
6218.106489455
 21
5206.2607041208
 31
0.0
  0
LINE
  5
BA
330
1F
100
AcDbEntity
  8
0
  6
Continuous
 62
     7
100
AcDbLine
 10
6215.5057585925
 20
5206.8395942097
 30
0.0
 11
6215.5057585925
 21
5205.8736683449
 31
0.0
  0
LINE
  5
BB
330
1F
100
AcDbEntity
  8
0
  6
Continuous
 62
     7
100
AcDbLine
 10
6218.106489455
 20
5206.2607041208
 30
0.0
 11
6218.359259715
 21
5206.1469253732
 31
0.0
  0
LINE
  5
BC
330
1F
100
AcDbEntity
  8
0
  6
Continuous
 62
     7
100
AcDbLine
 10
6215.5057585925
 20
5205.8736683449
 30
0.0
 11
6215.7585288525
 21
5205.7598895973
 31
0.0
  0
LINE
  5
BD
330
1F
100
AcDbEntity
  8
0
  6
Continuous
 62
     7
100
AcDbLine
 10
6208.682918049
 20
5205.8217266222
 30
0.0
 11
6208.8150329083
 21
5205.9484414404
 31
0.0
  0
LINE
  5
BE
330
1F
100
AcDbEntity
  8
0
  6
Continuous
 62
     7
100
AcDbLine
 10
6211.5793147251
 20
5205.6194359085
 30
0.0
 11
6211.711429468
 21
5205.7461497953
 31
0.0
  0
LINE
  5
BF
330
1F
100
AcDbEntity
  8
0
  6
Continuous
 62
     7
100
AcDbLine
 10
6208.8150329083
 20
5206.9143668396
 30
0.0
 11
6208.8150329083
 21
5205.9484414404
 31
0.0
  0
LINE
  5
C0
330
1F
100
AcDbEntity
  8
0
  6
Continuous
 62
     7
100
AcDbLine
 10
6211.711429468
 20
5206.7120761258
 30
0.0
 11
6211.711429468
 21
5205.7461497953
 31
0.0
  0
LINE
  5
C1
330
1F
100
AcDbEntity
  8
0
  6
Continuous
 62
     7
100
AcDbLine
 10
6200.8152215869
 20
5209.7276762707
 30
0.0
 11
6224.2030373901
 21
5209.7276762707
 31
0.0
  0
LINE
  5
C2
330
1F
100
AcDbEntity
  8
0
  6
Continuous
 62
     7
100
AcDbLine
 10
6225.1680082338
 20
5209.4597271354
 30
0.0
 11
6224.2030373901
 21
5209.7276762707
 31
0.0
  0
LINE
  5
C3
330
1F
100
AcDbEntity
  8
0
  6
Continuous
 62
     7
100
AcDbLine
 10
6200.8152215869
 20
5209.7276762707
 30
0.0
 11
6199.8502507432
 21
5209.4597271354
 31
0.0
  0
LINE
  5
C4
330
1F
100
AcDbEntity
  8
0
  6
Continuous
 62
     7
100
AcDbLine
 10
6212.5091294885
 20
5208.1424097178
 30
0.0
 11
6213.8834638182
 21
5208.1175364202
 31
0.0
  0
LINE
  5
C5
330
1F
100
AcDbEntity
  8
0
  6
Continuous
 62
     7
100
AcDbLine
 10
6213.8834638182
 20
5208.1175364202
 30
0.0
 11
6215.2310484682
 21
5208.0434008149
 31
0.0
  0
LINE
  5
C6
330
1F
100
AcDbEntity
  8
0
  6
Continuous
 62
     7
100
AcDbLine
 10
6215.2310484682
 20
5208.0434008149
 30
0.0
 11
6216.5256536693
 21
5207.9214459864
 31
0.0
  0
LINE
  5
C7
330
1F
100
AcDbEntity
  8
0
  6
Continuous
 62
     7
100
AcDbLine
 10
6216.5256536693
 20
5207.9214459864
 30
0.0
 11
6217.7420820236
 21
5207.7540454103
 31
0.0
  0
LINE
  5
C8
330
1F
100
AcDbEntity
  8
0
  6
Continuous
 62
     7
100
AcDbLine
 10
6217.7420820236
 20
5207.7540454103
 30
0.0
 11
6218.856657216
 21
5207.5444573184
 31
0.0
  0
LINE
  5
C9
330
1F
100
AcDbEntity
  8
0
  6
Continuous
 62
     7
100
AcDbLine
 10
6218.856657216
 20
5207.5444573184
 30
0.0
 11
6219.8476845525
 21
5207.2967609038
 31
0.0
  0
LINE
  5
CA
330
1F
100
AcDbEntity
  8
0
  6
Continuous
 62
     7
100
AcDbLine
 10
6219.8476845525
 20
5207.2967609038
 30
0.0
 11
6220.6958758772
 21
5207.0157780891
 31
0.0
  0
LINE
  5
CB
330
1F
100
AcDbEntity
  8
0
  6
Continuous
 62
     7
100
AcDbLine
 10
6220.6958758772
 20
5207.0157780891
 30
0.0
 11
6221.3847202376
 21
5206.7069771347
 31
0.0
  0
LINE
  5
CC
330
1F
100
AcDbEntity
  8
0
  6
Continuous
 62
     7
100
AcDbLine
 10
6221.3847202376
 20
5206.7069771347
 30
0.0
 11
6221.9008126423
 21
5206.3763687966
 31
0.0
  0
LINE
  5
CD
330
1F
100
AcDbEntity
  8
0
  6
Continuous
 62
     7
100
AcDbLine
 10
6221.9008126423
 20
5206.3763687966
 30
0.0
 11
6222.2341059834
 21
5206.0303880481
 31
0.0
  0
LINE
  5
CE
330
1F
100
AcDbEntity
  8
0
  6
Continuous
 62
     7
100
AcDbLine
 10
6222.2341059834
 20
5206.0303880481
 30
0.0
 11
6222.3781135991
 21
5205.675768817
 31
0.0
  0
LINE
  5
CF
330
1F
100
AcDbEntity
  8
0
  6
Continuous
 62
     7
100
AcDbLine
 10
6222.3781135991
 20
5205.675768817
 30
0.0
 11
6222.3300331399
 21
5205.3194140663
 31
0.0
  0
LINE
  5
D0
330
1F
100
AcDbEntity
  8
0
  6
Continuous
 62
     7
100
AcDbLine
 10
6222.3300331399
 20
5205.3194140663
 30
0.0
 11
6222.0907996536
 21
5204.9682579582
 31
0.0
  0
LINE
  5
D1
330
1F
100
AcDbEntity
  8
0
  6
Continuous
 62
     7
100
AcDbLine
 10
6222.0907996536
 20
5204.9682579582
 30
0.0
 11
6221.665069753
 21
5204.6291382631
 31
0.0
  0
LINE
  5
D2
330
1F
100
AcDbEntity
  8
0
  6
Continuous
 62
     7
100
AcDbLine
 10
6221.665069753
 20
5204.6291382631
 30
0.0
 11
6221.0611303464
 21
5204.3086524701
 31
0.0
  0
LINE
  5
D3
330
1F
100
AcDbEntity
  8
0
  6
Continuous
 62
     7
100
AcDbLine
 10
6221.0611303464
 20
5204.3086524701
 30
0.0
 11
6220.290735656
 21
5204.0130404403
 31
0.0
  0
LINE
  5
D4
330
1F
100
AcDbEntity
  8
0
  6
Continuous
 62
     7
100
AcDbLine
 10
6220.290735656
 20
5204.0130404403
 30
0.0
 11
6219.3688809067
 21
5203.7480558848
 31
0.0
  0
LINE
  5
D5
330
1F
100
AcDbEntity
  8
0
  6
Continuous
 62
     7
100
AcDbLine
 10
6219.3688809067
 20
5203.7480558848
 30
0.0
 11
6218.3135089591
 21
5203.5188555365
 31
0.0
  0
LINE
  5
D6
330
1F
100
AcDbEntity
  8
0
  6
Continuous
 62
     7
100
AcDbLine
 10
6218.3135089591
 20
5203.5188555365
 30
0.0
 11
6217.145161064
 21
5203.3299004307
 31
0.0
  0
LINE
  5
D7
330
1F
100
AcDbEntity
  8
0
  6
Continuous
 62
     7
100
AcDbLine
 10
6217.145161064
 20
5203.3299004307
 30
0.0
 11
6215.8865784887
 21
5203.1848692914
 31
0.0
  0
LINE
  5
D8
330
1F
100
AcDbEntity
  8
0
  6
Continuous
 62
     7
100
AcDbLine
 10
6215.8865784887
 20
5203.1848692914
 30
0.0
 11
6214.5622573454
 21
5203.0865849575
 31
0.0
  0
LINE
  5
D9
330
1F
100
AcDbEntity
  8
0
  6
Continuous
 62
     7
100
AcDbLine
 10
6214.5622573454
 20
5203.0865849575
 30
0.0
 11
6213.1979746638
 21
5203.0369594341
 31
0.0
  0
LINE
  5
DA
330
1F
100
AcDbEntity
  8
0
  6
Continuous
 62
     7
100
AcDbLine
 10
6213.1979746638
 20
5203.0369594341
 30
0.0
 11
6211.8202843132
 21
5203.0369594341
 31
0.0
  0
LINE
  5
DB
330
1F
100
AcDbEntity
  8
0
  6
Continuous
 62
     7
100
AcDbLine
 10
6211.8202843132
 20
5203.0369594341
 30
0.0
 11
6210.4560016316
 21
5203.0865849575
 31
0.0
  0
LINE
  5
DC
330
1F
100
AcDbEntity
  8
0
  6
Continuous
 62
     7
100
AcDbLine
 10
6210.4560016316
 20
5203.0865849575
 30
0.0
 11
6209.1316804882
 21
5203.1848692914
 31
0.0
  0
LINE
  5
DD
330
1F
100
AcDbEntity
  8
0
  6
Continuous
 62
     7
100
AcDbLine
 10
6209.1316804882
 20
5203.1848692914
 30
0.0
 11
6207.873097913
 21
5203.3299004307
 31
0.0
  0
LINE
  5
DE
330
1F
100
AcDbEntity
  8
0
  6
Continuous
 62
     7
100
AcDbLine
 10
6207.873097913
 20
5203.3299004307
 30
0.0
 11
6206.7047500178
 21
5203.5188555365
 31
0.0
  0
LINE
  5
DF
330
1F
100
AcDbEntity
  8
0
  6
Continuous
 62
     7
100
AcDbLine
 10
6206.7047500178
 20
5203.5188555365
 30
0.0
 11
6205.6493780703
 21
5203.7480558848
 31
0.0
  0
LINE
  5
E0
330
1F
100
AcDbEntity
  8
0
  6
Continuous
 62
     7
100
AcDbLine
 10
6205.6493780703
 20
5203.7480558848
 30
0.0
 11
6204.7275233209
 21
5204.0130404403
 31
0.0
  0
LINE
  5
E1
330
1F
100
AcDbEntity
  8
0
  6
Continuous
 62
     7
100
AcDbLine
 10
6204.7275233209
 20
5204.0130404403
 30
0.0
 11
6203.9571286306
 21
5204.3086524701
 31
0.0
  0
LINE
  5
E2
330
1F
100
AcDbEntity
  8
0
  6
Continuous
 62
     7
100
AcDbLine
 10
6203.9571286306
 20
5204.3086524701
 30
0.0
 11
6203.353189224
 21
5204.6291382631
 31
0.0
  0
LINE
  5
E3
330
1F
100
AcDbEntity
  8
0
  6
Continuous
 62
     7
100
AcDbLine
 10
6203.353189224
 20
5204.6291382631
 30
0.0
 11
6202.9274593234
 21
5204.9682579582
 31
0.0
  0
LINE
  5
E4
330
1F
100
AcDbEntity
  8
0
  6
Continuous
 62
     7
100
AcDbLine
 10
6202.9274593234
 20
5204.9682579582
 30
0.0
 11
6202.6882258371
 21
5205.3194140663
 31
0.0
  0
LINE
  5
E5
330
1F
100
AcDbEntity
  8
0
  6
Continuous
 62
     7
100
AcDbLine
 10
6202.6882258371
 20
5205.3194140663
 30
0.0
 11
6202.6401453778
 21
5205.675768817
 31
0.0
  0
LINE
  5
E6
330
1F
100
AcDbEntity
  8
0
  6
Continuous
 62
     7
100
AcDbLine
 10
6202.6401453778
 20
5205.675768817
 30
0.0
 11
6202.7841529936
 21
5206.0303880481
 31
0.0
  0
LINE
  5
E7
330
1F
100
AcDbEntity
  8
0
  6
Continuous
 62
     7
100
AcDbLine
 10
6202.7841529936
 20
5206.0303880481
 30
0.0
 11
6203.1174463347
 21
5206.3763687966
 31
0.0
  0
LINE
  5
E8
330
1F
100
AcDbEntity
  8
0
  6
Continuous
 62
     7
100
AcDbLine
 10
6203.1174463347
 20
5206.3763687966
 30
0.0
 11
6203.6335387394
 21
5206.7069771347
 31
0.0
  0
LINE
  5
E9
330
1F
100
AcDbEntity
  8
0
  6
Continuous
 62
     7
100
AcDbLine
 10
6203.6335387394
 20
5206.7069771347
 30
0.0
 11
6204.3223830998
 21
5207.0157780891
 31
0.0
  0
LINE
  5
EA
330
1F
100
AcDbEntity
  8
0
  6
Continuous
 62
     7
100
AcDbLine
 10
6204.3223830998
 20
5207.0157780891
 30
0.0
 11
6205.1705744244
 21
5207.2967609038
 31
0.0
  0
LINE
  5
EB
330
1F
100
AcDbEntity
  8
0
  6
Continuous
 62
     7
100
AcDbLine
 10
6205.1705744244
 20
5207.2967609038
 30
0.0
 11
6206.161601761
 21
5207.5444573184
 31
0.0
  0
LINE
  5
EC
330
1F
100
AcDbEntity
  8
0
  6
Continuous
 62
     7
100
AcDbLine
 10
6206.161601761
 20
5207.5444573184
 30
0.0
 11
6207.2761769533
 21
5207.7540454103
 31
0.0
  0
LINE
  5
ED
330
1F
100
AcDbEntity
  8
0
  6
Continuous
 62
     7
100
AcDbLine
 10
6207.2761769533
 20
5207.7540454103
 30
0.0
 11
6208.4926053077
 21
5207.9214459864
 31
0.0
  0
LINE
  5
EE
330
1F
100
AcDbEntity
  8
0
  6
Continuous
 62
     7
100
AcDbLine
 10
6208.4926053077
 20
5207.9214459864
 30
0.0
 11
6209.7872105088
 21
5208.0434008149
 31
0.0
  0
LINE
  5
EF
330
1F
100
AcDbEntity
  8
0
  6
Continuous
 62
     7
100
AcDbLine
 10
6209.7872105088
 20
5208.0434008149
 30
0.0
 11
6211.1347951588
 21
5208.1175364202
 31
0.0
  0
LINE
  5
F0
330
1F
100
AcDbEntity
  8
0
  6
Continuous
 62
     7
100
AcDbLine
 10
6211.1347951588
 20
5208.1175364202
 30
0.0
 11
6212.5091294885
 21
5208.1424097178
 31
0.0
  0
LINE
  5
F1
330
1F
100
AcDbEntity
  8
0
  6
Continuous
 62
     7
100
AcDbLine
 10
6221.738501744
 20
5206.4955501465
 30
0.0
 11
6221.8278882221
 21
5206.3349160945
 31
0.0
  0
LINE
  5
F2
330
1F
100
AcDbEntity
  8
0
  6
Continuous
 62
     7
100
AcDbLine
 10
6221.8278882221
 20
5206.3349160945
 30
0.0
 11
6221.8778750986
 21
5205.9809166586
 31
0.0
  0
LINE
  5
F3
330
1F
100
AcDbEntity
  8
0
  6
Continuous
 62
     7
100
AcDbLine
 10
6221.8778750986
 20
5205.9809166586
 30
0.0
 11
6221.7281826899
 21
5205.6288059449
 31
0.0
  0
LINE
  5
F4
330
1F
100
AcDbEntity
  8
0
  6
Continuous
 62
     7
100
AcDbLine
 10
6221.7281826899
 20
5205.6288059449
 30
0.0
 11
6221.3820026383
 21
5205.2860885506
 31
0.0
  0
LINE
  5
F5
330
1F
100
AcDbEntity
  8
0
  6
Continuous
 62
     7
100
AcDbLine
 10
6221.3820026383
 20
5205.2860885506
 30
0.0
 11
6220.84671195
 21
5204.9600688388
 31
0.0
  0
LINE
  5
F6
330
1F
100
AcDbEntity
  8
0
  6
Continuous
 62
     7
100
AcDbLine
 10
6220.84671195
 20
5204.9600688388
 30
0.0
 11
6220.1337207236
 21
5204.6576954072
 31
0.0
  0
LINE
  5
F7
330
1F
100
AcDbEntity
  8
0
  6
Continuous
 62
     7
100
AcDbLine
 10
6220.1337207236
 20
5204.6576954072
 30
0.0
 11
6219.258224418
 21
5204.385413008
 31
0.0
  0
LINE
  5
F8
330
1F
100
AcDbEntity
  8
0
  6
Continuous
 62
     7
100
AcDbLine
 10
6219.258224418
 20
5204.385413008
 30
0.0
 11
6218.2388830126
 21
5204.1490247121
 31
0.0
  0
LINE
  5
F9
330
1F
100
AcDbEntity
  8
0
  6
Continuous
 62
     7
100
AcDbLine
 10
6218.2388830126
 20
5204.1490247121
 30
0.0
 11
6217.0974219345
 21
5203.9535689747
 31
0.0
  0
LINE
  5
FA
330
1F
100
AcDbEntity
  8
0
  6
Continuous
 62
     7
100
AcDbLine
 10
6217.0974219345
 20
5203.9535689747
 30
0.0
 11
6215.8581691921
 21
5203.8032116016
 31
0.0
  0
LINE
  5
FB
330
1F
100
AcDbEntity
  8
0
  6
Continuous
 62
     7
100
AcDbLine
 10
6215.8581691921
 20
5203.8032116016
 30
0.0
 11
6214.5475373265
 21
5203.7011563426
 31
0.0
  0
LINE
  5
FC
330
1F
100
AcDbEntity
  8
0
  6
Continuous
 62
     7
100
AcDbLine
 10
6214.5475373265
 20
5203.7011563426
 30
0.0
 11
6213.1934605433
 21
5203.6495787671
 31
0.0
  0
LINE
  5
FD
330
1F
100
AcDbEntity
  8
0
  6
Continuous
 62
     7
100
AcDbLine
 10
6213.1934605433
 20
5203.6495787671
 30
0.0
 11
6211.8247984337
 21
5203.6495787671
 31
0.0
  0
LINE
  5
FE
330
1F
100
AcDbEntity
  8
0
  6
Continuous
 62
     7
100
AcDbLine
 10
6211.8247984337
 20
5203.6495787671
 30
0.0
 11
6210.4707216505
 21
5203.7011563426
 31
0.0
  0
LINE
  5
FF
330
1F
100
AcDbEntity
  8
0
  6
Continuous
 62
     7
100
AcDbLine
 10
6210.4707216505
 20
5203.7011563426
 30
0.0
 11
6209.1600897849
 21
5203.8032116016
 31
0.0
  0
LINE
  5
100
330
1F
100
AcDbEntity
  8
0
  6
Continuous
 62
     7
100
AcDbLine
 10
6209.1600897849
 20
5203.8032116016
 30
0.0
 11
6207.9208370425
 21
5203.9535689747
 31
0.0
  0
LINE
  5
101
330
1F
100
AcDbEntity
  8
0
  6
Continuous
 62
     7
100
AcDbLine
 10
6207.9208370425
 20
5203.9535689747
 30
0.0
 11
6206.7793759644
 21
5204.1490247121
 31
0.0
  0
LINE
  5
102
330
1F
100
AcDbEntity
  8
0
  6
Continuous
 62
     7
100
AcDbLine
 10
6206.7793759644
 20
5204.1490247121
 30
0.0
 11
6205.7600345589
 21
5204.385413008
 31
0.0
  0
LINE
  5
103
330
1F
100
AcDbEntity
  8
0
  6
Continuous
 62
     7
100
AcDbLine
 10
6205.7600345589
 20
5204.385413008
 30
0.0
 11
6204.8845382534
 21
5204.6576954072
 31
0.0
  0
LINE
  5
104
330
1F
100
AcDbEntity
  8
0
  6
Continuous
 62
     7
100
AcDbLine
 10
6204.8845382534
 20
5204.6576954072
 30
0.0
 11
6204.171547027
 21
5204.9600688388
 31
0.0
  0
LINE
  5
105
330
1F
100
AcDbEntity
  8
0
  6
Continuous
 62
     7
100
AcDbLine
 10
6204.171547027
 20
5204.9600688388
 30
0.0
 11
6203.6362563387
 21
5205.2860885506
 31
0.0
  0
LINE
  5
106
330
1F
100
AcDbEntity
  8
0
  6
Continuous
 62
     7
100
AcDbLine
 10
6203.6362563387
 20
5205.2860885506
 30
0.0
 11
6203.2900762871
 21
5205.6288059449
 31
0.0
  0
LINE
  5
107
330
1F
100
AcDbEntity
  8
0
  6
Continuous
 62
     7
100
AcDbLine
 10
6203.2900762871
 20
5205.6288059449
 30
0.0
 11
6203.1403838784
 21
5205.9809166586
 31
0.0
  0
LINE
  5
108
330
1F
100
AcDbEntity
  8
0
  6
Continuous
 62
     7
100
AcDbLine
 10
6203.1403838784
 20
5205.9809166586
 30
0.0
 11
6203.1903707549
 21
5206.3349160945
 31
0.0
  0
LINE
  5
109
330
1F
100
AcDbEntity
  8
0
  6
Continuous
 62
     7
100
AcDbLine
 10
6203.1903707549
 20
5206.3349160945
 30
0.0
 11
6203.279757233
 21
5206.4955501465
 31
0.0
  0
LINE
  5
10A
330
1F
100
AcDbEntity
  8
0
  6
Continuous
 62
     7
100
AcDbLine
 10
6219.5739907339
 20
5207.3722986152
 30
0.0
 11
6219.258224418
 21
5207.2831906026
 31
0.0
  0
LINE
  5
10B
330
1F
100
AcDbEntity
  8
0
  6
Continuous
 62
     7
100
AcDbLine
 10
6219.258224418
 20
5207.2831906026
 30
0.0
 11
6218.359259715
 21
5207.0712686164
 31
0.0
  0
LINE
  5
10C
330
1F
100
AcDbEntity
  8
0
  6
Continuous
 62
     7
100
AcDbLine
 10
6219.4858471059
 20
5207.3953637501
 30
0.0
 11
6219.1682367713
 21
5207.3056457212
 31
0.0
  0
LINE
  5
10D
330
1F
100
AcDbEntity
  8
0
  6
Continuous
 62
     7
100
AcDbLine
 10
6219.1682367713
 20
5207.3056457212
 30
0.0
 11
6218.359259715
 21
5207.1128507724
 31
0.0
  0
LINE
  5
10E
330
1F
100
AcDbEntity
  8
0
  6
Continuous
 62
     7
100
AcDbLine
 10
6566.5953604983
 20
5224.1494545366
 30
0.0
 11
6565.5953603344
 21
5223.1494543722
 31
0.0
  0
LINE
  5
10F
330
1F
100
AcDbEntity
  8
0
  6
Continuous
 62
     7
100
AcDbLine
 10
6565.5953603344
 20
5204.2494548133
 30
0.0
 11
6566.5953604983
 21
5203.2494546493
 31
0.0
  0
LINE
  5
110
330
1F
100
AcDbEntity
  8
0
  6
Continuous
 62
     7
100
AcDbLine
 10
6566.5953604983
 20
5203.2494546493
 30
0.0
 11
6577.5953604392
 21
5203.2494546493
 31
0.0
  0
LINE
  5
111
330
1F
100
AcDbEntity
  8
0
  6
Continuous
 62
     7
100
AcDbLine
 10
6577.5953604388
 20
5224.1494545366
 30
0.0
 11
6566.5953604983
 21
5224.1494545366
 31
0.0
  0
LINE
  5
112
330
1F
100
AcDbEntity
  8
0
  6
Continuous
 62
     7
100
AcDbLine
 10
6587.0812179126
 20
5199.2409919968
 30
0.0
 11
6587.3812178977
 21
5199.5409924185
 31
0.0
  0
LINE
  5
113
330
1F
100
AcDbEntity
  8
0
  6
Continuous
 62
     7
100
AcDbLine
 10
6587.2727557214
 20
5227.0494542664
 30
0.0
 11
6587.0812179126
 21
5227.240992861
 31
0.0
  0
LINE
  5
114
330
1F
100
AcDbEntity
  8
0
  6
Continuous
 62
     7
100
AcDbLine
 10
6586.5953600512
 20
5199.2409919968
 30
0.0
 11
6587.0812179126
 21
5199.2409919968
 31
0.0
  0
LINE
  5
115
330
1F
100
AcDbEntity
  8
0
  6
Continuous
 62
     7
100
AcDbLine
 10
6587.0812179126
 20
5227.240992861
 30
0.0
 11
6586.5953600512
 21
5227.240992861
 31
0.0
  0
LINE
  5
116
330
1F
100
AcDbEntity
  8
0
  6
Continuous
 62
     7
100
AcDbLine
 10
6587.3812178977
 20
5199.5409924185
 30
0.0
 11
6587.395360031
 21
5199.5409924185
 31
0.0
  0
LINE
  5
117
330
1F
100
AcDbEntity
  8
0
  6
Continuous
 62
     7
100
AcDbLine
 10
6587.395360031
 20
5199.5409924185
 30
0.0
 11
6587.6953600453
 21
5199.8409928402
 31
0.0
  0
LINE
  5
118
330
1F
100
AcDbEntity
  8
0
  6
Continuous
 62
     7
100
AcDbLine
 10
6587.6953600453
 20
5199.8551349735
 30
0.0
 11
6587.981217868
 21
5200.1409923306
 31
0.0
  0
LINE
  5
119
330
1F
100
AcDbEntity
  8
0
  6
Continuous
 62
     7
100
AcDbLine
 10
6587.981217868
 20
5200.1409923306
 30
0.0
 11
6587.9953600013
 21
5200.1409923306
 31
0.0
  0
LINE
  5
11A
330
1F
100
AcDbEntity
  8
0
  6
Continuous
 62
     7
100
AcDbLine
 10
6587.9953600013
 20
5200.1409923306
 30
0.0
 11
6588.2038222406
 21
5200.3494549191
 31
0.0
  0
LINE
  5
11B
330
1F
100
AcDbEntity
  8
0
  6
Continuous
 62
     7
100
AcDbLine
 10
6576.0953601928
 20
5224.4409920296
 30
0.0
 11
6575.803821768
 21
5224.1494545361
 31
0.0
  0
LINE
  5
11C
330
1F
100
AcDbEntity
  8
0
  6
Continuous
 62
     7
100
AcDbLine
 10
6575.5953601108
 20
5202.5409919789
 30
0.0
 11
6575.6000353502
 21
5202.5363167396
 31
0.0
  0
LINE
  5
11D
330
1F
100
AcDbEntity
  8
0
  6
Continuous
 62
     7
100
AcDbLine
 10
6576.2678038807
 20
5224.1494545361
 30
0.0
 11
6576.1033006491
 21
5224.4341961687
 31
0.0
  0
LINE
  5
11E
330
1F
100
AcDbEntity
  8
0
  6
Continuous
 62
     7
100
AcDbLine
 10
6575.6392114343
 20
5202.5426720848
 30
0.0
 11
6575.8226819815
 21
5202.8602288684
 31
0.0
  0
LINE
  5
11F
330
1F
100
AcDbEntity
  8
0
  6
Continuous
 62
     7
100
AcDbLine
 10
6577.2124201538
 20
5224.4341961687
 30
0.0
 11
6577.0479159908
 21
5224.1494545361
 31
0.0
  0
LINE
  5
120
330
1F
100
AcDbEntity
  8
0
  6
Continuous
 62
     7
100
AcDbLine
 10
6577.4930388214
 20
5202.8602288684
 30
0.0
 11
6577.5953604387
 21
5202.6831276363
 31
0.0
  0
LINE
  5
121
330
1F
100
AcDbEntity
  8
0
  6
Continuous
 62
     7
100
AcDbLine
 10
6577.5953604387
 20
5224.4409920296
 30
0.0
 11
6577.2204062448
 21
5224.4409920296
 31
0.0
  0
LINE
  5
122
330
1F
100
AcDbEntity
  8
0
  6
Continuous
 62
     7
100
AcDbLine
 10
6576.4704578103
 20
5202.0409928283
 30
0.0
 11
6576.8454576389
 21
5202.0409928283
 31
0.0
  0
LINE
  5
123
330
1F
100
AcDbEntity
  8
0
  6
Continuous
 62
     7
100
AcDbLine
 10
6569.5953591274
 20
5202.8409924006
 30
0.0
 11
6575.5953601108
 21
5202.8409924006
 31
0.0
  0
LINE
  5
124
330
1F
100
AcDbEntity
  8
0
  6
Continuous
 62
     7
100
AcDbLine
 10
6577.3141103344
 20
5202.8528909778
 30
0.0
 11
6577.4972782017
 21
5202.8528909778
 31
0.0
  0
LINE
  5
125
330
1F
100
AcDbEntity
  8
0
  6
Continuous
 62
     7
100
AcDbLine
 10
6575.8141100885
 20
5202.8528909778
 30
0.0
 11
6575.9972779559
 21
5202.8528909778
 31
0.0
  0
LINE
  5
126
330
1F
100
AcDbEntity
  8
0
  6
Continuous
 62
     7
100
AcDbLine
 10
6583.5953600252
 20
5236.6873139163
 30
0.0
 11
6582.4953600311
 21
5236.6873139163
 31
0.0
  0
LINE
  5
127
330
1F
100
AcDbEntity
  8
0
  6
Continuous
 62
     7
100
AcDbLine
 10
6582.4953600311
 20
5227.6873152351
 30
0.0
 11
6583.5953600252
 21
5227.6873152351
 31
0.0
  0
LINE
  5
128
330
1F
100
AcDbEntity
  8
0
  6
Continuous
 62
     7
100
AcDbLine
 10
6582.4953600311
 20
5236.1873147657
 30
0.0
 11
6571.5953603865
 21
5236.1873147657
 31
0.0
  0
LINE
  5
129
330
1F
100
AcDbEntity
  8
0
  6
Continuous
 62
     7
100
AcDbLine
 10
6571.5953603865
 20
5228.1873143857
 30
0.0
 11
6582.4953600311
 21
5228.1873143857
 31
0.0
  0
LINE
  5
12A
330
1F
100
AcDbEntity
  8
0
  6
Continuous
 62
     7
100
AcDbLine
 10
6583.5953600252
 20
5199.7115939503
 30
0.0
 11
6582.4953600311
 21
5199.7115939503
 31
0.0
  0
LINE
  5
12B
330
1F
100
AcDbEntity
  8
0
  6
Continuous
 62
     7
100
AcDbLine
 10
6582.4953600311
 20
5190.7115952691
 30
0.0
 11
6583.5953600252
 21
5190.7115952691
 31
0.0
  0
LINE
  5
12C
330
1F
100
AcDbEntity
  8
0
  6
Continuous
 62
     7
100
AcDbLine
 10
6582.4953600311
 20
5199.2115947997
 30
0.0
 11
6571.5953603865
 21
5199.2115947997
 31
0.0
  0
LINE
  5
12D
330
1F
100
AcDbEntity
  8
0
  6
Continuous
 62
     7
100
AcDbLine
 10
6571.5953603865
 20
5191.2115944197
 30
0.0
 11
6582.4953600311
 21
5191.2115944197
 31
0.0
  0
LINE
  5
12E
330
1F
100
AcDbEntity
  8
0
  6
Continuous
 62
     7
100
AcDbLine
 10
6585.5953600037
 20
5248.6994547417
 30
0.0
 11
6583.5953600252
 21
5248.6994547417
 31
0.0
  0
LINE
  5
12F
330
1F
100
AcDbEntity
  8
0
  6
Continuous
 62
     7
100
AcDbLine
 10
6583.5953600252
 20
5178.6994544437
 30
0.0
 11
6585.5953600037
 21
5178.6994544437
 31
0.0
  0
LINE
  5
130
330
1F
100
AcDbEntity
  8
0
  6
Continuous
 62
     7
100
AcDbLine
 10
6585.5953600037
 20
5178.6994544437
 30
0.0
 11
6586.5953600512
 21
5179.699452745
 31
0.0
  0
LINE
  5
131
330
1F
100
AcDbEntity
  8
0
  6
Continuous
 62
     7
100
AcDbLine
 10
6586.5953600512
 20
5247.6994564405
 30
0.0
 11
6585.5953600037
 21
5248.6994547417
 31
0.0
  0
LINE
  5
132
330
1F
100
AcDbEntity
  8
0
  6
Continuous
 62
     7
100
AcDbLine
 10
6595.2453602584
 20
5200.3494549191
 30
0.0
 11
6717.5953573094
 21
5200.3494549191
 31
0.0
  0
LINE
  5
133
330
1F
100
AcDbEntity
  8
0
  6
Continuous
 62
     7
100
AcDbLine
 10
6586.5953600512
 20
5200.3494549191
 30
0.0
 11
6591.966099433
 21
5200.3494549191
 31
0.0
  0
LINE
  5
134
330
1F
100
AcDbEntity
  8
0
  6
Continuous
 62
     7
100
AcDbLine
 10
6751.5953666077
 20
5227.0494542664
 30
0.0
 11
6586.5953600512
 21
5227.0494542664
 31
0.0
  0
LINE
  5
135
330
1F
100
AcDbEntity
  8
0
  6
Continuous
 62
     7
100
AcDbLine
 10
6752.5953537331
 20
5226.0494550338
 30
0.0
 11
6751.5953666077
 21
5227.0494542664
 31
0.0
  0
LINE
  5
136
330
1F
100
AcDbEntity
  8
0
  6
Continuous
 62
     7
100
AcDbLine
 10
6578.5953596713
 20
5199.8536597585
 30
0.0
 11
6578.5104668246
 21
5200.0541315993
 31
0.0
  0
LINE
  5
137
330
1F
100
AcDbEntity
  8
0
  6
Continuous
 62
     7
100
AcDbLine
 10
6577.5953604387
 20
5203.5966982713
 30
0.0
 11
6577.5953604387
 21
5225.5500873199
 31
0.0
  0
LINE
  5
138
330
1F
100
AcDbEntity
  8
0
  6
Continuous
 62
     7
100
AcDbLine
 10
6577.5953604387
 20
5201.8488218656
 30
0.0
 11
6577.5953604387
 21
5203.5966982713
 31
0.0
  0
LINE
  5
139
330
1F
100
AcDbEntity
  8
0
  6
Continuous
 62
     7
100
AcDbLine
 10
6578.5953596713
 20
5207.0935882276
 30
0.0
 11
6583.5953600252
 21
5207.0935882276
 31
0.0
  0
LINE
  5
13A
330
1F
100
AcDbEntity
  8
0
  6
Continuous
 62
     7
100
AcDbLine
 10
6578.5953596713
 20
5220.9393825961
 30
0.0
 11
6583.5953600252
 21
5220.9393825961
 31
0.0
  0
LINE
  5
13B
330
1F
100
AcDbEntity
  8
0
  6
Continuous
 62
     7
100
AcDbLine
 10
6578.5953596713
 20
5199.8536597585
 30
0.0
 11
6583.5953600252
 21
5199.8536597585
 31
0.0
  0
LINE
  5
13C
330
1F
100
AcDbEntity
  8
0
  6
Continuous
 62
     7
100
AcDbLine
 10
6578.5953596713
 20
5227.5452494269
 30
0.0
 11
6583.5953600252
 21
5227.5452494269
 31
0.0
  0
LINE
  5
13D
330
1F
100
AcDbEntity
  8
0
  6
Continuous
 62
     7
100
AcDbLine
 10
6592.4839324796
 20
5200.3494549191
 30
0.0
 11
6592.0953600214
 21
5200.3494549191
 31
0.0
  0
LINE
  5
13E
330
1F
100
AcDbEntity
  8
0
  6
Continuous
 62
     7
100
AcDbLine
 10
6595.0953605132
 20
5200.3494549191
 30
0.0
 11
6592.4839324796
 21
5200.3494549191
 31
0.0
  0
LINE
  5
13F
330
1F
100
AcDbEntity
  8
0
  6
Continuous
 62
     7
100
AcDbLine
 10
6565.5953603344
 20
5210.7911442054
 30
0.0
 11
6565.5953603344
 21
5223.1494543722
 31
0.0
  0
LINE
  5
140
330
1F
100
AcDbEntity
  8
0
  6
Continuous
 62
     7
100
AcDbLine
 10
6565.5953603344
 20
5204.2494548133
 30
0.0
 11
6565.5953603344
 21
5210.7911442054
 31
0.0
  0
LINE
  5
141
330
1F
100
AcDbEntity
  8
0
  6
Continuous
 62
     7
100
AcDbLine
 10
6566.5953604983
 20
5210.4833865657
 30
0.0
 11
6566.5953604983
 21
5203.2494546493
 31
0.0
  0
LINE
  5
142
330
1F
100
AcDbEntity
  8
0
  6
Continuous
 62
     7
100
AcDbLine
 10
6566.5953604983
 20
5224.1494545366
 30
0.0
 11
6566.5953604983
 21
5210.4833865657
 31
0.0
  0
LINE
  5
143
330
1F
100
AcDbEntity
  8
0
  6
Continuous
 62
     7
100
AcDbLine
 10
6583.2953600691
 20
5227.6873152351
 30
0.0
 11
6583.2953600691
 21
5227.5452494269
 31
0.0
  0
LINE
  5
144
330
1F
100
AcDbEntity
  8
0
  6
Continuous
 62
     7
100
AcDbLine
 10
6583.2953600691
 20
5199.8536597585
 30
0.0
 11
6583.2953600691
 21
5199.7115939503
 31
0.0
  0
LINE
  5
145
330
1F
100
AcDbEntity
  8
0
  6
Continuous
 62
     7
100
AcDbLine
 10
6583.063943406
 20
5199.7115939503
 30
0.0
 11
6583.0842443754
 21
5199.8536597585
 31
0.0
  0
LINE
  5
146
330
1F
100
AcDbEntity
  8
0
  6
Continuous
 62
     7
100
AcDbLine
 10
6582.9329109763
 20
5199.7444091013
 30
0.0
 11
6582.9329109763
 21
5199.7115939503
 31
0.0
  0
LINE
  5
147
330
1F
100
AcDbEntity
  8
0
  6
Continuous
 62
     7
100
AcDbLine
 10
6582.9448135117
 20
5199.8536597585
 30
0.0
 11
6582.9329109763
 21
5199.7444091013
 31
0.0
  0
LINE
  5
148
330
1F
100
AcDbEntity
  8
0
  6
Continuous
 62
     7
100
AcDbLine
 10
6580.6578093687
 20
5199.7444091013
 30
0.0
 11
6580.6458525838
 21
5199.8536597585
 31
0.0
  0
LINE
  5
149
330
1F
100
AcDbEntity
  8
0
  6
Continuous
 62
     7
100
AcDbLine
 10
6580.6578093687
 20
5199.290368857
 30
0.0
 11
6580.6578093687
 21
5199.7444091013
 31
0.0
  0
LINE
  5
14A
330
1F
100
AcDbEntity
  8
0
  6
Continuous
 62
     7
100
AcDbLine
 10
6580.4891389342
 20
5199.8536597585
 30
0.0
 11
6580.6578093687
 21
5199.290368857
 31
0.0
  0
LINE
  5
14B
330
1F
100
AcDbEntity
  8
0
  6
Continuous
 62
     7
100
AcDbLine
 10
6582.9329109763
 20
5199.7444091013
 30
0.0
 11
6580.6578093687
 21
5199.7444091013
 31
0.0
  0
LINE
  5
14C
330
1F
100
AcDbEntity
  8
0
  6
Continuous
 62
     7
100
AcDbLine
 10
6580.6578093687
 20
5199.290368857
 30
0.0
 11
6582.4953600311
 21
5199.290368857
 31
0.0
  0
LINE
  5
14D
330
1F
100
AcDbEntity
  8
0
  6
Continuous
 62
     7
100
AcDbLine
 10
6587.3812178977
 20
5199.5409924185
 30
0.0
 11
6587.3812178977
 21
5200.3494549191
 31
0.0
  0
LINE
  5
14E
330
1F
100
AcDbEntity
  8
0
  6
Continuous
 62
     7
100
AcDbLine
 10
6587.0812179126
 20
5199.2409919968
 30
0.0
 11
6587.0812179126
 21
5200.3494549191
 31
0.0
  0
LINE
  5
14F
330
1F
100
AcDbEntity
  8
0
  6
Continuous
 62
     7
100
AcDbLine
 10
6587.0812179126
 20
5227.0494542664
 30
0.0
 11
6587.0812179126
 21
5227.240992861
 31
0.0
  0
LINE
  5
150
330
1F
100
AcDbEntity
  8
0
  6
Continuous
 62
     7
100
AcDbLine
 10
6587.395360031
 20
5200.3494549191
 30
0.0
 11
6587.395360031
 21
5199.5409924185
 31
0.0
  0
LINE
  5
151
330
1F
100
AcDbEntity
  8
0
  6
Continuous
 62
     7
100
AcDbLine
 10
6587.6953600453
 20
5200.3494549191
 30
0.0
 11
6587.6953600453
 21
5199.8409928402
 31
0.0
  0
LINE
  5
152
330
1F
100
AcDbEntity
  8
0
  6
Continuous
 62
     7
100
AcDbLine
 10
6587.981217868
 20
5200.1409923306
 30
0.0
 11
6587.981217868
 21
5200.3494549191
 31
0.0
  0
LINE
  5
153
330
1F
100
AcDbEntity
  8
0
  6
Continuous
 62
     7
100
AcDbLine
 10
6587.9953600013
 20
5200.3494549191
 30
0.0
 11
6587.9953600013
 21
5200.1409923306
 31
0.0
  0
LINE
  5
154
330
1F
100
AcDbEntity
  8
0
  6
Continuous
 62
     7
100
AcDbLine
 10
6576.0953601928
 20
5224.4409920296
 30
0.0
 11
6576.0953601928
 21
5224.1494545361
 31
0.0
  0
LINE
  5
155
330
1F
100
AcDbEntity
  8
0
  6
Continuous
 62
     7
100
AcDbLine
 10
6576.4704578103
 20
5202.061906608
 30
0.0
 11
6576.4645867528
 21
5202.0445989093
 31
0.0
  0
LINE
  5
156
330
1F
100
AcDbEntity
  8
0
  6
Continuous
 62
     7
100
AcDbLine
 10
6577.4930891128
 20
5202.8749344518
 30
0.0
 11
6577.4380526052
 21
5203.2494546493
 31
0.0
  0
LINE
  5
157
330
1F
100
AcDbEntity
  8
0
  6
Continuous
 62
     7
100
AcDbLine
 10
6575.9930888669
 20
5202.8749344518
 30
0.0
 11
6575.9380523594
 21
5203.2494546493
 31
0.0
  0
LINE
  5
158
330
1F
100
AcDbEntity
  8
0
  6
Continuous
 62
     7
100
AcDbLine
 10
6569.5953591274
 20
5202.8409924006
 30
0.0
 11
6569.5953591274
 21
5203.2494546493
 31
0.0
  0
LINE
  5
159
330
1F
100
AcDbEntity
  8
0
  6
Continuous
 62
     7
100
AcDbLine
 10
6582.4953600311
 20
5236.6873139163
 30
0.0
 11
6582.4953600311
 21
5227.6873152351
 31
0.0
  0
LINE
  5
15A
330
1F
100
AcDbEntity
  8
0
  6
Continuous
 62
     7
100
AcDbLine
 10
6571.5953603865
 20
5236.1873147657
 30
0.0
 11
6571.5953603865
 21
5228.1873143857
 31
0.0
  0
LINE
  5
15B
330
1F
100
AcDbEntity
  8
0
  6
Continuous
 62
     7
100
AcDbLine
 10
6582.4953600311
 20
5199.7115939503
 30
0.0
 11
6582.4953600311
 21
5190.7115952691
 31
0.0
  0
LINE
  5
15C
330
1F
100
AcDbEntity
  8
0
  6
Continuous
 62
     7
100
AcDbLine
 10
6571.5953603865
 20
5199.2115947997
 30
0.0
 11
6571.5953603865
 21
5191.2115944197
 31
0.0
  0
LINE
  5
15D
330
1F
100
AcDbEntity
  8
0
  6
Continuous
 62
     7
100
AcDbLine
 10
6583.5953600252
 20
5248.6994547417
 30
0.0
 11
6583.5953600252
 21
5178.6994544437
 31
0.0
  0
LINE
  5
15E
330
1F
100
AcDbEntity
  8
0
  6
Continuous
 62
     7
100
AcDbLine
 10
6585.5953600037
 20
5178.6994544437
 30
0.0
 11
6585.5953600037
 21
5248.6994547417
 31
0.0
  0
LINE
  5
15F
330
1F
100
AcDbEntity
  8
0
  6
Continuous
 62
     7
100
AcDbLine
 10
6586.5953600512
 20
5247.6994564405
 30
0.0
 11
6586.5953600512
 21
5179.699452745
 31
0.0
  0
LINE
  5
160
330
1F
100
AcDbEntity
  8
0
  6
Continuous
 62
     7
100
AcDbLine
 10
6751.5953666077
 20
5209.4597273154
 30
0.0
 11
6751.5953666077
 21
5227.0494542664
 31
0.0
  0
LINE
  5
161
330
1F
100
AcDbEntity
  8
0
  6
Continuous
 62
     7
100
AcDbLine
 10
6717.5953573094
 20
5200.3494549191
 30
0.0
 11
6717.6922744618
 21
5200.3754211238
 31
0.0
  0
LINE
  5
162
330
1F
100
AcDbEntity
  8
0
  6
Continuous
 62
     7
100
AcDbLine
 10
6717.6922744618
 20
5200.3754211238
 30
0.0
 11
6717.9826086865
 21
5200.453219155
 31
0.0
  0
LINE
  5
163
330
1F
100
AcDbEntity
  8
0
  6
Continuous
 62
     7
100
AcDbLine
 10
6717.9826086865
 20
5200.453219155
 30
0.0
 11
6718.4652721988
 21
5200.5825472644
 31
0.0
  0
LINE
  5
164
330
1F
100
AcDbEntity
  8
0
  6
Continuous
 62
     7
100
AcDbLine
 10
6718.4652721988
 20
5200.5825472644
 30
0.0
 11
6719.1383576499
 21
5200.7629016062
 31
0.0
  0
LINE
  5
165
330
1F
100
AcDbEntity
  8
0
  6
Continuous
 62
     7
100
AcDbLine
 10
6719.1383576499
 20
5200.7629016062
 30
0.0
 11
6719.9992722379
 21
5200.9935799634
 31
0.0
  0
LINE
  5
166
330
1F
100
AcDbEntity
  8
0
  6
Continuous
 62
     7
100
AcDbLine
 10
6719.9992722379
 20
5200.9935799634
 30
0.0
 11
6721.0446333991
 21
5201.2736854723
 31
0.0
  0
LINE
  5
167
330
1F
100
AcDbEntity
  8
0
  6
Continuous
 62
     7
100
AcDbLine
 10
6721.0446333991
 20
5201.2736854723
 30
0.0
 11
6722.2704029189
 21
5201.6021294167
 31
0.0
  0
LINE
  5
168
330
1F
100
AcDbEntity
  8
0
  6
Continuous
 62
     7
100
AcDbLine
 10
6722.2704029189
 20
5201.6021294167
 30
0.0
 11
6723.6717975245
 21
5201.9776330909
 31
0.0
  0
LINE
  5
169
330
1F
100
AcDbEntity
  8
0
  6
Continuous
 62
     7
100
AcDbLine
 10
6723.6717975245
 20
5201.9776330909
 30
0.0
 11
6725.2433782922
 21
5202.3987352496
 31
0.0
  0
LINE
  5
16A
330
1F
100
AcDbEntity
  8
0
  6
Continuous
 62
     7
100
AcDbLine
 10
6725.2433782922
 20
5202.3987352496
 30
0.0
 11
6726.9790208445
 21
5202.8637986278
 31
0.0
  0
LINE
  5
16B
330
1F
100
AcDbEntity
  8
0
  6
Continuous
 62
     7
100
AcDbLine
 10
6726.9790208445
 20
5202.8637986278
 30
0.0
 11
6728.8719749556
 21
5203.3710145971
 31
0.0
  0
LINE
  5
16C
330
1F
100
AcDbEntity
  8
0
  6
Continuous
 62
     7
100
AcDbLine
 10
6728.8719749556
 20
5203.3710145971
 30
0.0
 11
6730.9148794518
 21
5203.9184087535
 31
0.0
  0
LINE
  5
16D
330
1F
100
AcDbEntity
  8
0
  6
Continuous
 62
     7
100
AcDbLine
 10
6730.9148794518
 20
5203.9184087535
 30
0.0
 11
6733.0997920142
 21
5204.5038530251
 31
0.0
  0
LINE
  5
16E
330
1F
100
AcDbEntity
  8
0
  6
Continuous
 62
     7
100
AcDbLine
 10
6733.0997920142
 20
5204.5038530251
 30
0.0
 11
6735.4181891785
 21
5205.1250684654
 31
0.0
  0
LINE
  5
16F
330
1F
100
AcDbEntity
  8
0
  6
Continuous
 62
     7
100
AcDbLine
 10
6735.4181891785
 20
5205.1250684654
 30
0.0
 11
6737.8610855447
 21
5205.7796392238
 31
0.0
  0
LINE
  5
170
330
1F
100
AcDbEntity
  8
0
  6
Continuous
 62
     7
100
AcDbLine
 10
6737.8610855447
 20
5205.7796392238
 30
0.0
 11
6740.4189592706
 21
5206.4650190642
 31
0.0
  0
LINE
  5
171
330
1F
100
AcDbEntity
  8
0
  6
Continuous
 62
     7
100
AcDbLine
 10
6740.4189592706
 20
5206.4650190642
 30
0.0
 11
6743.0818563805
 21
5207.1785416102
 31
0.0
  0
LINE
  5
172
330
1F
100
AcDbEntity
  8
0
  6
Continuous
 62
     7
100
AcDbLine
 10
6743.0818563805
 20
5207.1785416102
 30
0.0
 11
6745.8394354688
 21
5207.9174315205
 31
0.0
  0
LINE
  5
173
330
1F
100
AcDbEntity
  8
0
  6
Continuous
 62
     7
100
AcDbLine
 10
6745.8394354688
 20
5207.9174315205
 30
0.0
 11
6748.680952798
 21
5208.6788138023
 31
0.0
  0
LINE
  5
174
330
1F
100
AcDbEntity
  8
0
  6
Continuous
 62
     7
100
AcDbLine
 10
6748.680952798
 20
5208.6788138023
 30
0.0
 11
6751.5953666077
 21
5209.4597273154
 31
0.0
  0
LINE
  5
175
330
1F
100
AcDbEntity
  8
0
  6
Continuous
 62
     7
100
AcDbLine
 10
6752.5953537331
 20
5226.0494550338
 30
0.0
 11
6752.5953537331
 21
5209.7276762707
 31
0.0
  0
LINE
  5
176
330
1F
100
AcDbEntity
  8
0
  6
Continuous
 62
     7
100
AcDbLine
 10
6752.5953537331
 20
5209.7276762707
 30
0.0
 11
6751.5953666077
 21
5209.4597273154
 31
0.0
  0
LINE
  5
177
330
1F
100
AcDbEntity
  8
0
  6
Continuous
 62
     7
100
AcDbLine
 10
6222.9591294319
 20
4978.9496720252
 30
0.0
 11
6221.959129268
 21
4979.9496721891
 31
0.0
  0
LINE
  5
178
330
1F
100
AcDbEntity
  8
0
  6
Continuous
 62
     7
100
AcDbLine
 10
6203.059129709
 20
4979.9496721891
 30
0.0
 11
6202.0591295451
 21
4978.9496720252
 31
0.0
  0
LINE
  5
179
330
1F
100
AcDbEntity
  8
0
  6
Continuous
 62
     7
100
AcDbLine
 10
6202.0591295451
 20
4978.9496720252
 30
0.0
 11
6202.0591295451
 21
4967.9496720848
 31
0.0
  0
LINE
  5
17A
330
1F
100
AcDbEntity
  8
0
  6
Continuous
 62
     7
100
AcDbLine
 10
6222.9591294319
 20
4967.9496720848
 30
0.0
 11
6222.9591294319
 21
4978.9496720252
 31
0.0
  0
LINE
  5
17B
330
1F
100
AcDbEntity
  8
0
  6
Continuous
 62
     7
100
AcDbLine
 10
6339.7450487256
 20
4961.4496724164
 30
0.0
 11
6339.7450487256
 21
4959.9496725198
 31
0.0
  0
LINE
  5
17C
330
1F
100
AcDbEntity
  8
0
  6
Continuous
 62
     7
100
AcDbLine
 10
6369.7450499177
 20
4959.9496725198
 30
0.0
 11
6369.7450499177
 21
4961.4496724164
 31
0.0
  0
LINE
  5
17D
330
1F
100
AcDbEntity
  8
0
  6
Continuous
 62
     7
100
AcDbLine
 10
6339.7450487256
 20
4962.2496724544
 30
0.0
 11
6339.7450487256
 21
4961.4496724164
 31
0.0
  0
LINE
  5
17E
330
1F
100
AcDbEntity
  8
0
  6
Continuous
 62
     7
100
AcDbLine
 10
6369.7450499177
 20
4961.4496724164
 30
0.0
 11
6369.7450499177
 21
4962.2496724544
 31
0.0
  0
LINE
  5
17F
330
1F
100
AcDbEntity
  8
0
  6
Continuous
 62
     7
100
AcDbLine
 10
6340.7450507522
 20
4958.9496724723
 30
0.0
 11
6340.7450507522
 21
4958.4638146109
 31
0.0
  0
LINE
  5
180
330
1F
100
AcDbEntity
  8
0
  6
Continuous
 62
     7
100
AcDbLine
 10
6368.7450478912
 20
4958.4638146109
 30
0.0
 11
6368.7450478912
 21
4958.9496724723
 31
0.0
  0
LINE
  5
181
330
1F
100
AcDbEntity
  8
0
  6
Continuous
 62
     7
100
AcDbLine
 10
6340.7450507522
 20
4958.4638146109
 30
0.0
 11
6341.0450558305
 21
4958.1638146258
 31
0.0
  0
LINE
  5
182
330
1F
100
AcDbEntity
  8
0
  6
Continuous
 62
     7
100
AcDbLine
 10
6368.445057714
 20
4958.1638146258
 30
0.0
 11
6368.7450478912
 21
4958.4638146109
 31
0.0
  0
LINE
  5
183
330
1F
100
AcDbEntity
  8
0
  6
Continuous
 62
     7
100
AcDbLine
 10
6341.0450558305
 20
4958.1496724925
 30
0.0
 11
6341.3450460077
 21
4957.8496724782
 31
0.0
  0
LINE
  5
184
330
1F
100
AcDbEntity
  8
0
  6
Continuous
 62
     7
100
AcDbLine
 10
6368.1450526357
 20
4957.8496724782
 30
0.0
 11
6368.445057714
 21
4958.1496724925
 31
0.0
  0
LINE
  5
185
330
1F
100
AcDbEntity
  8
0
  6
Continuous
 62
     7
100
AcDbLine
 10
6368.445057714
 20
4958.1496724925
 30
0.0
 11
6368.445057714
 21
4958.1638146258
 31
0.0
  0
LINE
  5
186
330
1F
100
AcDbEntity
  8
0
  6
Continuous
 62
     7
100
AcDbLine
 10
6341.0450558305
 20
4958.1638146258
 30
0.0
 11
6341.0450558305
 21
4958.1496724925
 31
0.0
  0
LINE
  5
187
330
1F
100
AcDbEntity
  8
0
  6
Continuous
 62
     7
100
AcDbLine
 10
6341.3591872096
 20
4957.8496724782
 30
0.0
 11
6341.645051086
 21
4957.5638146555
 31
0.0
  0
LINE
  5
188
330
1F
100
AcDbEntity
  8
0
  6
Continuous
 62
     7
100
AcDbLine
 10
6367.8450475574
 20
4957.5638146555
 30
0.0
 11
6368.1309114337
 21
4957.8496724782
 31
0.0
  0
LINE
  5
189
330
1F
100
AcDbEntity
  8
0
  6
Continuous
 62
     7
100
AcDbLine
 10
6367.8450475574
 20
4957.5496725222
 30
0.0
 11
6367.8450475574
 21
4957.5638146555
 31
0.0
  0
LINE
  5
18A
330
1F
100
AcDbEntity
  8
0
  6
Continuous
 62
     7
100
AcDbLine
 10
6341.645051086
 20
4957.5638146555
 30
0.0
 11
6341.645051086
 21
4957.5496725222
 31
0.0
  0
LINE
  5
18B
330
1F
100
AcDbEntity
  8
0
  6
Continuous
 62
     7
100
AcDbLine
 10
6341.645051086
 20
4957.5496725222
 30
0.0
 11
6341.9450561643
 21
4957.2496724497
 31
0.0
  0
LINE
  5
18C
330
1F
100
AcDbEntity
  8
0
  6
Continuous
 62
     7
100
AcDbLine
 10
6367.5450573802
 20
4957.2496724497
 30
0.0
 11
6367.8450475574
 21
4957.5496725222
 31
0.0
  0
LINE
  5
18D
330
1F
100
AcDbEntity
  8
0
  6
Continuous
 62
     7
100
AcDbLine
 10
6341.9591973663
 20
4957.2496724497
 30
0.0
 11
6342.2450463414
 21
4956.9638145106
 31
0.0
  0
LINE
  5
18E
330
1F
100
AcDbEntity
  8
0
  6
Continuous
 62
     7
100
AcDbLine
 10
6367.2450523019
 20
4956.9638145106
 30
0.0
 11
6367.5309161783
 21
4957.2496724497
 31
0.0
  0
LINE
  5
18F
330
1F
100
AcDbEntity
  8
0
  6
Continuous
 62
     7
100
AcDbLine
 10
6367.2450523019
 20
4956.9496723773
 30
0.0
 11
6367.2450523019
 21
4956.9638145106
 31
0.0
  0
LINE
  5
190
330
1F
100
AcDbEntity
  8
0
  6
Continuous
 62
     7
100
AcDbLine
 10
6342.2450463414
 20
4956.9638145106
 30
0.0
 11
6342.2450463414
 21
4956.9496723773
 31
0.0
  0
LINE
  5
191
330
1F
100
AcDbEntity
  8
0
  6
Continuous
 62
     7
100
AcDbLine
 10
6365.6937520147
 20
4969.7009757576
 30
0.0
 11
6365.4450516343
 21
4969.9496724127
 31
0.0
  0
LINE
  5
192
330
1F
100
AcDbEntity
  8
0
  6
Continuous
 62
     7
100
AcDbLine
 10
6365.822185123
 20
4965.2496724805
 30
0.0
 11
6365.9382502675
 21
4965.3167323624
 31
0.0
  0
LINE
  5
193
330
1F
100
AcDbEntity
  8
0
  6
Continuous
 62
     7
100
AcDbLine
 10
6344.4224785209
 20
4965.4443943357
 30
0.0
 11
6344.0869341731
 21
4965.2496724805
 31
0.0
  0
LINE
  5
194
330
1F
100
AcDbEntity
  8
0
  6
Continuous
 62
     7
100
AcDbLine
 10
6365.945045197
 20
4968.3245936824
 30
0.0
 11
6365.945045197
 21
4968.6995944423
 31
0.0
  0
LINE
  5
195
330
1F
100
AcDbEntity
  8
0
  6
Continuous
 62
     7
100
AcDbLine
 10
6365.945045197
 20
4966.8245943678
 30
0.0
 11
6365.945045197
 21
4967.1995941965
 31
0.0
  0
LINE
  5
196
330
1F
100
AcDbEntity
  8
0
  6
Continuous
 62
     7
100
AcDbLine
 10
6365.945045197
 20
4965.324594122
 30
0.0
 11
6365.945045197
 21
4965.6995939506
 31
0.0
  0
LINE
  5
197
330
1F
100
AcDbEntity
  8
0
  6
Continuous
 62
     7
100
AcDbLine
 10
6365.945045197
 20
4958.9496724723
 30
0.0
 11
6365.945045197
 21
4959.6995940731
 31
0.0
  0
LINE
  5
198
330
1F
100
AcDbEntity
  8
0
  6
Continuous
 62
     7
100
AcDbLine
 10
6343.5450534463
 20
4966.4496723046
 30
0.0
 11
6343.5450534463
 21
4966.074672476
 31
0.0
  0
LINE
  5
199
330
1F
100
AcDbEntity
  8
0
  6
Continuous
 62
     7
100
AcDbLine
 10
6343.5450534463
 20
4967.9496720848
 30
0.0
 11
6343.5450534463
 21
4967.5746722562
 31
0.0
  0
LINE
  5
19A
330
1F
100
AcDbEntity
  8
0
  6
Continuous
 62
     7
100
AcDbLine
 10
6343.5450534463
 20
4969.4496723307
 30
0.0
 11
6343.5450534463
 21
4969.0746725021
 31
0.0
  0
LINE
  5
19B
330
1F
100
AcDbEntity
  8
0
  6
Continuous
 62
     7
100
AcDbLine
 10
6365.145046556
 20
4969.9496724127
 30
0.0
 11
6365.145046556
 21
4975.9496733961
 31
0.0
  0
LINE
  5
19C
330
1F
100
AcDbEntity
  8
0
  6
Continuous
 62
     7
100
AcDbLine
 10
6344.3450520873
 20
4975.9496733961
 30
0.0
 11
6344.3450520873
 21
4970.1127348883
 31
0.0
  0
LINE
  5
19D
330
1F
100
AcDbEntity
  8
0
  6
Continuous
 62
     7
100
AcDbLine
 10
6344.356943214
 20
4965.6059224574
 30
0.0
 11
6344.356943214
 21
4965.418422543
 31
0.0
  0
LINE
  5
19E
330
1F
100
AcDbEntity
  8
0
  6
Continuous
 62
     7
100
AcDbLine
 10
6344.356943214
 20
4967.1059227032
 30
0.0
 11
6344.356943214
 21
4966.9184223232
 31
0.0
  0
LINE
  5
19F
330
1F
100
AcDbEntity
  8
0
  6
Continuous
 62
     7
100
AcDbLine
 10
6344.356943214
 20
4968.6059220178
 30
0.0
 11
6344.356943214
 21
4968.4184225691
 31
0.0
  0
LINE
  5
1A0
330
1F
100
AcDbEntity
  8
0
  6
Continuous
 62
     7
100
AcDbLine
 10
6344.356943214
 20
4970.1059222636
 30
0.0
 11
6344.356943214
 21
4969.918422815
 31
0.0
  0
LINE
  5
1A1
330
1F
100
AcDbEntity
  8
0
  6
Continuous
 62
     7
100
AcDbLine
 10
6344.356943214
 20
4965.6059224574
 30
0.0
 11
6344.356943214
 21
4965.418422543
 31
0.0
  0
LINE
  5
1A2
330
1F
100
AcDbEntity
  8
0
  6
Continuous
 62
     7
100
AcDbLine
 10
6344.356943214
 20
4967.1059227032
 30
0.0
 11
6344.356943214
 21
4966.9184223232
 31
0.0
  0
LINE
  5
1A3
330
1F
100
AcDbEntity
  8
0
  6
Continuous
 62
     7
100
AcDbLine
 10
6344.356943214
 20
4968.6059220178
 30
0.0
 11
6344.356943214
 21
4968.4184225691
 31
0.0
  0
LINE
  5
1A4
330
1F
100
AcDbEntity
  8
0
  6
Continuous
 62
     7
100
AcDbLine
 10
6344.356943214
 20
4970.1059222636
 30
0.0
 11
6344.356943214
 21
4969.918422815
 31
0.0
  0
LINE
  5
1A5
330
1F
100
AcDbEntity
  8
0
  6
Continuous
 62
     7
100
AcDbLine
 10
6365.1331554294
 20
4966.168422666
 30
0.0
 11
6365.1331554294
 21
4966.3515900677
 31
0.0
  0
LINE
  5
1A6
330
1F
100
AcDbEntity
  8
0
  6
Continuous
 62
     7
100
AcDbLine
 10
6365.1331554294
 20
4967.6684229118
 30
0.0
 11
6365.1331554294
 21
4967.8515898479
 31
0.0
  0
LINE
  5
1A7
330
1F
100
AcDbEntity
  8
0
  6
Continuous
 62
     7
100
AcDbLine
 10
6365.1331554294
 20
4969.1684222264
 30
0.0
 11
6365.1331554294
 21
4969.3515900938
 31
0.0
  0
LINE
  5
1A8
330
1F
100
AcDbEntity
  8
0
  6
Continuous
 62
     7
100
AcDbLine
 10
6217.6792233378
 20
4961.9496724983
 30
0.0
 11
6217.6792233378
 21
4963.0496724924
 31
0.0
  0
LINE
  5
1A9
330
1F
100
AcDbEntity
  8
0
  6
Continuous
 62
     7
100
AcDbLine
 10
6208.6792234924
 20
4963.0496724924
 30
0.0
 11
6208.6792234924
 21
4961.9496724983
 31
0.0
  0
LINE
  5
1AA
330
1F
100
AcDbEntity
  8
0
  6
Continuous
 62
     7
100
AcDbLine
 10
6217.1792232558
 20
4963.0496724924
 30
0.0
 11
6217.1792232558
 21
4973.949672137
 31
0.0
  0
LINE
  5
1AB
330
1F
100
AcDbEntity
  8
0
  6
Continuous
 62
     7
100
AcDbLine
 10
6209.1792233415
 20
4973.949672137
 30
0.0
 11
6209.1792233415
 21
4963.0496724924
 31
0.0
  0
LINE
  5
1AC
330
1F
100
AcDbEntity
  8
0
  6
Continuous
 62
     7
100
AcDbLine
 10
6247.5091296375
 20
4959.9496725198
 30
0.0
 11
6247.5091296375
 21
4961.9496724983
 31
0.0
  0
LINE
  5
1AD
330
1F
100
AcDbEntity
  8
0
  6
Continuous
 62
     7
100
AcDbLine
 10
6177.5091293395
 20
4961.9496724983
 30
0.0
 11
6177.5091293395
 21
4959.9496725198
 31
0.0
  0
LINE
  5
1AE
330
1F
100
AcDbEntity
  8
0
  6
Continuous
 62
     7
100
AcDbLine
 10
6177.5091293395
 20
4959.9496725198
 30
0.0
 11
6178.5091276408
 21
4958.9496724723
 31
0.0
  0
LINE
  5
1AF
330
1F
100
AcDbEntity
  8
0
  6
Continuous
 62
     7
100
AcDbLine
 10
6246.5091313362
 20
4958.9496724723
 30
0.0
 11
6247.5091296375
 21
4959.9496725198
 31
0.0
  0
LINE
  5
1B0
330
1F
100
AcDbEntity
  8
0
  6
Continuous
 62
     7
100
AcDbLine
 10
6199.1591298148
 20
4958.9496724723
 30
0.0
 11
6199.1591298148
 21
4793.9496659157
 31
0.0
  0
LINE
  5
1B1
330
1F
100
AcDbEntity
  8
0
  6
Continuous
 62
     7
100
AcDbLine
 10
6225.8591291622
 20
4793.9496659157
 30
0.0
 11
6225.8591291622
 21
4958.9496724723
 31
0.0
  0
LINE
  5
1B2
330
1F
100
AcDbEntity
  8
0
  6
Continuous
 62
     7
100
AcDbLine
 10
6199.1591298148
 20
4793.9496659157
 30
0.0
 11
6200.1591290474
 21
4792.9496787904
 31
0.0
  0
LINE
  5
1B3
330
1F
100
AcDbEntity
  8
0
  6
Continuous
 62
     7
100
AcDbLine
 10
6224.8591299296
 20
4792.9496787904
 30
0.0
 11
6225.8591291622
 21
4793.9496659157
 31
0.0
  0
LINE
  5
1B4
330
1F
100
AcDbEntity
  8
0
  6
Continuous
 62
     7
100
AcDbLine
 10
6200.6584967613
 20
4967.9496720848
 30
0.0
 11
6209.1792233415
 21
4967.9496720848
 31
0.0
  0
LINE
  5
1B5
330
1F
100
AcDbEntity
  8
0
  6
Continuous
 62
     7
100
AcDbLine
 10
6217.1792232558
 20
4967.9496720848
 30
0.0
 11
6224.3597622156
 21
4967.9496720848
 31
0.0
  0
LINE
  5
1B6
330
1F
100
AcDbEntity
  8
0
  6
Continuous
 62
     7
100
AcDbLine
 10
6200.7013580889
 20
4966.9496728522
 30
0.0
 11
6200.7013580889
 21
4961.9496724983
 31
0.0
  0
LINE
  5
1B7
330
1F
100
AcDbEntity
  8
0
  6
Continuous
 62
     7
100
AcDbLine
 10
6224.6829767838
 20
4966.9496728522
 30
0.0
 11
6224.6829767838
 21
4961.9496724983
 31
0.0
  0
LINE
  5
1B8
330
1F
100
AcDbEntity
  8
0
  6
Continuous
 62
     7
100
AcDbLine
 10
6200.3352821932
 20
4966.9496728522
 30
0.0
 11
6200.3352821932
 21
4961.9496724983
 31
0.0
  0
LINE
  5
1B9
330
1F
100
AcDbEntity
  8
0
  6
Continuous
 62
     7
100
AcDbLine
 10
6203.059129709
 20
4979.9496721891
 30
0.0
 11
6221.959129268
 21
4979.9496721891
 31
0.0
  0
LINE
  5
1BA
330
1F
100
AcDbEntity
  8
0
  6
Continuous
 62
     7
100
AcDbLine
 10
6222.9591294319
 20
4978.9496720252
 30
0.0
 11
6202.0591295451
 21
4978.9496720252
 31
0.0
  0
LINE
  5
1BB
330
1F
100
AcDbEntity
  8
0
  6
Continuous
 62
     7
100
AcDbLine
 10
6369.7450499177
 20
4961.4496724164
 30
0.0
 11
6339.7450487256
 21
4961.4496724164
 31
0.0
  0
LINE
  5
1BC
330
1F
100
AcDbEntity
  8
0
  6
Continuous
 62
     7
100
AcDbLine
 10
6369.7450499177
 20
4959.9496725198
 30
0.0
 11
6339.7450487256
 21
4959.9496725198
 31
0.0
  0
LINE
  5
1BD
330
1F
100
AcDbEntity
  8
0
  6
Continuous
 62
     7
100
AcDbLine
 10
6369.7450499177
 20
4962.2496724544
 30
0.0
 11
6339.7450487256
 21
4962.2496724544
 31
0.0
  0
LINE
  5
1BE
330
1F
100
AcDbEntity
  8
0
  6
Continuous
 62
     7
100
AcDbLine
 10
6368.719522202
 20
4964.8872231548
 30
0.0
 11
6367.9600249172
 21
4965.1117510577
 31
0.0
  0
LINE
  5
1BF
330
1F
100
AcDbEntity
  8
0
  6
Continuous
 62
     7
100
AcDbLine
 10
6368.2794611097
 20
4964.8872231548
 30
0.0
 11
6368.719522202
 21
4964.8872231548
 31
0.0
  0
LINE
  5
1C0
330
1F
100
AcDbEntity
  8
0
  6
Continuous
 62
     7
100
AcDbLine
 10
6357.6506714464
 20
4964.8872231548
 30
0.0
 11
6359.3172173143
 21
4964.8872231548
 31
0.0
  0
LINE
  5
1C1
330
1F
100
AcDbEntity
  8
0
  6
Continuous
 62
     7
100
AcDbLine
 10
6344.1162596584
 20
4964.8872231548
 30
0.0
 11
6345.3427593351
 21
4964.8872231548
 31
0.0
  0
LINE
  5
1C2
330
1F
100
AcDbEntity
  8
0
  6
Continuous
 62
     7
100
AcDbLine
 10
6366.9674883724
 20
4965.2496724805
 30
0.0
 11
6342.5226251722
 21
4965.2496724805
 31
0.0
  0
LINE
  5
1C3
330
1F
100
AcDbEntity
  8
0
  6
Continuous
 62
     7
100
AcDbLine
 10
6359.3172173143
 20
4962.6121215472
 30
0.0
 11
6357.6506714464
 21
4962.6121215472
 31
0.0
  0
LINE
  5
1C4
330
1F
100
AcDbEntity
  8
0
  6
Continuous
 62
     7
100
AcDbLine
 10
6368.719522202
 20
4962.6121215472
 30
0.0
 11
6368.2794611097
 21
4962.6121215472
 31
0.0
  0
LINE
  5
1C5
330
1F
100
AcDbEntity
  8
0
  6
Continuous
 62
     7
100
AcDbLine
 10
6367.9606954694
 20
4962.388801104
 30
0.0
 11
6368.719522202
 21
4962.6121215472
 31
0.0
  0
LINE
  5
1C6
330
1F
100
AcDbEntity
  8
0
  6
Continuous
 62
     7
100
AcDbLine
 10
6345.3427593351
 20
4962.6121215472
 30
0.0
 11
6344.1162596584
 21
4962.6121215472
 31
0.0
  0
LINE
  5
1C7
330
1F
100
AcDbEntity
  8
0
  6
Continuous
 62
     7
100
AcDbLine
 10
6359.3172173143
 20
4962.6121215472
 30
0.0
 11
6359.3172173143
 21
4964.8872231548
 31
0.0
  0
LINE
  5
1C8
330
1F
100
AcDbEntity
  8
0
  6
Continuous
 62
     7
100
AcDbLine
 10
6368.2794611097
 20
4964.8872231548
 30
0.0
 11
6368.2794611097
 21
4962.6121215472
 31
0.0
  0
LINE
  5
1C9
330
1F
100
AcDbEntity
  8
0
  6
Continuous
 62
     7
100
AcDbLine
 10
6357.6506714464
 20
4964.8872231548
 30
0.0
 11
6357.6506714464
 21
4962.6121215472
 31
0.0
  0
LINE
  5
1CA
330
1F
100
AcDbEntity
  8
0
  6
Continuous
 62
     7
100
AcDbLine
 10
6345.3427593351
 20
4962.6121215472
 30
0.0
 11
6345.3427593351
 21
4964.8872231548
 31
0.0
  0
LINE
  5
1CB
330
1F
100
AcDbEntity
  8
0
  6
Continuous
 62
     7
100
AcDbLine
 10
6344.1162596584
 20
4964.8872231548
 30
0.0
 11
6344.1162596584
 21
4962.6121215472
 31
0.0
  0
LINE
  5
1CC
330
1F
100
AcDbEntity
  8
0
  6
Continuous
 62
     7
100
AcDbLine
 10
6340.7705764413
 20
4962.6121215472
 30
0.0
 11
6340.7705764413
 21
4964.8872231548
 31
0.0
  0
LINE
  5
1CD
330
1F
100
AcDbEntity
  8
0
  6
Continuous
 62
     7
100
AcDbLine
 10
6368.719522202
 20
4962.6121215472
 30
0.0
 11
6368.719522202
 21
4964.8872231548
 31
0.0
  0
LINE
  5
1CE
330
1F
100
AcDbEntity
  8
0
  6
Continuous
 62
     7
100
AcDbLine
 10
6354.7450493217
 20
4958.4638146109
 30
0.0
 11
6368.7450478912
 21
4958.4638146109
 31
0.0
  0
LINE
  5
1CF
330
1F
100
AcDbEntity
  8
0
  6
Continuous
 62
     7
100
AcDbLine
 10
6340.7450507522
 20
4958.4638146109
 30
0.0
 11
6354.7450493217
 21
4958.4638146109
 31
0.0
  0
LINE
  5
1D0
330
1F
100
AcDbEntity
  8
0
  6
Continuous
 62
     7
100
AcDbLine
 10
6368.7450478912
 20
4958.9496724723
 30
0.0
 11
6340.7450507522
 21
4958.9496724723
 31
0.0
  0
LINE
  5
1D1
330
1F
100
AcDbEntity
  8
0
  6
Continuous
 62
     7
100
AcDbLine
 10
6354.7450493217
 20
4958.1638146258
 30
0.0
 11
6368.445057714
 21
4958.1638146258
 31
0.0
  0
LINE
  5
1D2
330
1F
100
AcDbEntity
  8
0
  6
Continuous
 62
     7
100
AcDbLine
 10
6341.0450558305
 20
4958.1638146258
 30
0.0
 11
6354.7450493217
 21
4958.1638146258
 31
0.0
  0
LINE
  5
1D3
330
1F
100
AcDbEntity
  8
0
  6
Continuous
 62
     7
100
AcDbLine
 10
6354.7450493217
 20
4958.1496724925
 30
0.0
 11
6341.0450558305
 21
4958.1496724925
 31
0.0
  0
LINE
  5
1D4
330
1F
100
AcDbEntity
  8
0
  6
Continuous
 62
     7
100
AcDbLine
 10
6368.445057714
 20
4958.1496724925
 30
0.0
 11
6354.7450493217
 21
4958.1496724925
 31
0.0
  0
LINE
  5
1D5
330
1F
100
AcDbEntity
  8
0
  6
Continuous
 62
     7
100
AcDbLine
 10
6354.7450493217
 20
4957.8496724782
 30
0.0
 11
6341.3450460077
 21
4957.8496724782
 31
0.0
  0
LINE
  5
1D6
330
1F
100
AcDbEntity
  8
0
  6
Continuous
 62
     7
100
AcDbLine
 10
6368.1450526357
 20
4957.8496724782
 30
0.0
 11
6354.7450493217
 21
4957.8496724782
 31
0.0
  0
LINE
  5
1D7
330
1F
100
AcDbEntity
  8
0
  6
Continuous
 62
     7
100
AcDbLine
 10
6354.7450493217
 20
4957.5638146555
 30
0.0
 11
6367.8450475574
 21
4957.5638146555
 31
0.0
  0
LINE
  5
1D8
330
1F
100
AcDbEntity
  8
0
  6
Continuous
 62
     7
100
AcDbLine
 10
6341.645051086
 20
4957.5638146555
 30
0.0
 11
6354.7450493217
 21
4957.5638146555
 31
0.0
  0
LINE
  5
1D9
330
1F
100
AcDbEntity
  8
0
  6
Continuous
 62
     7
100
AcDbLine
 10
6354.7450493217
 20
4957.5496725222
 30
0.0
 11
6341.645051086
 21
4957.5496725222
 31
0.0
  0
LINE
  5
1DA
330
1F
100
AcDbEntity
  8
0
  6
Continuous
 62
     7
100
AcDbLine
 10
6367.8450475574
 20
4957.5496725222
 30
0.0
 11
6354.7450493217
 21
4957.5496725222
 31
0.0
  0
LINE
  5
1DB
330
1F
100
AcDbEntity
  8
0
  6
Continuous
 62
     7
100
AcDbLine
 10
6354.7450493217
 20
4957.2496724497
 30
0.0
 11
6341.9450561643
 21
4957.2496724497
 31
0.0
  0
LINE
  5
1DC
330
1F
100
AcDbEntity
  8
0
  6
Continuous
 62
     7
100
AcDbLine
 10
6367.5450573802
 20
4957.2496724497
 30
0.0
 11
6354.7450493217
 21
4957.2496724497
 31
0.0
  0
LINE
  5
1DD
330
1F
100
AcDbEntity
  8
0
  6
Continuous
 62
     7
100
AcDbLine
 10
6354.7450493217
 20
4956.9638145106
 30
0.0
 11
6367.2450523019
 21
4956.9638145106
 31
0.0
  0
LINE
  5
1DE
330
1F
100
AcDbEntity
  8
0
  6
Continuous
 62
     7
100
AcDbLine
 10
6342.2450463414
 20
4956.9638145106
 30
0.0
 11
6354.7450493217
 21
4956.9638145106
 31
0.0
  0
LINE
  5
1DF
330
1F
100
AcDbEntity
  8
0
  6
Continuous
 62
     7
100
AcDbLine
 10
6367.2450523019
 20
4956.9496723773
 30
0.0
 11
6342.2450463414
 21
4956.9496723773
 31
0.0
  0
LINE
  5
1E0
330
1F
100
AcDbEntity
  8
0
  6
Continuous
 62
     7
100
AcDbLine
 10
6347.9990403295
 20
4969.9496724127
 30
0.0
 11
6365.4450516343
 21
4969.9496724127
 31
0.0
  0
LINE
  5
1E1
330
1F
100
AcDbEntity
  8
0
  6
Continuous
 62
     7
100
AcDbLine
 10
6354.7450493217
 20
4969.4496723307
 30
0.0
 11
6343.5450534463
 21
4969.4496723307
 31
0.0
  0
LINE
  5
1E2
330
1F
100
AcDbEntity
  8
0
  6
Continuous
 62
     7
100
AcDbLine
 10
6343.7615524173
 20
4959.9496725198
 30
0.0
 11
6343.9997176767
 21
4959.8121724623
 31
0.0
  0
LINE
  5
1E3
330
1F
100
AcDbEntity
  8
0
  6
Continuous
 62
     7
100
AcDbLine
 10
6343.9997176767
 20
4959.8121724623
 30
0.0
 11
6344.356943214
 21
4959.6059224634
 31
0.0
  0
LINE
  5
1E4
330
1F
100
AcDbEntity
  8
0
  6
Continuous
 62
     7
100
AcDbLine
 10
6365.9434507728
 20
4959.7035116815
 30
0.0
 11
6365.9225444436
 21
4959.7077394203
 31
0.0
  0
LINE
  5
1E5
330
1F
100
AcDbEntity
  8
0
  6
Continuous
 62
     7
100
AcDbLine
 10
6365.9434507728
 20
4965.703511559
 30
0.0
 11
6365.9225444436
 21
4965.7077392978
 31
0.0
  0
LINE
  5
1E6
330
1F
100
AcDbEntity
  8
0
  6
Continuous
 62
     7
100
AcDbLine
 10
6365.9434507728
 20
4967.2035113392
 30
0.0
 11
6365.9225444436
 21
4967.2077395437
 31
0.0
  0
LINE
  5
1E7
330
1F
100
AcDbEntity
  8
0
  6
Continuous
 62
     7
100
AcDbLine
 10
6365.9434507728
 20
4968.7035115851
 30
0.0
 11
6365.9225444436
 21
4968.7077397896
 31
0.0
  0
LINE
  5
1E8
330
1F
100
AcDbEntity
  8
0
  6
Continuous
 62
     7
100
AcDbLine
 10
6344.356943214
 20
4959.4184224618
 30
0.0
 11
6343.9022938848
 21
4959.1559224711
 31
0.0
  0
LINE
  5
1E9
330
1F
100
AcDbEntity
  8
0
  6
Continuous
 62
     7
100
AcDbLine
 10
6343.9022938848
 20
4959.1559224711
 30
0.0
 11
6343.5450534463
 21
4958.9496724723
 31
0.0
  0
LINE
  5
1EA
330
1F
100
AcDbEntity
  8
0
  6
Continuous
 62
     7
100
AcDbLine
 10
6343.5450534463
 20
4958.9496724723
 30
0.0
 11
6343.5450534463
 21
4959.9496725198
 31
0.0
  0
LINE
  5
1EB
330
1F
100
AcDbEntity
  8
0
  6
Continuous
 62
     7
100
AcDbLine
 10
6348.6321012616
 20
4970.1356137586
 30
0.0
 11
6348.6321012616
 21
4970.3368530092
 31
0.0
  0
LINE
  5
1EC
330
1F
100
AcDbEntity
  8
0
  6
Continuous
 62
     7
100
AcDbLine
 10
6354.7450493217
 20
4975.9496733961
 30
0.0
 11
6365.145046556
 21
4975.9496733961
 31
0.0
  0
LINE
  5
1ED
330
1F
100
AcDbEntity
  8
0
  6
Continuous
 62
     7
100
AcDbLine
 10
6344.3450520873
 20
4975.9496733961
 30
0.0
 11
6354.7450493217
 21
4975.9496733961
 31
0.0
  0
LINE
  5
1EE
330
1F
100
AcDbEntity
  8
0
  6
Continuous
 62
     7
100
AcDbLine
 10
6344.356943214
 20
4959.6059224634
 30
0.0
 11
6344.356943214
 21
4959.4184224618
 31
0.0
  0
LINE
  5
1EF
330
1F
100
AcDbEntity
  8
0
  6
Continuous
 62
     7
100
AcDbLine
 10
6217.6783427723
 20
4963.0496724924
 30
0.0
 11
6208.6792234924
 21
4963.0496724924
 31
0.0
  0
LINE
  5
1F0
330
1F
100
AcDbEntity
  8
0
  6
Continuous
 62
     7
100
AcDbLine
 10
6217.1784409449
 20
4973.949672137
 30
0.0
 11
6209.1792233415
 21
4973.949672137
 31
0.0
  0
LINE
  5
1F1
330
1F
100
AcDbEntity
  8
0
  6
Continuous
 62
     7
100
AcDbLine
 10
6247.5091296375
 20
4961.9496724983
 30
0.0
 11
6177.5091293395
 21
4961.9496724983
 31
0.0
  0
LINE
  5
1F2
330
1F
100
AcDbEntity
  8
0
  6
Continuous
 62
     7
100
AcDbLine
 10
6177.5091293395
 20
4959.9496725198
 30
0.0
 11
6247.5091296375
 21
4959.9496725198
 31
0.0
  0
LINE
  5
1F3
330
1F
100
AcDbEntity
  8
0
  6
Continuous
 62
     7
100
AcDbLine
 10
6246.5091313362
 20
4958.9496724723
 30
0.0
 11
6178.5091276408
 21
4958.9496724723
 31
0.0
  0
LINE
  5
1F4
330
1F
100
AcDbEntity
  8
0
  6
Continuous
 62
     7
100
AcDbLine
 10
6199.1591298148
 20
4793.9496659157
 30
0.0
 11
6225.8591291622
 21
4793.9496659157
 31
0.0
  0
LINE
  5
1F5
330
1F
100
AcDbEntity
  8
0
  6
Continuous
 62
     7
100
AcDbLine
 10
6224.8591299296
 20
4792.9496787904
 30
0.0
 11
6200.1591290474
 21
4792.9496787904
 31
0.0
  0
LINE
  5
1F6
330
1F
100
AcDbEntity
  8
0
  6
Continuous
 62
     7
100
AcDbLine
 10
6354.3099710104
 20
5218.4338025233
 30
0.0
 11
6354.279155409
 21
5221.9793848178
 31
0.0
  0
LINE
  5
1F7
330
1F
100
AcDbEntity
  8
0
  6
Continuous
 62
     7
100
AcDbLine
 10
6351.0451943022
 20
5221.9512775405
 30
0.0
 11
6351.110714708
 21
5214.4131116433
 31
0.0
  0
LINE
  5
1F8
330
1F
100
AcDbEntity
  8
0
  6
Continuous
 62
     7
100
AcDbLine
 10
6348.5734977168
 20
5215.0791041417
 30
0.0
 11
6348.6206151885
 21
5209.6581920846
 31
0.0
  0
LINE
  5
1F9
330
1F
100
AcDbEntity
  8
0
  6
Continuous
 62
     7
100
AcDbLine
 10
6354.9978600469
 20
5203.390856623
 30
0.0
 11
6357.3649951842
 21
5203.411427676
 31
0.0
  0
LINE
  5
1FA
330
1F
100
AcDbEntity
  8
0
  6
Continuous
 62
     7
100
AcDbLine
 10
6361.88083536
 20
5208.0064601786
 30
0.0
 11
6361.8127202895
 21
5215.842936147
 31
0.0
  0
LINE
  5
1FB
330
1F
100
AcDbEntity
  8
0
  6
Continuous
 62
     7
100
AcDbLine
 10
6360.4473830518
 20
5217.1847238621
 30
0.0
 11
6359.9531748649
 21
5217.1804286024
 31
0.0
  0
LINE
  5
1FC
330
1F
100
AcDbEntity
  8
0
  6
Continuous
 62
     7
100
AcDbLine
 10
6357.9617464301
 20
5218.1117362758
 30
0.0
 11
6357.3824488875
 21
5218.1066996834
 31
0.0
  0
LINE
  5
1FD
330
1F
100
AcDbEntity
  8
0
  6
Continuous
 62
     7
100
AcDbLine
 10
6355.3948388752
 20
5218.5985981902
 30
0.0
 11
6354.9382449445
 21
5218.5946270308
 31
0.0
  0
LINE
  5
1FE
330
1F
100
AcDbEntity
  8
0
  6
Continuous
 62
     7
100
AcDbLine
 10
6354.6258927186
 20
5217.2524124058
 30
0.0
 11
6354.6514556606
 21
5214.3114931556
 31
0.0
  0
LINE
  5
1FF
330
1F
100
AcDbEntity
  8
0
  6
Continuous
 62
     7
100
AcDbLine
 10
6355.4882974226
 20
5217.5000287267
 30
0.0
 11
6354.863905241
 21
5217.4946009787
 31
0.0
  0
LINE
  5
200
330
1F
100
AcDbEntity
  8
0
  6
Continuous
 62
     7
100
AcDbLine
 10
6355.7560452123
 20
5214.3210932287
 30
0.0
 11
6355.7304822702
 21
5217.2620124789
 31
0.0
  0
LINE
  5
201
330
1F
100
AcDbEntity
  8
0
  6
Continuous
 62
     7
100
AcDbLine
 10
6357.0700966616
 20
5216.7644850584
 30
0.0
 11
6357.0912339587
 21
5214.332697508
 31
0.0
  0
LINE
  5
202
330
1F
100
AcDbEntity
  8
0
  6
Continuous
 62
     7
100
AcDbLine
 10
6358.0552012522
 20
5217.0131668123
 30
0.0
 11
6357.308109184
 21
5217.0066736313
 31
0.0
  0
LINE
  5
203
330
1F
100
AcDbEntity
  8
0
  6
Continuous
 62
     7
100
AcDbLine
 10
6358.3185271223
 20
5214.3433667394
 30
0.0
 11
6358.2973898251
 21
5216.7751505645
 31
0.0
  0
LINE
  5
204
330
1F
100
AcDbEntity
  8
0
  6
Continuous
 62
     7
100
AcDbLine
 10
6359.6405395169
 20
5215.8704414638
 30
0.0
 11
6359.6537121434
 21
5214.3549710187
 31
0.0
  0
LINE
  5
205
330
1F
100
AcDbEntity
  8
0
  6
Continuous
 62
     7
100
AcDbLine
 10
6360.5405584772
 20
5216.1183856102
 30
0.0
 11
6359.8785557647
 21
5216.1126300367
 31
0.0
  0
LINE
  5
206
330
1F
100
AcDbEntity
  8
0
  6
Continuous
 62
     7
100
AcDbLine
 10
6360.8512652165
 20
5207.9975119623
 30
0.0
 11
6360.7827496773
 21
5215.8803752455
 31
0.0
  0
LINE
  5
207
330
1F
100
AcDbEntity
  8
0
  6
Continuous
 62
     7
100
AcDbLine
 10
6354.988911863
 20
5204.4204193162
 30
0.0
 11
6357.3560470003
 21
5204.4409978198
 31
0.0
  0
LINE
  5
208
330
1F
100
AcDbEntity
  8
0
  6
Continuous
 62
     7
100
AcDbLine
 10
6349.6115317019
 20
5214.113082627
 30
0.0
 11
6349.6501778635
 21
5209.6671423709
 31
0.0
  0
LINE
  5
209
330
1F
100
AcDbEntity
  8
0
  6
Continuous
 62
     7
100
AcDbLine
 10
6350.8376114864
 20
5210.6685466739
 30
0.0
 11
6350.820627888
 21
5212.6228935691
 31
0.0
  0
LINE
  5
20A
330
1F
100
AcDbEntity
  8
0
  6
Continuous
 62
     7
100
AcDbLine
 10
6352.0747543175
 20
5221.9602256688
 30
0.0
 11
6352.1728002329
 21
5210.6801509532
 31
0.0
  0
LINE
  5
20B
330
1F
100
AcDbEntity
  8
0
  6
Continuous
 62
     7
100
AcDbLine
 10
6353.3162669141
 20
5214.2998888763
 30
0.0
 11
6353.2495953937
 21
5221.9704366895
 31
0.0
  0
LWPOLYLINE
  5
20C
330
1F
100
AcDbEntity
  8
0
  6
Continuous
 62
     7
100
AcDbPolyline
 90
        3
 70
   128
 43
0.0
 10
6576.8508911133
 20
5202.0477886891
 10
6577.1161504712
 20
5202.5027568976
 10
6577.322681296
 20
5202.8602288684
  0
LWPOLYLINE
  5
20D
330
1F
100
AcDbEntity
  8
0
  6
Continuous
 62
     7
100
AcDbPolyline
 90
        3
 70
   128
 43
0.0
 10
6575.9925842285
 20
5202.8602288684
 10
6576.2558951191
 20
5202.4052640761
 10
6576.4624195652
 20
5202.0477886891
  0
LWPOLYLINE
  5
20E
330
1F
100
AcDbEntity
  8
0
  6
Continuous
 62
     7
100
AcDbPolyline
 90
        3
 70
   128
 43
0.0
 10
6578.5942077637
 20
5227.5452494269
 10
6577.6711487447
 20
5223.8405199794
 10
6578.5953596713
 20
5220.9393825961
  0
LWPOLYLINE
  5
20F
330
1F
100
AcDbEntity
  8
0
  6
Continuous
 62
     7
100
AcDbPolyline
 90
        3
 70
   128
 43
0.0
 10
6578.5942077637
 20
5220.9393825961
 10
6577.6711487497
 20
5213.1743267986
 10
6578.5953596713
 20
5207.0935882276
  0
LWPOLYLINE
  5
210
330
1F
100
AcDbEntity
  8
0
  6
Continuous
 62
     7
100
AcDbPolyline
 90
        3
 70
   128
 43
0.0
 10
6578.5942077637
 20
5207.0935882276
 10
6577.6696418082
 20
5203.033243115
 10
6578.5953596713
 20
5199.8536597585
  0
LWPOLYLINE
  5
211
330
1F
100
AcDbEntity
  8
0
  6
Continuous
 62
     7
100
AcDbPolyline
 90
        7
 70
   128
 43
0.0
 10
6575.6187438965
 20
5202.5561455285
 10
6575.6168617532
 20
5202.5523605979
 10
6575.6153582028
 20
5202.5512562686
 10
6575.6138518233
 20
5202.5510977025
 10
6575.6115848869
 20
5202.5533227783
 10
6575.6093062809
 20
5202.5594491273
 10
6575.5953601108
 20
5202.6879863461
  0
LWPOLYLINE
  5
212
330
1F
100
AcDbEntity
  8
0
  6
Continuous
 62
     7
100
AcDbPolyline
 90
        3
 70
   128
 43
0.0
 10
6575.5920410156
 20
5202.6879863461
 10
6575.5953601108
 20
5202.9417773297
 10
6575.5953601108
 20
5203.2494546493
  0
LWPOLYLINE
  5
213
330
1F
100
AcDbEntity
  8
0
  6
Continuous
 62
     7
100
AcDbPolyline
 90
        5
 70
   128
 43
0.0
 10
6577.3124694824
 20
5202.8836972659
 10
6577.3024378756
 20
5202.8445318003
 10
6577.3004597315
 20
5202.8445166703
 10
6577.2984795378
 20
5202.8463355504
 10
6577.2505531566
 20
5203.2494546493
  0
LWPOLYLINE
  5
214
330
1F
100
AcDbEntity
  8
0
  6
Continuous
 62
     7
100
AcDbPolyline
 90
        5
 70
   128
 43
0.0
 10
6575.813293457
 20
5202.8836972659
 10
6575.8024376298
 20
5202.8445318003
 10
6575.8004594857
 20
5202.8445166703
 10
6575.7984792919
 20
5202.8463355504
 10
6575.7505529107
 20
5203.2494546493
  0
LWPOLYLINE
  5
215
330
1F
100
AcDbEntity
  8
0
  6
Continuous
 62
     7
100
AcDbPolyline
 90
        6
 70
   128
 43
0.0
 10
6576.8432617188
 20
5202.061906608
 10
6576.8387817797
 20
5202.0431835066
 10
6576.8362744391
 20
5202.0408044696
 10
6576.8337641223
 20
5202.0413699053
 10
6576.8186207313
 20
5202.0975759469
 10
6576.7349599408
 20
5203.2494546493
  0
LWPOLYLINE
  5
216
330
1F
100
AcDbEntity
  8
0
  6
Continuous
 62
     7
100
AcDbPolyline
 90
        3
 70
   128
 43
0.0
 10
6576.1451721191
 20
5224.1494545361
 10
6576.1171455603
 20
5224.3998268043
 10
6576.0953601928
 20
5224.4409920296
  0
LWPOLYLINE
  5
217
330
1F
100
AcDbEntity
  8
0
  6
Continuous
 62
     7
100
AcDbPolyline
 90
        5
 70
   128
 43
0.0
 10
6577.2705078125
 20
5224.1494545361
 10
6577.2375607305
 20
5224.4416124829
 10
6577.229468308
 20
5224.4583137784
 10
6577.2267685729
 20
5224.4583383173
 10
6577.2122432025
 20
5224.4123631736
  0
LWPOLYLINE
  5
218
330
1F
100
AcDbEntity
  8
0
  6
Continuous
 62
     7
100
AcDbPolyline
 90
        3
 70
   128
 43
0.0
 10
6576.4617919922
 20
5202.0565449839
 10
6576.4057601844
 20
5202.4426835369
 10
6576.3599601121
 20
5203.2494546493
  0
LWPOLYLINE
  5
219
330
1F
100
AcDbEntity
  8
0
  6
Continuous
 62
     7
100
AcDbPolyline
 90
        3
 70
   128
 43
0.0
 10
6365.1237487793
 20
4966.3473506873
 10
6365.580776207
 20
4966.6102044907
 10
6365.9382502675
 20
4966.8167321426
  0
LWPOLYLINE
  5
21A
330
1F
100
AcDbEntity
  8
0
  6
Continuous
 62
     7
100
AcDbPolyline
 90
        3
 70
   128
 43
0.0
 10
6365.1237487793
 20
4967.8473504675
 10
6365.5807761325
 20
4968.1102046607
 10
6365.9382502675
 20
4968.3167323885
  0
LWPOLYLINE
  5
21B
330
1F
100
AcDbEntity
  8
0
  6
Continuous
 62
     7
100
AcDbPolyline
 90
        3
 70
   128
 43
0.0
 10
6365.1237487793
 20
4969.3473507134
 10
6365.4494898006
 20
4969.5343544898
 10
6365.7038102985
 20
4969.6812857357
  0
LWPOLYLINE
  5
21C
330
1F
100
AcDbEntity
  8
0
  6
Continuous
 62
     7
100
AcDbPolyline
 90
        3
 70
   128
 43
0.0
 10
6343.6126708984
 20
4966.0489833397
 10
6344.066856242
 20
4965.7863246617
 10
6344.4224785209
 20
4965.5799506647
  0
LWPOLYLINE
  5
21D
330
1F
100
AcDbEntity
  8
0
  6
Continuous
 62
     7
100
AcDbPolyline
 90
        3
 70
   128
 43
0.0
 10
6343.6126708984
 20
4967.5489835856
 10
6344.066856242
 20
4967.2863249075
 10
6344.4224785209
 20
4967.0799509106
  0
LWPOLYLINE
  5
21E
330
1F
100
AcDbEntity
  8
0
  6
Continuous
 62
     7
100
AcDbPolyline
 90
        3
 70
   128
 43
0.0
 10
6343.6126708984
 20
4969.0489829002
 10
6344.0668560454
 20
4968.7863244017
 10
6344.4224785209
 20
4968.5799511565
  0
LWPOLYLINE
  5
21F
330
1F
100
AcDbEntity
  8
0
  6
Continuous
 62
     7
100
AcDbPolyline
 90
        3
 70
   128
 43
0.0
 10
6365.9362792969
 20
4965.707612638
 10
6365.4873963981
 20
4965.9680906494
 10
6365.1331554294
 20
4966.1727547129
  0
LWPOLYLINE
  5
220
330
1F
100
AcDbEntity
  8
0
  6
Continuous
 62
     7
100
AcDbPolyline
 90
        3
 70
   128
 43
0.0
 10
6365.9362792969
 20
4967.2076128838
 10
6365.4873964734
 20
4967.4680907648
 10
6365.1331554294
 20
4967.6727544931
  0
LWPOLYLINE
  5
221
330
1F
100
AcDbEntity
  8
0
  6
Continuous
 62
     7
100
AcDbPolyline
 90
        3
 70
   128
 43
0.0
 10
6365.9362792969
 20
4968.7076131297
 10
6365.4873964734
 20
4968.9680910106
 10
6365.1331554294
 20
4969.172754739
  0
LWPOLYLINE
  5
222
330
1F
100
AcDbEntity
  8
0
  6
Continuous
 62
     7
100
AcDbPolyline
 90
        3
 70
   128
 43
0.0
 10
6344.4213867188
 20
4966.9443941159
 10
6343.969862302
 20
4966.6817362901
 10
6343.6141948343
 20
4966.4753619065
  0
LWPOLYLINE
  5
223
330
1F
100
AcDbEntity
  8
0
  6
Continuous
 62
     7
100
AcDbPolyline
 90
        3
 70
   128
 43
0.0
 10
6344.4213867188
 20
4968.4443943618
 10
6343.9698622037
 20
4968.1817364462
 10
6343.6141948343
 20
4967.9753616867
  0
LWPOLYLINE
  5
224
330
1F
100
AcDbEntity
  8
0
  6
Continuous
 62
     7
100
AcDbPolyline
 90
        3
 70
   128
 43
0.0
 10
6344.4213867188
 20
4969.9443946076
 10
6344.0270197615
 20
4969.714903945
 10
6343.7162677884
 20
4969.5345875291
  0
LWPOLYLINE
  5
225
330
1F
100
AcDbEntity
  8
0
  6
Continuous
 62
     7
100
AcDbPolyline
 90
        3
 70
   128
 43
0.0
 10
6344.4213867188
 20
4959.4443941671
 10
6343.9698622087
 20
4959.1817363865
 10
6343.6141948343
 20
4958.9753617486
  0
LWPOLYLINE
  5
226
330
1F
100
AcDbEntity
  8
0
  6
Continuous
 62
     7
100
AcDbPolyline
 90
        3
 70
   128
 43
0.0
 10
6365.9362792969
 20
4959.7076127604
 10
6365.7036241092
 20
4959.8431667449
 10
6365.5192743182
 20
4959.9496725198
  0
LWPOLYLINE
  5
227
330
1F
100
AcDbEntity
  8
0
  6
Continuous
 62
     7
100
AcDbPolyline
 90
        3
 70
   128
 43
0.0
 10
6224.681854248
 20
4966.9496728522
 10
6220.5094295151
 20
4967.8304937552
 10
6217.1792232558
 20
4967.7652012972
  0
LWPOLYLINE
  5
228
330
1F
100
AcDbEntity
  8
0
  6
Continuous
 62
     7
100
AcDbPolyline
 90
        3
 70
   128
 43
0.0
 10
6209.1789245605
 20
4967.7147422401
 10
6204.3952263726
 20
4967.7601265274
 10
6200.7013580889
 20
4966.9496728522
  0
LWPOLYLINE
  5
229
330
1F
100
AcDbEntity
  8
0
  6
Continuous
 62
     7
100
AcDbPolyline
 90
        7
 70
   128
 43
0.0
 10
6200.6988525391
 20
4966.9496728522
 10
6200.5646627304
 20
4967.8366465227
 10
6200.5415151374
 20
4967.8765278597
 10
6200.5183230721
 20
4967.8874198129
 10
6200.4951263098
 20
4967.8728378344
 10
6200.4719650681
 20
4967.8329257355
 10
6200.3352821932
 20
4966.9496728522
  0
LWPOLYLINE
  5
22A
330
1F
100
AcDbEntity
  8
0
  6
Continuous
 62
     7
100
AcDbPolyline
 90
        6
 70
   128
 43
0.0
 10
6224.5063781738
 20
4967.8711932568
 10
6224.519342411
 20
4967.8890427275
 10
6224.5276270094
 20
4967.8920781805
 10
6224.5400571797
 20
4967.8806061625
 10
6224.5524820575
 20
4967.8517378789
 10
6224.6829767838
 20
4966.9496728522
  0
LWPOLYLINE
  5
22B
330
1F
100
AcDbEntity
  8
0
  6
Continuous
 62
     7
100
AcDbPolyline
 90
        3
 70
   128
 43
0.0
 10
6359.3139648438
 20
4964.8872231548
 10
6364.3372021557
 20
4965.1885003671
 10
6368.2794611097
 20
4964.8872231548
  0
LWPOLYLINE
  5
22C
330
1F
100
AcDbEntity
  8
0
  6
Continuous
 62
     7
100
AcDbPolyline
 90
        3
 70
   128
 43
0.0
 10
6345.3407287598
 20
4964.8872231548
 10
6352.2370911123
 20
4965.1882035864
 10
6357.6506714464
 20
4964.8872231548
  0
LWPOLYLINE
  5
22D
330
1F
100
AcDbEntity
  8
0
  6
Continuous
 62
     7
100
AcDbPolyline
 90
        3
 70
   128
 43
0.0
 10
6340.7669067383
 20
4964.8872231548
 10
6342.6445897437
 20
4965.1885003137
 10
6344.1162596584
 20
4964.8872231548
  0
LWPOLYLINE
  5
22E
330
1F
100
AcDbEntity
  8
0
  6
Continuous
 62
     7
100
AcDbPolyline
 90
        3
 70
   128
 43
0.0
 10
6368.278503418
 20
4962.6121215472
 10
6363.2594760061
 20
4962.3108445743
 10
6359.3172173143
 20
4962.6121215472
  0
LWPOLYLINE
  5
22F
330
1F
100
AcDbEntity
  8
0
  6
Continuous
 62
     7
100
AcDbPolyline
 90
        3
 70
   128
 43
0.0
 10
6344.1162109375
 20
4962.6121215472
 10
6342.2422569466
 20
4962.3108446329
 10
6340.7705764413
 20
4962.6121215472
  0
LWPOLYLINE
  5
230
330
1F
100
AcDbEntity
  8
0
  6
Continuous
 62
     7
100
AcDbPolyline
 90
        3
 70
   128
 43
0.0
 10
6357.6469421387
 20
4962.6121215472
 10
6350.756339457
 20
4962.3111409656
 10
6345.3427593351
 20
4962.6121215472
  0
LWPOLYLINE
  5
231
330
1F
100
AcDbEntity
  8
0
  6
Continuous
 62
     7
100
AcDbPolyline
 90
        3
 70
   128
 43
0.0
 10
6347.9957580566
 20
4969.9496724127
 10
6344.5718331423
 20
4969.6676282002
 10
6343.5450534463
 20
4969.4496723307
  0
LWPOLYLINE
  5
232
330
1F
100
AcDbEntity
  8
0
  6
Continuous
 62
     7
100
AcDbPolyline
 90
        8
 70
   128
 43
0.0
 10
6354.7439575195
 20
4969.4496723307
 10
6364.9156196941
 20
4969.6274891353
 10
6365.6858909772
 20
4969.6728845908
 10
6365.7027594977
 20
4969.6765608684
 10
6365.7074012625
 20
4969.679306669
 10
6365.7072318209
 20
4969.6803338733
 10
6365.7059711201
 20
4969.6813597473
 10
6365.6802664638
 20
4969.687493932
  0
LWPOLYLINE
  5
233
330
1F
100
AcDbEntity
  8
0
  6
Continuous
 62
     7
100
AcDbPolyline
 90
        6
 70
   128
 43
0.0
 10
6348.6289978027
 20
4970.3368530092
 10
6344.6308052484
 20
4970.1682339931
 10
6344.3255316237
 20
4970.1265332194
 10
6344.3245483608
 20
4970.1248100988
 10
6344.3248212593
 20
4970.123086799
 10
6344.3545739293
 20
4970.1127348883
  0
LWPOLYLINE
  5
234
330
1F
100
AcDbEntity
  8
0
  6
Continuous
 62
     7
100
AcDbPolyline
 90
        3
 70
   128
 43
0.0
 10
6344.3565368652
 20
4959.6059224634
 10
6347.548458456
 20
4959.7980767163
 10
6353.3844838977
 20
4959.9496725198
  0
LWPOLYLINE
  5
235
330
1F
100
AcDbEntity
  8
0
  6
Continuous
 62
     7
100
AcDbPolyline
 90
        5
 70
   128
 43
0.0
 10
6344.3565368652
 20
4965.6059224574
 10
6349.6256721578
 20
4965.8572031913
 10
6356.478436672
 20
4966.0201930366
 10
6362.5519521242
 20
4966.1835674809
 10
6365.0680522561
 20
4966.3470433509
  0
LWPOLYLINE
  5
236
330
1F
100
AcDbEntity
  8
0
  6
Continuous
 62
     7
100
AcDbPolyline
 90
        5
 70
   128
 43
0.0
 10
6344.3565368652
 20
4967.1059227032
 10
6349.6256721639
 20
4967.3572029702
 10
6356.4784366717
 20
4967.5201930304
 10
6362.5519521258
 20
4967.6835672575
 10
6365.0680522561
 20
4967.8470431311
  0
LWPOLYLINE
  5
237
330
1F
100
AcDbEntity
  8
0
  6
Continuous
 62
     7
100
AcDbPolyline
 90
        5
 70
   128
 43
0.0
 10
6344.3565368652
 20
4968.6059220178
 10
6349.6256721517
 20
4968.8572032156
 10
6356.4784366625
 20
4969.020193276
 10
6362.5519521227
 20
4969.1835675033
 10
6365.0680522561
 20
4969.3470433769
  0
LWPOLYLINE
  5
238
330
1F
100
AcDbEntity
  8
0
  6
Continuous
 62
     7
100
AcDbPolyline
 90
        3
 70
   128
 43
0.0
 10
6365.3755187988
 20
4965.2496724805
 10
6365.8359084656
 20
4965.2923887345
 10
6365.9303079486
 20
4965.324594122
  0
LWPOLYLINE
  5
239
330
1F
100
AcDbEntity
  8
0
  6
Continuous
 62
     7
100
AcDbPolyline
 90
        8
 70
   128
 43
0.0
 10
6343.692779541
 20
4966.0484496919
 10
6343.543462135
 20
4966.0754036341
 10
6343.5382892713
 20
4966.0798472706
 10
6343.5384997179
 20
4966.0820639106
 10
6343.5404825645
 20
4966.0842780772
 10
6343.578137269
 20
4966.0960754945
 10
6346.1931761963
 20
4966.2429906071
 10
6365.9303079486
 20
4966.8245943678
  0
LWPOLYLINE
  5
23A
330
1F
100
AcDbEntity
  8
0
  6
Continuous
 62
     7
100
AcDbPolyline
 90
        8
 70
   128
 43
0.0
 10
6343.692779541
 20
4967.5484499378
 10
6343.5434621346
 20
4967.575403406
 10
6343.5382892711
 20
4967.5798469991
 10
6343.5384997179
 20
4967.5820636223
 10
6343.5404825646
 20
4967.5842777753
 10
6343.5781372699
 20
4967.596075169
 10
6346.1931761994
 20
4967.7429903906
 10
6365.9303079486
 20
4968.3245936824
  0
LWPOLYLINE
  5
23B
330
1F
100
AcDbEntity
  8
0
  6
Continuous
 62
     7
100
AcDbPolyline
 90
        9
 70
   128
 43
0.0
 10
6343.692779541
 20
4969.0484501837
 10
6343.5487688087
 20
4969.0732453893
 10
6343.5396728282
 20
4969.0778491799
 10
6343.5383905898
 20
4969.0795710086
 10
6343.538221455
 20
4969.0812908546
 10
6343.5440700324
 20
4969.0864419211
 10
6343.5587750384
 20
4969.0915874723
 10
6344.078509953
 20
4969.1479840527
 10
6354.7450493217
 20
4969.4496723307
  0
LWPOLYLINE
  5
23C
330
1F
100
AcDbEntity
  8
0
  6
Continuous
 62
     7
100
AcDbPolyline
 90
        5
 70
   128
 43
0.0
 10
6343.6508178711
 20
4958.975619443
 10
6355.3676795044
 20
4959.3375082534
 10
6365.1497703442
 20
4959.6093289641
 10
6365.7492665855
 20
4959.6554258642
 10
6365.9303079486
 20
4959.6995940731
  0
ARC
  5
23D
330
1F
100
AcDbEntity
  8
0
  6
Continuous
 62
     7
100
AcDbCircle
 10
6351.0151174991
 20
5212.6272833702
 30
0.0
 40
247.3777409312542
100
AcDbArc
 50
270.0587487114
 51
273.4566411619
  0
LWPOLYLINE
  5
23E
330
1F
100
AcDbEntity
  8
0
  6
Continuous
 62
     7
100
AcDbPolyline
 90
        5
 70
   128
 43
0.0
 10
6343.6508178711
 20
4966.4756194172
 10
6355.3676795002
 20
4966.8375084849
 10
6365.1497703462
 20
4967.1093288309
 10
6365.7492665872
 20
4967.1554254615
 10
6365.9303079486
 20
4967.1995941965
  0
LWPOLYLINE
  5
23F
330
1F
100
AcDbEntity
  8
0
  6
Continuous
 62
     7
100
AcDbPolyline
 90
        5
 70
   128
 43
0.0
 10
6343.6508178711
 20
4967.9756196631
 10
6355.3676795049
 20
4968.3375085227
 10
6365.1497703461
 20
4968.6093290758
 10
6365.7492665872
 20
4968.6554257075
 10
6365.9303079486
 20
4968.6995944423
  0
LWPOLYLINE
  5
240
330
1F
100
AcDbEntity
  8
0
  6
Continuous
 62
     7
100
AcDbPolyline
 90
        3
 70
   128
 43
0.0
 10
6344.3565368652
 20
4959.4184224618
 10
6351.42307837
 20
4959.7161686286
 10
6361.0024939418
 20
4959.9496725198
  0
LWPOLYLINE
  5
241
330
1F
100
AcDbEntity
  8
0
  6
Continuous
 62
     7
100
AcDbPolyline
 90
        5
 70
   128
 43
0.0
 10
6344.5053100586
 20
4965.4449205329
 10
6350.4294468338
 20
4965.6908956253
 10
6357.1942263109
 20
4965.849475397
 10
6362.9087824546
 20
4966.0087180218
 10
6365.1120106817
 20
4966.1683327933
  0
LWPOLYLINE
  5
242
330
1F
100
AcDbEntity
  8
0
  6
Continuous
 62
     7
100
AcDbPolyline
 90
        5
 70
   128
 43
0.0
 10
6344.5053100586
 20
4966.9449203131
 10
6350.4294468221
 20
4967.1908959784
 10
6357.1942263018
 20
4967.3494755883
 10
6362.9087824479
 20
4967.5087182632
 10
6365.1120106817
 20
4967.6683325736
  0
LWPOLYLINE
  5
243
330
1F
100
AcDbEntity
  8
0
  6
Continuous
 62
     7
100
AcDbPolyline
 90
        5
 70
   128
 43
0.0
 10
6344.5053100586
 20
4968.444920559
 10
6350.4294468455
 20
4968.6908950802
 10
6357.1942263196
 20
4968.8494750319
 10
6362.9087824506
 20
4969.0087182566
 10
6365.1120106817
 20
4969.1683328194
  0
LWPOLYLINE
  5
244
330
1F
100
AcDbEntity
  8
0
  6
Continuous
 62
     7
100
AcDbPolyline
 90
        3
 70
   128
 43
0.0
 10
6344.5053100586
 20
4969.9449208049
 10
6346.0440732297
 20
4970.0570756397
 10
6348.6390899062
 20
4970.142483194
  0
LWPOLYLINE
  5
245
330
1F
100
AcDbEntity
  8
0
  6
Continuous
 62
     7
100
AcDbPolyline
 90
        3
 70
   128
 43
0.0
 10
6344.482421875
 20
4969.9496724127
 10
6346.1568113586
 20
4970.0555772626
 10
6348.6321012616
 20
4970.1356137586
  0
LINE
  5
246
330
1F
100
AcDbEntity
  8
0
  6
Continuous
 62
     7
100
AcDbLine
 10
6344.482421875
 20
4969.9496724127
 30
0.0
 11
6347.9990403295
 21
4969.9496724127
 31
0.0
  0
ENDSEC
  0
SECTION
  2
OBJECTS
  0
DICTIONARY
  5
C
330
0
100
AcDbDictionary
281
     1
  3
ACAD_GROUP
350
D
  3
ACAD_LAYOUT
350
1A
  3
ACAD_MLINESTYLE
350
17
  3
ACAD_PLOTSETTINGS
350
19
  3
ACAD_PLOTSTYLENAME
350
E
  3
ACAD_SCALELIST
350
47
  3
DWGPROPS
350
247
  0
DICTIONARY
  5
D
102
{ACAD_REACTORS
330
C
102
}
330
C
100
AcDbDictionary
281
     1
  0
DICTIONARY
  5
1A
102
{ACAD_REACTORS
330
C
102
}
330
C
100
AcDbDictionary
281
     1
  3
Layout1
350
1E
  3
Layout2
350
26
  3
Model
350
22
  0
DICTIONARY
  5
17
102
{ACAD_REACTORS
330
C
102
}
330
C
100
AcDbDictionary
281
     1
  3
Standard
350
18
  0
DICTIONARY
  5
19
102
{ACAD_REACTORS
330
C
102
}
330
C
100
AcDbDictionary
281
     1
  0
ACDBDICTIONARYWDFLT
  5
E
102
{ACAD_REACTORS
330
C
102
}
330
C
100
AcDbDictionary
281
     1
  3
Normal
350
F
100
AcDbDictionaryWithDefault
340
F
  0
DICTIONARY
  5
47
102
{ACAD_REACTORS
330
C
102
}
330
C
100
AcDbDictionary
281
     1
  3
A0
350
48
  3
A1
350
49
  3
A2
350
4A
  3
A3
350
4B
  3
A4
350
4C
  3
A5
350
4D
  3
A6
350
4E
  3
A7
350
4F
  3
A8
350
50
  3
A9
350
51
  3
B0
350
52
  3
B1
350
53
  3
B2
350
54
  3
B3
350
55
  3
B4
350
56
  3
B5
350
57
  3
B6
350
58
  3
B7
350
59
  3
B8
350
5A
  3
B9
350
5B
  3
C0
350
5C
  3
C1
350
5D
  3
C2
350
5E
  3
C3
350
5F
  3
C4
350
60
  3
C5
350
61
  3
C6
350
62
  3
C7
350
63
  3
C8
350
64
  3
C9
350
65
  3
D0
350
66
  3
D1
350
67
  3
D2
350
68
  0
XRECORD
  5
247
102
{ACAD_REACTORS
330
C
102
}
330
C
100
AcDbXrecord
280
     1
  1
DWGPROPS COOKIE
  2

  3

  4

  6

  7

  8
radek.stransky
  9

300
=
301
=
302
=
303
=
304
=
305
=
306
=
307
=
308
=
309
=
 40
0.0
 41
2459093.207803426
 42
2459093.207986933
  1

 90
        0
  0
LAYOUT
  5
1E
102
{ACAD_REACTORS
330
1A
102
}
330
1A
100
AcDbPlotSettings
  1

  2
none_device
  4

  6

 40
0.0
 41
0.0
 42
0.0
 43
0.0
 44
0.0
 45
0.0
 46
0.0
 47
0.0
 48
0.0
 49
0.0
140
0.0
141
0.0
142
1.0
143
1.0
 70
   688
 72
     1
 73
     0
 74
     5
  7

 75
    16
147
1.0
148
0.0
149
0.0
100
AcDbLayout
  1
Layout1
 70
     1
 71
     1
 10
0.0
 20
0.0
 11
420.0
 21
297.0
 12
0.0
 22
0.0
 32
0.0
 14
1.0000000000E+20
 24
1.0000000000E+20
 34
1.0000000000E+20
 15
-1.0000000000E+20
 25
-1.0000000000E+20
 35
-1.0000000000E+20
146
0.0
 13
0.0
 23
0.0
 33
0.0
 16
1.0
 26
0.0
 36
0.0
 17
0.0
 27
1.0
 37
0.0
 76
     0
330
1B
  0
LAYOUT
  5
26
102
{ACAD_REACTORS
330
1A
102
}
330
1A
100
AcDbPlotSettings
  1

  2
none_device
  4

  6

 40
0.0
 41
0.0
 42
0.0
 43
0.0
 44
0.0
 45
0.0
 46
0.0
 47
0.0
 48
0.0
 49
0.0
140
0.0
141
0.0
142
1.0
143
1.0
 70
   688
 72
     1
 73
     0
 74
     5
  7

 75
    16
147
1.0
148
0.0
149
0.0
100
AcDbLayout
  1
Layout2
 70
     1
 71
     2
 10
0.0
 20
0.0
 11
0.0
 21
0.0
 12
0.0
 22
0.0
 32
0.0
 14
0.0
 24
0.0
 34
0.0
 15
0.0
 25
0.0
 35
0.0
146
0.0
 13
0.0
 23
0.0
 33
0.0
 16
1.0
 26
0.0
 36
0.0
 17
0.0
 27
1.0
 37
0.0
 76
     0
330
23
  0
LAYOUT
  5
22
102
{ACAD_REACTORS
330
1A
102
}
330
1A
100
AcDbPlotSettings
  1

  2
none_device
  4
ANSI_A_(11.00_x_8.50_Inches)
  6

 40
6.35
 41
19.05
 42
6.35000508
 43
19.05000254
 44
279.4
 45
215.9
 46
-2898.6794276206
 47
-2265.8045351013
 48
0.0
 49
0.0
140
0.0
141
0.0
142
0.0184640793
143
1.0
 70
  1696
 72
     0
 73
     0
 74
     0
  7

 75
     0
147
0.0179189148
148
-1300.4909072572
149
0.0
100
AcDbLayout
  1
Model
 70
     1
 71
     0
 10
0.0
 20
0.0
 11
420.0
 21
297.0
 12
0.0
 22
0.0
 32
0.0
 14
6177.5091293395
 24
4792.9496787904
 34
0.0
 15
6752.5953537331
 25
5248.6994547417
 35
0.0
146
0.0
 13
0.0
 23
0.0
 33
0.0
 16
1.0
 26
0.0
 36
0.0
 17
0.0
 27
1.0
 37
0.0
 76
     0
330
1F
331
29
  0
MLINESTYLE
  5
18
102
{ACAD_REACTORS
330
17
102
}
330
17
100
AcDbMlineStyle
  2
Standard
 70
     0
  3

 62
   256
 51
90.0
 52
90.0
 71
     2
 49
0.5
 62
   256
  6
BYLAYER
 49
-0.5
 62
   256
  6
BYLAYER
  0
ACDBPLACEHOLDER
  5
F
102
{ACAD_REACTORS
330
E
102
}
330
E
  0
SCALE
  5
48
102
{ACAD_REACTORS
330
47
102
}
330
47
100
AcDbScale
 70
     0
300
1:1
140
1.0
141
1.0
290
     1
  0
SCALE
  5
49
102
{ACAD_REACTORS
330
47
102
}
330
47
100
AcDbScale
 70
     0
300
1:2
140
1.0
141
2.0
290
     0
  0
SCALE
  5
4A
102
{ACAD_REACTORS
330
47
102
}
330
47
100
AcDbScale
 70
     0
300
1:4
140
1.0
141
4.0
290
     0
  0
SCALE
  5
4B
102
{ACAD_REACTORS
330
47
102
}
330
47
100
AcDbScale
 70
     0
300
1:5
140
1.0
141
5.0
290
     0
  0
SCALE
  5
4C
102
{ACAD_REACTORS
330
47
102
}
330
47
100
AcDbScale
 70
     0
300
1:8
140
1.0
141
8.0
290
     0
  0
SCALE
  5
4D
102
{ACAD_REACTORS
330
47
102
}
330
47
100
AcDbScale
 70
     0
300
1:10
140
1.0
141
10.0
290
     0
  0
SCALE
  5
4E
102
{ACAD_REACTORS
330
47
102
}
330
47
100
AcDbScale
 70
     0
300
1:16
140
1.0
141
16.0
290
     0
  0
SCALE
  5
4F
102
{ACAD_REACTORS
330
47
102
}
330
47
100
AcDbScale
 70
     0
300
1:20
140
1.0
141
20.0
290
     0
  0
SCALE
  5
50
102
{ACAD_REACTORS
330
47
102
}
330
47
100
AcDbScale
 70
     0
300
1:30
140
1.0
141
30.0
290
     0
  0
SCALE
  5
51
102
{ACAD_REACTORS
330
47
102
}
330
47
100
AcDbScale
 70
     0
300
1:40
140
1.0
141
40.0
290
     0
  0
SCALE
  5
52
102
{ACAD_REACTORS
330
47
102
}
330
47
100
AcDbScale
 70
     0
300
1:50
140
1.0
141
50.0
290
     0
  0
SCALE
  5
53
102
{ACAD_REACTORS
330
47
102
}
330
47
100
AcDbScale
 70
     0
300
1:100
140
1.0
141
100.0
290
     0
  0
SCALE
  5
54
102
{ACAD_REACTORS
330
47
102
}
330
47
100
AcDbScale
 70
     0
300
2:1
140
2.0
141
1.0
290
     0
  0
SCALE
  5
55
102
{ACAD_REACTORS
330
47
102
}
330
47
100
AcDbScale
 70
     0
300
4:1
140
4.0
141
1.0
290
     0
  0
SCALE
  5
56
102
{ACAD_REACTORS
330
47
102
}
330
47
100
AcDbScale
 70
     0
300
8:1
140
8.0
141
1.0
290
     0
  0
SCALE
  5
57
102
{ACAD_REACTORS
330
47
102
}
330
47
100
AcDbScale
 70
     0
300
10:1
140
10.0
141
1.0
290
     0
  0
SCALE
  5
58
102
{ACAD_REACTORS
330
47
102
}
330
47
100
AcDbScale
 70
     0
300
100:1
140
100.0
141
1.0
290
     0
  0
SCALE
  5
59
102
{ACAD_REACTORS
330
47
102
}
330
47
100
AcDbScale
 70
     0
300
1/128" = 1'-0"
140
0.0078125
141
12.0
290
     0
  0
SCALE
  5
5A
102
{ACAD_REACTORS
330
47
102
}
330
47
100
AcDbScale
 70
     0
300
1/64" = 1'-0"
140
0.015625
141
12.0
290
     0
  0
SCALE
  5
5B
102
{ACAD_REACTORS
330
47
102
}
330
47
100
AcDbScale
 70
     0
300
1/32" = 1'-0"
140
0.03125
141
12.0
290
     0
  0
SCALE
  5
5C
102
{ACAD_REACTORS
330
47
102
}
330
47
100
AcDbScale
 70
     0
300
1/16" = 1'-0"
140
0.0625
141
12.0
290
     0
  0
SCALE
  5
5D
102
{ACAD_REACTORS
330
47
102
}
330
47
100
AcDbScale
 70
     0
300
3/32" = 1'-0"
140
0.09375
141
12.0
290
     0
  0
SCALE
  5
5E
102
{ACAD_REACTORS
330
47
102
}
330
47
100
AcDbScale
 70
     0
300
1/8" = 1'-0"
140
0.125
141
12.0
290
     0
  0
SCALE
  5
5F
102
{ACAD_REACTORS
330
47
102
}
330
47
100
AcDbScale
 70
     0
300
3/16" = 1'-0"
140
0.1875
141
12.0
290
     0
  0
SCALE
  5
60
102
{ACAD_REACTORS
330
47
102
}
330
47
100
AcDbScale
 70
     0
300
1/4" = 1'-0"
140
0.25
141
12.0
290
     0
  0
SCALE
  5
61
102
{ACAD_REACTORS
330
47
102
}
330
47
100
AcDbScale
 70
     0
300
3/8" = 1'-0"
140
0.375
141
12.0
290
     0
  0
SCALE
  5
62
102
{ACAD_REACTORS
330
47
102
}
330
47
100
AcDbScale
 70
     0
300
1/2" = 1'-0"
140
0.5
141
12.0
290
     0
  0
SCALE
  5
63
102
{ACAD_REACTORS
330
47
102
}
330
47
100
AcDbScale
 70
     0
300
3/4" = 1'-0"
140
0.75
141
12.0
290
     0
  0
SCALE
  5
64
102
{ACAD_REACTORS
330
47
102
}
330
47
100
AcDbScale
 70
     0
300
1" = 1'-0"
140
1.0
141
12.0
290
     0
  0
SCALE
  5
65
102
{ACAD_REACTORS
330
47
102
}
330
47
100
AcDbScale
 70
     0
300
1-1/2" = 1'-0"
140
1.5
141
12.0
290
     0
  0
SCALE
  5
66
102
{ACAD_REACTORS
330
47
102
}
330
47
100
AcDbScale
 70
     0
300
3" = 1'-0"
140
3.0
141
12.0
290
     0
  0
SCALE
  5
67
102
{ACAD_REACTORS
330
47
102
}
330
47
100
AcDbScale
 70
     0
300
6" = 1'-0"
140
6.0
141
12.0
290
     0
  0
SCALE
  5
68
102
{ACAD_REACTORS
330
47
102
}
330
47
100
AcDbScale
 70
     0
300
1'-0" = 1'-0"
140
12.0
141
12.0
290
     0
  0
ENDSEC
  0
EOF
