  0
SECTION
  2
HEADER
  9
$ACADVER
  1
AC1015
  9
$ACADMAINTVER
 70
     6
  9
$DWGCODEPAGE
  3
ANSI_1250
  9
$INSBASE
 10
0.0
 20
0.0
 30
0.0
  9
$EXTMIN
 10
0.0
 20
0.0
 30
0.0
  9
$EXTMAX
 10
20000.0
 20
10000.0
 30
0.0
  9
$LIMMIN
 10
0.0
 20
0.0
  9
$LIMMAX
 10
20000.0
 20
10000.0
  9
$ORTHOMODE
 70
     0
  9
$REGENMODE
 70
     1
  9
$FILLMODE
 70
     1
  9
$QTEXTMODE
 70
     0
  9
$MIRRTEXT
 70
     1
  9
$LTSCALE
 40
1.0
  9
$ATTMODE
 70
     1
  9
$TEXTSIZE
 40
2.0
  9
$TRACEWID
 40
1.0
  9
$TEXTSTYLE
  7
Standard
  9
$CLAYER
  8
0
  9
$CELTYPE
  6
ByLayer
  9
$CECOLOR
 62
   256
  9
$CELTSCALE
 40
1.0
  9
$DISPSILH
 70
     0
  9
$DIMSCALE
 40
1.0
  9
$DIMASZ
 40
2.0
  9
$DIMEXO
 40
1.0
  9
$DIMDLI
 40
3.75
  9
$DIMRND
 40
0.0
  9
$DIMDLE
 40
0.0
  9
$DIMEXE
 40
1.0
  9
$DIMTP
 40
0.0
  9
$DIMTM
 40
0.0
  9
$DIMTXT
 40
2.0
  9
$DIMCEN
 40
2.5
  9
$DIMTSZ
 40
0.0
  9
$DIMTOL
 70
     0
  9
$DIMLIM
 70
     0
  9
$DIMTIH
 70
     1
  9
$DIMTOH
 70
     1
  9
$DIMSE1
 70
     0
  9
$DIMSE2
 70
     0
  9
$DIMTAD
 70
     1
  9
$DIMZIN
 70
     0
  9
$DIMBLK
  1

  9
$DIMASO
 70
     1
  9
$DIMSHO
 70
     1
  9
$DIMPOST
  1

  9
$DIMAPOST
  1

  9
$DIMALT
 70
     0
  9
$DIMALTD
 70
     3
  9
$DIMALTF
 40
0.0393700787
  9
$DIMLFAC
 40
1.0
  9
$DIMTOFL
 70
     1
  9
$DIMTVP
 40
0.0
  9
$DIMTIX
 70
     0
  9
$DIMSOXD
 70
     0
  9
$DIMSAH
 70
     0
  9
$DIMBLK1
  1

  9
$DIMBLK2
  1

  9
$DIMSTYLE
  2
ISO-25
  9
$DIMCLRD
 70
     0
  9
$DIMCLRE
 70
     0
  9
$DIMCLRT
 70
     0
  9
$DIMTFAC
 40
1.0
  9
$DIMGAP
 40
1.524
  9
$DIMJUST
 70
     0
  9
$DIMSD1
 70
     0
  9
$DIMSD2
 70
     0
  9
$DIMTOLJ
 70
     0
  9
$DIMTZIN
 70
     0
  9
$DIMALTZ
 70
     0
  9
$DIMALTTZ
 70
     0
  9
$DIMUPT
 70
     0
  9
$DIMDEC
 70
     2
  9
$DIMTDEC
 70
     0
  9
$DIMALTU
 70
     2
  9
$DIMALTTD
 70
     3
  9
$DIMTXSTY
  7
Standard
  9
$DIMAUNIT
 70
     0
  9
$DIMADEC
 70
     2
  9
$DIMALTRND
 40
0.0
  9
$DIMAZIN
 70
     0
  9
$DIMDSEP
 70
    44
  9
$DIMATFIT
 70
     3
  9
$DIMFRAC
 70
     0
  9
$DIMLDRBLK
  1

  9
$DIMLUNIT
 70
     2
  9
$DIMLWD
 70
    -2
  9
$DIMLWE
 70
    -2
  9
$DIMTMOVE
 70
     0
  9
$LUNITS
 70
     2
  9
$LUPREC
 70
     3
  9
$SKETCHINC
 40
1.0
  9
$FILLETRAD
 40
10.0
  9
$AUNITS
 70
     0
  9
$AUPREC
 70
     2
  9
$MENU
  1
.
  9
$ELEVATION
 40
0.0
  9
$PELEVATION
 40
0.0
  9
$THICKNESS
 40
0.0
  9
$LIMCHECK
 70
     0
  9
$CHAMFERA
 40
0.0
  9
$CHAMFERB
 40
0.0
  9
$CHAMFERC
 40
0.0
  9
$CHAMFERD
 40
0.0
  9
$SKPOLY
 70
     0
  9
$TDCREATE
 40
2458673.603543634
  9
$TDUCREATE
 40
2458673.520210301
  9
$TDUPDATE
 40
2458673.603544005
  9
$TDUUPDATE
 40
2458673.520210671
  9
$TDINDWG
 40
0.0000000116
  9
$TDUSRTIMER
 40
0.0000000116
  9
$USRTIMER
 70
     1
  9
$ANGBASE
 50
0.0
  9
$ANGDIR
 70
     0
  9
$PDMODE
 70
     0
  9
$PDSIZE
 40
-1.0
  9
$PLINEWID
 40
0.0
  9
$SPLFRAME
 70
     0
  9
$SPLINETYPE
 70
     6
  9
$SPLINESEGS
 70
     8
  9
$HANDSEED
  5
215
  9
$SURFTAB1
 70
     6
  9
$SURFTAB2
 70
     6
  9
$SURFTYPE
 70
     6
  9
$SURFU
 70
     6
  9
$SURFV
 70
     6
  9
$UCSBASE
  2

  9
$UCSNAME
  2

  9
$UCSORG
 10
0.0
 20
0.0
 30
0.0
  9
$UCSXDIR
 10
1.0
 20
0.0
 30
0.0
  9
$UCSYDIR
 10
0.0
 20
1.0
 30
0.0
  9
$UCSORTHOREF
  2

  9
$UCSORTHOVIEW
 70
     0
  9
$UCSORGTOP
 10
0.0
 20
0.0
 30
0.0
  9
$UCSORGBOTTOM
 10
0.0
 20
0.0
 30
0.0
  9
$UCSORGLEFT
 10
0.0
 20
0.0
 30
0.0
  9
$UCSORGRIGHT
 10
0.0
 20
0.0
 30
0.0
  9
$UCSORGFRONT
 10
0.0
 20
0.0
 30
0.0
  9
$UCSORGBACK
 10
0.0
 20
0.0
 30
0.0
  9
$PUCSBASE
  2

  9
$PUCSNAME
  2

  9
$PUCSORG
 10
0.0
 20
0.0
 30
0.0
  9
$PUCSXDIR
 10
1.0
 20
0.0
 30
0.0
  9
$PUCSYDIR
 10
0.0
 20
1.0
 30
0.0
  9
$PUCSORTHOREF
  2

  9
$PUCSORTHOVIEW
 70
     0
  9
$PUCSORGTOP
 10
0.0
 20
0.0
 30
0.0
  9
$PUCSORGBOTTOM
 10
0.0
 20
0.0
 30
0.0
  9
$PUCSORGLEFT
 10
0.0
 20
0.0
 30
0.0
  9
$PUCSORGRIGHT
 10
0.0
 20
0.0
 30
0.0
  9
$PUCSORGFRONT
 10
0.0
 20
0.0
 30
0.0
  9
$PUCSORGBACK
 10
0.0
 20
0.0
 30
0.0
  9
$USERI1
 70
     0
  9
$USERI2
 70
     0
  9
$USERI3
 70
     0
  9
$USERI4
 70
     0
  9
$USERI5
 70
     0
  9
$USERR1
 40
0.0
  9
$USERR2
 40
0.0
  9
$USERR3
 40
0.0
  9
$USERR4
 40
0.0
  9
$USERR5
 40
0.0
  9
$WORLDVIEW
 70
     1
  9
$SHADEDGE
 70
     3
  9
$SHADEDIF
 70
    70
  9
$TILEMODE
 70
     1
  9
$MAXACTVP
 70
    64
  9
$PINSBASE
 10
0.0
 20
0.0
 30
0.0
  9
$PLIMCHECK
 70
     0
  9
$PEXTMIN
 10
1.0000000000E+20
 20
1.0000000000E+20
 30
1.0000000000E+20
  9
$PEXTMAX
 10
-1.0000000000E+20
 20
-1.0000000000E+20
 30
-1.0000000000E+20
  9
$PLIMMIN
 10
0.0
 20
0.0
  9
$PLIMMAX
 10
420.0
 20
297.0
  9
$UNITMODE
 70
     0
  9
$VISRETAIN
 70
     1
  9
$PLINEGEN
 70
     0
  9
$PSLTSCALE
 70
     1
  9
$TREEDEPTH
 70
  3020
  9
$CMLSTYLE
  2
Standard
  9
$CMLJUST
 70
     0
  9
$CMLSCALE
 40
20.0
  9
$PROXYGRAPHICS
 70
     1
  9
$MEASUREMENT
 70
     1
  9
$CELWEIGHT
370
    -1
  9
$ENDCAPS
280
     0
  9
$JOINSTYLE
280
     0
  9
$LWDISPLAY
290
     1
  9
$INSUNITS
 70
     4
  9
$HYPERLINKBASE
  1

  9
$STYLESHEET
  1

  9
$XEDIT
290
     1
  9
$CEPSNTYPE
380
     0
  9
$PSTYLEMODE
290
     1
  9
$FINGERPRINTGUID
  2
{A3D93E17-EFEE-4000-BFB2-72A20FE991F3}
  9
$VERSIONGUID
  2
{FAEB1C32-E019-11D5-929B-00C0DF256EC4}
  9
$EXTNAMES
290
     1
  9
$PSVPSCALE
 40
0.0
  9
$OLESTARTUP
290
     0
  0
ENDSEC
  0
SECTION
  2
CLASSES
  0
CLASS
  1
ACDBDICTIONARYWDFLT
  2
AcDbDictionaryWithDefault
  3
ObjectDBX Classes
 90
        0
280
     0
281
     0
  0
CLASS
  1
VISUALSTYLE
  2
AcDbVisualStyle
  3
ObjectDBX Classes
 90
     4095
280
     0
281
     0
  0
CLASS
  1
MATERIAL
  2
AcDbMaterial
  3
ObjectDBX Classes
 90
     1153
280
     0
281
     0
  0
CLASS
  1
SCALE
  2
AcDbScale
  3
ObjectDBX Classes
 90
     1153
280
     0
281
     0
  0
CLASS
  1
TABLESTYLE
  2
AcDbTableStyle
  3
ObjectDBX Classes
 90
     4095
280
     0
281
     0
  0
CLASS
  1
MLEADERSTYLE
  2
AcDbMLeaderStyle
  3
ACDB_MLEADERSTYLE_CLASS
 90
     4095
280
     0
281
     0
  0
CLASS
  1
SUN
  2
AcDbSun
  3
SCENEOE
 90
     1153
280
     0
281
     0
  0
CLASS
  1
ACDBPLACEHOLDER
  2
AcDbPlaceHolder
  3
ObjectDBX Classes
 90
        0
280
     0
281
     0
  0
CLASS
  1
LAYOUT
  2
AcDbLayout
  3
ObjectDBX Classes
 90
        0
280
     0
281
     0
  0
ENDSEC
  0
SECTION
  2
TABLES
  0
TABLE
  2
VPORT
  5
8
330
0
100
AcDbSymbolTable
 70
     1
  0
VPORT
  5
29
330
8
100
AcDbSymbolTableRecord
100
AcDbViewportTableRecord
  2
*Active
 70
     0
 10
0.0
 20
0.0
 11
1.0
 21
1.0
 12
10000.0
 22
5000.0
 13
0.0
 23
0.0
 14
10.0
 24
10.0
 15
10.0
 25
10.0
 16
0.0
 26
0.0
 36
1.0
 17
0.0
 27
0.0
 37
0.0
 40
10000.0
 41
2.0
 42
50.0
 43
0.0
 44
0.0
 50
0.0
 51
0.0
 71
     0
 72
  2000
 73
     1
 74
     3
 75
     0
 76
     0
 77
     0
 78
     0
281
     0
 65
     1
110
0.0
120
0.0
130
0.0
111
1.0
121
0.0
131
0.0
112
0.0
122
1.0
132
0.0
 79
     0
146
0.0
  0
ENDTAB
  0
TABLE
  2
LTYPE
  5
5
330
0
100
AcDbSymbolTable
 70
     6
  0
LTYPE
  5
14
330
5
100
AcDbSymbolTableRecord
100
AcDbLinetypeTableRecord
  2
ByBlock
 70
     0
  3

 72
    65
 73
     0
 40
0.0
  0
LTYPE
  5
15
330
5
100
AcDbSymbolTableRecord
100
AcDbLinetypeTableRecord
  2
ByLayer
 70
     0
  3

 72
    65
 73
     0
 40
0.0
  0
LTYPE
  5
16
330
5
100
AcDbSymbolTableRecord
100
AcDbLinetypeTableRecord
  2
Continuous
 70
     0
  3
Solid line
 72
    65
 73
     0
 40
0.0
  0
LTYPE
  5
6E
330
5
100
AcDbSymbolTableRecord
100
AcDbLinetypeTableRecord
  2
HIDDEN
 70
     0
  3
Hidden __ __ __ __ __ __ __ __ __ __ __ __ __ __
 72
    65
 73
     2
 40
1.905
 49
1.27
 74
     0
 49
-0.635
 74
     0
  0
LTYPE
  5
6F
330
5
100
AcDbSymbolTableRecord
100
AcDbLinetypeTableRecord
  2
PHANTOM
 70
     0
  3
Phantom ______  __  __  ______  __  __  ______
 72
    65
 73
     6
 40
12.7
 49
6.35
 74
     0
 49
-1.27
 74
     0
 49
1.27
 74
     0
 49
-1.27
 74
     0
 49
1.27
 74
     0
 49
-1.27
 74
     0
  0
LTYPE
  5
70
330
5
100
AcDbSymbolTableRecord
100
AcDbLinetypeTableRecord
  2
CENTER
 70
     0
  3
Center ____ _ ____ _ ____ _ ____ _ ____ _ ____
 72
    65
 73
     4
 40
10.16
 49
6.35
 74
     0
 49
-1.27
 74
     0
 49
1.27
 74
     0
 49
-1.27
 74
     0
  0
LTYPE
  5
71
330
5
100
AcDbSymbolTableRecord
100
AcDbLinetypeTableRecord
  2
CENTERX2
 70
     0
  3
Center (2x) ________  __  ________  __  _____
 72
    65
 73
     4
 40
20.32
 49
12.7
 74
     0
 49
-2.54
 74
     0
 49
2.54
 74
     0
 49
-2.54
 74
     0
  0
LTYPE
  5
72
330
5
100
AcDbSymbolTableRecord
100
AcDbLinetypeTableRecord
  2
DOT2
 70
     0
  3
Dot (.5x) ........................................
 72
    65
 73
     2
 40
0.635
 49
0.0
 74
     0
 49
-0.635
 74
     0
  0
ENDTAB
  0
TABLE
  2
LAYER
  5
2
330
0
100
AcDbSymbolTable
 70
    13
  0
LAYER
  5
10
330
2
100
AcDbSymbolTableRecord
100
AcDbLayerTableRecord
  2
0
 70
     0
 62
     7
  6
Continuous
370
    -3
390
F
  0
LAYER
  5
73
330
2
100
AcDbSymbolTableRecord
100
AcDbLayerTableRecord
  2
FORMAT
 70
     0
 62
     7
  6
Continuous
370
    -3
390
F
  0
LAYER
  5
74
330
2
100
AcDbSymbolTableRecord
100
AcDbLayerTableRecord
  2
OSA
 70
     0
 62
     7
  6
CENTER
370
    -3
390
F
  0
LAYER
  5
75
330
2
100
AcDbSymbolTableRecord
100
AcDbLayerTableRecord
  2
0_35
 70
     0
 62
     7
  6
Continuous
370
    35
390
F
  0
LAYER
  5
76
330
2
100
AcDbSymbolTableRecord
100
AcDbLayerTableRecord
  2
0_5
 70
     0
 62
     7
  6
Continuous
370
    50
390
F
  0
LAYER
  5
77
330
2
100
AcDbSymbolTableRecord
100
AcDbLayerTableRecord
  2
0_25
 70
     0
 62
     7
  6
Continuous
370
    25
390
F
  0
LAYER
  5
78
330
2
100
AcDbSymbolTableRecord
100
AcDbLayerTableRecord
  2
0_18
 70
     0
 62
     7
  6
Continuous
370
    -3
390
F
  0
LAYER
  5
79
330
2
100
AcDbSymbolTableRecord
100
AcDbLayerTableRecord
  2
SLD-0
 70
     0
 62
   179
  6
Continuous
370
    -3
390
F
  0
LAYER
  5
7A
330
2
100
AcDbSymbolTableRecord
100
AcDbLayerTableRecord
  2
KOTY
 70
     0
 62
     7
  6
Continuous
370
    -3
390
F
  0
LAYER
  5
7B
330
2
100
AcDbSymbolTableRecord
100
AcDbLayerTableRecord
  2
SILNA
 70
     0
 62
   179
  6
Continuous
370
    -3
390
F
  0
LAYER
  5
7C
330
2
100
AcDbSymbolTableRecord
100
AcDbLayerTableRecord
  2
0_18_1
 70
     0
 62
   179
  6
Continuous
370
    -3
390
F
  0
LAYER
  5
7D
330
2
100
AcDbSymbolTableRecord
100
AcDbLayerTableRecord
  2
0_35_1
 70
     0
 62
   179
  6
Continuous
370
    35
390
F
  0
LAYER
  5
7E
330
2
100
AcDbSymbolTableRecord
100
AcDbLayerTableRecord
  2
0_5_1
 70
     0
 62
   179
  6
Continuous
370
    50
390
F
  0
ENDTAB
  0
TABLE
  2
STYLE
  5
3
330
0
100
AcDbSymbolTable
 70
     1
  0
STYLE
  5
11
330
3
100
AcDbSymbolTableRecord
100
AcDbTextStyleTableRecord
  2
Standard
 70
     0
 40
0.0
 41
1.0
 50
0.0
 71
     0
 42
2.0
  3
txt
  4

  0
ENDTAB
  0
TABLE
  2
VIEW
  5
6
330
0
100
AcDbSymbolTable
 70
     0
  0
ENDTAB
  0
TABLE
  2
UCS
  5
7
330
0
100
AcDbSymbolTable
 70
     0
  0
ENDTAB
  0
TABLE
  2
APPID
  5
9
330
0
100
AcDbSymbolTable
 70
     1
  0
APPID
  5
12
330
9
100
AcDbSymbolTableRecord
100
AcDbRegAppTableRecord
  2
ACAD
 70
     0
  0
ENDTAB
  0
TABLE
  2
DIMSTYLE
  5
A
330
0
100
AcDbSymbolTable
 70
     1
100
AcDbDimStyleTable
  0
DIMSTYLE
105
27
330
A
100
AcDbSymbolTableRecord
100
AcDbDimStyleTableRecord
  2
ISO-25
 70
     0
 41
2.5
 42
0.625
 43
3.75
 44
1.25
 73
     0
 74
     0
 77
     1
 78
     8
140
2.5
141
2.5
143
0.0393700787
147
0.625
171
     3
172
     1
178
     0
271
     2
272
     2
274
     3
278
    44
283
     0
284
     8
340
11
  0
ENDTAB
  0
TABLE
  2
BLOCK_RECORD
  5
1
330
0
100
AcDbSymbolTable
 70
     1
  0
BLOCK_RECORD
  5
1F
330
1
100
AcDbSymbolTableRecord
100
AcDbBlockTableRecord
  2
*Model_Space
340
22
  0
BLOCK_RECORD
  5
1B
330
1
100
AcDbSymbolTableRecord
100
AcDbBlockTableRecord
  2
*Paper_Space
340
1E
  0
BLOCK_RECORD
  5
23
330
1
100
AcDbSymbolTableRecord
100
AcDbBlockTableRecord
  2
*Paper_Space0
340
26
  0
ENDTAB
  0
ENDSEC
  0
SECTION
  2
BLOCKS
  0
BLOCK
  5
20
330
1F
100
AcDbEntity
  8
0
100
AcDbBlockBegin
  2
*Model_Space
 70
     0
 10
0.0
 20
0.0
 30
0.0
  3
*Model_Space
  1

  0
ENDBLK
  5
21
330
1F
100
AcDbEntity
  8
0
100
AcDbBlockEnd
  0
BLOCK
  5
1C
330
1B
100
AcDbEntity
 67
     1
  8
0
100
AcDbBlockBegin
  2
*Paper_Space
 70
     0
 10
0.0
 20
0.0
 30
0.0
  3
*Paper_Space
  1

  0
ENDBLK
  5
1D
330
1B
100
AcDbEntity
 67
     1
  8
0
100
AcDbBlockEnd
  0
BLOCK
  5
24
330
23
100
AcDbEntity
  8
0
100
AcDbBlockBegin
  2
*Paper_Space0
 70
     0
 10
0.0
 20
0.0
 30
0.0
  3
*Paper_Space0
  1

  0
ENDBLK
  5
25
330
23
100
AcDbEntity
  8
0
100
AcDbBlockEnd
  0
ENDSEC
  0
SECTION
  2
ENTITIES
  0
ARC
  5
7F
330
1F
100
AcDbEntity
  8
0
  6
Continuous
 62
     7
370
    25
100
AcDbCircle
 10
6406.2055781552
 20
5167.4577867226
 30
0.0
 40
0.7521593192831603
100
AcDbArc
 50
15.3083338788
 51
70.7612320046
  0
ARC
  5
80
330
1F
100
AcDbEntity
  8
0
  6
Continuous
 62
     7
370
    25
100
AcDbCircle
 10
6406.2055781552
 20
5152.3621053612
 30
0.0
 40
0.7521593192829201
100
AcDbArc
 50
289.2387679954
 51
344.6916661213
  0
ARC
  5
81
330
1F
100
AcDbEntity
  8
0
  6
Continuous
 62
     7
370
    25
100
AcDbCircle
 10
6378.6310783358
 20
5159.9099460419
 30
0.0
 40
29.34101972379746
100
AcDbArc
 50
344.6916661213
 51
15.3083338787
  0
ARC
  5
82
330
1F
100
AcDbEntity
  8
0
  6
Continuous
 62
     7
370
    25
100
AcDbCircle
 10
6372.4534188359
 20
5281.9099460419
 30
0.0
 40
145.0
100
AcDbArc
 50
270.0
 51
273.5350070953
  0
ARC
  5
83
330
1F
100
AcDbEntity
  8
0
  6
Continuous
 62
     7
370
    25
100
AcDbCircle
 10
6372.4534188359
 20
5037.9099460419
 30
0.0
 40
144.9999999999993
100
AcDbArc
 50
86.4655072461
 51
90.0
  0
ARC
  5
84
330
1F
100
AcDbEntity
  8
0
  6
Continuous
 62
     7
370
    25
100
AcDbCircle
 10
6356.9534188359
 20
5137.3099460419
 30
0.0
 40
0.5
100
AcDbArc
 50
180.0
 51
270.0
  0
ARC
  5
85
330
1F
100
AcDbEntity
  8
0
  6
Continuous
 62
     7
370
    25
100
AcDbCircle
 10
6356.9534188359
 20
5182.5099460419
 30
0.0
 40
0.5
100
AcDbArc
 50
90.0
 51
180.0
  0
LINE
  5
86
330
1F
100
AcDbEntity
  8
0
  6
Continuous
 62
     7
370
    25
100
AcDbLine
 10
6367.4534185975
 20
5183.0099459167
 30
0.0
 11
6356.9534196703
 21
5183.0099459167
 31
0.0
  0
LINE
  5
87
330
1F
100
AcDbEntity
  8
0
  6
Continuous
 62
     7
370
    25
100
AcDbLine
 10
6356.9534196703
 20
5136.8099461671
 30
0.0
 11
6367.4534185975
 21
5136.8099461671
 31
0.0
  0
LINE
  5
88
330
1F
100
AcDbEntity
  8
0
  6
Continuous
 62
     7
370
    25
100
AcDbLine
 10
6372.4534212797
 20
5182.9099460866
 30
0.0
 11
6367.4534185975
 21
5182.9099460866
 31
0.0
  0
LINE
  5
89
330
1F
100
AcDbEntity
  8
0
  6
Continuous
 62
     7
370
    25
100
AcDbLine
 10
6367.4534185975
 20
5136.9099459972
 30
0.0
 11
6372.4534212797
 21
5136.9099459972
 31
0.0
  0
ARC
  5
8A
330
1F
100
AcDbEntity
  8
0
  6
Continuous
 62
     7
370
    25
100
AcDbCircle
 10
6398.4534188359
 20
5172.4201687017
 30
0.0
 40
8.0
100
AcDbArc
 50
0.0
 51
28.754891135
  0
ARC
  5
8B
330
1F
100
AcDbEntity
  8
0
  6
Continuous
 62
     7
370
    25
100
AcDbCircle
 10
6398.4534188359
 20
5147.3997233821
 30
0.0
 40
8.0
100
AcDbArc
 50
331.2144714258
 51
0.0
  0
SPLINE
  5
8C
330
1F
100
AcDbEntity
  8
0
  6
Continuous
 62
     7
370
    25
100
AcDbSpline
210
0.0
220
0.0
230
1.0
 70
     8
 71
     3
 72
    14
 73
    10
 74
     0
 42
0.000000001
 43
0.00000001
 40
0.0
 40
0.0
 40
0.0
 40
0.0
 40
0.0518784072082163
 40
0.2377909681657184
 40
0.4246693423755489
 40
0.613887680491225
 40
0.8053013759290579
 40
0.9977043934379645
 40
1.0
 40
1.0
 40
1.0
 40
1.0
 10
6393.425412401433
 20
5167.811053002977
 30
0.0
 10
6393.428799165609
 20
5167.887644440058
 30
0.0
 10
6393.444322809757
 20
5168.238710576366
 30
0.0
 10
6393.228363029858
 20
5168.854450201123
 30
0.0
 10
6392.792150405304
 20
5169.575871801795
 30
0.0
 10
6392.146542804311
 20
5170.16021061111
 30
0.0
 10
6391.363556421801
 20
5170.531879400695
 30
0.0
 10
6390.780775503334
 20
5170.675494185422
 30
0.0
 10
6390.488840475319
 20
5170.658079542713
 30
0.0
 10
6390.485398396726
 20
5170.657874214256
 30
0.0
  0
SPLINE
  5
8D
330
1F
100
AcDbEntity
  8
0
  6
Continuous
 62
     7
370
    25
100
AcDbSpline
210
0.0
220
0.0
230
1.0
 70
     8
 71
     3
 72
    13
 73
     9
 74
     0
 42
0.000000001
 43
0.00000001
 40
0.0
 40
0.0
 40
0.0
 40
0.0
 40
0.0812570340708264
 40
0.266547317515659
 40
0.4535225964826528
 40
0.6420009941961788
 40
0.8301048241732497
 40
1.0
 40
1.0
 40
1.0
 40
1.0
 10
6381.395593210931
 20
5170.515915508175
 30
0.0
 10
6381.269910007692
 20
5170.515268745136
 30
0.0
 10
6380.85763159927
 20
5170.513147169387
 30
0.0
 10
6380.182852608847
 20
5170.256216036579
 30
0.0
 10
6379.448783774333
 20
5169.77444750968
 30
0.0
 10
6378.881135956725
 20
5169.094896136587
 30
0.0
 10
6378.515699773875
 20
5168.314671520918
 30
0.0
 10
6378.480460875426
 20
5167.766341866441
 30
0.0
 10
6378.463737591977
 20
5167.506121693903
 30
0.0
  0
SPLINE
  5
8E
330
1F
100
AcDbEntity
  8
0
  6
Continuous
 62
     7
370
    25
100
AcDbSpline
210
0.0
220
0.0
230
1.0
 70
     8
 71
     3
 72
    11
 73
     7
 74
     0
 42
0.000000001
 43
0.00000001
 40
0.0
 40
0.0
 40
0.0
 40
0.0
 40
0.1607023398602535
 40
0.4661869954473141
 40
0.7717415813009788
 40
1.0
 40
1.0
 40
1.0
 40
1.0
 10
6390.486501082654
 20
5170.658797154927
 30
0.0
 10
6389.999459372171
 20
5170.672774630796
 30
0.0
 10
6388.586583169712
 20
5170.713322375681
 30
0.0
 10
6386.234882862758
 20
5170.720393077843
 30
0.0
 10
6383.682887216131
 20
5170.665087287378
 30
0.0
 10
6382.08021694839
 20
5170.58119976861
 30
0.0
 10
6381.394915208097
 20
5170.545329469049
 30
0.0
  0
LINE
  5
8F
330
1F
100
AcDbEntity
  8
0
  6
Continuous
 62
     7
370
    25
100
AcDbLine
 10
6165.8534183352
 20
5182.9099460866
 30
0.0
 11
6150.4534184186
 21
5182.9099460866
 31
0.0
  0
LINE
  5
90
330
1F
100
AcDbEntity
  8
0
  6
Continuous
 62
     7
370
    25
100
AcDbLine
 10
6150.4534184186
 20
5136.9099459972
 30
0.0
 11
6165.8534183352
 21
5136.9099459972
 31
0.0
  0
ARC
  5
91
330
1F
100
AcDbEntity
  8
0
  6
Continuous
 62
     7
370
    25
100
AcDbCircle
 10
6150.4534188359
 20
5177.9099460419
 30
0.0
 40
5.0
100
AcDbArc
 50
90.0
 51
180.0
  0
ARC
  5
92
330
1F
100
AcDbEntity
  8
0
  6
Continuous
 62
     7
370
    25
100
AcDbCircle
 10
6150.4534188359
 20
5141.9099460419
 30
0.0
 40
5.0
100
AcDbArc
 50
180.0
 51
270.0
  0
LINE
  5
93
330
1F
100
AcDbEntity
  8
0
  6
Continuous
 62
     7
370
    25
100
AcDbLine
 10
6165.953420028
 20
5179.9099455949
 30
0.0
 11
6165.8534183352
 21
5179.9099455949
 31
0.0
  0
LINE
  5
94
330
1F
100
AcDbEntity
  8
0
  6
Continuous
 62
     7
370
    25
100
AcDbLine
 10
6165.8534183352
 20
5139.9099464889
 30
0.0
 11
6165.953420028
 21
5139.9099464889
 31
0.0
  0
SPLINE
  5
95
330
1F
100
AcDbEntity
  8
0
  6
Continuous
 62
     7
370
    25
100
AcDbSpline
210
0.0
220
0.0
230
1.0
 70
     8
 71
     3
 72
     9
 73
     5
 74
     0
 42
0.000000001
 43
0.00000001
 40
0.0
 40
0.0
 40
0.0
 40
0.0
 40
0.577748176467823
 40
1.0
 40
1.0
 40
1.0
 40
1.0
 10
6248.367126956458
 20
5287.395683246457
 30
0.0
 10
6248.420899263184
 20
5287.359618288056
 30
0.0
 10
6248.513971485505
 20
5287.29719496961
 30
0.0
 10
6248.650693123011
 20
5287.244719442655
 30
0.0
 10
6248.708424083765
 20
5287.222561555707
 30
0.0
  0
SPLINE
  5
96
330
1F
100
AcDbEntity
  8
0
  6
Continuous
 62
     7
370
    25
100
AcDbSpline
210
0.0
220
0.0
230
1.0
 70
     8
 71
     3
 72
    11
 73
     7
 74
     0
 42
0.000000001
 43
0.00000001
 40
0.0
 40
0.0
 40
0.0
 40
0.0
 40
0.2166235444373228
 40
0.4720496956920545
 40
0.7585836731523165
 40
0.9999999999999999
 40
0.9999999999999999
 40
0.9999999999999999
 40
0.9999999999999999
 10
6246.763348504777
 20
5289.288354235494
 30
0.0
 10
6246.784209227925
 20
5289.120075606165
 30
0.0
 10
6246.829667343014
 20
5288.753375504511
 30
0.0
 10
6247.177221757566
 20
5288.250959084296
 30
0.0
 10
6247.65469295657
 20
5287.789213660162
 30
0.0
 10
6248.143575281081
 20
5287.519167503679
 30
0.0
 10
6248.367126956458
 20
5287.395683246457
 30
0.0
  0
SPLINE
  5
97
330
1F
100
AcDbEntity
  8
0
  6
Continuous
 62
     7
370
    25
100
AcDbSpline
210
0.0
220
0.0
230
1.0
 70
     8
 71
     3
 72
    11
 73
     7
 74
     0
 42
0.000000001
 43
0.00000001
 40
0.0
 40
0.0
 40
0.0
 40
0.0
 40
0.153777055397692
 40
0.4687980983788324
 40
0.7592688868827735
 40
1.0
 40
1.0
 40
1.0
 40
1.0
 10
6273.665888160343
 20
5287.47048707565
 30
0.0
 10
6273.802456978213
 20
5287.543522221738
 30
0.0
 10
6274.218794785887
 20
5287.766174017952
 30
0.0
 10
6274.666099254035
 20
5288.180183199398
 30
0.0
 10
6275.05204702464
 20
5288.694518604578
 30
0.0
 10
6275.118878037896
 20
5289.077774366984
 30
0.0
 10
6275.14916464674
 20
5289.251458960378
 30
0.0
  0
SPLINE
  5
98
330
1F
100
AcDbEntity
  8
0
  6
Continuous
 62
     7
370
    25
100
AcDbSpline
210
0.0
220
0.0
230
1.0
 70
     8
 71
     3
 72
    60
 73
    56
 74
     0
 42
0.000000001
 43
0.00000001
 40
0.0
 40
0.0
 40
0.0
 40
0.0
 40
0.0226143242210265
 40
0.0416930375827824
 40
0.0570589746211878
 40
0.0686976372144142
 40
0.0796244254026884
 40
0.1034942033190964
 40
0.130495980572687
 40
0.1648437841698692
 40
0.2001725027903475
 40
0.2347941341058273
 40
0.2688343282909693
 40
0.3135978678002698
 40
0.3575872593105716
 40
0.400413317591093
 40
0.4182860880894446
 40
0.4357906366179798
 40
0.4525436188164799
 40
0.4683774806145838
 40
0.48327484212737
 40
0.4978410240399077
 40
0.5154752141094535
 40
0.5391491535418326
 40
0.5605924304234942
 40
0.5763815679368129
 40
0.5911895603559807
 40
0.6095893941369621
 40
0.6286049814398119
 40
0.6454197598551127
 40
0.6576342490651657
 40
0.6692937617249808
 40
0.6822931332732403
 40
0.6984418359940794
 40
0.7176068655909162
 40
0.7373449481028841
 40
0.7566436706394708
 40
0.7823283971475771
 40
0.8066641429399468
 40
0.8292434514296023
 40
0.8498140727488119
 40
0.8679347011745631
 40
0.8831876832216281
 40
0.8929803292687409
 40
0.9014541583299617
 40
0.909035522621331
 40
0.9171200627520549
 40
0.9220712430499376
 40
0.9276745325550914
 40
0.9341247399259159
 40
0.9427331167240209
 40
0.9537307867861543
 40
0.9670632449990786
 40
0.9825625531020221
 40
1.0
 40
1.0
 40
1.0
 40
1.0
 10
6276.453396230812
 20
5183.159946593249
 30
0.0
 10
6276.429752887117
 20
5184.698007167018
 30
0.0
 10
6276.386162691466
 20
5187.533661979429
 30
0.0
 10
6276.35437084805
 20
5191.415582697591
 30
0.0
 10
6276.337316188471
 20
5194.550516613584
 30
0.0
 10
6276.328810127593
 20
5197.128856943269
 30
0.0
 10
6276.322840053567
 20
5200.280607902308
 30
0.0
 10
6276.322759390689
 20
5204.466862484338
 30
0.0
 10
6276.332475723373
 20
5210.213790718734
 30
0.0
 10
6276.348928707002
 20
5216.687519569382
 30
0.0
 10
6276.360812035474
 20
5223.584263428407
 30
0.0
 10
6276.354146012404
 20
5230.326718340159
 30
0.0
 10
6276.316209273742
 20
5237.484215746882
 30
0.0
 10
6276.227917170673
 20
5244.919808989576
 30
0.0
 10
6276.074774703905
 20
5252.403634189076
 30
0.0
 10
6275.940321710423
 20
5257.948165233219
 30
0.0
 10
6275.849556175463
 20
5261.857016790726
 30
0.0
 10
6275.794279414768
 20
5264.362666058229
 30
0.0
 10
6275.747209629602
 20
5266.688729526888
 30
0.0
 10
6275.709041169558
 20
5268.819407724503
 30
0.0
 10
6275.679251741928
 20
5270.780906813585
 30
0.0
 10
6275.655494378213
 20
5272.743252474115
 30
0.0
 10
6275.637117464796
 20
5274.967284657991
 30
0.0
 10
6275.630993858464
 20
5277.332726813551
 30
0.0
 10
6275.643514366826
 20
5279.483167499334
 30
0.0
 10
6275.669274365927
 20
5281.228857789307
 30
0.0
 10
6275.703983927705
 20
5282.710884764359
 30
0.0
 10
6275.750808154363
 20
5284.090150741777
 30
0.0
 10
6275.811700249051
 20
5285.332363620188
 30
0.0
 10
6275.856887776569
 20
5286.069242653654
 30
0.0
 10
6275.906542151954
 20
5286.706557727343
 30
0.0
 10
6275.973910979645
 20
5287.374240113154
 30
0.0
 10
6276.067686402289
 20
5288.17505894943
 30
0.0
 10
6276.18722027131
 20
5289.083993280647
 30
0.0
 10
6276.318680769048
 20
5289.956040811077
 30
0.0
 10
6276.433148157603
 20
5290.943251051355
 30
0.0
 10
6276.424324272543
 20
5292.370246672265
 30
0.0
 10
6276.187446545683
 20
5294.284569251646
 30
0.0
 10
6275.908388174423
 20
5295.959795644585
 30
0.0
 10
6275.681973561051
 20
5297.343689820085
 30
0.0
 10
6275.537905405766
 20
5298.505418871655
 30
0.0
 10
6275.468349182214
 20
5299.454429984537
 30
0.0
 10
6275.440092927297
 20
5300.479888344525
 30
0.0
 10
6275.478387151747
 20
5301.613087573295
 30
0.0
 10
6275.384831667873
 20
5302.756778187585
 30
0.0
 10
6275.088797112769
 20
5304.149845404294
 30
0.0
 10
6274.603358677295
 20
5305.435325617832
 30
0.0
 10
6274.059357526151
 20
5306.469639428673
 30
0.0
 10
6273.481387439251
 20
5307.365032204515
 30
0.0
 10
6272.678027550709
 20
5308.371131787197
 30
0.0
 10
6271.502404706979
 20
5309.533363193626
 30
0.0
 10
6269.780679881995
 20
5310.803694938403
 30
0.0
 10
6267.413206543412
 20
5311.9980653773
 30
0.0
 10
6264.388805589225
 20
5312.924092299901
 30
0.0
 10
6262.142606392747
 20
5313.05071690637
 30
0.0
 10
6260.953418835874
 20
5313.117754774892
 30
0.0
  0
SPLINE
  5
99
330
1F
100
AcDbEntity
  8
0
  6
Continuous
 62
     7
370
    25
100
AcDbSpline
210
0.0
220
0.0
230
1.0
 70
     8
 71
     3
 72
    13
 73
     9
 74
     0
 42
0.000000001
 43
0.00000001
 40
0.0
 40
0.0
 40
0.0
 40
0.0
 40
0.2288476689443864
 40
0.4764154059077925
 40
0.6778271550807852
 40
0.8430887713935609
 40
0.9823729114357741
 40
0.9999999999999999
 40
0.9999999999999999
 40
0.9999999999999999
 40
0.9999999999999999
 10
6275.161162875469
 20
5289.318082052076
 30
0.0
 10
6275.169441694983
 20
5289.769280305788
 30
0.0
 10
6275.186676553338
 20
5290.708585478435
 30
0.0
 10
6275.208326704051
 20
5291.898608473733
 30
0.0
 10
6275.223450467112
 20
5292.825581109921
 30
0.0
 10
6275.225926691772
 20
5293.33792170127
 30
0.0
 10
6275.22508401121
 20
5293.560296075281
 30
0.0
 10
6275.215798065927
 20
5293.514786806547
 30
0.0
 10
6275.214754901703
 20
5293.509674387777
 30
0.0
  0
SPLINE
  5
9A
330
1F
100
AcDbEntity
  8
0
  6
Continuous
 62
     7
370
    25
100
AcDbSpline
210
0.0
220
0.0
230
1.0
 70
     8
 71
     3
 72
    54
 73
    50
 74
     0
 42
0.000000001
 43
0.00000001
 40
0.0
 40
0.0
 40
0.0
 40
0.0
 40
0.0153199378430236
 40
0.029124264249241
 40
0.0412124546225267
 40
0.0514047468317795
 40
0.0597268115057543
 40
0.0667819572414503
 40
0.0728156670597137
 40
0.0780934300731983
 40
0.0829865386922152
 40
0.0875778632821726
 40
0.092309387464357
 40
0.0975888889741103
 40
0.1036666762868889
 40
0.1106724716708344
 40
0.1186568323578061
 40
0.1275318741506002
 40
0.1438463719837866
 40
0.1575647107959811
 40
0.1691527140632872
 40
0.1789309927769294
 40
0.1856297265653529
 40
0.1934571590215139
 40
0.2037135895380935
 40
0.2163536506257448
 40
0.2313181019881968
 40
0.2801256289510881
 40
0.3097977265640029
 40
0.3468192723390851
 40
0.3807089468211226
 40
0.4142825651963031
 40
0.446987162596466
 40
0.4778832040964942
 40
0.505963556154524
 40
0.5328548059788674
 40
0.5609611512624533
 40
0.5917767774236617
 40
0.6250752871177279
 40
0.6588977351709002
 40
0.6921099216307136
 40
0.7249661057436028
 40
0.7685635860514313
 40
0.8120635893203091
 40
0.85556140133676
 40
0.888199170685733
 40
0.9221312129788191
 40
0.9595536787166367
 40
1.0
 40
1.0
 40
1.0
 40
1.0
 10
6260.953418835874
 20
5313.117754774892
 30
0.0
 10
6259.922964002031
 20
5313.069791907356
 30
0.0
 10
6257.96399790274
 20
5312.978611170033
 30
0.0
 10
6255.351926772827
 20
5312.301526607098
 30
0.0
 10
6253.271174413252
 20
5311.436768543918
 30
0.0
 10
6251.70064838428
 20
5310.508086625163
 30
0.0
 10
6250.588145441307
 20
5309.669709401949
 30
0.0
 10
6249.649541814007
 20
5308.80929665761
 30
0.0
 10
6248.859424525794
 20
5307.93400400265
 30
0.0
 10
6248.197610355396
 20
5307.04097746979
 30
0.0
 10
6247.689936905203
 20
5306.207456448911
 30
0.0
 10
6247.259809837802
 20
5305.32520869279
 30
0.0
 10
6246.936283462823
 20
5304.468733861161
 30
0.0
 10
6246.706677640234
 20
5303.656298816715
 30
0.0
 10
6246.555352837949
 20
5302.878572452594
 30
0.0
 10
6246.469888292381
 20
5302.12742210106
 30
0.0
 10
6246.438508840594
 20
5301.393443081572
 30
0.0
 10
6246.459784992189
 20
5300.519319873416
 30
0.0
 10
6246.433391148759
 20
5299.466938163921
 30
0.0
 10
6246.336098983742
 20
5298.259945581232
 30
0.0
 10
6246.193454163713
 20
5297.149396151022
 30
0.0
 10
6246.0463685423
 20
5296.209183371759
 30
0.0
 10
6245.884510038964
 20
5295.270291633779
 30
0.0
 10
6245.751360495419
 20
5294.538018898424
 30
0.0
 10
6245.632666426758
 20
5293.853351966393
 30
0.0
 10
6245.530100943434
 20
5293.126481663208
 30
0.0
 10
6245.419058353197
 20
5291.820201448018
 30
0.0
 10
6245.536546423617
 20
5290.152356283897
 30
0.0
 10
6245.854631736029
 20
5288.092818733832
 30
0.0
 10
6246.017557147155
 20
5286.684672128679
 30
0.0
 10
6246.142172410935
 20
5284.563514878229
 30
0.0
 10
6246.232234660698
 20
5281.866480264796
 30
0.0
 10
6246.274326473874
 20
5278.681535028432
 30
0.0
 10
6246.273813529728
 20
5275.29702916501
 30
0.0
 10
6246.243920649476
 20
5271.866411666632
 30
0.0
 10
6246.19143694951
 20
5268.32621589838
 30
0.0
 10
6246.115034466009
 20
5264.407707355817
 30
0.0
 10
6246.013016178988
 20
5259.913841312596
 30
0.0
 10
6245.891822127197
 20
5254.860734122369
 30
0.0
 10
6245.767403041855
 20
5249.390812753501
 30
0.0
 10
6245.663429645972
 20
5243.64930831367
 30
0.0
 10
6245.586192909605
 20
5237.051704691644
 30
0.0
 10
6245.546802793163
 20
5229.512943512058
 30
0.0
 10
6245.547057476897
 20
5221.035685651392
 30
0.0
 10
6245.566938728004
 20
5213.106753860172
 30
0.0
 10
6245.583717732633
 20
5205.734775348199
 30
0.0
 10
6245.585030875747
 20
5198.724876130334
 30
0.0
 10
6245.563575564013
 20
5191.163388524446
 30
0.0
 10
6245.491091071571
 20
5185.895943613078
 30
0.0
 10
6245.453441440935
 20
5183.159946593249
 30
0.0
  0
SPLINE
  5
9B
330
1F
100
AcDbEntity
  8
0
  6
Continuous
 62
     7
370
    25
100
AcDbSpline
210
0.0
220
0.0
230
1.0
 70
     8
 71
     3
 72
    13
 73
     9
 74
     0
 42
0.000000001
 43
0.00000001
 40
0.0
 40
0.0
 40
0.0
 40
0.0
 40
0.0249187508611221
 40
0.1541170075458753
 40
0.3154213617460396
 40
0.5147814437219138
 40
0.7621055333831592
 40
1.0
 40
1.0
 40
1.0
 40
1.0
 10
6246.768777184065
 20
5292.947215157354
 30
0.0
 10
6246.768565429657
 20
5292.951298374922
 30
0.0
 10
6246.767255775098
 20
5292.976552179824
 30
0.0
 10
6246.767864280578
 20
5292.813519089243
 30
0.0
 10
6246.760446519332
 20
5292.43411442177
 30
0.0
 10
6246.747858969167
 20
5291.690782565938
 30
0.0
 10
6246.73500781652
 20
5290.639581457956
 30
0.0
 10
6246.745355145827
 20
5289.727170473516
 30
0.0
 10
6246.7504282667
 20
5289.279830771291
 30
0.0
  0
ARC
  5
9C
330
1F
100
AcDbEntity
  8
0
  6
Continuous
 62
     7
370
    25
100
AcDbCircle
 10
6250.4534188359
 20
5280.4975435506
 30
0.0
 40
0.5
100
AcDbArc
 50
180.0
 51
240.0043293887
  0
SPLINE
  5
9D
330
1F
100
AcDbEntity
  8
0
  6
Continuous
 62
     7
370
    25
100
AcDbSpline
210
0.0
220
0.0
230
1.0
 70
     8
 71
     3
 72
     9
 73
     5
 74
     0
 42
0.000000001
 43
0.00000001
 40
0.0
 40
0.0
 40
0.0
 40
0.0
 40
0.4862208375885462
 40
1.0
 40
1.0
 40
1.0
 40
1.0
 10
6271.420536488171
 20
5279.922497588002
 30
0.0
 10
6271.471307732158
 20
5279.944318695265
 30
0.0
 10
6271.575727864049
 20
5279.98919769998
 30
0.0
 10
6271.660058400801
 20
5280.038950931264
 30
0.0
 10
6271.70338567334
 20
5280.06451310476
 30
0.0
  0
SPLINE
  5
9E
330
1F
100
AcDbEntity
  8
0
  6
Continuous
 62
     7
370
    25
100
AcDbSpline
210
0.0
220
0.0
230
1.0
 70
     8
 71
     3
 72
    10
 73
     6
 74
     0
 42
0.000000001
 43
0.00000001
 40
0.0
 40
0.0
 40
0.0
 40
0.0
 40
0.3139606304797363
 40
0.931595359493094
 40
1.0
 40
1.0
 40
1.0
 40
1.0
 10
6250.203451998408
 20
5280.06451310476
 30
0.0
 10
6250.34082283544
 20
5279.991084403751
 30
0.0
 10
6250.748434560875
 20
5279.773204101343
 30
0.0
 10
6251.253236512674
 20
5279.5547675052
 30
0.0
 10
6251.695947940542
 20
5279.428446100557
 30
0.0
 10
6251.740090474363
 20
5279.415850656831
 30
0.0
  0
ARC
  5
9F
330
1F
100
AcDbEntity
  8
0
  6
Continuous
 62
     7
370
    25
100
AcDbCircle
 10
6271.4534188359
 20
5280.4975435506
 30
0.0
 40
0.5
100
AcDbArc
 50
299.9956706114
 51
0.0
  0
LINE
  5
A0
330
1F
100
AcDbEntity
  8
0
  6
Continuous
 62
     7
370
    25
100
AcDbLine
 10
6355.9534176438
 20
5142.4099459674
 30
0.0
 11
6356.4534186571
 21
5142.4099459674
 31
0.0
  0
LINE
  5
A1
330
1F
100
AcDbEntity
  8
0
  6
Continuous
 62
     7
370
    25
100
AcDbLine
 10
6356.4534186571
 20
5177.4099461164
 30
0.0
 11
6355.9534176438
 21
5177.4099461164
 31
0.0
  0
SPLINE
  5
A2
330
1F
100
AcDbEntity
  8
0
  6
Continuous
 62
     7
370
    25
100
AcDbSpline
210
0.0
220
0.0
230
1.0
 70
    11
 71
     3
 72
    46
 73
    42
 74
     0
 42
0.000000001
 43
0.00000001
 40
0.0
 40
0.0
 40
0.0
 40
0.0
 40
0.0250263837298471
 40
0.0500587425835189
 40
0.0750195006648868
 40
0.0999894447974553
 40
0.1262897601200344
 40
0.1525909810533877
 40
0.1805394117837177
 40
0.2084705193426208
 40
0.2348673483484051
 40
0.261256935044297
 40
0.2850949326135504
 40
0.3089422245264463
 40
0.3333350855558508
 40
0.3577358969874671
 40
0.3846897343824192
 40
0.4116392831244675
 40
0.4394884462550062
 40
0.4673227946332087
 40
0.4931123583186274
 40
0.5188999402786316
 40
0.5430669085259977
 40
0.5672415299004306
 40
0.5921636209430572
 40
0.6170929978087967
 40
0.6441546854454034
 40
0.671211498891139
 40
0.6990524250581759
 40
0.7268742459420658
 40
0.7522324546125373
 40
0.7775916406754478
 40
0.8012244697951247
 40
0.8248674600349227
 40
0.8500621400548931
 40
0.8752619123349406
 40
0.9028800926776106
 40
0.930488523347843
 40
0.9578569658722276
 40
0.9852131221952488
 40
1.0
 40
1.0
 40
1.0
 40
1.0
 10
6221.953418031211
 20
5159.909946041906
 30
0.0
 10
6221.925725243428
 20
5160.494804209444
 30
0.0
 10
6221.870333056126
 20
5161.664660181154
 30
0.0
 10
6221.442335131773
 20
5163.3655581034
 30
0.0
 10
6220.773688805023
 20
5164.963096391209
 30
0.0
 10
6219.855773253843
 20
5166.451135310818
 30
0.0
 10
6218.698327313154
 20
5167.787733279948
 30
0.0
 10
6217.291296998965
 20
5168.965247623244
 30
0.0
 10
6215.662383860866
 20
5169.910552420878
 30
0.0
 10
6213.875782052252
 20
5170.572357827264
 30
0.0
 10
6212.018501626933
 20
5170.907537205222
 30
0.0
 10
6210.219041608192
 20
5170.93385477832
 30
0.0
 10
6208.506141751333
 20
5170.675392773792
 30
0.0
 10
6206.907125093908
 20
5170.184855189465
 30
0.0
 10
6205.40499249976
 20
5169.455692318196
 30
0.0
 10
6203.979821875092
 20
5168.477853496823
 30
0.0
 10
6202.690376838828
 20
5167.245910871801
 30
0.0
 10
6201.568803831096
 20
5165.752357082766
 30
0.0
 10
6200.705905410093
 20
5164.054146307242
 30
0.0
 10
6200.147364682083
 20
5162.241286288509
 30
0.0
 10
6199.91699014697
 20
5160.394839549633
 30
0.0
 10
6199.981564330466
 20
5158.618257200188
 30
0.0
 10
6200.324474217337
 20
5156.921066848429
 30
0.0
 10
6200.9056610772
 20
5155.325010369617
 30
0.0
 10
6201.730430155363
 20
5153.836951969404
 30
0.0
 10
6202.80488821304
 20
5152.448861402158
 30
0.0
 10
6204.12357915416
 20
5151.223393602477
 30
0.0
 10
6205.685967408305
 20
5150.190651129022
 30
0.0
 10
6207.436527816005
 20
5149.430567686628
 30
0.0
 10
6209.272986385025
 20
5148.984387736361
 30
0.0
 10
6211.11164013999
 20
5148.865607706486
 30
0.0
 10
6212.847327693054
 20
5149.027976219379
 30
0.0
 10
6214.483547944646
 20
5149.450411084873
 30
0.0
 10
6216.023269186089
 20
5150.099072567176
 30
0.0
 10
6217.463576587391
 20
5150.989276825089
 30
0.0
 10
6218.813509433618
 20
5152.143386076812
 30
0.0
 10
6219.991978378376
 20
5153.549706632775
 30
0.0
 10
6220.950765802754
 20
5155.18775956153
 30
0.0
 10
6221.607784647489
 20
5156.98044766959
 30
0.0
 10
6221.916046708106
 20
5158.580497158157
 30
0.0
 10
6221.943711267764
 20
5159.564637266179
 30
0.0
 10
6221.953418031211
 20
5159.909946041906
 30
0.0
  0
SPLINE
  5
A3
330
1F
100
AcDbEntity
  8
0
  6
Continuous
 62
     7
370
    25
100
AcDbSpline
210
0.0
220
0.0
230
1.0
 70
     8
 71
     3
 72
    12
 73
     8
 74
     0
 42
0.000000001
 43
0.00000001
 40
0.0
 40
0.0
 40
0.0
 40
0.0
 40
0.2149533117923645
 40
0.4298536195215283
 40
0.6459256115811168
 40
0.8615268658864
 40
1.0
 40
1.0
 40
1.0
 40
1.0
 10
6381.453417166944
 20
5164.037768858278
 30
0.0
 10
6381.115581710688
 20
5164.077220432043
 30
0.0
 10
6380.439994103018
 20
5164.156113851445
 30
0.0
 10
6379.541019141682
 20
5164.682424161075
 30
0.0
 10
6378.8614177848
 20
5165.439228325445
 30
0.0
 10
6378.503568600636
 20
5166.261501205359
 30
0.0
 10
6378.467517555819
 20
5166.792280893628
 30
0.0
 10
6378.453418537851
 20
5166.999860795939
 30
0.0
  0
SPLINE
  5
A4
330
1F
100
AcDbEntity
  8
0
  6
Continuous
 62
     7
370
    25
100
AcDbSpline
210
0.0
220
0.0
230
1.0
 70
     8
 71
     3
 72
     9
 73
     5
 74
     0
 42
0.000000001
 43
0.00000001
 40
0.0
 40
0.0
 40
0.0
 40
0.0
 40
0.4887436368471464
 40
1.0
 40
1.0
 40
1.0
 40
1.0
 10
6390.453420504804
 20
5163.774412254596
 30
0.0
 10
6388.99049540253
 20
5163.828129595037
 30
0.0
 10
6385.99725929267
 20
5163.938038627896
 30
0.0
 10
6382.990593953477
 20
5164.004030231183
 30
0.0
 10
6381.453417166944
 20
5164.037768858278
 30
0.0
  0
SPLINE
  5
A5
330
1F
100
AcDbEntity
  8
0
  6
Continuous
 62
     7
370
    25
100
AcDbSpline
210
0.0
220
0.0
230
1.0
 70
     8
 71
     3
 72
    12
 73
     8
 74
     0
 42
0.000000001
 43
0.00000001
 40
0.0
 40
0.0
 40
0.0
 40
0.0
 40
0.2142842904710424
 40
0.4285731035589945
 40
0.6427023103277301
 40
0.8563170622403475
 40
1.0
 40
1.0
 40
1.0
 40
1.0
 10
6393.453411683317
 20
5166.564545257741
 30
0.0
 10
6393.420269256158
 20
5166.243990519035
 30
0.0
 10
6393.353983702349
 20
5165.602874276093
 30
0.0
 10
6392.837093562541
 20
5164.75111639541
 30
0.0
 10
6392.077516540252
 20
5164.117588706039
 30
0.0
 10
6391.233911877216
 20
5163.794989427406
 30
0.0
 10
6390.677268069247
 20
5163.780313857329
 30
0.0
 10
6390.453420504804
 20
5163.774412254596
 30
0.0
  0
SPLINE
  5
A6
330
1F
100
AcDbEntity
  8
0
  6
Continuous
 62
     7
370
    25
100
AcDbSpline
210
0.0
220
0.0
230
1.0
 70
     8
 71
     3
 72
    13
 73
     9
 74
     0
 42
0.000000001
 43
0.00000001
 40
0.0
 40
0.0
 40
0.0
 40
0.0
 40
0.3222923554994406
 40
0.4865347806517625
 40
0.6507010923435347
 40
0.7739083749480068
 40
0.8981567963448038
 40
1.0
 40
1.0
 40
1.0
 40
1.0
 10
6399.971671327825
 20
5179.850478785836
 30
0.0
 10
6397.91155612374
 20
5180.239330882628
 30
0.0
 10
6394.80159188837
 20
5180.8263447115
 30
0.0
 10
6390.667515608196
 20
5181.504482684461
 30
0.0
 10
6387.831605643037
 20
5181.930273489954
 30
0.0
 10
6385.307497355314
 20
5182.261918377859
 30
0.0
 10
6383.213890972624
 20
5182.501652700486
 30
0.0
 10
6381.958263714776
 20
5182.588360562594
 30
0.0
 10
6381.392665132757
 20
5182.627418207729
 30
0.0
  0
LINE
  5
A7
330
1F
100
AcDbEntity
  8
0
  6
Continuous
 62
     7
370
    25
100
AcDbLine
 10
6399.9716713278
 20
5179.8504787858
 30
0.0
 11
6399.9716713278
 21
5146.2374284293
 31
0.0
  0
SPLINE
  5
A8
330
1F
100
AcDbEntity
  8
0
  6
Continuous
 62
     7
370
    25
100
AcDbSpline
210
0.0
220
0.0
230
1.0
 70
     8
 71
     3
 72
    27
 73
    23
 74
     0
 42
0.000000001
 43
0.00000001
 40
0.0
 40
0.0
 40
0.0
 40
0.0
 40
0.1098061993415159
 40
0.1657642019713398
 40
0.221696272463218
 40
0.2636734500262044
 40
0.3060053474322818
 40
0.3480347200188896
 40
0.3910444538951979
 40
0.4367432373122049
 40
0.4594822350263715
 40
0.4831019589874717
 40
0.5225695357319757
 40
0.5570477947156273
 40
0.5821350929090516
 40
0.6079297907265417
 40
0.6472890904410135
 40
0.6876841010476965
 40
0.7589587068677008
 40
0.8319956708974675
 40
0.9155602939467528
 40
1.0
 40
1.0
 40
1.0
 40
1.0
 10
6399.971671327825
 20
5139.969413297975
 30
0.0
 10
6397.911624491176
 20
5139.580605331665
 30
0.0
 10
6394.801763463762
 20
5138.993658122472
 30
0.0
 10
6390.667200092221
 20
5138.315205737014
 30
0.0
 10
6387.83268711807
 20
5137.890316674934
 30
0.0
 10
6385.30454928651
 20
5137.556070757683
 30
0.0
 10
6383.096102828105
 20
5137.310688515853
 30
0.0
 10
6380.98255698618
 20
5137.143877915565
 30
0.0
 10
6379.00874851211
 20
5137.096143226195
 30
0.0
 10
6377.623024671613
 20
5137.226395668476
 30
0.0
 10
6376.839797527075
 20
5137.498022894346
 30
0.0
 10
6376.399963402207
 20
5137.867100948179
 30
0.0
 10
6376.452076257145
 20
5138.47425097706
 30
0.0
 10
6377.14452925898
 20
5139.215660121054
 30
0.0
 10
6378.050592497329
 20
5139.873432550877
 30
0.0
 10
6379.213890341406
 20
5140.561259391368
 30
0.0
 10
6380.792264020608
 20
5141.330521659203
 30
0.0
 10
6383.27349901028
 20
5142.34131394298
 30
0.0
 10
6386.544001555842
 20
5143.42061407241
 30
0.0
 10
6390.73137158425
 20
5144.519377116977
 30
0.0
 10
6395.239993983946
 20
5145.474339681926
 30
0.0
 10
6398.388978182355
 20
5145.982183778833
 30
0.0
 10
6399.971671327825
 20
5146.237428429329
 30
0.0
  0
LINE
  5
A9
330
1F
100
AcDbEntity
  8
0
  6
Continuous
 62
     7
370
    25
100
AcDbLine
 10
6356.4534186571
 20
5138.4227882501
 30
0.0
 11
6356.4534186571
 21
5182.5099467661
 31
0.0
  0
LINE
  5
AA
330
1F
100
AcDbEntity
  8
0
  6
Continuous
 62
     7
370
    25
100
AcDbLine
 10
6356.4534186571
 20
5137.3099453177
 30
0.0
 11
6356.4534186571
 21
5138.4227882501
 31
0.0
  0
LINE
  5
AB
330
1F
100
AcDbEntity
  8
0
  6
Continuous
 62
     7
370
    25
100
AcDbLine
 10
6367.4534185975
 20
5183.0099459167
 30
0.0
 11
6367.4534185975
 21
5136.8099461671
 31
0.0
  0
ARC
  5
AC
330
1F
100
AcDbEntity
  8
0
  6
Continuous
 62
     7
370
    25
100
AcDbCircle
 10
6387.1833925113
 20
5064.3464437324
 30
0.0
 40
101.8740036685497
100
AcDbArc
 50
88.1008003082
 51
93.329004685
  0
ARC
  5
AD
330
1F
100
AcDbEntity
  8
0
  6
Continuous
 62
     7
370
    25
100
AcDbCircle
 10
6384.9040438006
 20
5166.0076272658
 30
0.0
 40
5.657752114672979
100
AcDbArc
 50
348.7674917137
 51
1.5887029675
  0
ARC
  5
AE
330
1F
100
AcDbEntity
  8
0
  6
Continuous
 62
     7
370
    25
100
AcDbCircle
 10
6387.1832881925
 20
5066.2868691601
 30
0.0
 40
98.67288238257792
100
AcDbArc
 50
88.1008044904
 51
93.3290019044
  0
ARC
  5
AF
330
1F
100
AcDbEntity
  8
0
  6
Continuous
 62
     7
370
    25
100
AcDbCircle
 10
6384.5738241915
 20
5165.8964722615
 30
0.0
 40
3.309690013562309
100
AcDbArc
 50
177.3665496994
 51
199.4711502671
  0
SPLINE
  5
B0
330
1F
100
AcDbEntity
  8
0
  6
Continuous
 62
     7
370
    25
100
AcDbSpline
210
0.0
220
0.0
230
1.0
 70
     8
 71
     3
 72
    12
 73
     8
 74
     0
 42
0.000000001
 43
0.00000001
 40
0.0
 40
0.0
 40
0.0
 40
0.0
 40
0.1501055273764546
 40
0.3683234420420406
 40
0.5818917902799114
 40
0.7916204754960453
 40
1.0
 40
1.0
 40
1.0
 40
1.0
 10
6390.559621080632
 20
5166.164485866928
 30
0.0
 10
6390.718663319151
 20
5166.169040638937
 30
0.0
 10
6391.108915335482
 20
5166.180216971571
 30
0.0
 10
6391.689812308599
 20
5166.390009855342
 30
0.0
 10
6392.206076148665
 20
5166.795489066167
 30
0.0
 10
6392.5567388875
 20
5167.342912049694
 30
0.0
 10
6392.60196480088
 20
5167.765668484878
 30
0.0
 10
6392.624504789586
 20
5167.976364622617
 30
0.0
  0
LWPOLYLINE
  5
B1
330
1F
100
AcDbEntity
  8
0
  6
Continuous
 62
     7
370
    25
100
AcDbPolyline
 90
        9
 70
   128
 43
0.0
 10
6393.4534116833
 20
5167.6710035082
 10
6393.4381677954
 20
5167.7249224286
 10
6393.3928831665
 20
5167.7771957021
 10
6393.3189585059
 20
5167.8262316983
 10
6393.2186289875
 20
5167.8705328505
 10
6393.0949642508
 20
5167.9087487411
 10
6392.9517193882
 20
5167.9397142853
 10
6392.7932902424
 20
5167.962484191
 10
6392.6245047896
 20
5167.9763646226
  0
SPLINE
  5
B2
330
1F
100
AcDbEntity
  8
0
  6
Continuous
 62
     7
370
    25
100
AcDbSpline
210
0.0
220
0.0
230
1.0
 70
     8
 71
     3
 72
    12
 73
     8
 74
     0
 42
0.000000001
 43
0.00000001
 40
0.0
 40
0.0
 40
0.0
 40
0.0
 40
0.2120879810651578
 40
0.423799978307487
 40
0.6368172193132519
 40
0.8523152468179241
 40
1.0
 40
1.0
 40
1.0
 40
1.0
 10
6393.453411683317
 20
5167.671003508174
 30
0.0
 10
6393.420909216404
 20
5167.354758844476
 30
0.0
 10
6393.355961902069
 20
5166.722830147046
 30
0.0
 10
6392.849484053531
 20
5165.892579122317
 30
0.0
 10
6392.099937543288
 20
5165.269249043888
 30
0.0
 10
6391.253065846822
 20
5164.93933195312
 30
0.0
 10
6390.684586936686
 20
5164.915314965534
 30
0.0
 10
6390.453420504804
 20
5164.905548690611
 30
0.0
  0
SPLINE
  5
B3
330
1F
100
AcDbEntity
  8
0
  6
Continuous
 62
     7
370
    25
100
AcDbSpline
210
0.0
220
0.0
230
1.0
 70
     8
 71
     3
 72
    12
 73
     8
 74
     0
 42
0.000000001
 43
0.00000001
 40
0.0
 40
0.0
 40
0.0
 40
0.0
 40
0.1225113443891457
 40
0.335085001429114
 40
0.5543846086902797
 40
0.7764732413531691
 40
1.0
 40
1.0
 40
1.0
 40
1.0
 10
6379.202745780225
 20
5167.806863914037
 30
0.0
 10
6379.210780752308
 20
5167.68245517057
 30
0.0
 10
6379.232757481443
 20
5167.342180527517
 30
0.0
 10
6379.466429823117
 20
5166.825578250984
 30
0.0
 10
6379.934556114383
 20
5166.364147706472
 30
0.0
 10
6380.560476753144
 20
5166.070608178442
 30
0.0
 10
6381.031405304281
 20
5166.055911823688
 30
0.0
 10
6381.267629489179
 20
5166.048539931679
 30
0.0
  0
SPLINE
  5
B4
330
1F
100
AcDbEntity
  8
0
  6
Continuous
 62
     7
370
    25
100
AcDbSpline
210
0.0
220
0.0
230
1.0
 70
     8
 71
     3
 72
    12
 73
     8
 74
     0
 42
0.000000001
 43
0.00000001
 40
0.0
 40
0.0
 40
0.0
 40
0.0
 40
0.1601792673325032
 40
0.3791698196206171
 40
0.5901551353228764
 40
0.795709164121291
 40
1.0
 40
1.0
 40
1.0
 40
1.0
 10
6381.267629489179
 20
5169.851577038669
 30
0.0
 10
6381.098697925955
 20
5169.830117017253
 30
0.0
 10
6380.698810028959
 20
5169.779317731022
 30
0.0
 10
6380.116100091964
 20
5169.495667818883
 30
0.0
 10
6379.610751530432
 20
5169.02799716272
 30
0.0
 10
6379.268929440287
 20
5168.441477489659
 30
0.0
 10
6379.224761623342
 20
5168.017966668211
 30
0.0
 10
6379.202745780225
 20
5167.806863914037
 30
0.0
  0
ARC
  5
B5
330
1F
100
AcDbEntity
  8
0
  6
Continuous
 62
     7
370
    25
100
AcDbCircle
 10
6387.1833848081
 20
5068.1492803379
 30
0.0
 40
101.8742033844127
100
AcDbArc
 50
88.100799698
 51
93.3289938117
  0
SPLINE
  5
B6
330
1F
100
AcDbEntity
  8
0
  6
Continuous
 62
     7
370
    25
100
AcDbSpline
210
0.0
220
0.0
230
1.0
 70
     8
 71
     3
 72
    12
 73
     8
 74
     0
 42
0.000000001
 43
0.00000001
 40
0.0
 40
0.0
 40
0.0
 40
0.0
 40
0.132813512129112
 40
0.3455382542763181
 40
0.5619149135905499
 40
0.780245222829939
 40
1.0
 40
1.0
 40
1.0
 40
1.0
 10
6392.624504789586
 20
5167.976364622617
 30
0.0
 10
6392.615230117965
 20
5168.111472979745
 30
0.0
 10
6392.591100390578
 20
5168.462981686293
 30
0.0
 10
6392.347364108834
 20
5169.01219130909
 30
0.0
 10
6391.879021653502
 20
5169.522203871261
 30
0.0
 10
6391.258424347872
 20
5169.879431892184
 30
0.0
 10
6390.79305989269
 20
5169.938095076481
 30
0.0
 10
6390.559621080632
 20
5169.967522042596
 30
0.0
  0
SPLINE
  5
B7
330
1F
100
AcDbEntity
  8
0
  6
Continuous
 62
     7
370
    25
100
AcDbSpline
210
0.0
220
0.0
230
1.0
 70
     8
 71
     3
 72
    12
 73
     8
 74
     0
 42
0.000000001
 43
0.00000001
 40
0.0
 40
0.0
 40
0.0
 40
0.0
 40
0.2194073609843133
 40
0.4389035331769783
 40
0.6586420134644296
 40
0.874700750150374
 40
1.0
 40
1.0
 40
1.0
 40
1.0
 10
6381.453417166944
 20
5164.793246089273
 30
0.0
 10
6381.109851265725
 20
5164.812070317848
 30
0.0
 10
6380.422580395468
 20
5164.849726394624
 30
0.0
 10
6379.510768940405
 20
5165.316954739196
 30
0.0
 10
6378.832594479541
 20
5166.029916459382
 30
0.0
 10
6378.496781056835
 20
5166.811032959974
 30
0.0
 10
6378.465061539773
 20
5167.320005130862
 30
0.0
 10
6378.453418537851
 20
5167.506829033398
 30
0.0
  0
LWPOLYLINE
  5
B8
330
1F
100
AcDbEntity
  8
0
  6
Continuous
 62
     7
370
    25
100
AcDbPolyline
 90
        9
 70
   128
 43
0.0
 10
6379.2027457802
 20
5167.806863914
 10
6379.0474384277
 20
5167.7900684427
 10
6378.9031132309
 20
5167.7656091179
 10
6378.7736817448
 20
5167.7341481101
 10
6378.6626382916
 20
5167.6965366479
 10
6378.5729929059
 20
5167.6537917357
 10
6378.5071670263
 20
5167.6070705417
 10
6378.4669487922
 20
5167.5576373365
 10
6378.4534185379
 20
5167.5068290334
  0
SPLINE
  5
B9
330
1F
100
AcDbEntity
  8
0
  6
Continuous
 62
     7
370
    25
100
AcDbSpline
210
0.0
220
0.0
230
1.0
 70
     8
 71
     3
 72
    12
 73
     8
 74
     0
 42
0.000000001
 43
0.00000001
 40
0.0
 40
0.0
 40
0.0
 40
0.0
 40
0.0606572070955569
 40
0.3536192380391551
 40
0.6487275253509516
 40
0.9132629824635401
 40
1.0
 40
1.0
 40
1.0
 40
1.0
 10
6405.440904125448
 20
5176.255188080275
 30
0.0
 10
6405.410390265832
 20
5176.330496377215
 30
0.0
 10
6405.232500641439
 20
5176.769528503109
 30
0.0
 10
6404.39539464726
 20
5177.751416157806
 30
0.0
 10
6402.795019865243
 20
5178.927159579817
 30
0.0
 10
6401.148992188995
 20
5179.593535478019
 30
0.0
 10
6400.204810796269
 20
5179.799597477112
 30
0.0
 10
6399.971671327825
 20
5179.850478785836
 30
0.0
  0
SPLINE
  5
BA
330
1F
100
AcDbEntity
  8
0
  6
Continuous
 62
     7
370
    25
100
AcDbSpline
210
0.0
220
0.0
230
1.0
 70
     8
 71
     3
 72
    20
 73
    16
 74
     0
 42
0.000000001
 43
0.00000001
 40
0.0
 40
0.0
 40
0.0
 40
0.0
 40
0.0755672283143387
 40
0.1510842855318828
 40
0.2274503091499958
 40
0.2838557355879857
 40
0.3418398224936411
 40
0.4203223536371598
 40
0.5002314414693609
 40
0.6038384784736831
 40
0.7108003885374136
 40
0.8009959019987041
 40
0.8918521928806237
 40
0.9732958915952215
 40
1.0
 40
1.0
 40
1.0
 40
1.0
 10
6399.971671327825
 20
5146.237428429329
 30
0.0
 10
6400.629752910897
 20
5146.338791500997
 30
0.0
 10
6401.945479159139
 20
5146.541450346688
 30
0.0
 10
6403.587790675398
 20
5146.77950065742
 30
0.0
 10
6404.674278342724
 20
5146.862372217603
 30
0.0
 10
6405.333831308044
 20
5146.799541805226
 30
0.0
 10
6405.763125884486
 20
5146.614748247331
 30
0.0
 10
6406.006151867467
 20
5146.253245317845
 30
0.0
 10
6406.08832803218
 20
5145.619473558384
 30
0.0
 10
6405.972553267633
 20
5144.681057124238
 30
0.0
 10
6405.489668957091
 20
5143.439617869963
 30
0.0
 10
6404.42382441123
 20
5142.079755334935
 30
0.0
 10
6402.788035994748
 20
5140.889961677923
 30
0.0
 10
6401.149444111858
 20
5140.226535904599
 30
0.0
 10
6400.204900288487
 20
5140.020330112423
 30
0.0
 10
6399.971671327825
 20
5139.969413297975
 30
0.0
  0
LINE
  5
BB
330
1F
100
AcDbEntity
  8
0
  6
Continuous
 62
     7
370
    25
100
AcDbLine
 10
6406.4534231274
 20
5172.4201684247
 30
0.0
 11
6406.4534231274
 21
5147.3997236591
 31
0.0
  0
LINE
  5
BC
330
1F
100
AcDbEntity
  8
0
  6
Continuous
 62
     7
370
    25
100
AcDbLine
 10
6381.4534171669
 20
5164.7932460893
 30
0.0
 11
6381.4534171669
 21
5164.0377688583
 31
0.0
  0
LINE
  5
BD
330
1F
100
AcDbEntity
  8
0
  6
Continuous
 62
     7
370
    25
100
AcDbLine
 10
6390.4534205048
 20
5163.7744122546
 30
0.0
 11
6390.4534205048
 21
5164.9055486906
 31
0.0
  0
LINE
  5
BE
330
1F
100
AcDbEntity
  8
0
  6
Continuous
 62
     7
370
    25
100
AcDbLine
 10
6393.4534116833
 20
5167.6710035082
 30
0.0
 11
6393.4534116833
 21
5166.5645452577
 31
0.0
  0
LINE
  5
BF
330
1F
100
AcDbEntity
  8
0
  6
Continuous
 62
     7
370
    25
100
AcDbLine
 10
6378.4534185379
 20
5166.9998607959
 30
0.0
 11
6378.4534185379
 21
5167.5068290334
 31
0.0
  0
ARC
  5
C0
330
1F
100
AcDbEntity
  8
0
  6
Continuous
 62
     7
370
    25
100
AcDbCircle
 10
6335.9534188359
 20
5159.9099460419
 30
0.0
 40
34.99999999999999
100
AcDbArc
 50
267.2175530615
 51
318.7001272083
  0
ARC
  5
C1
330
1F
100
AcDbEntity
  8
0
  6
Continuous
 62
     7
370
    25
100
AcDbCircle
 10
6335.9534188359
 20
5159.9099460419
 30
0.0
 40
35.00000000000082
100
AcDbArc
 50
41.2998727917
 51
138.3724493481
  0
ARC
  5
C2
330
1F
100
AcDbEntity
  8
0
  6
Continuous
 62
     7
370
    25
100
AcDbCircle
 10
6335.9534188359
 20
5159.9099460419
 30
0.0
 40
35.00000000000082
100
AcDbArc
 50
221.6275506519
 51
267.2175530615
  0
ARC
  5
C3
330
1F
100
AcDbEntity
  8
0
  6
Continuous
 62
     7
370
    25
100
AcDbCircle
 10
6185.9534188359
 20
5159.9099460419
 30
0.0
 40
35.00000000000028
100
AcDbArc
 50
221.0823331405
 51
318.3724493481
  0
ARC
  5
C4
330
1F
100
AcDbEntity
  8
0
  6
Continuous
 62
     7
370
    25
100
AcDbCircle
 10
6185.9534188359
 20
5159.9099460419
 30
0.0
 40
35.00000000000028
100
AcDbArc
 50
41.6275506519
 51
138.9176668595
  0
LINE
  5
C5
330
1F
100
AcDbEntity
  8
0
  6
Continuous
 62
     7
370
    25
100
AcDbLine
 10
6165.8534183352
 20
5182.9095903214
 30
0.0
 11
6165.8534183352
 21
5136.9099459972
 31
0.0
  0
LINE
  5
C6
330
1F
100
AcDbEntity
  8
0
  6
Continuous
 62
     7
370
    25
100
AcDbLine
 10
6145.4534157364
 20
5177.9096677329
 30
0.0
 11
6145.4534157364
 21
5141.9099468168
 31
0.0
  0
LINE
  5
C7
330
1F
100
AcDbEntity
  8
0
  6
Continuous
 62
     7
370
    25
100
AcDbLine
 10
6260.9534188359
 20
5292.3428091582
 30
0.0
 11
6260.9534188359
 21
5292.9543826159
 31
0.0
  0
SPLINE
  5
C8
330
1F
100
AcDbEntity
  8
0
  6
Continuous
 62
     7
370
    25
100
AcDbSpline
210
0.0
220
0.0
230
1.0
 70
     8
 71
     3
 72
    14
 73
    10
 74
     0
 42
0.000000001
 43
0.00000001
 40
0.0
 40
0.0
 40
0.0
 40
0.0
 40
0.143437991386806
 40
0.2910186331355594
 40
0.4344554590672147
 40
0.5820162376590376
 40
0.7256393177137618
 40
0.8734299969995147
 40
1.0
 40
1.0
 40
1.0
 40
1.0
 10
6260.953418835874
 20
5292.34280915817
 30
0.0
 10
6260.193366162324
 20
5292.333559078261
 30
0.0
 10
6258.651309639998
 20
5292.314791765742
 30
0.0
 10
6256.412366443799
 20
5292.1651944973
 30
0.0
 10
6254.284891266253
 20
5291.927140620696
 30
0.0
 10
6252.35845877423
 20
5291.605297444962
 30
0.0
 10
6250.672500880338
 20
5291.201175150168
 30
0.0
 10
6249.309797761405
 20
5290.758063636422
 30
0.0
 10
6248.689363413728
 20
5290.427522287778
 30
0.0
 10
6248.403140269096
 20
5290.275034623945
 30
0.0
  0
SPLINE
  5
C9
330
1F
100
AcDbEntity
  8
0
  6
Continuous
 62
     7
370
    25
100
AcDbSpline
210
0.0
220
0.0
230
1.0
 70
     8
 71
     3
 72
     9
 73
     5
 74
     0
 42
0.000000001
 43
0.00000001
 40
0.0
 40
0.0
 40
0.0
 40
0.0
 40
0.8759469799191313
 40
1.0
 40
1.0
 40
1.0
 40
1.0
 10
6248.938510119791
 20
5287.19700606426
 30
0.0
 10
6249.184963614674
 20
5287.068817310795
 30
0.0
 10
6249.466320249873
 20
5286.922474259899
 30
0.0
 10
6249.899661593123
 20
5286.804112621937
 30
0.0
 10
6249.953418895479
 20
5286.789429503286
 30
0.0
  0
LINE
  5
CA
330
1F
100
AcDbEntity
  8
0
  6
Continuous
 62
     7
370
    25
100
AcDbLine
 10
6275.1140062882
 20
5289.3193933543
 30
0.0
 11
6275.110191591
 21
5289.2753902253
 31
0.0
  0
SPLINE
  5
CB
330
1F
100
AcDbEntity
  8
0
  6
Continuous
 62
     7
370
    25
100
AcDbSpline
210
0.0
220
0.0
230
1.0
 70
     8
 71
     3
 72
    10
 73
     6
 74
     0
 42
0.000000001
 43
0.00000001
 40
0.0
 40
0.0
 40
0.0
 40
0.0
 40
0.0653729917376335
 40
0.9028145642157862
 40
1.0
 40
1.0
 40
1.0
 40
1.0
 10
6271.953418776269
 20
5286.790025549733
 30
0.0
 10
6271.995718524605
 20
5286.80176149717
 30
0.0
 10
6272.579886815587
 20
5286.963837363512
 30
0.0
 10
6273.084884578357
 20
5287.178748064817
 30
0.0
 10
6273.388287661141
 20
5287.391784930201
 30
0.0
 10
6273.41983646142
 20
5287.41393716892
 30
0.0
  0
SPLINE
  5
CC
330
1F
100
AcDbEntity
  8
0
  6
Continuous
 62
     7
370
    25
100
AcDbSpline
210
0.0
220
0.0
230
1.0
 70
     8
 71
     3
 72
    14
 73
    10
 74
     0
 42
0.000000001
 43
0.00000001
 40
0.0
 40
0.0
 40
0.0
 40
0.0
 40
0.1139828274949456
 40
0.261793186189432
 40
0.4095975867310293
 40
0.5571905664170906
 40
0.704789245837067
 40
0.8523919925001864
 40
1.0
 40
1.0
 40
1.0
 40
1.0
 10
6273.39833874243
 20
5290.325132327878
 30
0.0
 10
6273.14427245402
 20
5290.460491426492
 30
0.0
 10
6272.560738735757
 20
5290.771381149834
 30
0.0
 10
6271.239765101871
 20
5291.19871348883
 30
0.0
 10
6269.566133442671
 20
5291.602003391217
 30
0.0
 10
6267.631210803629
 20
5291.925546220535
 30
0.0
 10
6265.515312250723
 20
5292.163492784644
 30
0.0
 10
6263.266420705428
 20
5292.313991472026
 30
0.0
 10
6261.724428618807
 20
5292.333203148668
 30
0.0
 10
6260.953418835874
 20
5292.34280915817
 30
0.0
  0
ARC
  5
CD
330
1F
100
AcDbEntity
  8
0
  6
Continuous
 62
     7
370
    25
100
AcDbCircle
 10
6271.887498632
 20
5290.0377323743
 30
0.0
 40
0.0670760852150366
100
AcDbArc
 50
10.6523953398
 51
68.6359545747
  0
LWPOLYLINE
  5
CE
330
1F
100
AcDbEntity
  8
0
  6
Continuous
 62
     7
370
    25
100
AcDbPolyline
 90
       16
 70
   128
 43
0.0
 10
6271.9119339435
 20
5290.1001992997
 10
6271.0464512183
 20
5290.5099216278
 10
6269.9397689848
 20
5290.8812436636
 10
6268.6183349414
 20
5291.2053290184
 10
6267.1137283741
 20
5291.4743992861
 10
6265.4619057848
 20
5291.6820469674
 10
6263.7023410479
 20
5291.8232950743
 10
6261.8770840181
 20
5291.8947759446
 10
6260.0297536537
 20
5291.8947759446
 10
6258.2044966238
 20
5291.8232950743
 10
6256.444931887
 20
5291.6820469674
 10
6254.7931092976
 20
5291.4743992861
 10
6253.2885027303
 20
5291.2053290184
 10
6251.967068687
 20
5290.8812436636
 10
6250.8603864534
 20
5290.5099216278
 10
6249.9949037282
 20
5290.1001992997
  0
ARC
  5
CF
330
1F
100
AcDbEntity
  8
0
  6
Continuous
 62
     7
370
    25
100
AcDbCircle
 10
6250.0193390397
 20
5290.0377323743
 30
0.0
 40
0.0670760852157752
100
AcDbArc
 50
111.364045426
 51
169.3476046603
  0
LINE
  5
D0
330
1F
100
AcDbEntity
  8
0
  6
Continuous
 62
     7
370
    25
100
AcDbLine
 10
6260.9534188359
 20
5183.1599465932
 30
0.0
 11
6276.4534185826
 21
5183.1599465932
 31
0.0
  0
LINE
  5
D1
330
1F
100
AcDbEntity
  8
0
  6
Continuous
 62
     7
370
    25
100
AcDbLine
 10
6260.9534188359
 20
5183.1599465932
 30
0.0
 11
6245.4534190892
 21
5183.1599465932
 31
0.0
  0
LWPOLYLINE
  5
D2
330
1F
100
AcDbEntity
  8
0
  6
Continuous
 62
     7
370
    25
100
AcDbPolyline
 90
       16
 70
   128
 43
0.0
 10
6249.9949037282
 20
5282.8403833683
 10
6250.8603864534
 20
5283.2501056965
 10
6251.967068687
 20
5283.6214351829
 10
6253.2885027303
 20
5283.9455130871
 10
6254.7931092976
 20
5284.2145908054
 10
6256.444931887
 20
5284.422231036
 10
6258.2044966238
 20
5284.563479143
 10
6260.0297536537
 20
5284.6349600132
 10
6261.8770840181
 20
5284.6349600132
 10
6263.7023410479
 20
5284.563479143
 10
6265.4619057848
 20
5284.422231036
 10
6267.1137283741
 20
5284.2145908054
 10
6268.6183349414
 20
5283.9455130871
 10
6269.9397689848
 20
5283.6214351829
 10
6271.0464512183
 20
5283.2501056965
 10
6271.9119339435
 20
5282.8403833683
  0
ARC
  5
D3
330
1F
100
AcDbEntity
  8
0
  6
Continuous
 62
     7
370
    25
100
AcDbCircle
 10
6271.3746116864
 20
5282.8378509125
 30
0.0
 40
0.5373282249555074
100
AcDbArc
 50
278.4336821015
 51
0.2700389877
  0
LWPOLYLINE
  5
D4
330
1F
100
AcDbEntity
  8
0
  6
Continuous
 62
     7
370
    25
100
AcDbPolyline
 90
       15
 70
   128
 43
0.0
 10
6271.4534186943
 20
5282.3063332017
 10
6270.555801615
 20
5282.7256518777
 10
6269.3948353826
 20
5283.1020254072
 10
6268.0023614502
 20
5283.4251421865
 10
6266.4165677688
 20
5283.6861285742
 10
6264.6809452398
 20
5283.8778394636
 10
6262.8430945751
 20
5283.995007294
 10
6260.9534188359
 20
5284.0344208654
 10
6259.0637430967
 20
5283.995007294
 10
6257.2258924319
 20
5283.8778394636
 10
6255.490269903
 20
5283.6861285742
 10
6253.9044762215
 20
5283.4251421865
 10
6252.5120022892
 20
5283.1020254072
 10
6251.3510360568
 20
5282.7256518777
 10
6250.510993339
 20
5282.3390114482
  0
ARC
  5
D5
330
1F
100
AcDbEntity
  8
0
  6
Continuous
 62
     7
370
    25
100
AcDbCircle
 10
6250.5322259854
 20
5282.8378509125
 30
0.0
 40
0.5373282249564169
100
AcDbArc
 50
179.7299610123
 51
261.5663178984
  0
LINE
  5
D6
330
1F
100
AcDbEntity
  8
0
  6
Continuous
 62
     7
370
    25
100
AcDbLine
 10
6249.9949037282
 20
5290.1001992997
 30
0.0
 11
6249.9949037282
 21
5282.8403833683
 31
0.0
  0
LINE
  5
D7
330
1F
100
AcDbEntity
  8
0
  6
Continuous
 62
     7
370
    25
100
AcDbLine
 10
6271.9119339435
 20
5282.8403833683
 30
0.0
 11
6271.9119339435
 21
5290.1001992997
 31
0.0
  0
LINE
  5
D8
330
1F
100
AcDbEntity
  8
0
  6
Continuous
 62
     7
370
    25
100
AcDbLine
 10
6271.4534186943
 20
5280.0135585841
 30
0.0
 11
6271.4534186943
 21
5282.3063332017
 31
0.0
  0
LWPOLYLINE
  5
D9
330
1F
100
AcDbEntity
  8
0
  6
Continuous
 62
     7
370
    25
100
AcDbPolyline
 90
       14
 70
   128
 43
0.0
 10
6251.896916814
 20
5279.4011506613
 10
6252.5120022892
 20
5279.2178663786
 10
6253.9044762215
 20
5278.8947495993
 10
6255.490269903
 20
5278.6337632116
 10
6257.2258924319
 20
5278.4420523222
 10
6259.0637430967
 20
5278.3248844918
 10
6260.9534188359
 20
5278.2854709204
 10
6262.8430945751
 20
5278.3248844918
 10
6264.6809452398
 20
5278.4420523222
 10
6266.4165677688
 20
5278.6337632116
 10
6268.0023614502
 20
5278.8947495993
 10
6269.3948353826
 20
5279.2178663786
 10
6270.555801615
 20
5279.5942399081
 10
6271.2118680774
 20
5279.8831436213
  0
LINE
  5
DA
330
1F
100
AcDbEntity
  8
0
  6
Continuous
 62
     7
370
    25
100
AcDbLine
 10
6250.4534189774
 20
5282.3063332017
 30
0.0
 11
6250.4534189774
 21
5280.0135585841
 31
0.0
  0
ARC
  5
DB
330
1F
100
AcDbEntity
  8
0
  6
Continuous
 62
     7
370
    25
100
AcDbCircle
 10
6271.4612909581
 20
5282.7984654169
 30
0.0
 40
0.4921951744494811
100
AcDbArc
 50
269.0835612689
 51
359.0520993123
  0
ARC
  5
DC
330
1F
100
AcDbEntity
  8
0
  6
Continuous
 62
     7
370
    25
100
AcDbCircle
 10
6271.8875214087
 20
5282.777933472
 30
0.0
 40
0.0670519307058956
100
AcDbArc
 50
10.6479493321
 51
68.6487789105
  0
ARC
  5
DD
330
1F
100
AcDbEntity
  8
0
  6
Continuous
 62
     7
370
    25
100
AcDbCircle
 10
6250.4455467137
 20
5282.7984654169
 30
0.0
 40
0.4921951744503759
100
AcDbArc
 50
180.9479006878
 51
270.916438731
  0
ARC
  5
DE
330
1F
100
AcDbEntity
  8
0
  6
Continuous
 62
     7
370
    25
100
AcDbCircle
 10
6250.0193162631
 20
5282.777933472
 30
0.0
 40
0.0670519307058956
100
AcDbArc
 50
111.3512210895
 51
169.3520506679
  0
LINE
  5
DF
330
1F
100
AcDbEntity
  8
0
  6
Continuous
 62
     7
370
    25
100
AcDbLine
 10
6271.9534187763
 20
5290.050131398
 30
0.0
 11
6271.9534187763
 21
5282.7903229173
 31
0.0
  0
LINE
  5
E0
330
1F
100
AcDbEntity
  8
0
  6
Continuous
 62
     7
370
    25
100
AcDbLine
 10
6249.9534188955
 20
5282.7903229173
 30
0.0
 11
6249.9534188955
 21
5290.050131398
 31
0.0
  0
LINE
  5
E1
330
1F
100
AcDbEntity
  8
0
  6
Continuous
 62
     7
370
    25
100
AcDbLine
 10
6271.9534187763
 20
5282.7903229173
 30
0.0
 11
6271.9534187763
 21
5280.4975408491
 31
0.0
  0
ARC
  5
E2
330
1F
100
AcDbEntity
  8
0
  6
Continuous
 62
     7
370
    25
100
AcDbCircle
 10
6271.4613055875
 20
5280.5056758111
 30
0.0
 40
0.4921804224007248
100
AcDbArc
 50
269.0818305392
 51
359.0529484862
  0
ARC
  5
E3
330
1F
100
AcDbEntity
  8
0
  6
Continuous
 62
     7
370
    25
100
AcDbCircle
 10
6250.4455320843
 20
5280.5056758111
 30
0.0
 40
0.4921804224007248
100
AcDbArc
 50
180.9470515138
 51
270.9181694608
  0
LINE
  5
E4
330
1F
100
AcDbEntity
  8
0
  6
Continuous
 62
     7
370
    25
100
AcDbLine
 10
6249.9534188955
 20
5280.4975408491
 30
0.0
 11
6249.9534188955
 21
5282.7903229173
 31
0.0
  0
LINE
  5
E5
330
1F
100
AcDbEntity
  8
0
  6
Continuous
 62
     7
370
    25
100
AcDbLine
 10
6165.953420028
 20
5136.6599454906
 30
0.0
 11
6355.9534176438
 21
5136.6599454906
 31
0.0
  0
LINE
  5
E6
330
1F
100
AcDbEntity
  8
0
  6
Continuous
 62
     7
370
    25
100
AcDbLine
 10
6165.953420028
 20
5136.6599454906
 30
0.0
 11
6165.953420028
 21
5183.1599465932
 31
0.0
  0
LINE
  5
E7
330
1F
100
AcDbEntity
  8
0
  6
Continuous
 62
     7
370
    25
100
AcDbLine
 10
6165.953420028
 20
5183.1599465932
 30
0.0
 11
6355.9534176438
 21
5183.1599465932
 31
0.0
  0
LINE
  5
E8
330
1F
100
AcDbEntity
  8
0
  6
Continuous
 62
     7
370
    25
100
AcDbLine
 10
6355.9534176438
 20
5136.6599454906
 30
0.0
 11
6355.9534176438
 21
5183.1599465932
 31
0.0
  0
LINE
  5
E9
330
1F
100
AcDbEntity
  8
0
  6
Continuous
 62
     8
370
    25
100
AcDbLine
 10
6406.9310500472
 20
5167.6563668426
 30
0.0
 11
6406.9310500472
 21
5152.1635252412
 31
0.0
  0
LINE
  5
EA
330
1F
100
AcDbEntity
  8
0
  6
Continuous
 62
     8
370
    25
100
AcDbLine
 10
6372.4534212797
 20
5182.9099460866
 30
0.0
 11
6372.4534212797
 21
5136.9099459972
 31
0.0
  0
LINE
  5
EB
330
1F
100
AcDbEntity
  8
0
  6
Continuous
 62
     8
370
    25
100
AcDbLine
 10
6356.9534196703
 20
5137.947409543
 30
0.0
 11
6356.9534196703
 21
5136.8099461671
 31
0.0
  0
LINE
  5
EC
330
1F
100
AcDbEntity
  8
0
  6
Continuous
 62
     8
370
    25
100
AcDbLine
 10
6356.9534196703
 20
5183.0099459167
 30
0.0
 11
6356.9534196703
 21
5137.947409543
 31
0.0
  0
ARC
  5
ED
330
1F
100
AcDbEntity
  8
0
  6
Continuous
 62
     8
370
    25
100
AcDbCircle
 10
6388.8891818102
 20
5170.1404714708
 30
0.0
 40
1.679368589985496
100
AcDbArc
 50
354.0889257036
 51
17.9774152172
  0
ARC
  5
EE
330
1F
100
AcDbEntity
  8
0
  6
Continuous
 62
     8
370
    25
100
AcDbCircle
 10
6382.3049917243
 20
5170.0202335668
 30
0.0
 40
1.050983078489494
100
AcDbArc
 50
150.0263089364
 51
189.2344690126
  0
ARC
  5
EF
330
1F
100
AcDbEntity
  8
0
  6
Continuous
 62
     8
370
    25
100
AcDbCircle
 10
6335.9534188359
 20
5159.9099460419
 30
0.0
 40
34.80620935801809
100
AcDbArc
 50
267.2175530615
 51
318.4192690706
  0
ARC
  5
F0
330
1F
100
AcDbEntity
  8
0
  6
Continuous
 62
     8
370
    25
100
AcDbCircle
 10
6335.9534188359
 20
5159.9099460419
 30
0.0
 40
34.80620935801819
100
AcDbArc
 50
41.5807309295
 51
138.0883209901
  0
ARC
  5
F1
330
1F
100
AcDbEntity
  8
0
  6
Continuous
 62
     8
370
    25
100
AcDbCircle
 10
6335.9534188359
 20
5159.9099460419
 30
0.0
 40
34.80620935801886
100
AcDbArc
 50
221.9116790099
 51
267.2175530615
  0
ARC
  5
F2
330
1F
100
AcDbEntity
  8
0
  6
Continuous
 62
     8
370
    25
100
AcDbCircle
 10
6185.9534188359
 20
5159.9099460419
 30
0.0
 40
34.80620935801853
100
AcDbArc
 50
221.3610386079
 51
318.0883209901
  0
ARC
  5
F3
330
1F
100
AcDbEntity
  8
0
  6
Continuous
 62
     8
370
    25
100
AcDbCircle
 10
6185.9534188359
 20
5159.9099460419
 30
0.0
 40
34.80620935801853
100
AcDbArc
 50
41.9116790099
 51
138.6389613921
  0
LINE
  5
F4
330
1F
100
AcDbEntity
  8
0
  6
Continuous
 62
     8
370
    25
100
AcDbLine
 10
6150.4534184186
 20
5182.9095903214
 30
0.0
 11
6150.4534184186
 21
5136.9099459972
 31
0.0
  0
SPLINE
  5
F5
330
1F
100
AcDbEntity
  8
0
  6
Continuous
 62
     8
370
    25
100
AcDbSpline
210
0.0
220
0.0
230
1.0
 70
     8
 71
     3
 72
    17
 73
    13
 74
     0
 42
0.000000001
 43
0.00000001
 40
0.0
 40
0.0
 40
0.0
 40
0.0
 40
0.0450538543286865
 40
0.1514341444752633
 40
0.2559292843009111
 40
0.3634709381983635
 40
0.4681458603428458
 40
0.5758503971968707
 40
0.6803734276121094
 40
0.7879115912615202
 40
0.892442069437686
 40
1.0
 40
1.0
 40
1.0
 40
1.0
 10
6246.791760362561
 20
5289.300513583028
 30
0.0
 10
6246.77654380321
 20
5289.388616124222
 30
0.0
 10
6246.72539819799
 20
5289.684744683043
 30
0.0
 10
6247.035551092324
 20
5290.16006648087
 30
0.0
 10
6247.735701660725
 20
5290.735919493333
 30
0.0
 10
6248.827205056885
 20
5291.272423217698
 30
0.0
 10
6250.276127944465
 20
5291.760171443829
 30
0.0
 10
6252.011414218857
 20
5292.177792074521
 30
0.0
 10
6254.020966146469
 20
5292.518004910154
 30
0.0
 10
6256.204157997788
 20
5292.765293023915
 30
0.0
 10
6258.544260246394
 20
5292.924199067645
 30
0.0
 10
6260.142760053272
 20
5292.9442261411
 30
0.0
 10
6260.953418835874
 20
5292.954382615888
 30
0.0
  0
SPLINE
  5
F6
330
1F
100
AcDbEntity
  8
0
  6
Continuous
 62
     8
370
    25
100
AcDbSpline
210
0.0
220
0.0
230
1.0
 70
     8
 71
     3
 72
    14
 73
    10
 74
     0
 42
0.000000001
 43
0.00000001
 40
0.0
 40
0.0
 40
0.0
 40
0.0
 40
0.0209620787258958
 40
0.2054148695902219
 40
0.3835063356828994
 40
0.5662905428801583
 40
0.7531350139101051
 40
0.9451212862245684
 40
1.0
 40
1.0
 40
1.0
 40
1.0
 10
6248.403140269096
 20
5290.275034623945
 30
0.0
 10
6248.362022673821
 20
5290.255282683495
 30
0.0
 10
6247.959096724459
 20
5290.061726389549
 30
0.0
 10
6247.541954649934
 20
5289.661865741884
 30
0.0
 10
6247.203435220912
 20
5289.088621323923
 30
0.0
 10
6247.25624024294
 20
5288.502257928927
 30
0.0
 10
6247.715298852286
 20
5287.916604121762
 30
0.0
 10
6248.266404488763
 20
5287.470274896964
 30
0.0
 10
6248.816272961009
 20
5287.246705998543
 30
0.0
 10
6248.938510119791
 20
5287.19700606426
 30
0.0
  0
SPLINE
  5
F7
330
1F
100
AcDbEntity
  8
0
  6
Continuous
 62
     8
370
    25
100
AcDbSpline
210
0.0
220
0.0
230
1.0
 70
     8
 71
     3
 72
    17
 73
    13
 74
     0
 42
0.000000001
 43
0.00000001
 40
0.0
 40
0.0
 40
0.0
 40
0.0
 40
0.1048759273189108
 40
0.2127811562373387
 40
0.3176503623716821
 40
0.4255351238141958
 40
0.5305480651000686
 40
0.6386084531635055
 40
0.7434344265872989
 40
0.8513381381014181
 40
0.9553429534667492
 40
1.0
 40
1.0
 40
1.0
 40
1.0
 10
6260.953418835874
 20
5292.954382615888
 30
0.0
 10
6261.741200441515
 20
5292.944758622446
 30
0.0
 10
6263.339518427309
 20
5292.925232650142
 30
0.0
 10
6265.65990831622
 20
5292.769128167521
 30
0.0
 10
6267.865469572574
 20
5292.520852693665
 30
0.0
 10
6269.859953710917
 20
5292.18495501404
 30
0.0
 10
6271.615102913567
 20
5291.76459981277
 30
0.0
 10
6273.055314171814
 20
5291.282179204729
 30
0.0
 10
6274.162308229998
 20
5290.74143280062
 30
0.0
 10
6274.861094920655
 20
5290.170552797482
 30
0.0
 10
6275.176560941244
 20
5289.696100879098
 30
0.0
 10
6275.128456535609
 20
5289.406413530417
 30
0.0
 10
6275.114006288226
 20
5289.319393354261
 30
0.0
  0
SPLINE
  5
F8
330
1F
100
AcDbEntity
  8
0
  6
Continuous
 62
     8
370
    25
100
AcDbSpline
210
0.0
220
0.0
230
1.0
 70
     8
 71
     3
 72
    13
 73
     9
 74
     0
 42
0.000000001
 43
0.00000001
 40
0.0
 40
0.0
 40
0.0
 40
0.0
 40
0.1777546415152024
 40
0.3791902179443148
 40
0.5710151983873919
 40
0.7627830553237882
 40
0.9560553144028232
 40
1.0
 40
1.0
 40
1.0
 40
1.0
 10
6273.41983646142
 20
5287.41393716892
 30
0.0
 10
6273.685532489088
 20
5287.579153060128
 30
0.0
 10
6274.252321259157
 20
5287.931595332584
 30
0.0
 10
6274.636499673731
 20
5288.498443507659
 30
0.0
 10
6274.706092496709
 20
5289.085603767579
 30
0.0
 10
6274.372007591079
 20
5289.657268328478
 30
0.0
 10
6273.921910079677
 20
5290.076338219214
 30
0.0
 10
6273.480171308917
 20
5290.286246584923
 30
0.0
 10
6273.39833874243
 20
5290.325132327878
 30
0.0
  0
SPLINE
  5
F9
330
1F
100
AcDbEntity
  8
0
  6
Continuous
 62
     8
370
    25
100
AcDbSpline
210
0.0
220
0.0
230
1.0
 70
     8
 71
     3
 72
    22
 73
    18
 74
     0
 42
0.000000001
 43
0.00000001
 40
0.0
 40
0.0
 40
0.0
 40
0.0
 40
0.0945009017975981
 40
0.1892275104901655
 40
0.2839198670554044
 40
0.3488040400412245
 40
0.4137475637087736
 40
0.4785724329144129
 40
0.5409671399516163
 40
0.6033648264839668
 40
0.6677656693817371
 40
0.7321709144362665
 40
0.7944794667428049
 40
0.8567906613499492
 40
0.9206519708798896
 40
0.9845102923474253
 40
1.0
 40
1.0
 40
1.0
 40
1.0
 10
6260.953418839373
 20
5183.159946593249
 30
0.0
 10
6260.953418837894
 20
5186.715144370013
 30
0.0
 10
6260.953418834933
 20
5193.834031193317
 30
0.0
 10
6260.953418836129
 20
5204.493783187874
 30
0.0
 10
6260.953418835829
 20
5213.980745324924
 30
0.0
 10
6260.953418835884
 20
5222.251834271279
 30
0.0
 10
6260.953418835871
 20
5229.305832667856
 30
0.0
 10
6260.953418835875
 20
5236.099474096448
 30
0.0
 10
6260.953418835874
 20
5242.552238185998
 30
0.0
 10
6260.953418835874
 20
5248.684625426356
 30
0.0
 10
6260.953418835874
 20
5254.533939203999
 30
0.0
 10
6260.953418835874
 20
5260.008650935219
 30
0.0
 10
6260.953418835874
 20
5265.026788612365
 30
0.0
 10
6260.953418835874
 20
5269.641730515257
 30
0.0
 10
6260.953418835874
 20
5273.815860727293
 30
0.0
 10
6260.953418835874
 20
5276.734178730245
 30
0.0
 10
6260.953418835874
 20
5278.054061939023
 30
0.0
 10
6260.953418835874
 20
5278.31171931585
 30
0.0
  0
SPLINE
  5
FA
330
1F
100
AcDbEntity
  8
0
  6
Continuous
 62
     8
370
    25
100
AcDbSpline
210
0.0
220
0.0
230
1.0
 70
    24
 71
     3
 72
    16
 73
    12
 74
     0
 42
0.000000001
 43
0.00000001
 40
0.0
 40
0.0
 40
0.0
 40
0.0
 40
0.1267830167205085
 40
0.244486834807961
 40
0.353216972029171
 40
0.4542917659098029
 40
0.5535167330845786
 40
0.6535682668052487
 40
0.7588119463564414
 40
0.8703860778737912
 40
1.0
 40
1.0
 40
1.0
 40
1.0
 10
6260.953418835874
 20
5292.954382615888
 30
0.0
 10
6260.953418835874
 20
5294.348990687054
 30
0.0
 10
6260.953418835874
 20
5297.038336010557
 30
0.0
 10
6260.953418835874
 20
5300.833990260429
 30
0.0
 10
6260.953418835874
 20
5304.211256458722
 30
0.0
 10
6260.953418835874
 20
5307.138445067752
 30
0.0
 10
6260.953418835874
 20
5309.535626034645
 30
0.0
 10
6260.953418835874
 20
5311.239347614015
 30
0.0
 10
6260.953418835874
 20
5312.310127511683
 30
0.0
 10
6260.953418835874
 20
5312.970857324203
 30
0.0
 10
6260.953418835874
 20
5313.015308103448
 30
0.0
 10
6260.953418835874
 20
5313.039195853078
 30
0.0
  0
LINE
  5
FB
330
1F
100
AcDbEntity
  8
0
  6
Continuous
 62
     8
370
    25
100
AcDbLine
 10
6250.510993339
 20
5282.3390114482
 30
0.0
 11
6250.4534189774
 21
5282.3063332017
 31
0.0
  0
LWPOLYLINE
  5
FC
330
1F
100
AcDbEntity
  8
0
  6
Continuous
 62
     8
370
    25
100
AcDbPolyline
 90
        3
 70
   128
 43
0.0
 10
6250.4534189774
 20
5280.0135585841
 10
6251.3510360568
 20
5279.5942399081
 10
6251.896916814
 20
5279.4011506613
  0
LINE
  5
FD
330
1F
100
AcDbEntity
  8
0
  6
Continuous
 62
     8
370
    25
100
AcDbLine
 10
6271.2118680774
 20
5279.8831436213
 30
0.0
 11
6271.4534186943
 21
5280.0135585841
 31
0.0
  0
ARC
  5
FE
330
1F
100
AcDbEntity
  8
0
  6
Continuous
 62
     8
370
    25
100
AcDbCircle
 10
6250.4059794022
 20
5280.4194420917
 30
0.0
 40
0.4086464671368714
100
AcDbArc
 50
240.2903196803
 51
276.6664712933
  0
ARC
  5
FF
330
1F
100
AcDbEntity
  8
0
  6
Continuous
 62
     8
370
    25
100
AcDbCircle
 10
6271.5008583623
 20
5280.4194420621
 30
0.0
 40
0.4086464484901889
100
AcDbArc
 50
263.3335153086
 51
299.6991434283
  0
LINE
  5
100
330
1F
100
AcDbEntity
  8
0
  6
Continuous
 62
     7
370
    25
100
AcDbLine
 10
6609.6754331777
 20
5159.8099460444
 30
0.0
 11
6603.8754318545
 21
5159.8099460444
 31
0.0
  0
LINE
  5
101
330
1F
100
AcDbEntity
  8
0
  6
Continuous
 62
     7
370
    25
100
AcDbLine
 10
6603.8754318545
 20
5139.3099456455
 30
0.0
 11
6609.6754331777
 21
5139.3099456455
 31
0.0
  0
LINE
  5
102
330
1F
100
AcDbEntity
  8
0
  6
Continuous
 62
     7
370
    25
100
AcDbLine
 10
6603.8754318545
 20
5159.8099460444
 30
0.0
 11
6602.8754298279
 21
5158.8099460479
 31
0.0
  0
LINE
  5
103
330
1F
100
AcDbEntity
  8
0
  6
Continuous
 62
     7
370
    25
100
AcDbLine
 10
6602.8754298279
 20
5140.3099458094
 30
0.0
 11
6603.8754318545
 21
5139.3099456455
 31
0.0
  0
LINE
  5
104
330
1F
100
AcDbEntity
  8
0
  6
Continuous
 62
     7
370
    25
100
AcDbLine
 10
6716.4086584637
 20
5148.9099461015
 30
0.0
 11
6717.2609769443
 21
5148.9099461015
 31
0.0
  0
LINE
  5
105
330
1F
100
AcDbEntity
  8
0
  6
Continuous
 62
     7
370
    25
100
AcDbLine
 10
6717.2763381789
 20
5170.9099459823
 30
0.0
 11
6716.4086584637
 21
5170.9099459823
 31
0.0
  0
LINE
  5
106
330
1F
100
AcDbEntity
  8
0
  6
Continuous
 62
     7
370
    25
100
AcDbLine
 10
6721.73633023
 20
5166.2202595163
 30
0.0
 11
6720.4966057727
 21
5170.0232961576
 31
0.0
  0
ARC
  5
107
330
1F
100
AcDbEntity
  8
0
  6
Continuous
 62
     7
370
    25
100
AcDbCircle
 10
6720.7855701713
 20
5165.910328748
 30
0.0
 40
1.000000000000806
100
AcDbArc
 50
288.055051973
 51
18.0550519729
  0
ARC
  5
108
330
1F
100
AcDbEntity
  8
0
  6
Continuous
 62
     7
370
    25
100
AcDbCircle
 10
6719.5458475193
 20
5169.713365396
 30
0.0
 40
1.000000000000806
100
AcDbArc
 50
18.055051973
 51
108.0550519729
  0
LINE
  5
109
330
1F
100
AcDbEntity
  8
0
  6
Continuous
 62
     7
370
    25
100
AcDbLine
 10
6616.1754314492
 20
5194.9099461909
 30
0.0
 11
6609.6754331777
 21
5194.9099461909
 31
0.0
  0
LINE
  5
10A
330
1F
100
AcDbEntity
  8
0
  6
Continuous
 62
     7
370
    25
100
AcDbLine
 10
6609.6754331777
 20
5124.9099458929
 30
0.0
 11
6616.1754314492
 21
5124.9099458929
 31
0.0
  0
ARC
  5
10B
330
1F
100
AcDbEntity
  8
0
  6
Continuous
 62
     7
370
    25
100
AcDbCircle
 10
6616.1754328797
 20
5192.9099460419
 30
0.0
 40
2.0
100
AcDbArc
 50
64.5692127594
 51
90.0
  0
ARC
  5
10C
330
1F
100
AcDbEntity
  8
0
  6
Continuous
 62
     7
370
    25
100
AcDbCircle
 10
6616.1754328797
 20
5126.9099460419
 30
0.0
 40
2.0
100
AcDbArc
 50
270.0
 51
295.4307872406
  0
ARC
  5
10D
330
1F
100
AcDbEntity
  8
0
  6
Continuous
 62
     7
370
    25
100
AcDbCircle
 10
6599.8574550774
 20
5161.2279238443
 30
0.0
 40
40.0000000000005
100
AcDbArc
 50
295.4307872406
 51
334.5692127594
  0
ARC
  5
10E
330
1F
100
AcDbEntity
  8
0
  6
Continuous
 62
     7
370
    25
100
AcDbCircle
 10
6599.8574550774
 20
5158.5919682396
 30
0.0
 40
40.0000000000005
100
AcDbArc
 50
25.4307872406
 51
64.5692127594
  0
ARC
  5
10F
330
1F
100
AcDbEntity
  8
0
  6
Continuous
 62
     7
370
    25
100
AcDbCircle
 10
6634.1754328797
 20
5174.9099460419
 30
0.0
 40
2.000000000000365
100
AcDbArc
 50
0.0
 51
25.4307872406
  0
ARC
  5
110
330
1F
100
AcDbEntity
  8
0
  6
Continuous
 62
     7
370
    25
100
AcDbCircle
 10
6634.1754328797
 20
5144.9099460419
 30
0.0
 40
2.000000000000365
100
AcDbArc
 50
334.5692127594
 51
0.0
  0
LINE
  5
111
330
1F
100
AcDbEntity
  8
0
  6
Continuous
 62
     7
370
    25
100
AcDbLine
 10
6636.1754347274
 20
5144.9099463772
 30
0.0
 11
6636.1754347274
 21
5145.0599461224
 31
0.0
  0
LINE
  5
112
330
1F
100
AcDbEntity
  8
0
  6
Continuous
 62
     7
370
    25
100
AcDbLine
 10
6636.1754347274
 20
5150.6524273556
 30
0.0
 11
6636.1754347274
 21
5154.3174648087
 31
0.0
  0
LINE
  5
113
330
1F
100
AcDbEntity
  8
0
  6
Continuous
 62
     7
370
    25
100
AcDbLine
 10
6636.1754347274
 20
5165.5024272751
 30
0.0
 11
6636.1754347274
 21
5169.1674647283
 31
0.0
  0
LINE
  5
114
330
1F
100
AcDbEntity
  8
0
  6
Continuous
 62
     7
370
    25
100
AcDbLine
 10
6636.1754347274
 20
5174.7599459614
 30
0.0
 11
6636.1754347274
 21
5174.9099457066
 31
0.0
  0
SPLINE
  5
115
330
1F
100
AcDbEntity
  8
0
  6
Continuous
 62
     7
370
    25
100
AcDbSpline
210
0.0
220
0.0
230
1.0
 70
     8
 71
     3
 72
    10
 73
     6
 74
     0
 42
0.000000001
 43
0.00000001
 40
0.0
 40
0.0
 40
0.0
 40
0.0
 40
0.0431091755551177
 40
0.4621691934091576
 40
0.9999999999999999
 40
0.9999999999999999
 40
0.9999999999999999
 40
0.9999999999999999
 10
6797.397385973705
 20
5287.066591101491
 30
0.0
 10
6797.414612088382
 20
5287.052071654954
 30
0.0
 10
6797.599291554479
 20
5286.896410109405
 30
0.0
 10
6797.933755074708
 20
5286.467517189511
 30
0.0
 10
6798.127914600199
 20
5285.995240971048
 30
0.0
 10
6798.237044055237
 20
5285.72979302963
 30
0.0
  0
SPLINE
  5
116
330
1F
100
AcDbEntity
  8
0
  6
Continuous
 62
     7
370
    25
100
AcDbSpline
210
0.0
220
0.0
230
1.0
 70
     8
 71
     3
 72
    32
 73
    28
 74
     0
 42
0.000000001
 43
0.00000001
 40
0.0
 40
0.0
 40
0.0
 40
0.0
 40
0.0346164536619838
 40
0.1147307318225034
 40
0.1942540182057351
 40
0.2737007151818222
 40
0.3533732390190443
 40
0.4131725222956969
 40
0.4727065478374341
 40
0.5304643234143543
 40
0.5848054884945316
 40
0.6355955986520269
 40
0.6833534280263979
 40
0.7286050232751422
 40
0.7715415187535185
 40
0.792170193768853
 40
0.8122401660447601
 40
0.8414670379372431
 40
0.8697949364886586
 40
0.8971022724446404
 40
0.9237787840741193
 40
0.9419756257458942
 40
0.9611050548646899
 40
0.9804056360467329
 40
0.988358507749933
 40
0.9931948819632938
 40
0.9999999999999999
 40
0.9999999999999999
 40
0.9999999999999999
 40
0.9999999999999999
 10
6712.959047097935
 20
5247.021203058564
 30
0.0
 10
6713.577274581301
 20
5248.064252694717
 30
0.0
 10
6715.626291279891
 20
5251.521274874155
 30
0.0
 10
6719.819716474222
 20
5256.859909479994
 30
0.0
 10
6725.358574782716
 20
5263.020432332834
 30
0.0
 10
6731.35357113809
 20
5268.636797723758
 30
0.0
 10
6737.164067947532
 20
5273.353116932914
 30
0.0
 10
6742.690951326033
 20
5277.2875865944
 30
0.0
 10
6747.807174976681
 20
5280.502979137772
 30
0.0
 10
6752.985126397956
 20
5283.292507366483
 30
0.0
 10
6758.143019342599
 20
5285.542950026593
 30
0.0
 10
6763.212905243248
 20
5287.200813720709
 30
0.0
 10
6768.151129873459
 20
5288.29154309095
 30
0.0
 10
6772.880509751876
 20
5288.889927442664
 30
0.0
 10
6776.592171137447
 20
5289.05200694531
 30
0.0
 10
6779.279143047369
 20
5289.028036325843
 30
0.0
 10
6781.400459066632
 20
5288.940268942568
 30
0.0
 10
6783.492935922484
 20
5288.769976612927
 30
0.0
 10
6785.553833431769
 20
5288.601450921235
 30
0.0
 10
6787.586859334085
 20
5288.509191595068
 30
0.0
 10
6789.626628843693
 20
5288.496978470944
 30
0.0
 10
6791.697918038563
 20
5288.514330655391
 30
0.0
 10
6793.663976093607
 20
5288.510736536983
 30
0.0
 10
6795.291692619127
 20
5288.263132611272
 30
0.0
 10
6796.343069318455
 20
5287.847351244947
 30
0.0
 10
6796.932367048473
 20
5287.499178908234
 30
0.0
 10
6797.225836370482
 20
5287.22617657765
 30
0.0
 10
6797.397385973705
 20
5287.066591101491
 30
0.0
  0
LINE
  5
117
330
1F
100
AcDbEntity
  8
0
  6
Continuous
 62
     7
370
    25
100
AcDbLine
 10
6800.5997647236
 20
5285.9037491854
 30
0.0
 11
6802.4826083968
 21
5278.6439332541
 31
0.0
  0
ARC
  5
118
330
1F
100
AcDbEntity
  8
0
  6
Continuous
 62
     7
370
    25
100
AcDbCircle
 10
6802.9665943863
 20
5278.76945663
 30
0.0
 40
0.4999999999993083
100
AcDbArc
 50
194.5394191875
 51
284.5394191876
  0
LINE
  5
119
330
1F
100
AcDbEntity
  8
0
  6
Continuous
 62
     7
370
    25
100
AcDbLine
 10
6825.6172124932
 20
5284.6439305123
 30
0.0
 11
6823.7343613694
 21
5291.9037464436
 31
0.0
  0
ARC
  5
11A
330
1F
100
AcDbEntity
  8
0
  6
Continuous
 62
     7
370
    25
100
AcDbCircle
 10
6825.133225348
 20
5284.5184106049
 30
0.0
 40
0.5000000000008407
100
AcDbArc
 50
284.5394191875
 51
14.5394191875
  0
LINE
  5
11B
330
1F
100
AcDbEntity
  8
0
  6
Continuous
 62
     7
370
    25
100
AcDbLine
 10
6658.1754346082
 20
5173.6099460523
 30
0.0
 11
6648.1754329691
 21
5173.6099460523
 31
0.0
  0
LINE
  5
11C
330
1F
100
AcDbEntity
  8
0
  6
Continuous
 62
     7
370
    25
100
AcDbLine
 10
6648.1754329691
 20
5146.2099460315
 30
0.0
 11
6658.1754346082
 21
5146.2099460315
 31
0.0
  0
LINE
  5
11D
330
1F
100
AcDbEntity
  8
0
  6
Continuous
 62
     7
370
    25
100
AcDbLine
 10
6603.8754318545
 20
5159.8099460444
 30
0.0
 11
6603.8754318545
 21
5139.3099456455
 31
0.0
  0
LINE
  5
11E
330
1F
100
AcDbEntity
  8
0
  6
Continuous
 62
     7
370
    25
100
AcDbLine
 10
6602.8754298279
 20
5140.3099458094
 30
0.0
 11
6602.8754298279
 21
5158.8099460479
 31
0.0
  0
SPLINE
  5
11F
330
1F
100
AcDbEntity
  8
0
  6
Continuous
 62
     7
370
    25
100
AcDbSpline
210
0.0
220
0.0
230
1.0
 70
     8
 71
     3
 72
    27
 73
    23
 74
     0
 42
0.000000001
 43
0.00000001
 40
0.0
 40
0.0
 40
0.0
 40
0.0
 40
0.0225268385442046
 40
0.0695555277689739
 40
0.117898323839447
 40
0.1661150675526929
 40
0.2154837081805522
 40
0.2686672925871232
 40
0.3232887811299996
 40
0.3780549076469715
 40
0.4346582979484311
 40
0.4853986877806147
 40
0.5378160785421872
 40
0.5855033716322179
 40
0.6344996405273434
 40
0.6837413647074535
 40
0.73420094110155
 40
0.787590352034479
 40
0.8424361542254715
 40
0.8971544761596555
 40
0.9537649171206423
 40
1.0
 40
1.0
 40
1.0
 40
1.0
 10
6717.276338178886
 20
5170.870722400748
 30
0.0
 10
6717.271380928886
 20
5170.880372538447
 30
0.0
 10
6717.256074558249
 20
5170.910169015183
 30
0.0
 10
6717.380305941852
 20
5170.668473342247
 30
0.0
 10
6717.614646254437
 20
5170.192137233021
 30
0.0
 10
6717.95019438301
 20
5169.459294761358
 30
0.0
 10
6718.35082840584
 20
5168.486641661006
 30
0.0
 10
6718.78963089527
 20
5167.253249284166
 30
0.0
 10
6719.218981049028
 20
5165.767649449724
 30
0.0
 10
6719.586259971755
 20
5164.065642219555
 30
0.0
 10
6719.833938018778
 20
5162.261082666877
 30
0.0
 10
6719.943212771364
 20
5160.405129603784
 30
0.0
 10
6719.912875615689
 20
5158.635562206065
 30
0.0
 10
6719.758254799261
 20
5156.927888801233
 30
0.0
 10
6719.503621010364
 20
5155.338394201516
 30
0.0
 10
6719.161407151885
 20
5153.842001280588
 30
0.0
 10
6718.754005487539
 20
5152.460546237241
 30
0.0
 10
6718.311261539796
 20
5151.227730066787
 30
0.0
 10
6717.880624129916
 20
5150.199788035514
 30
0.0
 10
6717.523202979801
 20
5149.436286015954
 30
0.0
 10
6717.293674663159
 20
5148.982200443923
 30
0.0
 10
6717.271117644548
 20
5148.938836738696
 30
0.0
 10
6717.260976944341
 20
5148.919342214966
 30
0.0
  0
SPLINE
  5
120
330
1F
100
AcDbEntity
  8
0
  6
Continuous
 62
     7
370
    25
100
AcDbSpline
210
0.0
220
0.0
230
1.0
 70
     8
 71
     3
 72
    12
 73
     8
 74
     0
 42
0.000000001
 43
0.00000001
 40
0.0
 40
0.0
 40
0.0
 40
0.0
 40
0.2194073609843133
 40
0.4389035331769783
 40
0.6586420134644296
 40
0.874700750150374
 40
1.0
 40
1.0
 40
1.0
 40
1.0
 10
6720.585278857721
 20
5164.793246089273
 30
0.0
 10
6720.531893110568
 20
5164.812070317848
 30
0.0
 10
6720.4251000069
 20
5164.849726394624
 30
0.0
 10
6720.128142839018
 20
5165.316954739196
 30
0.0
 10
6719.779942848484
 20
5166.029916459382
 30
0.0
 10
6719.464715060179
 20
5166.811032959974
 30
0.0
 10
6719.293036600125
 20
5167.320005130862
 30
0.0
 10
6719.230020109786
 20
5167.506829033398
 30
0.0
  0
LINE
  5
121
330
1F
100
AcDbEntity
  8
0
  6
Continuous
 62
     7
370
    25
100
AcDbLine
 10
6720.5852788577
 20
5164.7932460893
 30
0.0
 11
6719.4843084256
 21
5164.4343492936
 31
0.0
  0
LINE
  5
122
330
1F
100
AcDbEntity
  8
0
  6
Continuous
 62
     7
370
    25
100
AcDbLine
 10
6717.6347502211
 20
5170.1421720337
 30
0.0
 11
6718.7256958971
 21
5170.4978012841
 31
0.0
  0
SPLINE
  5
123
330
1F
100
AcDbEntity
  8
0
  6
Continuous
 62
     7
370
    25
100
AcDbSpline
210
0.0
220
0.0
230
1.0
 70
     8
 71
     3
 72
    12
 73
     8
 74
     0
 42
0.000000001
 43
0.00000001
 40
0.0
 40
0.0
 40
0.0
 40
0.0
 40
0.2087379445501732
 40
0.4166582291344608
 40
0.6270236839537089
 40
0.8428168547633628
 40
1.0
 40
1.0
 40
1.0
 40
1.0
 10
6719.230020109786
 20
5167.506829033398
 30
0.0
 10
6719.1330892654
 20
5167.821962790292
 30
0.0
 10
6718.939607270275
 20
5168.450995874672
 30
0.0
 10
6718.745381028281
 20
5169.315605231476
 30
0.0
 10
6718.644617793646
 20
5169.999832542656
 30
0.0
 10
6718.642461975178
 20
5170.407352401002
 30
0.0
 10
6718.701018473443
 20
5170.470984748761
 30
0.0
 10
6718.725695897116
 20
5170.497801284098
 30
0.0
  0
SPLINE
  5
124
330
1F
100
AcDbEntity
  8
0
  6
Continuous
 62
     7
370
    25
100
AcDbSpline
210
0.0
220
0.0
230
1.0
 70
     8
 71
     3
 72
    12
 73
     8
 74
     0
 42
0.000000001
 43
0.00000001
 40
0.0
 40
0.0
 40
0.0
 40
0.0
 40
0.1225113443891457
 40
0.335085001429114
 40
0.5543846086902797
 40
0.7764732413531691
 40
1.0
 40
1.0
 40
1.0
 40
1.0
 10
6720.150421995892
 20
5167.806863914037
 30
0.0
 10
6720.19316697373
 20
5167.68245517057
 30
0.0
 10
6720.310080236179
 20
5167.342180527517
 30
0.0
 10
6720.541717847037
 20
5166.825578250984
 30
0.0
 10
6720.811962792093
 20
5166.364147706472
 30
0.0
 10
6721.056506726473
 20
5166.070608178442
 30
0.0
 10
6721.15842839402
 20
5166.055911823688
 30
0.0
 10
6721.209553692712
 20
5166.048539931679
 30
0.0
  0
ARC
  5
125
330
1F
100
AcDbEntity
  8
0
  6
Continuous
 62
     7
370
    25
100
AcDbCircle
 10
6720.2696735386
 20
5165.7330780783
 30
0.0
 40
0.9914085358684231
100
AcDbArc
 50
288.5625846497
 51
18.5538386525
  0
LWPOLYLINE
  5
126
330
1F
100
AcDbEntity
  8
0
  6
Continuous
 62
     7
370
    25
100
AcDbPolyline
 90
        9
 70
   128
 43
0.0
 10
6720.1504219959
 20
5167.806863914
 10
6720.0988993684
 20
5167.7900684427
 10
6720.0238682965
 20
5167.7656091179
 10
6719.9273572008
 20
5167.7341481101
 10
6719.8119775096
 20
5167.6965366479
 10
6719.6808510164
 20
5167.6537917357
 10
6719.5375260601
 20
5167.6070705417
 10
6719.3858806679
 20
5167.5576373365
 10
6719.2300201098
 20
5167.5068290334
  0
SPLINE
  5
127
330
1F
100
AcDbEntity
  8
0
  6
Continuous
 62
     7
370
    25
100
AcDbSpline
210
0.0
220
0.0
230
1.0
 70
     8
 71
     3
 72
    12
 73
     8
 74
     0
 42
0.000000001
 43
0.00000001
 40
0.0
 40
0.0
 40
0.0
 40
0.0
 40
0.1601792673325032
 40
0.3791698196206171
 40
0.5901551353228764
 40
0.795709164121291
 40
1.0
 40
1.0
 40
1.0
 40
1.0
 10
6719.969831098093
 20
5169.851577038669
 30
0.0
 10
6719.942341014221
 20
5169.830117017253
 30
0.0
 10
6719.877267610423
 20
5169.779317731022
 30
0.0
 10
6719.835406691962
 20
5169.495667818883
 30
0.0
 10
6719.861590706138
 20
5169.02799716272
 30
0.0
 10
6719.961701730676
 20
5168.441477489659
 30
0.0
 10
6720.087644631389
 20
5168.017966668211
 30
0.0
 10
6720.150421995892
 20
5167.806863914037
 30
0.0
  0
ARC
  5
128
330
1F
100
AcDbEntity
  8
0
  6
Continuous
 62
     7
370
    25
100
AcDbCircle
 10
6719.0246023439
 20
5169.5525271647
 30
0.0
 40
0.9914071942500197
100
AcDbArc
 50
17.5562415703
 51
107.5475478289
  0
LWPOLYLINE
  5
129
330
1F
100
AcDbEntity
  8
0
  6
Continuous
 62
     7
370
    25
100
AcDbPolyline
 90
        7
 70
   128
 43
0.0
 10
6721.0955002049
 20
5164.9595695909
 10
6721.0953139404
 20
5164.9595085893
 10
6721.0717775563
 20
5164.9518363539
 10
6721.0088965187
 20
5164.9313384097
 10
6720.906752784
 20
5164.8980412993
 10
6720.765484188
 20
5164.8519897263
 10
6720.5852788577
 20
5164.7932460893
  0
LWPOLYLINE
  5
12A
330
1F
100
AcDbEntity
  8
0
  6
Continuous
 62
     7
370
    25
100
AcDbPolyline
 90
        7
 70
   128
 43
0.0
 10
6718.7256958971
 20
5170.4978012841
 10
6718.9058993647
 20
5170.5565444555
 10
6719.0471698234
 20
5170.6025964942
 10
6719.1493135581
 20
5170.6358931388
 10
6719.2121945957
 20
5170.6563915487
 10
6719.2357291172
 20
5170.6640637841
 10
6719.2359172443
 20
5170.6641243201
  0
LINE
  5
12B
330
1F
100
AcDbEntity
  8
0
  6
Continuous
 62
     7
370
    25
100
AcDbLine
 10
6609.6754331777
 20
5146.2434810947
 30
0.0
 11
6609.6754331777
 21
5124.9099458929
 31
0.0
  0
LINE
  5
12C
330
1F
100
AcDbEntity
  8
0
  6
Continuous
 62
     7
370
    25
100
AcDbLine
 10
6609.6754331777
 20
5194.9099461909
 30
0.0
 11
6609.6754331777
 21
5146.2434810947
 31
0.0
  0
CIRCLE
  5
12D
330
1F
100
AcDbEntity
  8
0
  6
Continuous
 62
     7
370
    25
100
AcDbCircle
 10
6695.9254328797
 20
5159.9099460419
 30
0.0
 40
18.0000000000001
  0
CIRCLE
  5
12E
330
1F
100
AcDbEntity
  8
0
  6
Continuous
 62
     7
370
    25
100
AcDbCircle
 10
6695.9254328797
 20
5159.9099460419
 30
0.0
 40
22.99999999999957
  0
LINE
  5
12F
330
1F
100
AcDbEntity
  8
0
  6
Continuous
 62
     7
370
    25
100
AcDbLine
 10
6696.0702246399
 20
5183.1599465932
 30
0.0
 11
6698.6754328648
 21
5183.1599465932
 31
0.0
  0
LINE
  5
130
330
1F
100
AcDbEntity
  8
0
  6
Continuous
 62
     7
370
    25
100
AcDbLine
 10
6667.6789593587
 20
5184.6623114671
 30
0.0
 11
6667.6754333714
 21
5183.1599465932
 31
0.0
  0
SPLINE
  5
131
330
1F
100
AcDbEntity
  8
0
  6
Continuous
 62
     7
370
    25
100
AcDbSpline
210
0.0
220
0.0
230
1.0
 70
     8
 71
     3
 72
    17
 73
    13
 74
     0
 42
0.000000001
 43
0.00000001
 40
0.0
 40
0.0
 40
0.0
 40
0.0
 40
0.10719510287792
 40
0.2136475811063497
 40
0.3206179688778514
 40
0.4275256088876743
 40
0.5319107477928324
 40
0.6346561462061316
 40
0.739586872400027
 40
0.8483215208236715
 40
0.957916969528486
 40
1.0
 40
1.0
 40
1.0
 40
1.0
 10
6667.80956803657
 20
5192.075682001912
 30
0.0
 10
6667.818937702189
 20
5192.035860653382
 30
0.0
 10
6667.837612122396
 20
5191.956493830072
 30
0.0
 10
6667.966292304965
 20
5191.33660051913
 30
0.0
 10
6668.109644077668
 20
5190.413294217461
 30
0.0
 10
6668.208345501577
 20
5189.243100193758
 30
0.0
 10
6668.206562852551
 20
5187.98235834304
 30
0.0
 10
6668.101966477089
 20
5186.781005293479
 30
0.0
 10
6667.933993504163
 20
5185.75088854743
 30
0.0
 10
6667.767530330686
 20
5185.002466694737
 30
0.0
 10
6667.686679537062
 20
5184.691757529824
 30
0.0
 10
6667.680636102976
 20
5184.668706852656
 30
0.0
 10
6667.678959358705
 20
5184.662311467135
 30
0.0
  0
SPLINE
  5
132
330
1F
100
AcDbEntity
  8
0
  6
Continuous
 62
     7
370
    25
100
AcDbSpline
210
0.0
220
0.0
230
1.0
 70
     8
 71
     3
 72
    38
 73
    34
 74
     0
 42
0.000000001
 43
0.00000001
 40
0.0
 40
0.0
 40
0.0
 40
0.0
 40
0.0183431747482358
 40
0.0353727561508641
 40
0.0511040106914077
 40
0.0657276776047888
 40
0.080083708557162
 40
0.0945593285127359
 40
0.1097861566407542
 40
0.125928884939428
 40
0.1532458825443494
 40
0.1811714773422587
 40
0.2084135813943568
 40
0.2349574410681301
 40
0.260940532969593
 40
0.303703507418413
 40
0.3459526395719169
 40
0.3884092370856399
 40
0.4316827785341517
 40
0.4757941025211972
 40
0.5195588627050255
 40
0.5633805961252784
 40
0.6069268880371099
 40
0.6499117656016616
 40
0.6892080985849739
 40
0.7276921761229858
 40
0.7654215546997892
 40
0.8028363644208962
 40
0.8405272220315021
 40
0.8783164527775669
 40
0.9172804631301718
 40
0.9577525291929138
 40
1.0
 40
1.0
 40
1.0
 40
1.0
 10
6825.785237986816
 20
5292.954382615888
 30
0.0
 10
6825.401245899631
 20
5294.348991718246
 30
0.0
 10
6824.660760206709
 20
5297.038339030288
 30
0.0
 10
6823.293776627585
 20
5300.833979532874
 30
0.0
 10
6821.674989784952
 20
5304.211292276735
 30
0.0
 10
6819.679631855632
 20
5307.138322403871
 30
0.0
 10
6817.185105841631
 20
5309.536077264759
 30
0.0
 10
6814.117879065533
 20
5311.237609263227
 30
0.0
 10
6810.650589466512
 20
5312.317164810844
 30
0.0
 10
6806.070882919809
 20
5313.047540140767
 30
0.0
 10
6800.430542663571
 20
5313.210324018308
 30
0.0
 10
6793.93448076305
 20
5312.896409942332
 30
0.0
 10
6787.509943237571
 20
5312.405221686696
 30
0.0
 10
6781.260383594949
 20
5311.687854141384
 30
0.0
 10
6773.83375907682
 20
5310.543761853335
 30
0.0
 10
6765.263086653358
 20
5308.739288210108
 30
0.0
 10
6755.596195609556
 20
5305.960369302501
 30
0.0
 10
6746.120519243978
 20
5302.468735444387
 30
0.0
 10
6736.779000518607
 20
5298.263376754666
 30
0.0
 10
6727.647575667517
 20
5293.396649522134
 30
0.0
 10
6718.822044742843
 20
5287.912585353139
 30
0.0
 10
6710.424696796144
 20
5281.86767408419
 30
0.0
 10
6702.530074974919
 20
5275.273338909105
 30
0.0
 10
6695.427092648014
 20
5268.332099628208
 30
0.0
 10
6689.187944561865
 20
5261.125393662623
 30
0.0
 10
6683.860094927786
 20
5253.722589296089
 30
0.0
 10
6679.378051126611
 20
5245.947634519271
 30
0.0
 10
6675.741697536349
 20
5237.812766968314
 30
0.0
 10
6672.898118178473
 20
5229.36581783755
 30
0.0
 10
6670.755799711348
 20
5220.591146293817
 30
0.0
 10
6669.238708924122
 20
5211.468051342988
 30
0.0
 10
6668.232682722452
 20
5201.920708876365
 30
0.0
 10
6667.952609993581
 20
5195.403980352056
 30
0.0
 10
6667.80956803657
 20
5192.075682001912
 30
0.0
  0
SPLINE
  5
133
330
1F
100
AcDbEntity
  8
0
  6
Continuous
 62
     7
370
    25
100
AcDbSpline
210
0.0
220
0.0
230
1.0
 70
     8
 71
     3
 72
    28
 73
    24
 74
     0
 42
0.000000001
 43
0.00000001
 40
0.0
 40
0.0
 40
0.0
 40
0.0
 40
0.0000013423347749
 40
0.0220148958641931
 40
0.07023381559342
 40
0.1195401248306052
 40
0.1677668704951946
 40
0.2171568209175491
 40
0.2412139774946139
 40
0.2964832466730627
 40
0.3537109238011962
 40
0.4085549109810778
 40
0.4651106084438401
 40
0.5175027707511554
 40
0.5712526031108938
 40
0.6240499421696342
 40
0.6783865665641776
 40
0.7312747426518947
 40
0.7856936654834696
 40
0.8385050965747929
 40
0.8928399574824453
 40
0.9456551516383432
 40
0.9999999999999999
 40
0.9999999999999999
 40
0.9999999999999999
 40
0.9999999999999999
 10
6798.272963304295
 20
5285.746988969648
 30
0.0
 10
6798.272963304282
 20
5285.746988969645
 30
0.0
 10
6798.272963092
 20
5285.746988926989
 30
0.0
 10
6798.306289095069
 20
5285.753696803915
 30
0.0
 10
6798.548886355003
 20
5285.803012934375
 30
0.0
 10
6799.153984456344
 20
5285.931231340548
 30
0.0
 10
6800.069725106023
 20
5286.134520398737
 30
0.0
 10
6801.06485990789
 20
5286.364528290525
 30
0.0
 10
6802.284504505831
 20
5286.653755375956
 30
0.0
 10
6803.762875702175
 20
5287.01150680306
 30
0.0
 10
6805.821864628327
 20
5287.607128658494
 30
0.0
 10
6808.088136046719
 20
5288.2988849784
 30
0.0
 10
6810.409347431196
 20
5288.943902621691
 30
0.0
 10
6812.759548394783
 20
5289.573168560545
 30
0.0
 10
6815.043082666318
 20
5290.160774424913
 30
0.0
 10
6817.268833818925
 20
5290.735724952756
 30
0.0
 10
6819.335925288566
 20
5291.272474368437
 30
0.0
 10
6821.210252448798
 20
5291.760157444409
 30
0.0
 10
6822.810992956634
 20
5292.177795742864
 30
0.0
 10
6824.114091133292
 20
5292.518003907939
 30
0.0
 10
6825.06089570971
 20
5292.765293285694
 30
0.0
 10
6825.669350629752
 20
5292.924199000783
 30
0.0
 10
6825.74624300151
 20
5292.944226118601
 30
0.0
 10
6825.785237986816
 20
5292.954382615888
 30
0.0
  0
SPLINE
  5
134
330
1F
100
AcDbEntity
  8
0
  6
Continuous
 62
     7
370
    25
100
AcDbSpline
210
0.0
220
0.0
230
1.0
 70
     8
 71
     3
 72
    16
 73
    12
 74
     0
 42
0.000000001
 43
0.00000001
 40
0.0
 40
0.0
 40
0.0
 40
0.0
 40
0.154370979807001
 40
0.3091106607995233
 40
0.4637943895804202
 40
0.5697852655113268
 40
0.6758730931402218
 40
0.7817670939886832
 40
0.8836913283280923
 40
0.9856204297912688
 40
1.0
 40
1.0
 40
1.0
 40
1.0
 10
6698.675432864798
 20
5183.159946593249
 30
0.0
 10
6698.714549232088
 20
5186.715139898057
 30
0.0
 10
6698.792875392589
 20
5193.834017766768
 30
0.0
 10
6699.563146955331
 20
5204.493837035641
 30
0.0
 10
6700.857638436119
 20
5213.980570318553
 30
0.0
 10
6702.59236978792
 20
5222.252263674323
 30
0.0
 10
6704.581849901882
 20
5229.304209438693
 30
0.0
 10
6707.066470706824
 20
5236.105429140158
 30
0.0
 10
6710.168551619406
 20
5242.530936115757
 30
0.0
 10
6712.628862262405
 20
5246.933218551495
 30
0.0
 10
6714.199662526441
 20
5249.102974828987
 30
0.0
 10
6714.393865008129
 20
5249.371227937543
 30
0.0
  0
SPLINE
  5
135
330
1F
100
AcDbEntity
  8
0
  6
Continuous
 62
     7
370
    25
100
AcDbSpline
210
0.0
220
0.0
230
1.0
 70
     8
 71
     3
 72
    19
 73
    15
 74
     0
 42
0.000000001
 43
0.00000001
 40
0.0
 40
0.0
 40
0.0
 40
0.0
 40
0.0859737642366832
 40
0.1752075530075126
 40
0.2666612097886311
 40
0.3581105874649894
 40
0.4534805193089681
 40
0.5496261956956418
 40
0.6402543652025553
 40
0.7309032116954848
 40
0.823718683571719
 40
0.9165596826299396
 40
0.9648971934158919
 40
1.0
 40
1.0
 40
1.0
 40
1.0
 10
6722.948115010036
 20
5260.181103962266
 30
0.0
 10
6724.523014944564
 20
5261.801183017432
 30
0.0
 10
6727.732533176202
 20
5265.102772629732
 30
0.0
 10
6733.091978048973
 20
5269.629113906637
 30
0.0
 10
6738.871069113249
 20
5273.845859706579
 30
0.0
 10
6745.11240372569
 20
5277.666637628195
 30
0.0
 10
6751.759999917856
 20
5281.012138499449
 30
0.0
 10
6758.665956944476
 20
5283.732578831075
 30
0.0
 10
6765.674702354707
 20
5285.762313296827
 30
0.0
 10
6772.741093165602
 20
5287.178213298556
 30
0.0
 10
6779.951205881551
 20
5288.069918123966
 30
0.0
 10
6786.090356453101
 20
5288.398886771874
 30
0.0
 10
6790.720820327496
 20
5288.545411149177
 30
0.0
 10
6792.911603357767
 20
5288.463747199654
 30
0.0
 10
6793.833251733555
 20
5288.429391699636
 30
0.0
  0
SPLINE
  5
136
330
1F
100
AcDbEntity
  8
0
  6
Continuous
 62
     7
370
    25
100
AcDbSpline
210
0.0
220
0.0
230
1.0
 70
     8
 71
     3
 72
     9
 73
     5
 74
     0
 42
0.000000001
 43
0.00000001
 40
0.0
 40
0.0
 40
0.0
 40
0.0
 40
0.7023774446324713
 40
0.9999999999999999
 40
0.9999999999999999
 40
0.9999999999999999
 40
0.9999999999999999
 10
6797.243628341927
 20
5287.197929936254
 30
0.0
 10
6797.539656178155
 20
5286.89335559008
 30
0.0
 10
6797.961121643045
 20
5286.459722151961
 30
0.0
 10
6798.201439337863
 20
5285.910461367795
 30
0.0
 10
6798.272963304295
 20
5285.746988969648
 30
0.0
  0
ARC
  5
137
330
1F
100
AcDbEntity
  8
0
  6
Continuous
 62
     7
370
    25
100
AcDbCircle
 10
6825.3017872595
 20
5292.8268023939
 30
0.0
 40
0.5000000000003836
100
AcDbArc
 50
284.5394191875
 51
14.7828023192
  0
SPLINE
  5
138
330
1F
100
AcDbEntity
  8
0
  6
Continuous
 62
     7
370
    25
100
AcDbSpline
210
0.0
220
0.0
230
1.0
 70
     8
 71
     3
 72
    27
 73
    23
 74
     0
 42
0.000000001
 43
0.00000001
 40
0.0
 40
0.0
 40
0.0
 40
0.0
 40
0.0535439652050014
 40
0.1070860220714092
 40
0.1606266035684993
 40
0.2141651175195287
 40
0.2677803231834548
 40
0.3213976901334547
 40
0.3749134783548627
 40
0.4284344476698734
 40
0.4815388178242117
 40
0.5346590066245511
 40
0.5904405624276802
 40
0.6461818699307004
 40
0.7023426212148308
 40
0.7585251556781265
 40
0.7826126274893438
 40
0.8314638863318571
 40
0.8803174113138074
 40
0.9291281172756636
 40
0.977945989736692
 40
1.0
 40
1.0
 40
1.0
 40
1.0
 10
6825.42731209494
 20
5292.34280915817
 30
0.0
 10
6825.390282115772
 20
5292.333204474545
 30
0.0
 10
6825.316223477205
 20
5292.313995449612
 30
0.0
 10
6824.735785134616
 20
5292.163476875146
 30
0.0
 10
6823.818670228869
 20
5291.925605878412
 30
0.0
 10
6822.570092276198
 20
5291.601780543002
 30
0.0
 10
6821.019089350961
 20
5291.199546531963
 30
0.0
 10
6819.221277550082
 20
5290.733274640729
 30
0.0
 10
6817.218409552234
 20
5290.213820611014
 30
0.0
 10
6815.080916725962
 20
5289.659448592429
 30
0.0
 10
6812.866655726767
 20
5289.08518616831
 30
0.0
 10
6810.602388881809
 20
5288.497938041837
 30
0.0
 10
6808.338671942123
 20
5287.910839375772
 30
0.0
 10
6806.12945467202
 20
5287.337892416949
 30
0.0
 10
6804.108529279132
 20
5286.813738386532
 30
0.0
 10
6802.685295024875
 20
5286.444637672691
 30
0.0
 10
6801.518462998421
 20
5286.142023121552
 30
0.0
 10
6800.570916325124
 20
5285.896253749342
 30
0.0
 10
6799.69960840369
 20
5285.670288706119
 30
0.0
 10
6799.126698687305
 20
5285.521699359155
 30
0.0
 10
6798.88635190107
 20
5285.459375905274
 30
0.0
 10
6798.867062488556
 20
5285.454368466932
 30
0.0
 10
6798.861059982552
 20
5285.452810245359
 30
0.0
  0
ARC
  5
139
330
1F
100
AcDbEntity
  8
0
  6
Continuous
 62
     7
370
    25
100
AcDbCircle
 10
6798.7355364688
 20
5285.9367994275
 30
0.0
 40
0.5000000000002159
100
AcDbArc
 50
202.3102825016
 51
284.5394191875
  0
LINE
  5
13A
330
1F
100
AcDbEntity
  8
0
  6
Continuous
 62
     7
370
    25
100
AcDbLine
 10
6807.7468533704
 20
5287.757364231
 30
0.0
 11
6809.6296970437
 21
5280.4975408491
 31
0.0
  0
LINE
  5
13B
330
1F
100
AcDbEntity
  8
0
  6
Continuous
 62
     7
370
    25
100
AcDbLine
 10
6818.4701238463
 20
5282.7903229173
 30
0.0
 11
6816.5872801731
 21
5290.050131398
 31
0.0
  0
LINE
  5
13C
330
1F
100
AcDbEntity
  8
0
  6
Continuous
 62
     7
370
    25
100
AcDbLine
 10
6809.6296970437
 20
5280.4975408491
 30
0.0
 11
6818.4701238463
 21
5282.7903229173
 31
0.0
  0
LWPOLYLINE
  5
13D
330
1F
100
AcDbEntity
  8
0
  6
Continuous
 62
     7
370
    25
100
AcDbPolyline
 90
        9
 70
   128
 43
0.0
 10
6809.6296970437
 20
5280.4975408491
 10
6809.6048866103
 20
5280.491110998
 10
6809.5801432321
 20
5280.4846960481
 10
6809.5555339644
 20
5280.4783109005
 10
6809.5311184118
 20
5280.471977907
 10
6809.5069636295
 20
5280.4657119687
 10
6809.4831292222
 20
5280.4595279868
 10
6809.4596747944
 20
5280.4534483131
 10
6809.4366748521
 20
5280.447480398
  0
LINE
  5
13E
330
1F
100
AcDbEntity
  8
0
  6
Continuous
 62
     7
370
    25
100
AcDbLine
 10
6809.4366748521
 20
5280.447480398
 30
0.0
 11
6807.5538311789
 21
5287.7072963293
 31
0.0
  0
LWPOLYLINE
  5
13F
330
1F
100
AcDbEntity
  8
0
  6
Continuous
 62
     7
370
    25
100
AcDbPolyline
 90
        9
 70
   128
 43
0.0
 10
6809.755216975
 20
5280.0135585841
 10
6809.7151477525
 20
5280.0130891975
 10
6809.6718002746
 20
5280.0312388118
 10
6809.6268285701
 20
5280.0673070725
 10
6809.5819686244
 20
5280.1199156221
 10
6809.5389415214
 20
5280.1870304521
 10
6809.4994012902
 20
5280.2660811122
 10
6809.4648678491
 20
5280.354020315
 10
6809.4366748521
 20
5280.447480398
  0
LWPOLYLINE
  5
140
330
1F
100
AcDbEntity
  8
0
  6
Continuous
 62
     7
370
    25
100
AcDbPolyline
 90
        9
 70
   128
 43
0.0
 10
6809.755216975
 20
5280.0135585841
 10
6809.7528104375
 20
5280.0228569086
 10
6809.7456653307
 20
5280.0503942545
 10
6809.7340647767
 20
5280.0951200899
 10
6809.7184558103
 20
5280.1553133305
 10
6809.6994344781
 20
5280.2286568459
 10
6809.6777309368
 20
5280.312326866
 10
6809.6541871021
 20
5280.4031196411
 10
6809.6296970437
 20
5280.4975408491
  0
LINE
  5
141
330
1F
100
AcDbEntity
  8
0
  6
Continuous
 62
     7
370
    25
100
AcDbLine
 10
6818.5956437776
 20
5282.3063332017
 30
0.0
 11
6809.755216975
 21
5280.0135585841
 31
0.0
  0
LWPOLYLINE
  5
142
330
1F
100
AcDbEntity
  8
0
  6
Continuous
 62
     7
370
    25
100
AcDbPolyline
 90
        9
 70
   128
 43
0.0
 10
6818.5956437776
 20
5282.3063332017
 10
6818.5932372401
 20
5282.3156389769
 10
6818.5860921333
 20
5282.3431763228
 10
6818.5744915793
 20
5282.3879021581
 10
6818.558882613
 20
5282.4480953987
 10
6818.5398612807
 20
5282.5214314636
 10
6818.5181577394
 20
5282.6051089342
 10
6818.4946139047
 20
5282.6959017094
 10
6818.4701238463
 20
5282.7903229173
  0
LINE
  5
143
330
1F
100
AcDbEntity
  8
0
  6
Continuous
 62
     7
370
    25
100
AcDbLine
 10
6816.7803023646
 20
5290.1001992997
 30
0.0
 11
6818.6631460378
 21
5282.8403833683
 31
0.0
  0
LWPOLYLINE
  5
144
330
1F
100
AcDbEntity
  8
0
  6
Continuous
 62
     7
370
    25
100
AcDbPolyline
 90
        9
 70
   128
 43
0.0
 10
6818.6631460378
 20
5282.8403833683
 10
6818.6401460955
 20
5282.8344154533
 10
6818.6166916678
 20
5282.8283357795
 10
6818.5928572605
 20
5282.8221517976
 10
6818.5687024782
 20
5282.8158933099
 10
6818.5442869256
 20
5282.8095603164
 10
6818.5196702073
 20
5282.8031751688
 10
6818.4949342797
 20
5282.7967602189
 10
6818.4701238463
 20
5282.7903229173
  0
LWPOLYLINE
  5
145
330
1F
100
AcDbEntity
  8
0
  6
Continuous
 62
     7
370
    25
100
AcDbPolyline
 90
        9
 70
   128
 43
0.0
 10
6818.6631460378
 20
5282.8403833683
 10
6818.6839257071
 20
5282.7450010355
 10
6818.696487386
 20
5282.6513621386
 10
6818.7003542373
 20
5282.5630578574
 10
6818.6953697989
 20
5282.4834931072
 10
6818.6817277858
 20
5282.4157151755
 10
6818.6599571893
 20
5282.3623317655
 10
6818.6308924744
 20
5282.3253992375
 10
6818.5956437776
 20
5282.3063332017
  0
LWPOLYLINE
  5
146
330
1F
100
AcDbEntity
  8
0
  6
Continuous
 62
     7
370
    25
100
AcDbPolyline
 90
        8
 70
   128
 43
0.0
 10
6809.755216975
 20
5280.0135585841
 10
6808.1384335349
 20
5279.5942399081
 10
6806.6872243474
 20
5279.2178663786
 10
6805.4413755129
 20
5278.8947495993
 10
6804.4350553939
 20
5278.6337632116
 10
6803.6958758423
 20
5278.4420523222
 10
6803.2441024373
 20
5278.3248844918
 10
6803.0921180437
 20
5278.2854709204
  0
LWPOLYLINE
  5
147
330
1F
100
AcDbEntity
  8
0
  6
Continuous
 62
     7
370
    25
100
AcDbPolyline
 90
        8
 70
   128
 43
0.0
 10
6825.2587501595
 20
5284.0344208654
 10
6825.1067732165
 20
5283.995007294
 10
6824.6549849103
 20
5283.8778394636
 10
6823.9158128092
 20
5283.6861285742
 10
6822.9094926903
 20
5283.4251421865
 10
6821.6636513064
 20
5283.1020254072
 10
6820.2124272177
 20
5282.7256518777
 10
6818.5956437776
 20
5282.3063332017
  0
LINE
  5
148
330
1F
100
AcDbEntity
  8
0
  6
Continuous
 62
     7
370
    25
100
AcDbLine
 10
6667.8116523365
 20
5192.011700141
 30
0.0
 11
6667.8095680366
 21
5192.0756820019
 31
0.0
  0
LWPOLYLINE
  5
149
330
1F
100
AcDbEntity
  8
0
  6
Continuous
 62
     7
370
    25
100
AcDbPolyline
 90
        3
 70
   128
 43
0.0
 10
6667.6789593587
 20
5184.6623114671
 10
6667.6889692137
 20
5184.7595210548
 10
6667.6946037153
 20
5184.7840614047
  0
LINE
  5
14A
330
1F
100
AcDbEntity
  8
0
  6
Continuous
 62
     7
370
    25
100
AcDbLine
 10
6667.6789593587
 20
5184.6623114671
 30
0.0
 11
6667.6932886878
 21
5184.7184758063
 31
0.0
  0
LINE
  5
14B
330
1F
100
AcDbEntity
  8
0
  6
Continuous
 62
     7
370
    25
100
AcDbLine
 10
6658.1754346082
 20
5176.1599454459
 30
0.0
 11
6658.1754346082
 21
5143.659946638
 31
0.0
  0
LINE
  5
14C
330
1F
100
AcDbEntity
  8
0
  6
Continuous
 62
     7
370
    25
100
AcDbLine
 10
6695.9254328797
 20
5183.1599465932
 30
0.0
 11
6665.1754320303
 21
5183.1599465932
 31
0.0
  0
ARC
  5
14D
330
1F
100
AcDbEntity
  8
0
  6
Continuous
 62
     7
370
    25
100
AcDbCircle
 10
6695.9254328797
 20
5159.9099460419
 30
0.0
 40
23.25
100
AcDbArc
 50
270.0
 51
90.0
  0
LINE
  5
14E
330
1F
100
AcDbEntity
  8
0
  6
Continuous
 62
     7
370
    25
100
AcDbLine
 10
6665.1754320303
 20
5136.6599454906
 30
0.0
 11
6695.9254328797
 21
5136.6599454906
 31
0.0
  0
LINE
  5
14F
330
1F
100
AcDbEntity
  8
0
  6
Continuous
 62
     7
370
    25
100
AcDbLine
 10
6658.1754346082
 20
5143.659946638
 30
0.0
 11
6665.1754320303
 21
5136.6599454906
 31
0.0
  0
LINE
  5
150
330
1F
100
AcDbEntity
  8
0
  6
Continuous
 62
     7
370
    25
100
AcDbLine
 10
6665.1754320303
 20
5183.1599465932
 30
0.0
 11
6658.1754346082
 21
5176.1599454459
 31
0.0
  0
LINE
  5
151
330
1F
100
AcDbEntity
  8
0
  6
Continuous
 62
     7
370
    25
100
AcDbLine
 10
6636.1754347274
 20
5145.0599461224
 30
0.0
 11
6648.1754329691
 21
5145.0599461224
 31
0.0
  0
LINE
  5
152
330
1F
100
AcDbEntity
  8
0
  6
Continuous
 62
     7
370
    25
100
AcDbLine
 10
6636.1754347274
 20
5145.0599461224
 30
0.0
 11
6636.1754347274
 21
5150.6524273556
 31
0.0
  0
LINE
  5
153
330
1F
100
AcDbEntity
  8
0
  6
Continuous
 62
     7
370
    25
100
AcDbLine
 10
6636.1754347274
 20
5154.3174648087
 30
0.0
 11
6636.1754347274
 21
5159.9099460419
 31
0.0
  0
LINE
  5
154
330
1F
100
AcDbEntity
  8
0
  6
Continuous
 62
     7
370
    25
100
AcDbLine
 10
6636.1754347274
 20
5159.9099460419
 30
0.0
 11
6648.1754329691
 21
5159.9099460419
 31
0.0
  0
LINE
  5
155
330
1F
100
AcDbEntity
  8
0
  6
Continuous
 62
     7
370
    25
100
AcDbLine
 10
6648.1754329691
 20
5145.0599461224
 30
0.0
 11
6648.1754329691
 21
5159.9099460419
 31
0.0
  0
LINE
  5
156
330
1F
100
AcDbEntity
  8
0
  6
Continuous
 62
     7
370
    25
100
AcDbLine
 10
6636.1754347274
 20
5174.7599459614
 30
0.0
 11
6648.1754329691
 21
5174.7599459614
 31
0.0
  0
LINE
  5
157
330
1F
100
AcDbEntity
  8
0
  6
Continuous
 62
     7
370
    25
100
AcDbLine
 10
6648.1754329691
 20
5159.9099460419
 30
0.0
 11
6648.1754329691
 21
5174.7599459614
 31
0.0
  0
LINE
  5
158
330
1F
100
AcDbEntity
  8
0
  6
Continuous
 62
     7
370
    25
100
AcDbLine
 10
6636.1754347274
 20
5159.9099460419
 30
0.0
 11
6636.1754347274
 21
5165.5024272751
 31
0.0
  0
LINE
  5
159
330
1F
100
AcDbEntity
  8
0
  6
Continuous
 62
     7
370
    25
100
AcDbLine
 10
6636.1754347274
 20
5169.1674647283
 30
0.0
 11
6636.1754347274
 21
5174.7599459614
 31
0.0
  0
LINE
  5
15A
330
1F
100
AcDbEntity
  8
0
  6
Continuous
 62
     8
370
    25
100
AcDbLine
 10
6718.7407181302
 20
5167.3473251413
 30
0.0
 11
6719.2300201098
 21
5167.5068290334
 31
0.0
  0
LWPOLYLINE
  5
15B
330
1F
100
AcDbEntity
  8
0
  6
Continuous
 62
     8
370
    25
100
AcDbPolyline
 90
        7
 70
   128
 43
0.0
 10
6720.4966057727
 20
5170.0232961576
 10
6720.4964120577
 20
5170.0232328277
 10
6720.4721138517
 20
5170.0153119292
 10
6720.4071932176
 20
5169.994148555
 10
6720.3017358372
 20
5169.9597715761
 10
6720.1558832715
 20
5169.9122256961
 10
6719.9698310981
 20
5169.8515770387
  0
LWPOLYLINE
  5
15C
330
1F
100
AcDbEntity
  8
0
  6
Continuous
 62
     8
370
    25
100
AcDbPolyline
 90
        7
 70
   128
 43
0.0
 10
6721.2095536927
 20
5166.0485399317
 10
6721.3956058661
 20
5166.1091895204
 10
6721.5414584319
 20
5166.1567349348
 10
6721.6469158123
 20
5166.1911123793
 10
6721.7118364463
 20
5166.2122752879
 10
6721.7361346523
 20
5166.2201961864
 10
6721.73633023
 20
5166.2202595163
  0
LINE
  5
15D
330
1F
100
AcDbEntity
  8
0
  6
Continuous
 62
     8
370
    25
100
AcDbLine
 10
6616.1754314492
 20
5146.2434810947
 30
0.0
 11
6616.1754314492
 21
5124.9099458929
 31
0.0
  0
LINE
  5
15E
330
1F
100
AcDbEntity
  8
0
  6
Continuous
 62
     8
370
    25
100
AcDbLine
 10
6616.1754314492
 20
5194.9099461909
 30
0.0
 11
6616.1754314492
 21
5146.2434810947
 31
0.0
  0
LINE
  5
15F
330
1F
100
AcDbEntity
  8
0
  6
Continuous
 62
     8
370
    25
100
AcDbLine
 10
6617.0342747758
 20
5146.3191510539
 30
0.0
 11
6617.0342747758
 21
5125.1037354942
 31
0.0
  0
LINE
  5
160
330
1F
100
AcDbEntity
  8
0
  6
Continuous
 62
     8
370
    25
100
AcDbLine
 10
6617.0342747758
 20
5194.7161565896
 30
0.0
 11
6617.0342747758
 21
5146.3191510539
 31
0.0
  0
LINE
  5
161
330
1F
100
AcDbEntity
  8
0
  6
Continuous
 62
     8
370
    25
100
AcDbLine
 10
6635.9816414008
 20
5153.7175380055
 30
0.0
 11
6635.9816414008
 21
5144.0511058446
 31
0.0
  0
LINE
  5
162
330
1F
100
AcDbEntity
  8
0
  6
Continuous
 62
     8
370
    25
100
AcDbLine
 10
6635.9816414008
 20
5175.7687862392
 30
0.0
 11
6635.9816414008
 21
5153.7175380055
 31
0.0
  0
LWPOLYLINE
  5
163
330
1F
100
AcDbEntity
  8
0
  6
Continuous
 62
     8
370
    25
100
AcDbPolyline
 90
        9
 70
   128
 43
0.0
 10
6802.4826083968
 20
5278.6439332541
 10
6802.5172088931
 20
5278.6529112037
 10
6802.7928133199
 20
5278.7243846234
 10
6803.3374358604
 20
5278.8656327303
 10
6804.1380603502
 20
5279.0732804116
 10
6805.1755462477
 20
5279.3423506792
 10
6806.425112922
 20
5279.6664285835
 10
6807.8568984459
 20
5280.0377655204
 10
6809.4366748521
 20
5280.447480398
  0
LWPOLYLINE
  5
164
330
1F
100
AcDbEntity
  8
0
  6
Continuous
 62
     8
370
    25
100
AcDbPolyline
 90
        9
 70
   128
 43
0.0
 10
6818.6631460378
 20
5282.8403833683
 10
6820.2429224441
 20
5283.2501056965
 10
6821.674707968
 20
5283.6214351829
 10
6822.9242746422
 20
5283.9455130871
 10
6823.9617679904
 20
5284.2145908054
 10
6824.762377579
 20
5284.422231036
 10
6825.3070001195
 20
5284.563479143
 10
6825.5826119969
 20
5284.6349600132
 10
6825.6172124932
 20
5284.6439305123
  0
LWPOLYLINE
  5
165
330
1F
100
AcDbEntity
  8
0
  6
Continuous
 62
     8
370
    25
100
AcDbPolyline
 90
        3
 70
   128
 43
0.0
 10
6667.8217050324
 20
5191.9493536826
 10
6667.8164281587
 20
5191.9759410795
 10
6667.8116523365
 20
5192.011700141
  0
LINE
  5
166
330
1F
100
AcDbEntity
  8
0
  6
Continuous
 62
     7
370
    25
100
AcDbLine
 10
6346.2034165113
 20
4906.926266999
 30
0.0
 11
6346.2034165113
 21
4912.7262683222
 31
0.0
  0
LINE
  5
167
330
1F
100
AcDbEntity
  8
0
  6
Continuous
 62
     7
370
    25
100
AcDbLine
 10
6325.7034196703
 20
4912.7262683222
 30
0.0
 11
6325.7034196703
 21
4906.926266999
 31
0.0
  0
LINE
  5
168
330
1F
100
AcDbEntity
  8
0
  6
Continuous
 62
     7
370
    25
100
AcDbLine
 10
6346.2034165113
 20
4912.7262683222
 30
0.0
 11
6345.2034219353
 21
4913.7262703487
 31
0.0
  0
LINE
  5
169
330
1F
100
AcDbEntity
  8
0
  6
Continuous
 62
     7
370
    25
100
AcDbLine
 10
6326.7034216969
 20
4913.7262703487
 30
0.0
 11
6325.7034196703
 21
4912.7262683222
 31
0.0
  0
LINE
  5
16A
330
1F
100
AcDbEntity
  8
0
  6
Continuous
 62
     7
370
    25
100
AcDbLine
 10
6196.2034180014
 20
4906.926266999
 30
0.0
 11
6196.2034180014
 21
4912.7262683222
 31
0.0
  0
LINE
  5
16B
330
1F
100
AcDbEntity
  8
0
  6
Continuous
 62
     7
370
    25
100
AcDbLine
 10
6175.7034211605
 20
4912.7262683222
 30
0.0
 11
6175.7034211605
 21
4906.926266999
 31
0.0
  0
LINE
  5
16C
330
1F
100
AcDbEntity
  8
0
  6
Continuous
 62
     7
370
    25
100
AcDbLine
 10
6196.2034180014
 20
4912.7262683222
 30
0.0
 11
6195.2034159749
 21
4913.7262703487
 31
0.0
  0
LINE
  5
16D
330
1F
100
AcDbEntity
  8
0
  6
Continuous
 62
     7
370
    25
100
AcDbLine
 10
6176.7034157364
 20
4913.7262703487
 30
0.0
 11
6175.7034211605
 21
4912.7262683222
 31
0.0
  0
LINE
  5
16E
330
1F
100
AcDbEntity
  8
0
  6
Continuous
 62
     7
370
    25
100
AcDbLine
 10
6199.9534181504
 20
4797.4262667456
 30
0.0
 11
6199.9534181504
 21
4796.6762670884
 31
0.0
  0
LINE
  5
16F
330
1F
100
AcDbEntity
  8
0
  6
Continuous
 62
     7
370
    25
100
AcDbLine
 10
6221.9534180312
 20
4796.6762670884
 30
0.0
 11
6221.9534180312
 21
4797.4262667456
 31
0.0
  0
LINE
  5
170
330
1F
100
AcDbEntity
  8
0
  6
Continuous
 62
     7
370
    25
100
AcDbLine
 10
6199.9534181504
 20
4796.6762670884
 30
0.0
 11
6221.9534180312
 21
4796.6762670884
 31
0.0
  0
ARC
  5
171
330
1F
100
AcDbEntity
  8
0
  6
Continuous
 62
     7
370
    25
100
AcDbCircle
 10
6406.2055781552
 20
4828.2241079777
 30
0.0
 40
0.7521593192829201
100
AcDbArc
 50
15.3083338787
 51
70.7612320046
  0
ARC
  5
172
330
1F
100
AcDbEntity
  8
0
  6
Continuous
 62
     7
370
    25
100
AcDbCircle
 10
6406.2055781552
 20
4813.1284266163
 30
0.0
 40
0.7521593192829201
100
AcDbArc
 50
289.2387679954
 51
344.6916661213
  0
ARC
  5
173
330
1F
100
AcDbEntity
  8
0
  6
Continuous
 62
     7
370
    25
100
AcDbCircle
 10
6378.6310783358
 20
4820.676267297
 30
0.0
 40
29.34101972379746
100
AcDbArc
 50
344.6916661213
 51
15.3083338787
  0
LWPOLYLINE
  5
174
330
1F
100
AcDbEntity
  8
0
  6
Continuous
 62
     7
370
    25
100
AcDbPolyline
 90
        3
 70
   128
 43
0.0
 10
6372.4534212797
 20
4797.6762672523
 10
6375.9138583391
 20
4797.7175658205
 10
6378.4534185379
 20
4797.8004591176
  0
LWPOLYLINE
  5
175
330
1F
100
AcDbEntity
  8
0
  6
Continuous
 62
     7
370
    25
100
AcDbPolyline
 90
        3
 70
   128
 43
0.0
 10
6393.4534116833
 20
4799.2050164947
 10
6396.5662791579
 20
4799.6952535221
 10
6399.9716713278
 20
4800.3114333013
  0
ARC
  5
176
330
1F
100
AcDbEntity
  8
0
  6
Continuous
 62
     7
370
    25
100
AcDbCircle
 10
6372.4534188359
 20
4698.676267297
 30
0.0
 40
145.0000000000009
100
AcDbArc
 50
79.0599948332
 51
90.0
  0
ARC
  5
177
330
1F
100
AcDbEntity
  8
0
  6
Continuous
 62
     7
370
    25
100
AcDbCircle
 10
6356.9534188359
 20
4798.076267297
 30
0.0
 40
0.5
100
AcDbArc
 50
180.0
 51
270.0
  0
ARC
  5
178
330
1F
100
AcDbEntity
  8
0
  6
Continuous
 62
     7
370
    25
100
AcDbCircle
 10
6356.9534188359
 20
4843.276267297
 30
0.0
 40
0.5
100
AcDbArc
 50
90.0
 51
180.0
  0
LINE
  5
179
330
1F
100
AcDbEntity
  8
0
  6
Continuous
 62
     7
370
    25
100
AcDbLine
 10
6367.4534185975
 20
4843.7762671718
 30
0.0
 11
6356.9534196703
 21
4843.7762671718
 31
0.0
  0
LINE
  5
17A
330
1F
100
AcDbEntity
  8
0
  6
Continuous
 62
     7
370
    25
100
AcDbLine
 10
6356.9534196703
 20
4797.5762674221
 30
0.0
 11
6367.4534185975
 21
4797.5762674221
 31
0.0
  0
LINE
  5
17B
330
1F
100
AcDbEntity
  8
0
  6
Continuous
 62
     7
370
    25
100
AcDbLine
 10
6372.4534212797
 20
4843.6762673417
 30
0.0
 11
6367.4534185975
 21
4843.6762673417
 31
0.0
  0
LINE
  5
17C
330
1F
100
AcDbEntity
  8
0
  6
Continuous
 62
     7
370
    25
100
AcDbLine
 10
6367.4534185975
 20
4797.6762672523
 30
0.0
 11
6372.4534212797
 21
4797.6762672523
 31
0.0
  0
ARC
  5
17D
330
1F
100
AcDbEntity
  8
0
  6
Continuous
 62
     7
370
    25
100
AcDbCircle
 10
6398.4534188359
 20
4833.1864899568
 30
0.0
 40
8.0
100
AcDbArc
 50
0.0
 51
79.0599948332
  0
ARC
  5
17E
330
1F
100
AcDbEntity
  8
0
  6
Continuous
 62
     7
370
    25
100
AcDbCircle
 10
6398.4534188359
 20
4808.1660446371
 30
0.0
 40
8.0
100
AcDbArc
 50
280.9400051668
 51
0.0
  0
SPLINE
  5
17F
330
1F
100
AcDbEntity
  8
0
  6
Continuous
 62
     7
370
    25
100
AcDbSpline
210
0.0
220
0.0
230
1.0
 70
     8
 71
     3
 72
    14
 73
    10
 74
     0
 42
0.000000001
 43
0.00000001
 40
0.0
 40
0.0
 40
0.0
 40
0.0
 40
0.1081123191860574
 40
0.3033908653679535
 40
0.5047005678471855
 40
0.7006825133434706
 40
0.8316257823278543
 40
0.9616542601298602
 40
1.0
 40
1.0
 40
1.0
 40
1.0
 10
6390.554033145185
 20
4795.00037819237
 30
0.0
 10
6390.706588682689
 20
4795.013831159455
 30
0.0
 10
6391.134698604744
 20
4795.051583631664
 30
0.0
 10
6391.813397200273
 20
4795.229841177343
 30
0.0
 10
6392.494073087373
 20
4795.506774731649
 30
0.0
 10
6392.983047909329
 20
4795.833910704017
 30
0.0
 10
6393.304341753639
 20
4796.243562976383
 30
0.0
 10
6393.463255798932
 20
4796.59896851359
 30
0.0
 10
6393.438257989057
 20
4796.812836088767
 30
0.0
 10
6393.432564958806
 20
4796.861542538707
 30
0.0
  0
SPLINE
  5
180
330
1F
100
AcDbEntity
  8
0
  6
Continuous
 62
     7
370
    25
100
AcDbSpline
210
0.0
220
0.0
230
1.0
 70
     8
 71
     3
 72
    14
 73
    10
 74
     0
 42
0.000000001
 43
0.00000001
 40
0.0
 40
0.0
 40
0.0
 40
0.0
 40
0.066700682777334
 40
0.1781447238684492
 40
0.3036824164760149
 40
0.4558660184447494
 40
0.6628352541897558
 40
0.8671118936911909
 40
1.0
 40
1.0
 40
1.0
 40
1.0
 10
6378.477856442209
 20
4797.366969437306
 30
0.0
 10
6378.473964983757
 20
4797.282146480581
 30
0.0
 10
6378.463571645001
 20
4797.055600640656
 30
0.0
 10
6378.623962977206
 20
4796.714774919134
 30
0.0
 10
6378.889750896638
 20
4796.3724839202
 30
0.0
 10
6379.310890860373
 20
4796.040850754684
 30
0.0
 10
6379.920950029221
 20
4795.723775347856
 30
0.0
 10
6380.626100111556
 20
4795.471908406264
 30
0.0
 10
6381.092927711301
 20
4795.385957260043
 30
0.0
 10
6381.276920363183
 20
4795.352080986802
 30
0.0
  0
SPLINE
  5
181
330
1F
100
AcDbEntity
  8
0
  6
Continuous
 62
     7
370
    25
100
AcDbSpline
210
0.0
220
0.0
230
1.0
 70
     8
 71
     3
 72
    11
 73
     7
 74
     0
 42
0.000000001
 43
0.00000001
 40
0.0
 40
0.0
 40
0.0
 40
0.0
 40
0.160707887651615
 40
0.4621385050022602
 40
0.7636498994706957
 40
1.0
 40
1.0
 40
1.0
 40
1.0
 10
6381.276488229509
 20
4795.34212887377
 30
0.0
 10
6381.768253100335
 20
4795.260508655278
 30
0.0
 10
6383.182393286836
 20
4795.02579804895
 30
0.0
 10
6385.547591873586
 20
4794.821097627865
 30
0.0
 10
6388.158057812868
 20
4794.790081539107
 30
0.0
 10
6389.822873065194
 20
4794.926859629858
 30
0.0
 10
6390.554435476537
 20
4794.986963422005
 30
0.0
  0
LINE
  5
182
330
1F
100
AcDbEntity
  8
0
  6
Continuous
 62
     7
370
    25
100
AcDbLine
 10
6370.9534182398
 20
4900.4262687275
 30
0.0
 11
6370.9534182398
 21
4906.926266999
 31
0.0
  0
LINE
  5
183
330
1F
100
AcDbEntity
  8
0
  6
Continuous
 62
     7
370
    25
100
AcDbLine
 10
6300.9534179418
 20
4906.926266999
 30
0.0
 11
6300.9534179418
 21
4900.4262687275
 31
0.0
  0
ARC
  5
184
330
1F
100
AcDbEntity
  8
0
  6
Continuous
 62
     7
370
    25
100
AcDbCircle
 10
6368.9534188359
 20
4900.426267297
 30
0.0
 40
2.000000000000365
100
AcDbArc
 50
334.5692127594
 51
0.0
  0
ARC
  5
185
330
1F
100
AcDbEntity
  8
0
  6
Continuous
 62
     7
370
    25
100
AcDbCircle
 10
6302.9534188359
 20
4900.426267297
 30
0.0
 40
2.000000000000365
100
AcDbArc
 50
180.0
 51
205.4307872406
  0
ARC
  5
186
330
1F
100
AcDbEntity
  8
0
  6
Continuous
 62
     7
370
    25
100
AcDbCircle
 10
6337.2713966382
 20
4916.7442450993
 30
0.0
 40
40.00000000000128
100
AcDbArc
 50
205.4307872406
 51
244.5692127594
  0
ARC
  5
187
330
1F
100
AcDbEntity
  8
0
  6
Continuous
 62
     7
370
    25
100
AcDbCircle
 10
6334.6354410335
 20
4916.7442450993
 30
0.0
 40
40.00000000000128
100
AcDbArc
 50
295.4307872406
 51
334.5692127594
  0
ARC
  5
188
330
1F
100
AcDbEntity
  8
0
  6
Continuous
 62
     7
370
    25
100
AcDbCircle
 10
6350.9534188359
 20
4882.426267297
 30
0.0
 40
2.000000000000365
100
AcDbArc
 50
270.0
 51
295.4307872406
  0
ARC
  5
189
330
1F
100
AcDbEntity
  8
0
  6
Continuous
 62
     7
370
    25
100
AcDbCircle
 10
6320.9534188359
 20
4882.426267297
 30
0.0
 40
2.000000000000365
100
AcDbArc
 50
244.5692127594
 51
270.0
  0
LINE
  5
18A
330
1F
100
AcDbEntity
  8
0
  6
Continuous
 62
     7
370
    25
100
AcDbLine
 10
6322.0349363236
 20
4880.4262654492
 30
0.0
 11
6324.1509496419
 21
4880.4262654492
 31
0.0
  0
LINE
  5
18B
330
1F
100
AcDbEntity
  8
0
  6
Continuous
 62
     7
370
    25
100
AcDbLine
 10
6333.8374047725
 20
4880.4262654492
 30
0.0
 11
6338.0694314091
 21
4880.4262654492
 31
0.0
  0
LINE
  5
18C
330
1F
100
AcDbEntity
  8
0
  6
Continuous
 62
     7
370
    25
100
AcDbLine
 10
6347.7558939903
 20
4880.4262654492
 30
0.0
 11
6349.8719035833
 21
4880.4262654492
 31
0.0
  0
LINE
  5
18D
330
1F
100
AcDbEntity
  8
0
  6
Continuous
 62
     7
370
    25
100
AcDbLine
 10
6220.9534197299
 20
4900.4262687275
 30
0.0
 11
6220.9534197299
 21
4906.926266999
 31
0.0
  0
LINE
  5
18E
330
1F
100
AcDbEntity
  8
0
  6
Continuous
 62
     7
370
    25
100
AcDbLine
 10
6150.9534194319
 20
4906.926266999
 30
0.0
 11
6150.9534194319
 21
4900.4262687275
 31
0.0
  0
ARC
  5
18F
330
1F
100
AcDbEntity
  8
0
  6
Continuous
 62
     7
370
    25
100
AcDbCircle
 10
6218.9534188359
 20
4900.426267297
 30
0.0
 40
1.999999999999091
100
AcDbArc
 50
334.5692127593
 51
0.0
  0
ARC
  5
190
330
1F
100
AcDbEntity
  8
0
  6
Continuous
 62
     7
370
    25
100
AcDbCircle
 10
6152.9534188359
 20
4900.426267297
 30
0.0
 40
2.000000000000365
100
AcDbArc
 50
180.0
 51
205.4307872406
  0
ARC
  5
191
330
1F
100
AcDbEntity
  8
0
  6
Continuous
 62
     7
370
    25
100
AcDbCircle
 10
6187.2713966382
 20
4916.7442450993
 30
0.0
 40
40.0000000000005
100
AcDbArc
 50
205.4307872406
 51
244.5692127594
  0
ARC
  5
192
330
1F
100
AcDbEntity
  8
0
  6
Continuous
 62
     7
370
    25
100
AcDbCircle
 10
6184.6354410335
 20
4916.7442450993
 30
0.0
 40
40.0000000000005
100
AcDbArc
 50
295.4307872406
 51
334.5692127594
  0
ARC
  5
193
330
1F
100
AcDbEntity
  8
0
  6
Continuous
 62
     7
370
    25
100
AcDbCircle
 10
6200.9534188359
 20
4882.426267297
 30
0.0
 40
2.0
100
AcDbArc
 50
270.0
 51
295.4307872406
  0
ARC
  5
194
330
1F
100
AcDbEntity
  8
0
  6
Continuous
 62
     7
370
    25
100
AcDbCircle
 10
6170.9534188359
 20
4882.426267297
 30
0.0
 40
2.0
100
AcDbArc
 50
244.5692127594
 51
270.0
  0
LINE
  5
195
330
1F
100
AcDbEntity
  8
0
  6
Continuous
 62
     7
370
    25
100
AcDbLine
 10
6172.0349340885
 20
4880.4262654492
 30
0.0
 11
6174.1509436815
 21
4880.4262654492
 31
0.0
  0
LINE
  5
196
330
1F
100
AcDbEntity
  8
0
  6
Continuous
 62
     7
370
    25
100
AcDbLine
 10
6183.8374062626
 20
4880.4262654492
 30
0.0
 11
6188.0694328992
 21
4880.4262654492
 31
0.0
  0
LINE
  5
197
330
1F
100
AcDbEntity
  8
0
  6
Continuous
 62
     7
370
    25
100
AcDbLine
 10
6197.7558880298
 20
4880.4262654492
 30
0.0
 11
6199.8719013481
 21
4880.4262654492
 31
0.0
  0
ARC
  5
198
330
1F
100
AcDbEntity
  8
0
  6
Continuous
 62
     7
370
    25
100
AcDbCircle
 10
6150.4534188359
 20
4838.676267297
 30
0.0
 40
5.0
100
AcDbArc
 50
90.0
 51
180.0
  0
ARC
  5
199
330
1F
100
AcDbEntity
  8
0
  6
Continuous
 62
     7
370
    25
100
AcDbCircle
 10
6150.4534188359
 20
4802.676267297
 30
0.0
 40
5.0
100
AcDbArc
 50
180.0
 51
270.0
  0
LINE
  5
19A
330
1F
100
AcDbEntity
  8
0
  6
Continuous
 62
     7
370
    25
100
AcDbLine
 10
6165.8534183352
 20
4843.6762673417
 30
0.0
 11
6150.4534184186
 21
4843.6762673417
 31
0.0
  0
LINE
  5
19B
330
1F
100
AcDbEntity
  8
0
  6
Continuous
 62
     7
370
    25
100
AcDbLine
 10
6150.4534184186
 20
4797.6762672523
 30
0.0
 11
6165.8534183352
 21
4797.6762672523
 31
0.0
  0
LINE
  5
19C
330
1F
100
AcDbEntity
  8
0
  6
Continuous
 62
     7
370
    25
100
AcDbLine
 10
6165.953420028
 20
4840.6762668499
 30
0.0
 11
6165.8534183352
 21
4840.6762668499
 31
0.0
  0
LINE
  5
19D
330
1F
100
AcDbEntity
  8
0
  6
Continuous
 62
     7
370
    25
100
AcDbLine
 10
6165.8534183352
 20
4800.676267744
 30
0.0
 11
6165.953420028
 21
4800.676267744
 31
0.0
  0
SPLINE
  5
19E
330
1F
100
AcDbEntity
  8
0
  6
Continuous
 62
     7
370
    25
100
AcDbSpline
210
0.0
220
0.0
230
1.0
 70
     8
 71
     3
 72
    54
 73
    50
 74
     0
 42
0.000000001
 43
0.00000001
 40
0.0
 40
0.0
 40
0.0
 40
0.0
 40
0.0133125609873592
 40
0.0268687558481921
 40
0.0382516151839668
 40
0.0520996403894733
 40
0.0634135700840945
 40
0.0727774469766697
 40
0.0809702707801994
 40
0.0892704571611659
 40
0.098051445441408
 40
0.1064730669107041
 40
0.1138305476563984
 40
0.1250711741110939
 40
0.1378459793083633
 40
0.1523042320326536
 40
0.1678922275591146
 40
0.194047632925361
 40
0.2197360230246949
 40
0.249146914014474
 40
0.2765272547939653
 40
0.3020356416354719
 40
0.3197529146936343
 40
0.3401157533008994
 40
0.3606547728843899
 40
0.376427736781389
 40
0.3918716021831369
 40
0.4087313062466019
 40
0.4260163262774914
 40
0.4464917467397564
 40
0.467902742937801
 40
0.492203846108428
 40
0.5196694222894926
 40
0.547781839851564
 40
0.5724201943189481
 40
0.6070167982107261
 40
0.6457786064440189
 40
0.6828290035302911
 40
0.7154946423863193
 40
0.7451261409827155
 40
0.7772814160877296
 40
0.812601312330042
 40
0.8512231514299544
 40
0.8839468278277267
 40
0.9149308132650951
 40
0.9437376647269947
 40
0.9703667469994924
 40
0.9949751583943524
 40
1.0
 40
1.0
 40
1.0
 40
1.0
 10
6275.146395824726
 20
4703.994922489826
 30
0.0
 10
6275.158450686337
 20
4704.278550566813
 30
0.0
 10
6275.182781026212
 20
4704.850997413027
 30
0.0
 10
6275.226079731489
 20
4705.953217172904
 30
0.0
 10
6275.273663901102
 20
4707.344480065877
 30
0.0
 10
6275.318883215036
 20
4709.008167990724
 30
0.0
 10
6275.351724369692
 20
4710.906959112019
 30
0.0
 10
6275.369055057404
 20
4712.631324104786
 30
0.0
 10
6275.384271230736
 20
4714.160183049276
 30
0.0
 10
6275.408294610626
 20
4715.540145250321
 30
0.0
 10
6275.45224560894
 20
4716.687618837713
 30
0.0
 10
6275.518384754112
 20
4717.813044736668
 30
0.0
 10
6275.622078917142
 20
4719.233522081734
 30
0.0
 10
6275.756287515014
 20
4721.104788125749
 30
0.0
 10
6275.906234779623
 20
4723.365187416866
 30
0.0
 10
6276.042845578281
 20
4725.903839119238
 30
0.0
 10
6276.200878586386
 20
4729.225919822726
 30
0.0
 10
6276.348568371209
 20
4733.21497260164
 30
0.0
 10
6276.463396853154
 20
4738.017257837708
 30
0.0
 10
6276.503512581565
 20
4742.87983667133
 30
0.0
 10
6276.471682883765
 20
4747.714647009445
 30
0.0
 10
6276.371854849283
 20
4751.846870703394
 30
0.0
 10
6276.247388337563
 20
4755.581210311617
 30
0.0
 10
6276.149252626841
 20
4758.990517605715
 30
0.0
 10
6276.056558763531
 20
4762.246317651183
 30
0.0
 10
6275.985941694409
 20
4765.285419388668
 30
0.0
 10
6275.919157266427
 20
4768.071349048238
 30
0.0
 10
6275.854819123642
 20
4770.845494581536
 30
0.0
 10
6275.790923468562
 20
4773.858426930138
 30
0.0
 10
6275.732341017547
 20
4777.056684595991
 30
0.0
 10
6275.682243202752
 20
4780.552107916023
 30
0.0
 10
6275.646293013649
 20
4784.320734884161
 30
0.0
 10
6275.630567710147
 20
4788.318552459188
 30
0.0
 10
6275.638139199102
 20
4792.212468371489
 30
0.0
 10
6275.667540814606
 20
4796.329141987474
 30
0.0
 10
6275.724599216851
 20
4800.767286614325
 30
0.0
 10
6275.816001613211
 20
4805.495255885907
 30
0.0
 10
6275.924748330631
 20
4809.867060906526
 30
0.0
 10
6276.031294694263
 20
4813.613511292592
 30
0.0
 10
6276.130178075026
 20
4816.915977775285
 30
0.0
 10
6276.21982392484
 20
4820.011791642996
 30
0.0
 10
6276.292816327029
 20
4823.03650599212
 30
0.0
 10
6276.33822274146
 20
4825.682840910746
 30
0.0
 10
6276.358192677155
 20
4827.883133152349
 30
0.0
 10
6276.359641526946
 20
4829.55834920109
 30
0.0
 10
6276.351349124597
 20
4830.899440621104
 30
0.0
 10
6276.338328035931
 20
4831.773654484465
 30
0.0
 10
6276.332672056202
 20
4832.579532724599
 30
0.0
 10
6276.327673381282
 20
4832.484053650116
 30
0.0
 10
6276.326825767632
 20
4832.467863486116
 30
0.0
  0
SPLINE
  5
19F
330
1F
100
AcDbEntity
  8
0
  6
Continuous
 62
     7
370
    25
100
AcDbSpline
210
0.0
220
0.0
230
1.0
 70
     8
 71
     3
 72
    52
 73
    48
 74
     0
 42
0.000000001
 43
0.00000001
 40
0.0
 40
0.0
 40
0.0
 40
0.0
 40
0.0050248377834069
 40
0.03608202989298
 40
0.0703890406780808
 40
0.1080938981600538
 40
0.1487656629403129
 40
0.187387472661792
 40
0.2227073420373563
 40
0.2548625926828516
 40
0.2844940687394871
 40
0.3102709877245047
 40
0.3388812090683757
 40
0.3701031861043106
 40
0.4002367749335696
 40
0.4275761725951451
 40
0.4522145083208983
 40
0.4803269044987269
 40
0.5077924597875808
 40
0.5320935444731135
 40
0.5535045243844784
 40
0.5739799292717271
 40
0.5941188294733977
 40
0.6134414326891409
 40
0.630919069836079
 40
0.6525241535410098
 40
0.67706115158099
 40
0.6979524156312965
 40
0.7298324427585009
 40
0.7647760786154307
 40
0.8021748464081111
 40
0.8403508791245297
 40
0.857665232062019
 40
0.8730036208103347
 40
0.8797084215301388
 40
0.8861715108997272
 40
0.8935289860488144
 40
0.9019506011120447
 40
0.9107315827128618
 40
0.9190317627801342
 40
0.9272245803516374
 40
0.9365884501214022
 40
0.9479023712098684
 40
0.9617503858816123
 40
0.9731332365587995
 40
0.9866894211078561
 40
1.0
 40
1.0
 40
1.0
 40
1.0
 10
6245.580011904116
 20
4832.467863486116
 30
0.0
 10
6245.579170026009
 20
4832.483317879539
 30
0.0
 10
6245.57312472219
 20
4832.594291787448
 30
0.0
 10
6245.565442159897
 20
4831.529027319534
 30
0.0
 10
6245.54952408095
 20
4830.305999863924
 30
0.0
 10
6245.545608883516
 20
4828.33775694306
 30
0.0
 10
6245.565177746325
 20
4825.883926030932
 30
0.0
 10
6245.614034133919
 20
4823.035577264042
 30
0.0
 10
6245.687010785523
 20
4820.012013091457
 30
0.0
 10
6245.776660241229
 20
4816.915908618724
 30
0.0
 10
6245.868331146532
 20
4813.854440350539
 30
0.0
 10
6245.958199925323
 20
4810.711292593832
 30
0.0
 10
6246.046453175728
 20
4807.330315972778
 30
0.0
 10
6246.129499310291
 20
4803.590945108699
 30
0.0
 10
6246.196407280981
 20
4799.724864038645
 30
0.0
 10
6246.241738342208
 20
4795.986994465711
 30
0.0
 10
6246.268698996361
 20
4792.212503794286
 30
0.0
 10
6246.276269244237
 20
4788.318539785625
 30
0.0
 10
6246.26054679085
 20
4784.320747688268
 30
0.0
 10
6246.224587935698
 20
4780.552074693371
 30
0.0
 10
6246.174517508655
 20
4777.056789268214
 30
0.0
 10
6246.113014854653
 20
4773.703801527511
 30
0.0
 10
6246.042425455769
 20
4770.394259866793
 30
0.0
 10
6245.965834311824
 20
4767.19041445632
 30
0.0
 10
6245.887196372909
 20
4763.754686656119
 30
0.0
 10
6245.789788453975
 20
4760.076487351676
 30
0.0
 10
6245.679051472256
 20
4756.200560660792
 30
0.0
 10
6245.52701784595
 20
4751.658160437752
 30
0.0
 10
6245.41339740788
 20
4746.526077407438
 30
0.0
 10
6245.406198773051
 20
4740.393894121872
 30
0.0
 10
6245.52651686624
 20
4733.86480302284
 30
0.0
 10
6245.738741459671
 20
4728.370929737091
 30
0.0
 10
6245.953332313301
 20
4724.180286151395
 30
0.0
 10
6246.099264415347
 20
4721.85283606182
 30
0.0
 10
6246.216740024681
 20
4720.1765618728
 30
0.0
 10
6246.303357540294
 20
4718.980158827041
 30
0.0
 10
6246.388366429986
 20
4717.81376543465
 30
0.0
 10
6246.45461775167
 20
4716.687404773485
 30
0.0
 10
6246.498536481115
 20
4715.540200081297
 30
0.0
 10
6246.522568128796
 20
4714.160168984848
 30
0.0
 10
6246.537782095575
 20
4712.631328428442
 30
0.0
 10
6246.555113482371
 20
4710.906957605797
 30
0.0
 10
6246.587954389369
 20
4709.008168570323
 30
0.0
 10
6246.633173794346
 20
4707.344479789418
 30
0.0
 10
6246.680757908303
 20
4705.953217693382
 30
0.0
 10
6246.724054538842
 20
4704.851052038611
 30
0.0
 10
6246.748383153296
 20
4704.278639186346
 30
0.0
 10
6246.760436259086
 20
4703.995049149697
 30
0.0
  0
SPLINE
  5
1A0
330
1F
100
AcDbEntity
  8
0
  6
Continuous
 62
     7
370
    25
100
AcDbSpline
210
0.0
220
0.0
230
1.0
 70
     8
 71
     3
 72
    12
 73
     8
 74
     0
 42
0.000000001
 43
0.00000001
 40
0.0
 40
0.0
 40
0.0
 40
0.0
 40
0.0395536140077441
 40
0.1345709192779423
 40
0.2878683351516758
 40
0.5790576464080508
 40
0.9999999999999999
 40
0.9999999999999999
 40
0.9999999999999999
 40
0.9999999999999999
 10
6264.616445330779
 20
4848.412595839207
 30
0.0
 10
6264.623167847902
 20
4848.413044385863
 30
0.0
 10
6264.646039469916
 20
4848.414570449595
 30
0.0
 10
6264.667679015142
 20
4848.412879884278
 30
0.0
 10
6264.680192322146
 20
4848.412026413225
 30
0.0
 10
6264.654615684325
 20
4848.414486703205
 30
0.0
 10
6264.588362936653
 20
4848.426146337922
 30
0.0
 10
6264.549200814094
 20
4848.43303836972
 30
0.0
  0
SPLINE
  5
1A1
330
1F
100
AcDbEntity
  8
0
  6
Continuous
 62
     7
370
    25
100
AcDbSpline
210
0.0
220
0.0
230
1.0
 70
     8
 71
     3
 72
    10
 73
     6
 74
     0
 42
0.000000001
 43
0.00000001
 40
0.0
 40
0.0
 40
0.0
 40
0.0
 40
0.4512725136988545
 40
0.928042954485277
 40
0.9999999999999999
 40
0.9999999999999999
 40
0.9999999999999999
 40
0.9999999999999999
 10
6257.455505123238
 20
4848.45032557935
 30
0.0
 10
6257.400338296103
 20
4848.44025520599
 30
0.0
 10
6257.286887590175
 20
4848.419545460187
 30
0.0
 10
6257.229983388515
 20
4848.412470448333
 30
0.0
 10
6257.237849592339
 20
4848.413058846999
 30
0.0
 10
6257.238881122197
 20
4848.4131360063
 30
0.0
  0
LINE
  5
1A2
330
1F
100
AcDbEntity
  8
0
  6
Continuous
 62
     7
370
    25
100
AcDbLine
 10
6221.9534180312
 20
4797.4262667456
 30
0.0
 11
6246.2210933863
 21
4797.4262667456
 31
0.0
  0
LINE
  5
1A3
330
1F
100
AcDbEntity
  8
0
  6
Continuous
 62
     7
370
    25
100
AcDbLine
 10
6275.6867780535
 20
4797.4262667456
 30
0.0
 11
6355.9534176438
 21
4797.4262667456
 31
0.0
  0
LINE
  5
1A4
330
1F
100
AcDbEntity
  8
0
  6
Continuous
 62
     7
370
    25
100
AcDbLine
 10
6165.953420028
 20
4797.4262667456
 30
0.0
 11
6199.9534181504
 21
4797.4262667456
 31
0.0
  0
LINE
  5
1A5
330
1F
100
AcDbEntity
  8
0
  6
Continuous
 62
     7
370
    25
100
AcDbLine
 10
6355.9534176438
 20
4803.1762672225
 30
0.0
 11
6356.4534186571
 21
4803.1762672225
 31
0.0
  0
LINE
  5
1A6
330
1F
100
AcDbEntity
  8
0
  6
Continuous
 62
     7
370
    25
100
AcDbLine
 10
6356.4534186571
 20
4838.1762673715
 30
0.0
 11
6355.9534176438
 21
4838.1762673715
 31
0.0
  0
LINE
  5
1A7
330
1F
100
AcDbEntity
  8
0
  6
Continuous
 62
     7
370
    25
100
AcDbLine
 10
6199.6534205227
 20
4858.4262655684
 30
0.0
 11
6199.6534205227
 21
4868.4262672076
 31
0.0
  0
LINE
  5
1A8
330
1F
100
AcDbEntity
  8
0
  6
Continuous
 62
     7
370
    25
100
AcDbLine
 10
6172.2534223645
 20
4868.4262672076
 30
0.0
 11
6172.2534223645
 21
4858.4262655684
 31
0.0
  0
LINE
  5
1A9
330
1F
100
AcDbEntity
  8
0
  6
Continuous
 62
     7
370
    25
100
AcDbLine
 10
6349.6534153073
 20
4858.4262655684
 30
0.0
 11
6349.6534153073
 21
4868.4262672076
 31
0.0
  0
LINE
  5
1AA
330
1F
100
AcDbEntity
  8
0
  6
Continuous
 62
     7
370
    25
100
AcDbLine
 10
6322.2534171491
 20
4868.4262672076
 30
0.0
 11
6322.2534171491
 21
4858.4262655684
 31
0.0
  0
LINE
  5
1AB
330
1F
100
AcDbEntity
  8
0
  6
Continuous
 62
     7
370
    25
100
AcDbLine
 10
6335.9534218161
 20
4912.7262683222
 30
0.0
 11
6325.7034196703
 21
4912.7262683222
 31
0.0
  0
LINE
  5
1AC
330
1F
100
AcDbEntity
  8
0
  6
Continuous
 62
     7
370
    25
100
AcDbLine
 10
6346.2034165113
 20
4912.7262683222
 30
0.0
 11
6335.9534218161
 21
4912.7262683222
 31
0.0
  0
LINE
  5
1AD
330
1F
100
AcDbEntity
  8
0
  6
Continuous
 62
     7
370
    25
100
AcDbLine
 10
6335.9534218161
 20
4913.7262703487
 30
0.0
 11
6345.2034219353
 21
4913.7262703487
 31
0.0
  0
LINE
  5
1AE
330
1F
100
AcDbEntity
  8
0
  6
Continuous
 62
     7
370
    25
100
AcDbLine
 10
6326.7034216969
 20
4913.7262703487
 30
0.0
 11
6335.9534218161
 21
4913.7262703487
 31
0.0
  0
LINE
  5
1AF
330
1F
100
AcDbEntity
  8
0
  6
Continuous
 62
     7
370
    25
100
AcDbLine
 10
6185.9534158556
 20
4912.7262683222
 30
0.0
 11
6175.7034211605
 21
4912.7262683222
 31
0.0
  0
LINE
  5
1B0
330
1F
100
AcDbEntity
  8
0
  6
Continuous
 62
     7
370
    25
100
AcDbLine
 10
6196.2034180014
 20
4912.7262683222
 30
0.0
 11
6185.9534158556
 21
4912.7262683222
 31
0.0
  0
LINE
  5
1B1
330
1F
100
AcDbEntity
  8
0
  6
Continuous
 62
     7
370
    25
100
AcDbLine
 10
6185.9534158556
 20
4913.7262703487
 30
0.0
 11
6195.2034159749
 21
4913.7262703487
 31
0.0
  0
LINE
  5
1B2
330
1F
100
AcDbEntity
  8
0
  6
Continuous
 62
     7
370
    25
100
AcDbLine
 10
6176.7034157364
 20
4913.7262703487
 30
0.0
 11
6185.9534158556
 21
4913.7262703487
 31
0.0
  0
SPLINE
  5
1B3
330
1F
100
AcDbEntity
  8
0
  6
Continuous
 62
     7
370
    25
100
AcDbSpline
210
0.0
220
0.0
230
1.0
 70
     8
 71
     3
 72
    27
 73
    23
 74
     0
 42
0.000000001
 43
0.00000001
 40
0.0
 40
0.0
 40
0.0
 40
0.0
 40
0.0493031099724182
 40
0.1001208890180215
 40
0.1494031289258259
 40
0.1999828391463199
 40
0.2519173182918014
 40
0.3051852159335003
 40
0.3601821018640272
 40
0.4169466727166956
 40
0.468815715462205
 40
0.5225265763682031
 40
0.5695558926497835
 40
0.6178993332987052
 40
0.6661167199096812
 40
0.7154860187940828
 40
0.7686703123237315
 40
0.8232925291619736
 40
0.878059385902841
 40
0.9346635309253445
 40
0.985404597304282
 40
1.0
 40
1.0
 40
1.0
 40
1.0
 10
6221.953418031211
 20
4796.676267088358
 30
0.0
 10
6221.927129682033
 20
4796.688373786278
 30
0.0
 10
6221.873745364245
 20
4796.712959118915
 30
0.0
 10
6221.446693155723
 20
4796.905941515895
 30
0.0
 10
6220.778463365107
 20
4797.195074463423
 30
0.0
 10
6219.863957696751
 20
4797.56576428507
 30
0.0
 10
6218.704784269284
 20
4797.991335944092
 30
0.0
 10
6217.305156602627
 20
4798.435637029957
 30
0.0
 10
6215.673167009673
 20
4798.85171932396
 30
0.0
 10
6213.895713633991
 20
4799.169176178976
 30
0.0
 10
6212.030067392599
 20
4799.345087235793
 30
0.0
 10
6210.237420920571
 20
4799.358020344922
 30
0.0
 10
6208.513153587473
 20
4799.226728382121
 30
0.0
 10
6206.920411804816
 20
4798.985615665727
 30
0.0
 10
6205.410026518462
 20
4798.651892373338
 30
0.0
 10
6203.991780039045
 20
4798.250788409241
 30
0.0
 10
6202.694546565487
 20
4797.811968676253
 30
0.0
 10
6201.580943103541
 20
4797.383223082064
 30
0.0
 10
6200.703407319599
 20
4797.013497687616
 30
0.0
 10
6200.168644258598
 20
4796.774960125932
 30
0.0
 10
6199.934620874814
 20
4796.667673628051
 30
0.0
 10
6199.975165402762
 20
4796.686214354844
 30
0.0
 10
6199.984222575898
 20
4796.690356136267
 30
0.0
  0
SPLINE
  5
1B4
330
1F
100
AcDbEntity
  8
0
  6
Continuous
 62
     7
370
    25
100
AcDbSpline
210
0.0
220
0.0
230
1.0
 70
     8
 71
     3
 72
     9
 73
     5
 74
     0
 42
0.000000001
 43
0.00000001
 40
0.0
 40
0.0
 40
0.0
 40
0.0
 40
0.4887436383586738
 40
1.0
 40
1.0
 40
1.0
 40
1.0
 10
6390.453420504804
 20
4801.001431570356
 30
0.0
 10
6388.990495404702
 20
4800.836645665323
 30
0.0
 10
6385.997259308549
 20
4800.499483414811
 30
0.0
 10
6382.990593955842
 20
4800.297044614355
 30
0.0
 10
6381.453417166944
 20
4800.19354648978
 30
0.0
  0
SPLINE
  5
1B5
330
1F
100
AcDbEntity
  8
0
  6
Continuous
 62
     7
370
    25
100
AcDbSpline
210
0.0
220
0.0
230
1.0
 70
     8
 71
     3
 72
    12
 73
     8
 74
     0
 42
0.000000001
 43
0.00000001
 40
0.0
 40
0.0
 40
0.0
 40
0.0
 40
0.2120537932291092
 40
0.4240420598207393
 40
0.6378160645471557
 40
0.853809965862387
 40
1.0
 40
1.0
 40
1.0
 40
1.0
 10
6378.453418537851
 20
4798.926882595722
 30
0.0
 10
6378.486020462749
 20
4799.035896693567
 30
0.0
 10
6378.551214238241
 20
4799.253891202865
 30
0.0
 10
6379.058941294838
 20
4799.609697005498
 30
0.0
 10
6379.80984823917
 20
4799.920119591429
 30
0.0
 10
6380.656557477607
 20
4800.123355085819
 30
0.0
 10
6381.224269035538
 20
4800.173361971384
 30
0.0
 10
6381.453417166944
 20
4800.19354648978
 30
0.0
  0
SPLINE
  5
1B6
330
1F
100
AcDbEntity
  8
0
  6
Continuous
 62
     7
370
    25
100
AcDbSpline
210
0.0
220
0.0
230
1.0
 70
     8
 71
     3
 72
    12
 73
     8
 74
     0
 42
0.000000001
 43
0.00000001
 40
0.0
 40
0.0
 40
0.0
 40
0.0
 40
0.2144708421880764
 40
0.4289912315281112
 40
0.6425347811237417
 40
0.8562992775459926
 40
1.0
 40
1.0
 40
1.0
 40
1.0
 10
6390.453420504804
 20
4801.001431570356
 30
0.0
 10
6390.78876423937
 20
4801.027831453747
 30
0.0
 10
6391.459529179765
 20
4801.080637319442
 30
0.0
 10
6392.358050542864
 20
4800.976059761205
 30
0.0
 10
6393.037070004662
 20
4800.76358181764
 30
0.0
 10
6393.400767362948
 20
4800.505654069323
 30
0.0
 10
6393.438316829005
 20
4800.33206197442
 30
0.0
 10
6393.453411683317
 20
4800.262278095786
 30
0.0
  0
SPLINE
  5
1B7
330
1F
100
AcDbEntity
  8
0
  6
Continuous
 62
     7
370
    25
100
AcDbSpline
210
0.0
220
0.0
230
1.0
 70
     8
 71
     3
 72
    27
 73
    23
 74
     0
 42
0.000000001
 43
0.00000001
 40
0.0
 40
0.0
 40
0.0
 40
0.0
 40
0.0739312327691632
 40
0.147954135242542
 40
0.2217153032517891
 40
0.2638822794633714
 40
0.3060222153910966
 40
0.3485954125856869
 40
0.3910613040503532
 40
0.4367584415824963
 40
0.4599546952386558
 40
0.4831101115059301
 40
0.5225762667883662
 40
0.5570532840049431
 40
0.5824704574913564
 40
0.6079319917546009
 40
0.6477642386797117
 40
0.6876846735696385
 40
0.7597528667216603
 40
0.8319988955933287
 40
0.9159691679287677
 40
1.0
 40
1.0
 40
1.0
 40
1.0
 10
6399.971671327825
 20
4816.540855598603
 30
0.0
 10
6398.586301678929
 20
4816.553658378911
 30
0.0
 10
6395.813844616923
 20
4816.579279814103
 30
0.0
 10
6391.663027857905
 20
4817.040214634809
 30
0.0
 10
6388.15081299989
 20
4817.787625869793
 30
0.0
 10
6385.300840865942
 20
4818.705208843246
 30
0.0
 10
6383.083694097488
 20
4819.652980458025
 30
0.0
 10
6380.972875285908
 20
4820.85142161727
 30
0.0
 10
6379.00265443584
 20
4822.396073430526
 30
0.0
 10
6377.61592879281
 20
4824.041822520039
 30
0.0
 10
6376.838981592087
 20
4825.602745112536
 30
0.0
 10
6376.398970564854
 20
4827.14696489622
 30
0.0
 10
6376.452503521818
 20
4828.951823414356
 30
0.0
 10
6377.146556387353
 20
4830.583712282561
 30
0.0
 10
6378.055217613608
 20
4831.773441688779
 30
0.0
 10
6379.224801118704
 20
4832.853474353274
 30
0.0
 10
6380.799518140641
 20
4833.855739514225
 30
0.0
 10
6383.295297734311
 20
4834.933642656787
 30
0.0
 10
6386.55734410262
 20
4835.76307855066
 30
0.0
 10
6390.7539261184
 20
4836.213079786218
 30
0.0
 10
6395.247592258178
 20
4836.251294093386
 30
0.0
 10
6398.396599927984
 20
4835.929762762708
 30
0.0
 10
6399.971671327825
 20
4835.768939145808
 30
0.0
  0
LINE
  5
1B8
330
1F
100
AcDbEntity
  8
0
  6
Continuous
 62
     7
370
    25
100
AcDbLine
 10
6356.4534186571
 20
4798.0762665728
 30
0.0
 11
6356.4534186571
 21
4843.2762680212
 31
0.0
  0
LINE
  5
1B9
330
1F
100
AcDbEntity
  8
0
  6
Continuous
 62
     7
370
    25
100
AcDbLine
 10
6367.4534185975
 20
4827.8356657
 30
0.0
 11
6367.4534185975
 21
4797.5762674221
 31
0.0
  0
LINE
  5
1BA
330
1F
100
AcDbEntity
  8
0
  6
Continuous
 62
     7
370
    25
100
AcDbLine
 10
6367.4534185975
 20
4843.7762671718
 30
0.0
 11
6367.4534185975
 21
4827.8356657
 31
0.0
  0
SPLINE
  5
1BB
330
1F
100
AcDbEntity
  8
0
  6
Continuous
 62
     7
370
    25
100
AcDbSpline
210
0.0
220
0.0
230
1.0
 70
     8
 71
     3
 72
    20
 73
    16
 74
     0
 42
0.000000001
 43
0.00000001
 40
0.0
 40
0.0
 40
0.0
 40
0.0
 40
0.0755643238344665
 40
0.1510784785005
 40
0.2274415669364782
 40
0.2845752446568947
 40
0.3418215903865324
 40
0.4209666444638114
 40
0.5002155343334587
 40
0.6057511371733822
 40
0.7108115041290434
 40
0.8010035508619748
 40
0.8918563496180878
 40
0.973296917986517
 40
1.0
 40
1.0
 40
1.0
 40
1.0
 10
6399.971671327825
 20
4835.768939145808
 30
0.0
 10
6400.629758325292
 20
4835.619265406408
 30
0.0
 10
6401.945495398731
 20
4835.320017299993
 30
0.0
 10
6403.587725463321
 20
4834.045075390884
 30
0.0
 10
6404.678309814546
 20
4832.504234920112
 30
0.0
 10
6405.335179719065
 20
4830.921096765209
 30
0.0
 10
6405.764784345008
 20
4829.25001575954
 30
0.0
 10
6406.011602873889
 20
4827.364676726711
 30
0.0
 10
6406.084665261295
 20
4825.089726130925
 30
0.0
 10
6405.983469770144
 20
4822.667480424417
 30
0.0
 10
6405.479980017624
 20
4820.308257186782
 30
0.0
 10
6404.424501761599
 20
4818.35942646959
 30
0.0
 10
6402.787869601272
 20
4817.065567776071
 30
0.0
 10
6401.149454879098
 20
4816.588444373972
 30
0.0
 10
6400.204902420674
 20
4816.550279386255
 30
0.0
 10
6399.971671327825
 20
4816.540855598603
 30
0.0
  0
LINE
  5
1BC
330
1F
100
AcDbEntity
  8
0
  6
Continuous
 62
     7
370
    25
100
AcDbLine
 10
6406.4534231274
 20
4824.5535689974
 30
0.0
 11
6406.4534231274
 21
4808.1660449141
 31
0.0
  0
LINE
  5
1BD
330
1F
100
AcDbEntity
  8
0
  6
Continuous
 62
     7
370
    25
100
AcDbLine
 10
6406.4534231274
 20
4833.1864896798
 30
0.0
 11
6406.4534231274
 21
4824.5535689974
 31
0.0
  0
ARC
  5
1BE
330
1F
100
AcDbEntity
  8
0
  6
Continuous
 62
     7
370
    25
100
AcDbCircle
 10
6387.1804241665
 20
4829.7587144158
 30
0.0
 40
32.39299021089076
100
AcDbArc
 50
259.8167083578
 51
275.7990767391
  0
ARC
  5
1BF
330
1F
100
AcDbEntity
  8
0
  6
Continuous
 62
     7
370
    25
100
AcDbCircle
 10
6373.4477390793
 20
4795.4606562389
 30
0.0
 40
17.13130459561949
100
AcDbArc
 50
2.7285823887
 51
6.9429339283
  0
ARC
  5
1C0
330
1F
100
AcDbEntity
  8
0
  6
Continuous
 62
     7
370
    25
100
AcDbCircle
 10
6387.1804392116
 20
4829.5488829474
 30
0.0
 40
33.4438502695779
100
AcDbArc
 50
259.8166856351
 51
275.7990876758
  0
ARC
  5
1C1
330
1F
100
AcDbEntity
  8
0
  6
Continuous
 62
     7
370
    25
100
AcDbCircle
 10
6390.9808377643
 20
4795.8173276377
 30
0.0
 40
9.747301819178114
100
AcDbArc
 50
167.8070357972
 51
175.2064400111
  0
SPLINE
  5
1C2
330
1F
100
AcDbEntity
  8
0
  6
Continuous
 62
     7
370
    25
100
AcDbSpline
210
0.0
220
0.0
230
1.0
 70
     8
 71
     3
 72
    12
 73
     8
 74
     0
 42
0.000000001
 43
0.00000001
 40
0.0
 40
0.0
 40
0.0
 40
0.0
 40
0.2162890476517919
 40
0.4324856126894034
 40
0.6491947438250908
 40
0.8647240952798434
 40
1.0
 40
1.0
 40
1.0
 40
1.0
 10
6390.453420504804
 20
4797.531500608628
 30
0.0
 10
6390.792919682151
 20
4797.545507320404
 30
0.0
 10
6391.471772871049
 20
4797.573514754853
 30
0.0
 10
6392.375128784572
 20
4797.492581412394
 30
0.0
 10
6393.053985371318
 20
4797.322108858944
 30
0.0
 10
6393.405141298324
 20
4797.099083846472
 30
0.0
 10
6393.439978083074
 20
4796.932345594011
 30
0.0
 10
6393.453411683317
 20
4796.868048758213
 30
0.0
  0
ARC
  5
1C3
330
1F
100
AcDbEntity
  8
0
  6
Continuous
 62
     7
370
    25
100
AcDbCircle
 10
6392.4875761583
 20
4796.8875872926
 30
0.0
 40
0.9660331338892296
100
AcDbArc
 50
278.1487305088
 51
358.8410833387
  0
SPLINE
  5
1C4
330
1F
100
AcDbEntity
  8
0
  6
Continuous
 62
     7
370
    25
100
AcDbSpline
210
0.0
220
0.0
230
1.0
 70
     8
 71
     3
 72
    12
 73
     8
 74
     0
 42
0.000000001
 43
0.00000001
 40
0.0
 40
0.0
 40
0.0
 40
0.0
 40
0.132813512129112
 40
0.3455382542763181
 40
0.5619149135905499
 40
0.780245222829939
 40
1.0
 40
1.0
 40
1.0
 40
1.0
 10
6392.624504789586
 20
4795.931307748859
 30
0.0
 10
6392.615230117965
 20
4795.973654903491
 30
0.0
 10
6392.591100390578
 20
4796.083828647491
 30
0.0
 10
6392.347364108834
 20
4796.218833176296
 30
0.0
 10
6391.879021653502
 20
4796.307110007658
 30
0.0
 10
6391.258424347872
 20
4796.330887010896
 30
0.0
 10
6390.79305989269
 20
4796.29446026784
 30
0.0
 10
6390.559621080632
 20
4796.27618767411
 30
0.0
  0
SPLINE
  5
1C5
330
1F
100
AcDbEntity
  8
0
  6
Continuous
 62
     7
370
    25
100
AcDbSpline
210
0.0
220
0.0
230
1.0
 70
     8
 71
     3
 72
    12
 73
     8
 74
     0
 42
0.000000001
 43
0.00000001
 40
0.0
 40
0.0
 40
0.0
 40
0.0
 40
0.1601792673325032
 40
0.3791698196206171
 40
0.5901551353228764
 40
0.795709164121291
 40
1.0
 40
1.0
 40
1.0
 40
1.0
 10
6381.267629489179
 20
4796.631869078581
 30
0.0
 10
6381.098697925955
 20
4796.659359162453
 30
0.0
 10
6380.698810028959
 20
4796.724432566251
 30
0.0
 10
6380.116100091964
 20
4796.766293484713
 30
0.0
 10
6379.610751530432
 20
4796.740109470537
 30
0.0
 10
6379.268929440287
 20
4796.639998445998
 30
0.0
 10
6379.224761623342
 20
4796.514055545286
 30
0.0
 10
6379.202745780225
 20
4796.451278180783
 30
0.0
  0
ARC
  5
1C6
330
1F
100
AcDbEntity
  8
0
  6
Continuous
 62
     7
370
    25
100
AcDbCircle
 10
6379.4142047577
 20
4797.3886594047
 30
0.0
 40
0.9609362404435812
100
AcDbArc
 50
181.0124449333
 51
257.2877272137
  0
SPLINE
  5
1C7
330
1F
100
AcDbEntity
  8
0
  6
Continuous
 62
     7
370
    25
100
AcDbSpline
210
0.0
220
0.0
230
1.0
 70
     8
 71
     3
 72
    12
 73
     8
 74
     0
 42
0.000000001
 43
0.00000001
 40
0.0
 40
0.0
 40
0.0
 40
0.0
 40
0.2087379445501732
 40
0.4166582291344608
 40
0.6270236839537089
 40
0.8428168547633628
 40
1.0
 40
1.0
 40
1.0
 40
1.0
 10
6378.453418537851
 20
4797.371680066888
 30
0.0
 10
6378.485122986754
 20
4797.468610911274
 30
0.0
 10
6378.548407693155
 20
4797.662092906401
 30
0.0
 10
6379.041511961687
 20
4797.856319148395
 30
0.0
 10
6379.775184699871
 20
4797.957082383029
 30
0.0
 10
6380.625203576555
 20
4797.959238201496
 30
0.0
 10
6381.207866108118
 20
4797.900681703232
 30
0.0
 10
6381.453417166944
 20
4797.876004279558
 30
0.0
  0
LINE
  5
1C8
330
1F
100
AcDbEntity
  8
0
  6
Continuous
 62
     7
370
    25
100
AcDbLine
 10
6390.4534205048
 20
4797.5315006086
 30
0.0
 11
6390.4534205048
 21
4801.0014315704
 31
0.0
  0
LINE
  5
1C9
330
1F
100
AcDbEntity
  8
0
  6
Continuous
 62
     7
370
    25
100
AcDbLine
 10
6381.4534171669
 20
4800.1935464898
 30
0.0
 11
6381.4534171669
 21
4797.8760042796
 31
0.0
  0
LINE
  5
1CA
330
1F
100
AcDbEntity
  8
0
  6
Continuous
 62
     7
370
    25
100
AcDbLine
 10
6393.4534116833
 20
4796.8680487582
 30
0.0
 11
6393.4534116833
 21
4800.2622780958
 31
0.0
  0
LINE
  5
1CB
330
1F
100
AcDbEntity
  8
0
  6
Continuous
 62
     7
370
    25
100
AcDbLine
 10
6378.4534185379
 20
4798.9268825957
 30
0.0
 11
6378.4534185379
 21
4797.3716800669
 31
0.0
  0
SPLINE
  5
1CC
330
1F
100
AcDbEntity
  8
0
  6
Continuous
 62
     7
370
    25
100
AcDbSpline
210
0.0
220
0.0
230
1.0
 70
     8
 71
     3
 72
    12
 73
     8
 74
     0
 42
0.000000001
 43
0.00000001
 40
0.0
 40
0.0
 40
0.0
 40
0.0
 40
0.1225113443891457
 40
0.335085001429114
 40
0.5543846086902797
 40
0.7764732413531691
 40
1.0
 40
1.0
 40
1.0
 40
1.0
 10
6379.202745780225
 20
4796.451278180783
 30
0.0
 10
6379.210780752308
 20
4796.408533202946
 30
0.0
 10
6379.232757481443
 20
4796.291619940495
 30
0.0
 10
6379.466429823117
 20
4796.059982329638
 30
0.0
 10
6379.934556114383
 20
4795.789737384581
 30
0.0
 10
6380.560476753144
 20
4795.545193450202
 30
0.0
 10
6381.031405304281
 20
4795.443271782655
 30
0.0
 10
6381.267629489179
 20
4795.392146483962
 30
0.0
  0
SPLINE
  5
1CD
330
1F
100
AcDbEntity
  8
0
  6
Continuous
 62
     7
370
    25
100
AcDbSpline
210
0.0
220
0.0
230
1.0
 70
     8
 71
     3
 72
    12
 73
     8
 74
     0
 42
0.000000001
 43
0.00000001
 40
0.0
 40
0.0
 40
0.0
 40
0.0
 40
0.1501055273764546
 40
0.3683234420420406
 40
0.5818917902799114
 40
0.7916204754960453
 40
1.0
 40
1.0
 40
1.0
 40
1.0
 10
6390.559621080632
 20
4795.036465079491
 30
0.0
 10
6390.71866331915
 20
4795.056577339887
 30
0.0
 10
6391.108915335482
 20
4795.105928067374
 30
0.0
 10
6391.689812308599
 20
4795.256677646335
 30
0.0
 10
6392.206076148665
 20
4795.471821300869
 30
0.0
 10
6392.5567388875
 20
4795.712313225235
 30
0.0
 10
6392.60196480088
 20
4795.858466778144
 30
0.0
 10
6392.624504789586
 20
4795.931307748859
 30
0.0
  0
ARC
  5
1CE
330
1F
100
AcDbEntity
  8
0
  6
Continuous
 62
     7
370
    25
100
AcDbCircle
 10
6387.1804392116
 20
4828.3091603528
 30
0.0
 40
33.44385026957881
100
AcDbArc
 50
259.8166856351
 51
275.7990876758
  0
LINE
  5
1CF
330
1F
100
AcDbEntity
  8
0
  6
Continuous
 62
     7
370
    25
100
AcDbLine
 10
6390.5553593485
 20
4794.9874905506
 30
0.0
 11
6390.5544205754
 21
4794.9869615594
 31
0.0
  0
LINE
  5
1D0
330
1F
100
AcDbEntity
  8
0
  6
Continuous
 62
     7
370
    25
100
AcDbLine
 10
6381.2752961366
 20
4795.3425833592
 30
0.0
 11
6381.2765105813
 21
4795.3421232858
 31
0.0
  0
LINE
  5
1D1
330
1F
100
AcDbEntity
  8
0
  6
Continuous
 62
     7
370
    25
100
AcDbLine
 10
6370.9534182398
 20
4906.926266999
 30
0.0
 11
6300.9534179418
 21
4906.926266999
 31
0.0
  0
LINE
  5
1D2
330
1F
100
AcDbEntity
  8
0
  6
Continuous
 62
     7
370
    25
100
AcDbLine
 10
6220.9534197299
 20
4906.926266999
 30
0.0
 11
6150.9534194319
 21
4906.926266999
 31
0.0
  0
LINE
  5
1D3
330
1F
100
AcDbEntity
  8
0
  6
Continuous
 62
     7
370
    25
100
AcDbLine
 10
6145.4534157364
 20
4820.5760388053
 30
0.0
 11
6145.4534157364
 21
4802.6762680718
 31
0.0
  0
LINE
  5
1D4
330
1F
100
AcDbEntity
  8
0
  6
Continuous
 62
     7
370
    25
100
AcDbLine
 10
6145.4534157364
 20
4838.6762665221
 30
0.0
 11
6145.4534157364
 21
4820.5760388053
 31
0.0
  0
LINE
  5
1D5
330
1F
100
AcDbEntity
  8
0
  6
Continuous
 62
     7
370
    25
100
AcDbLine
 10
6165.8534183352
 20
4820.54819755
 30
0.0
 11
6165.8534183352
 21
4797.6762672523
 31
0.0
  0
LINE
  5
1D6
330
1F
100
AcDbEntity
  8
0
  6
Continuous
 62
     7
370
    25
100
AcDbLine
 10
6165.8534183352
 20
4843.6762673417
 30
0.0
 11
6165.8534183352
 21
4820.54819755
 31
0.0
  0
SPLINE
  5
1D7
330
1F
100
AcDbEntity
  8
0
  6
Continuous
 62
     7
370
    25
100
AcDbSpline
210
0.0
220
0.0
230
1.0
 70
     8
 71
     3
 72
    17
 73
    13
 74
     0
 42
0.000000001
 43
0.00000001
 40
0.0
 40
0.0
 40
0.0
 40
0.0
 40
0.1066336298636204
 40
0.2125297258401498
 40
0.319388956168053
 40
0.4269732125062285
 40
0.532221717713509
 40
0.6351649736024843
 40
0.7394757391802941
 40
0.8473451433308248
 40
0.9566624559816226
 40
1.0
 40
1.0
 40
1.0
 40
1.0
 10
6260.953418835874
 20
4848.922740817969
 30
0.0
 10
6261.3754054729
 20
4848.912139408936
 30
0.0
 10
6262.216460066933
 20
4848.891009915755
 30
0.0
 10
6263.343820175742
 20
4848.742544752414
 30
0.0
 10
6264.221347727879
 20
4848.567404586511
 30
0.0
 10
6264.741704233031
 20
4848.42569579443
 30
0.0
 10
6264.829436531179
 20
4848.381006785048
 30
0.0
 10
6264.487451567749
 20
4848.442596547844
 30
0.0
 10
6263.764676794316
 20
4848.573902638475
 30
0.0
 10
6262.726392046908
 20
4848.714043935979
 30
0.0
 10
6261.725706602167
 20
4848.785136804424
 30
0.0
 10
6261.12418594189
 20
4848.79058534203
 30
0.0
 10
6260.953418835874
 20
4848.792132140105
 30
0.0
  0
LINE
  5
1D8
330
1F
100
AcDbEntity
  8
0
  6
Continuous
 62
     7
370
    25
100
AcDbLine
 10
6260.9534188359
 20
4848.922740818
 30
0.0
 11
6260.9534188359
 21
4848.9262668052
 31
0.0
  0
ARC
  5
1D9
330
1F
100
AcDbEntity
  8
0
  6
Continuous
 62
     7
370
    25
100
AcDbCircle
 10
6261.221871006
 20
4833.6332538208
 30
0.0
 40
15.18225525341863
100
AcDbArc
 50
355.6507192809
 51
76.8973077721
  0
SPLINE
  5
1DA
330
1F
100
AcDbEntity
  8
0
  6
Continuous
 62
     7
370
    25
100
AcDbSpline
210
0.0
220
0.0
230
1.0
 70
     8
 71
     3
 72
    17
 73
    13
 74
     0
 42
0.000000001
 43
0.00000001
 40
0.0
 40
0.0
 40
0.0
 40
0.0
 40
0.1087816519719446
 40
0.2207054209266995
 40
0.3294801014078632
 40
0.4413826406495794
 40
0.5503064091782055
 40
0.6623911156192275
 40
0.771120953343878
 40
0.883043148384088
 40
0.9909212469879203
 40
1.0
 40
1.0
 40
1.0
 40
1.0
 10
6260.953418835874
 20
4690.816462189858
 30
0.0
 10
6261.741200783054
 20
4690.853430405565
 30
0.0
 10
6263.339519461789
 20
4690.928434649944
 30
0.0
 10
6265.659904088768
 20
4691.526118405034
 30
0.0
 10
6267.865485099805
 20
4692.476671928735
 30
0.0
 10
6269.859894504833
 20
4693.763273013875
 30
0.0
 10
6271.615319777349
 20
4695.37445451649
 30
0.0
 10
6273.054488526448
 20
4697.228200957366
 30
0.0
 10
6274.165321317723
 20
4699.311730249212
 30
0.0
 10
6274.849648489278
 20
4701.517186352558
 30
0.0
 10
6275.157578574899
 20
4703.114096728646
 30
0.0
 10
6275.133943103973
 20
4703.93125251147
 30
0.0
 10
6275.132108405109
 20
4703.994684071247
 30
0.0
  0
SPLINE
  5
1DB
330
1F
100
AcDbEntity
  8
0
  6
Continuous
 62
     7
370
    25
100
AcDbSpline
210
0.0
220
0.0
230
1.0
 70
    24
 71
     3
 72
    38
 73
    34
 74
     0
 42
0.000000001
 43
0.00000001
 40
0.0
 40
0.0
 40
0.0
 40
0.0
 40
0.0183431747482358
 40
0.0353727561508641
 40
0.0511040106914077
 40
0.0657276776047888
 40
0.080083708557162
 40
0.0945593285127359
 40
0.1097861566407542
 40
0.125928884939428
 40
0.1532458825443494
 40
0.1811714773422587
 40
0.2084135813943568
 40
0.2349574410681301
 40
0.260940532969593
 40
0.303703507418413
 40
0.3459526395719169
 40
0.3884092370856399
 40
0.4316827785341517
 40
0.4757941025211972
 40
0.5195588627050255
 40
0.5633805961252784
 40
0.6069268880371099
 40
0.6499117656016616
 40
0.6892080985849739
 40
0.7276921761229858
 40
0.7654215546997892
 40
0.8028363644208962
 40
0.8405272220315021
 40
0.8783164527775669
 40
0.9172804631301718
 40
0.9577525291929138
 40
1.0
 40
1.0
 40
1.0
 40
1.0
 10
6260.953418835874
 20
4690.816462189858
 30
0.0
 10
6260.953418835874
 20
4691.200454277043
 30
0.0
 10
6260.953418835874
 20
4691.940939969965
 30
0.0
 10
6260.953418835874
 20
4693.307923549089
 30
0.0
 10
6260.953418835874
 20
4694.926710391722
 30
0.0
 10
6260.953418835874
 20
4696.922068321044
 30
0.0
 10
6260.953418835874
 20
4699.416594335044
 30
0.0
 10
6260.953418835874
 20
4702.483821111142
 30
0.0
 10
6260.953418835874
 20
4705.951110710163
 30
0.0
 10
6260.953418835874
 20
4710.530817256865
 30
0.0
 10
6260.953418835874
 20
4716.171157513103
 30
0.0
 10
6260.953418835874
 20
4722.667219413624
 30
0.0
 10
6260.953418835874
 20
4729.091756939105
 30
0.0
 10
6260.953418835874
 20
4735.341316581726
 30
0.0
 10
6260.953418835874
 20
4742.767941099854
 30
0.0
 10
6260.953418835874
 20
4751.338613523316
 30
0.0
 10
6260.953418835874
 20
4761.005504567119
 30
0.0
 10
6260.953418835874
 20
4770.481180932696
 30
0.0
 10
6260.953418835874
 20
4779.822699658069
 30
0.0
 10
6260.953418835874
 20
4788.954124509157
 30
0.0
 10
6260.953418835874
 20
4797.779655433833
 30
0.0
 10
6260.953418835874
 20
4806.177003380532
 30
0.0
 10
6260.953418835874
 20
4814.071625201756
 30
0.0
 10
6260.953418835874
 20
4821.17460752866
 30
0.0
 10
6260.953418835874
 20
4827.413755614809
 30
0.0
 10
6260.953418835874
 20
4832.741605248889
 30
0.0
 10
6260.953418835874
 20
4837.223649050064
 30
0.0
 10
6260.953418835874
 20
4840.860002640326
 30
0.0
 10
6260.953418835874
 20
4843.703581998201
 30
0.0
 10
6260.953418835874
 20
4845.845900465327
 30
0.0
 10
6260.953418835874
 20
4847.362991252552
 30
0.0
 10
6260.953418835874
 20
4848.369017454223
 30
0.0
 10
6260.953418835874
 20
4848.649090183095
 30
0.0
 10
6260.953418835874
 20
4848.792132140105
 30
0.0
  0
ARC
  5
1DC
330
1F
100
AcDbEntity
  8
0
  6
Continuous
 62
     7
370
    25
100
AcDbCircle
 10
6260.7697468325
 20
4833.6045584219
 30
0.0
 40
15.26465534344439
100
AcDbArc
 50
101.6584418367
 51
184.217749999
  0
SPLINE
  5
1DD
330
1F
100
AcDbEntity
  8
0
  6
Continuous
 62
     7
370
    25
100
AcDbSpline
210
0.0
220
0.0
230
1.0
 70
     8
 71
     3
 72
    11
 73
     7
 74
     0
 42
0.000000001
 43
0.00000001
 40
0.0
 40
0.0
 40
0.0
 40
0.0
 40
0.2821744893690711
 40
0.5623941344809241
 40
0.8439770961709806
 40
1.0
 40
1.0
 40
1.0
 40
1.0
 10
6260.953418835874
 20
4848.792132140105
 30
0.0
 10
6260.52822345142
 20
4848.782577054377
 30
0.0
 10
6259.680778344812
 20
4848.763533078503
 30
0.0
 10
6258.563405869731
 20
4848.637614305131
 30
0.0
 10
6257.769522306263
 20
4848.506620133194
 30
0.0
 10
6257.538129452809
 20
4848.464612009609
 30
0.0
 10
6257.455629221971
 20
4848.449634537999
 30
0.0
  0
SPLINE
  5
1DE
330
1F
100
AcDbEntity
  8
0
  6
Continuous
 62
     7
370
    25
100
AcDbSpline
210
0.0
220
0.0
230
1.0
 70
     8
 71
     3
 72
    13
 73
     9
 74
     0
 42
0.000000001
 43
0.00000001
 40
0.0
 40
0.0
 40
0.0
 40
0.0
 40
0.1823402767455437
 40
0.3618162498343372
 40
0.5451095601080309
 40
0.7350475732519404
 40
0.9264892349337304
 40
1.0
 40
1.0
 40
1.0
 40
1.0
 10
6257.230909932281
 20
4848.409654722516
 30
0.0
 10
6257.173980367696
 20
4848.403354558278
 30
0.0
 10
6257.061015520155
 20
4848.390853196324
 30
0.0
 10
6257.426689258534
 20
4848.500899750813
 30
0.0
 10
6258.144446549104
 20
4848.667378212659
 30
0.0
 10
6259.189400599454
 20
4848.834262270187
 30
0.0
 10
6260.189917526642
 20
4848.915013056577
 30
0.0
 10
6260.787594111863
 20
4848.921062426741
 30
0.0
 10
6260.953418835874
 20
4848.922740817969
 30
0.0
  0
SPLINE
  5
1DF
330
1F
100
AcDbEntity
  8
0
  6
Continuous
 62
     7
370
    25
100
AcDbSpline
210
0.0
220
0.0
230
1.0
 70
     8
 71
     3
 72
    17
 73
    13
 74
     0
 42
0.000000001
 43
0.00000001
 40
0.0
 40
0.0
 40
0.0
 40
0.0
 40
0.0062548198414671
 40
0.1169572935633867
 40
0.2256980241505867
 40
0.337609047312781
 40
0.4465368646939635
 40
0.5586173886743532
 40
0.667387143033316
 40
0.7792945341402528
 40
0.8880720388593359
 40
1.0
 40
1.0
 40
1.0
 40
1.0
 10
6246.770201176281
 20
4703.994870335762
 30
0.0
 10
6246.768922455202
 20
4703.951172239186
 30
0.0
 10
6246.745011973307
 20
4703.134072588196
 30
0.0
 10
6247.047655015454
 20
4701.55817014298
 30
0.0
 10
6247.73237554446
 20
4699.33298929276
 30
0.0
 10
6248.828079595788
 20
4697.26574256469
 30
0.0
 10
6250.275888592338
 20
4695.391456574457
 30
0.0
 10
6252.011476937574
 20
4693.790704901922
 30
0.0
 10
6254.020949011297
 20
4692.487609676707
 30
0.0
 10
6256.20416247351
 20
4691.540804301539
 30
0.0
 10
6258.544259103244
 20
4690.932349589175
 30
0.0
 10
6260.142759668613
 20
4690.855457189381
 30
0.0
 10
6260.953418835874
 20
4690.816462189858
 30
0.0
  0
LINE
  5
1E0
330
1F
100
AcDbEntity
  8
0
  6
Continuous
 62
     7
370
    25
100
AcDbLine
 10
6165.953420028
 20
4851.4262681463
 30
0.0
 11
6355.9534176438
 21
4851.4262681463
 31
0.0
  0
LINE
  5
1E1
330
1F
100
AcDbEntity
  8
0
  6
Continuous
 62
     7
370
    25
100
AcDbLine
 10
6165.953420028
 20
4858.4262655684
 30
0.0
 11
6355.9534176438
 21
4858.4262655684
 31
0.0
  0
LINE
  5
1E2
330
1F
100
AcDbEntity
  8
0
  6
Continuous
 62
     7
370
    25
100
AcDbLine
 10
6355.9534176438
 20
4851.4262681463
 30
0.0
 11
6355.9534176438
 21
4858.4262655684
 31
0.0
  0
LINE
  5
1E3
330
1F
100
AcDbEntity
  8
0
  6
Continuous
 62
     7
370
    25
100
AcDbLine
 10
6165.953420028
 20
4851.4262681463
 30
0.0
 11
6165.953420028
 21
4858.4262655684
 31
0.0
  0
LINE
  5
1E4
330
1F
100
AcDbEntity
  8
0
  6
Continuous
 62
     7
370
    25
100
AcDbLine
 10
6355.9534176438
 20
4820.676267297
 30
0.0
 11
6355.9534176438
 21
4851.4262681463
 31
0.0
  0
LINE
  5
1E5
330
1F
100
AcDbEntity
  8
0
  6
Continuous
 62
     7
370
    25
100
AcDbLine
 10
6165.953420028
 20
4820.676267297
 30
0.0
 11
6165.953420028
 21
4851.4262681463
 31
0.0
  0
SPLINE
  5
1E6
330
1F
100
AcDbEntity
  8
0
  6
Continuous
 62
     7
370
    25
100
AcDbSpline
210
0.0
220
0.0
230
1.0
 70
     8
 71
     3
 72
    26
 73
    22
 74
     0
 42
0.000000001
 43
0.00000001
 40
0.0
 40
0.0
 40
0.0
 40
0.0
 40
0.049090119569894
 40
0.0996934342739613
 40
0.1487617446644191
 40
0.1991160036481829
 40
0.2509577146745197
 40
0.3041180001317416
 40
0.3592736145186841
 40
0.4162083984610165
 40
0.4680996060940339
 40
0.5218653295456191
 40
0.568520873141077
 40
0.6164801424929439
 40
0.7130458108886547
 40
0.7661976899238927
 40
0.8207744396923808
 40
0.8757235162826307
 40
0.9325289933331538
 40
0.9832434382059041
 40
1.0
 40
1.0
 40
1.0
 40
1.0
 10
6199.95341815042
 20
4797.426266745631
 30
0.0
 10
6199.979524825863
 20
4797.438676183826
 30
0.0
 10
6200.032542910872
 20
4797.463877579175
 30
0.0
 10
6200.45651307
 20
4797.661715559013
 30
0.0
 10
6201.119489680404
 20
4797.958240470451
 30
0.0
 10
6202.02697049054
 20
4798.339077515819
 30
0.0
 10
6203.177884018198
 20
4798.777523144036
 30
0.0
 10
6204.571249795432
 20
4799.237836093431
 30
0.0
 10
6206.200094783821
 20
4799.671613473433
 30
0.0
 10
6207.978402040906
 20
4800.00476688347
 30
0.0
 10
6209.846616481268
 20
4800.191016438759
 30
0.0
 10
6211.637297003711
 20
4800.207060705591
 30
0.0
 10
6213.355629882384
 20
4800.073465521427
 30
0.0
 10
6215.477947704578
 20
4799.743854625424
 30
0.0
 10
6217.462898382633
 20
4799.211408455835
 30
0.0
 10
6219.155923829419
 20
4798.621503688566
 30
0.0
 10
6220.280862837333
 20
4798.175572222171
 30
0.0
 10
6221.172106659485
 20
4797.788624802226
 30
0.0
 10
6221.722400818645
 20
4797.53556074564
 30
0.0
 10
6221.967370892292
 20
4797.41968574841
 30
0.0
 10
6221.929440815449
 20
4797.43759096511
 30
0.0
 10
6221.920020803685
 20
4797.44203776211
 30
0.0
  0
LINE
  5
1E7
330
1F
100
AcDbEntity
  8
0
  6
Continuous
 62
     7
370
    25
100
AcDbLine
 10
6355.9534176438
 20
4797.4262667456
 30
0.0
 11
6355.9534176438
 21
4820.676267297
 31
0.0
  0
LINE
  5
1E8
330
1F
100
AcDbEntity
  8
0
  6
Continuous
 62
     7
370
    25
100
AcDbLine
 10
6165.953420028
 20
4797.4262667456
 30
0.0
 11
6165.953420028
 21
4820.676267297
 31
0.0
  0
LINE
  5
1E9
330
1F
100
AcDbEntity
  8
0
  6
Continuous
 62
     7
370
    25
100
AcDbLine
 10
6177.3797645419
 20
4880.4262654492
 30
0.0
 11
6177.3797645419
 21
4868.4262672076
 31
0.0
  0
LINE
  5
1EA
330
1F
100
AcDbEntity
  8
0
  6
Continuous
 62
     7
370
    25
100
AcDbLine
 10
6177.3797645419
 20
4880.4262654492
 30
0.0
 11
6183.8374062626
 21
4880.4262654492
 31
0.0
  0
LINE
  5
1EB
330
1F
100
AcDbEntity
  8
0
  6
Continuous
 62
     7
370
    25
100
AcDbLine
 10
6188.0694328992
 20
4880.4262654492
 30
0.0
 11
6194.5270671694
 21
4880.4262654492
 31
0.0
  0
LINE
  5
1EC
330
1F
100
AcDbEntity
  8
0
  6
Continuous
 62
     7
370
    25
100
AcDbLine
 10
6194.5270671694
 20
4880.4262654492
 30
0.0
 11
6194.5270671694
 21
4868.4262672076
 31
0.0
  0
LINE
  5
1ED
330
1F
100
AcDbEntity
  8
0
  6
Continuous
 62
     7
370
    25
100
AcDbLine
 10
6177.3797645419
 20
4868.4262672076
 30
0.0
 11
6194.5270671694
 21
4868.4262672076
 31
0.0
  0
LINE
  5
1EE
330
1F
100
AcDbEntity
  8
0
  6
Continuous
 62
     7
370
    25
100
AcDbLine
 10
6168.8061132281
 20
4880.4262654492
 30
0.0
 11
6168.8061132281
 21
4868.4262672076
 31
0.0
  0
LINE
  5
1EF
330
1F
100
AcDbEntity
  8
0
  6
Continuous
 62
     7
370
    25
100
AcDbLine
 10
6168.8061132281
 20
4880.4262654492
 30
0.0
 11
6172.0349340885
 21
4880.4262654492
 31
0.0
  0
LINE
  5
1F0
330
1F
100
AcDbEntity
  8
0
  6
Continuous
 62
     7
370
    25
100
AcDbLine
 10
6174.1509436815
 20
4880.4262654492
 30
0.0
 11
6177.3797645419
 21
4880.4262654492
 31
0.0
  0
LINE
  5
1F1
330
1F
100
AcDbEntity
  8
0
  6
Continuous
 62
     7
370
    25
100
AcDbLine
 10
6168.8061132281
 20
4868.4262672076
 30
0.0
 11
6177.3797645419
 21
4868.4262672076
 31
0.0
  0
LINE
  5
1F2
330
1F
100
AcDbEntity
  8
0
  6
Continuous
 62
     7
370
    25
100
AcDbLine
 10
6203.1007222085
 20
4880.4262654492
 30
0.0
 11
6203.1007222085
 21
4868.4262672076
 31
0.0
  0
LINE
  5
1F3
330
1F
100
AcDbEntity
  8
0
  6
Continuous
 62
     7
370
    25
100
AcDbLine
 10
6194.5270671694
 20
4868.4262672076
 30
0.0
 11
6203.1007222085
 21
4868.4262672076
 31
0.0
  0
LINE
  5
1F4
330
1F
100
AcDbEntity
  8
0
  6
Continuous
 62
     7
370
    25
100
AcDbLine
 10
6194.5270671694
 20
4880.4262654492
 30
0.0
 11
6197.7558880298
 21
4880.4262654492
 31
0.0
  0
LINE
  5
1F5
330
1F
100
AcDbEntity
  8
0
  6
Continuous
 62
     7
370
    25
100
AcDbLine
 10
6199.8719013481
 20
4880.4262654492
 30
0.0
 11
6203.1007222085
 21
4880.4262654492
 31
0.0
  0
LINE
  5
1F6
330
1F
100
AcDbEntity
  8
0
  6
Continuous
 62
     7
370
    25
100
AcDbLine
 10
6318.8061154633
 20
4880.4262654492
 30
0.0
 11
6318.8061154633
 21
4868.4262672076
 31
0.0
  0
LINE
  5
1F7
330
1F
100
AcDbEntity
  8
0
  6
Continuous
 62
     7
370
    25
100
AcDbLine
 10
6327.3797705023
 20
4880.4262654492
 30
0.0
 11
6327.3797705023
 21
4868.4262672076
 31
0.0
  0
LINE
  5
1F8
330
1F
100
AcDbEntity
  8
0
  6
Continuous
 62
     7
370
    25
100
AcDbLine
 10
6318.8061154633
 20
4868.4262672076
 30
0.0
 11
6327.3797705023
 21
4868.4262672076
 31
0.0
  0
LINE
  5
1F9
330
1F
100
AcDbEntity
  8
0
  6
Continuous
 62
     7
370
    25
100
AcDbLine
 10
6318.8061154633
 20
4880.4262654492
 30
0.0
 11
6322.0349363236
 21
4880.4262654492
 31
0.0
  0
LINE
  5
1FA
330
1F
100
AcDbEntity
  8
0
  6
Continuous
 62
     7
370
    25
100
AcDbLine
 10
6324.1509496419
 20
4880.4262654492
 30
0.0
 11
6327.3797705023
 21
4880.4262654492
 31
0.0
  0
LINE
  5
1FB
330
1F
100
AcDbEntity
  8
0
  6
Continuous
 62
     7
370
    25
100
AcDbLine
 10
6344.5270731299
 20
4880.4262654492
 30
0.0
 11
6344.5270731299
 21
4868.4262672076
 31
0.0
  0
LINE
  5
1FC
330
1F
100
AcDbEntity
  8
0
  6
Continuous
 62
     7
370
    25
100
AcDbLine
 10
6327.3797705023
 20
4868.4262672076
 30
0.0
 11
6344.5270731299
 21
4868.4262672076
 31
0.0
  0
LINE
  5
1FD
330
1F
100
AcDbEntity
  8
0
  6
Continuous
 62
     7
370
    25
100
AcDbLine
 10
6327.3797705023
 20
4880.4262654492
 30
0.0
 11
6333.8374047725
 21
4880.4262654492
 31
0.0
  0
LINE
  5
1FE
330
1F
100
AcDbEntity
  8
0
  6
Continuous
 62
     7
370
    25
100
AcDbLine
 10
6338.0694314091
 20
4880.4262654492
 30
0.0
 11
6344.5270731299
 21
4880.4262654492
 31
0.0
  0
LINE
  5
1FF
330
1F
100
AcDbEntity
  8
0
  6
Continuous
 62
     7
370
    25
100
AcDbLine
 10
6353.1007244437
 20
4880.4262654492
 30
0.0
 11
6353.1007244437
 21
4868.4262672076
 31
0.0
  0
LINE
  5
200
330
1F
100
AcDbEntity
  8
0
  6
Continuous
 62
     7
370
    25
100
AcDbLine
 10
6344.5270731299
 20
4868.4262672076
 30
0.0
 11
6353.1007244437
 21
4868.4262672076
 31
0.0
  0
LINE
  5
201
330
1F
100
AcDbEntity
  8
0
  6
Continuous
 62
     7
370
    25
100
AcDbLine
 10
6344.5270731299
 20
4880.4262654492
 30
0.0
 11
6347.7558939903
 21
4880.4262654492
 31
0.0
  0
LINE
  5
202
330
1F
100
AcDbEntity
  8
0
  6
Continuous
 62
     7
370
    25
100
AcDbLine
 10
6349.8719035833
 20
4880.4262654492
 30
0.0
 11
6353.1007244437
 21
4880.4262654492
 31
0.0
  0
LINE
  5
203
330
1F
100
AcDbEntity
  8
0
  6
Continuous
 62
     8
370
    25
100
AcDbLine
 10
6406.9310500472
 20
4828.4226880977
 30
0.0
 11
6406.9310500472
 21
4812.9298464963
 31
0.0
  0
LINE
  5
204
330
1F
100
AcDbEntity
  8
0
  6
Continuous
 62
     8
370
    25
100
AcDbLine
 10
6372.4534212797
 20
4827.8046726817
 30
0.0
 11
6372.4534212797
 21
4797.6762672523
 31
0.0
  0
LINE
  5
205
330
1F
100
AcDbEntity
  8
0
  6
Continuous
 62
     8
370
    25
100
AcDbLine
 10
6372.4534212797
 20
4843.6762673417
 30
0.0
 11
6372.4534212797
 21
4827.8046726817
 31
0.0
  0
LINE
  5
206
330
1F
100
AcDbEntity
  8
0
  6
Continuous
 62
     8
370
    25
100
AcDbLine
 10
6399.9716713278
 20
4816.5408555986
 30
0.0
 11
6399.9716713278
 21
4800.3114333013
 31
0.0
  0
LINE
  5
207
330
1F
100
AcDbEntity
  8
0
  6
Continuous
 62
     8
370
    25
100
AcDbLine
 10
6399.9716713278
 20
4841.0411012927
 30
0.0
 11
6399.9716713278
 21
4835.7689391458
 31
0.0
  0
LINE
  5
208
330
1F
100
AcDbEntity
  8
0
  6
Continuous
 62
     8
370
    25
100
AcDbLine
 10
6356.9534196703
 20
4843.7762671718
 30
0.0
 11
6356.9534196703
 21
4797.5762674221
 31
0.0
  0
LWPOLYLINE
  5
209
330
1F
100
AcDbEntity
  8
0
  6
Continuous
 62
     8
370
    25
100
AcDbPolyline
 90
        3
 70
   128
 43
0.0
 10
6390.5596210806
 20
4795.0364650795
 10
6390.5575796215
 20
4794.9941662708
 10
6390.5553593485
 20
4794.9874905506
  0
LWPOLYLINE
  5
20A
330
1F
100
AcDbEntity
  8
0
  6
Continuous
 62
     8
370
    25
100
AcDbPolyline
 90
        3
 70
   128
 43
0.0
 10
6381.2676294892
 20
4795.392146484
 10
6381.2711983173
 20
4795.3496316084
 10
6381.2752961366
 20
4795.3425833592
  0
LINE
  5
20B
330
1F
100
AcDbEntity
  8
0
  6
Continuous
 62
     8
370
    25
100
AcDbLine
 10
6370.9534182398
 20
4900.4262687275
 30
0.0
 11
6300.9534179418
 21
4900.4262687275
 31
0.0
  0
LINE
  5
20C
330
1F
100
AcDbEntity
  8
0
  6
Continuous
 62
     8
370
    25
100
AcDbLine
 10
6370.7596286385
 20
4899.5674254009
 30
0.0
 11
6301.1472112684
 21
4899.5674254009
 31
0.0
  0
LINE
  5
20D
330
1F
100
AcDbEntity
  8
0
  6
Continuous
 62
     8
370
    25
100
AcDbLine
 10
6351.8122582881
 20
4880.6200587758
 30
0.0
 11
6320.0945778935
 21
4880.6200587758
 31
0.0
  0
LINE
  5
20E
330
1F
100
AcDbEntity
  8
0
  6
Continuous
 62
     8
370
    25
100
AcDbLine
 10
6220.9534197299
 20
4900.4262687275
 30
0.0
 11
6150.9534194319
 21
4900.4262687275
 31
0.0
  0
LINE
  5
20F
330
1F
100
AcDbEntity
  8
0
  6
Continuous
 62
     8
370
    25
100
AcDbLine
 10
6220.7596264033
 20
4899.5674254009
 30
0.0
 11
6151.1472090332
 21
4899.5674254009
 31
0.0
  0
LINE
  5
210
330
1F
100
AcDbEntity
  8
0
  6
Continuous
 62
     8
370
    25
100
AcDbLine
 10
6201.8122597783
 20
4880.6200587758
 30
0.0
 11
6170.0945793836
 21
4880.6200587758
 31
0.0
  0
LINE
  5
211
330
1F
100
AcDbEntity
  8
0
  6
Continuous
 62
     8
370
    25
100
AcDbLine
 10
6150.4534184186
 20
4820.54819755
 30
0.0
 11
6150.4534184186
 21
4797.6762672523
 31
0.0
  0
LINE
  5
212
330
1F
100
AcDbEntity
  8
0
  6
Continuous
 62
     8
370
    25
100
AcDbLine
 10
6150.4534184186
 20
4843.6762673417
 30
0.0
 11
6150.4534184186
 21
4820.54819755
 31
0.0
  0
LINE
  5
213
330
1F
100
AcDbEntity
  8
0
  6
Continuous
 62
     8
370
    25
100
AcDbLine
 10
6165.953420028
 20
4820.676267297
 30
0.0
 11
6245.6738426535
 21
4820.676267297
 31
0.0
  0
LINE
  5
214
330
1F
100
AcDbEntity
  8
0
  6
Continuous
 62
     8
370
    25
100
AcDbLine
 10
6276.2329950182
 20
4820.676267297
 30
0.0
 11
6355.9534176438
 21
4820.676267297
 31
0.0
  0
ENDSEC
  0
SECTION
  2
OBJECTS
  0
DICTIONARY
  5
C
330
0
100
AcDbDictionary
281
     1
  3
ACAD_GROUP
350
D
  3
ACAD_LAYOUT
350
1A
  3
ACAD_MLINESTYLE
350
17
  3
ACAD_PLOTSETTINGS
350
19
  3
ACAD_PLOTSTYLENAME
350
E
  3
ACAD_SCALELIST
350
47
  0
DICTIONARY
  5
D
102
{ACAD_REACTORS
330
C
102
}
330
C
100
AcDbDictionary
281
     1
  0
DICTIONARY
  5
1A
102
{ACAD_REACTORS
330
C
102
}
330
C
100
AcDbDictionary
281
     1
  3
Layout1
350
1E
  3
Layout2
350
26
  3
Model
350
22
  0
DICTIONARY
  5
17
102
{ACAD_REACTORS
330
C
102
}
330
C
100
AcDbDictionary
281
     1
  3
Standard
350
18
  0
DICTIONARY
  5
19
102
{ACAD_REACTORS
330
C
102
}
330
C
100
AcDbDictionary
281
     1
  0
ACDBDICTIONARYWDFLT
  5
E
102
{ACAD_REACTORS
330
C
102
}
330
C
100
AcDbDictionary
281
     1
  3
Normal
350
F
100
AcDbDictionaryWithDefault
340
F
  0
DICTIONARY
  5
47
102
{ACAD_REACTORS
330
C
102
}
330
C
100
AcDbDictionary
281
     1
  3
A0
350
48
  3
A1
350
49
  3
A2
350
4A
  3
A3
350
4B
  3
A4
350
4C
  3
A5
350
4D
  3
A6
350
4E
  3
A7
350
4F
  3
A8
350
50
  3
A9
350
51
  3
B0
350
52
  3
B1
350
53
  3
B2
350
54
  3
B3
350
55
  3
B4
350
56
  3
B5
350
57
  3
B6
350
58
  3
B7
350
59
  3
B8
350
5A
  3
B9
350
5B
  3
C0
350
5C
  3
C1
350
5D
  3
C2
350
5E
  3
C3
350
5F
  3
C4
350
60
  3
C5
350
61
  3
C6
350
62
  3
C7
350
63
  3
C8
350
64
  3
C9
350
65
  3
D0
350
66
  3
D1
350
67
  3
D2
350
68
  0
LAYOUT
  5
1E
102
{ACAD_REACTORS
330
1A
102
}
330
1A
100
AcDbPlotSettings
  1

  2
none_device
  4

  6

 40
0.0
 41
0.0
 42
0.0
 43
0.0
 44
0.0
 45
0.0
 46
0.0
 47
0.0
 48
0.0
 49
0.0
140
0.0
141
0.0
142
1.0
143
1.0
 70
   688
 72
     1
 73
     0
 74
     5
  7

 75
    16
147
1.0
148
0.0
149
0.0
100
AcDbLayout
  1
Layout1
 70
     1
 71
     1
 10
0.0
 20
0.0
 11
420.0
 21
297.0
 12
0.0
 22
0.0
 32
0.0
 14
1.0000000000E+20
 24
1.0000000000E+20
 34
1.0000000000E+20
 15
-1.0000000000E+20
 25
-1.0000000000E+20
 35
-1.0000000000E+20
146
0.0
 13
0.0
 23
0.0
 33
0.0
 16
1.0
 26
0.0
 36
0.0
 17
0.0
 27
1.0
 37
0.0
 76
     0
330
1B
  0
LAYOUT
  5
26
102
{ACAD_REACTORS
330
1A
102
}
330
1A
100
AcDbPlotSettings
  1

  2
none_device
  4

  6

 40
0.0
 41
0.0
 42
0.0
 43
0.0
 44
0.0
 45
0.0
 46
0.0
 47
0.0
 48
0.0
 49
0.0
140
0.0
141
0.0
142
1.0
143
1.0
 70
   688
 72
     1
 73
     0
 74
     5
  7

 75
    16
147
1.0
148
0.0
149
0.0
100
AcDbLayout
  1
Layout2
 70
     1
 71
     2
 10
0.0
 20
0.0
 11
0.0
 21
0.0
 12
0.0
 22
0.0
 32
0.0
 14
0.0
 24
0.0
 34
0.0
 15
0.0
 25
0.0
 35
0.0
146
0.0
 13
0.0
 23
0.0
 33
0.0
 16
1.0
 26
0.0
 36
0.0
 17
0.0
 27
1.0
 37
0.0
 76
     0
330
23
  0
LAYOUT
  5
22
102
{ACAD_REACTORS
330
1A
102
}
330
1A
100
AcDbPlotSettings
  1

  2
none_device
  4
Letter_(8.50_x_11.00_Inches)
  6

 40
6.35
 41
6.35
 42
6.35000508
 43
6.35000508
 44
215.9
 45
279.4
 46
0.0
 47
0.0
 48
0.0
 49
0.0
140
0.0
141
0.0
142
1.0
143
1.0
 70
  1712
 72
     1
 73
     0
 74
     0
  7

 75
     0
147
1.0
148
0.0
149
0.0
100
AcDbLayout
  1
Model
 70
     1
 71
     0
 10
0.0
 20
0.0
 11
20000.0
 21
10000.0
 12
0.0
 22
0.0
 32
0.0
 14
0.0
 24
0.0
 34
0.0
 15
20000.0
 25
10000.0
 35
0.0
146
0.0
 13
0.0
 23
0.0
 33
0.0
 16
1.0
 26
0.0
 36
0.0
 17
0.0
 27
1.0
 37
0.0
 76
     0
330
1F
331
29
  0
MLINESTYLE
  5
18
102
{ACAD_REACTORS
330
17
102
}
330
17
100
AcDbMlineStyle
  2
Standard
 70
     0
  3

 62
   256
 51
90.0
 52
90.0
 71
     2
 49
0.5
 62
   256
  6
BYLAYER
 49
-0.5
 62
   256
  6
BYLAYER
  0
ACDBPLACEHOLDER
  5
F
102
{ACAD_REACTORS
330
E
102
}
330
E
  0
SCALE
  5
48
102
{ACAD_REACTORS
330
47
102
}
330
47
100
AcDbScale
 70
     0
300
1:1
140
1.0
141
1.0
290
     1
  0
SCALE
  5
49
102
{ACAD_REACTORS
330
47
102
}
330
47
100
AcDbScale
 70
     0
300
1:2
140
1.0
141
2.0
290
     0
  0
SCALE
  5
4A
102
{ACAD_REACTORS
330
47
102
}
330
47
100
AcDbScale
 70
     0
300
1:4
140
1.0
141
4.0
290
     0
  0
SCALE
  5
4B
102
{ACAD_REACTORS
330
47
102
}
330
47
100
AcDbScale
 70
     0
300
1:5
140
1.0
141
5.0
290
     0
  0
SCALE
  5
4C
102
{ACAD_REACTORS
330
47
102
}
330
47
100
AcDbScale
 70
     0
300
1:8
140
1.0
141
8.0
290
     0
  0
SCALE
  5
4D
102
{ACAD_REACTORS
330
47
102
}
330
47
100
AcDbScale
 70
     0
300
1:10
140
1.0
141
10.0
290
     0
  0
SCALE
  5
4E
102
{ACAD_REACTORS
330
47
102
}
330
47
100
AcDbScale
 70
     0
300
1:16
140
1.0
141
16.0
290
     0
  0
SCALE
  5
4F
102
{ACAD_REACTORS
330
47
102
}
330
47
100
AcDbScale
 70
     0
300
1:20
140
1.0
141
20.0
290
     0
  0
SCALE
  5
50
102
{ACAD_REACTORS
330
47
102
}
330
47
100
AcDbScale
 70
     0
300
1:30
140
1.0
141
30.0
290
     0
  0
SCALE
  5
51
102
{ACAD_REACTORS
330
47
102
}
330
47
100
AcDbScale
 70
     0
300
1:40
140
1.0
141
40.0
290
     0
  0
SCALE
  5
52
102
{ACAD_REACTORS
330
47
102
}
330
47
100
AcDbScale
 70
     0
300
1:50
140
1.0
141
50.0
290
     0
  0
SCALE
  5
53
102
{ACAD_REACTORS
330
47
102
}
330
47
100
AcDbScale
 70
     0
300
1:100
140
1.0
141
100.0
290
     0
  0
SCALE
  5
54
102
{ACAD_REACTORS
330
47
102
}
330
47
100
AcDbScale
 70
     0
300
2:1
140
2.0
141
1.0
290
     0
  0
SCALE
  5
55
102
{ACAD_REACTORS
330
47
102
}
330
47
100
AcDbScale
 70
     0
300
4:1
140
4.0
141
1.0
290
     0
  0
SCALE
  5
56
102
{ACAD_REACTORS
330
47
102
}
330
47
100
AcDbScale
 70
     0
300
8:1
140
8.0
141
1.0
290
     0
  0
SCALE
  5
57
102
{ACAD_REACTORS
330
47
102
}
330
47
100
AcDbScale
 70
     0
300
10:1
140
10.0
141
1.0
290
     0
  0
SCALE
  5
58
102
{ACAD_REACTORS
330
47
102
}
330
47
100
AcDbScale
 70
     0
300
100:1
140
100.0
141
1.0
290
     0
  0
SCALE
  5
59
102
{ACAD_REACTORS
330
47
102
}
330
47
100
AcDbScale
 70
     0
300
1/128" = 1'-0"
140
0.0078125
141
12.0
290
     0
  0
SCALE
  5
5A
102
{ACAD_REACTORS
330
47
102
}
330
47
100
AcDbScale
 70
     0
300
1/64" = 1'-0"
140
0.015625
141
12.0
290
     0
  0
SCALE
  5
5B
102
{ACAD_REACTORS
330
47
102
}
330
47
100
AcDbScale
 70
     0
300
1/32" = 1'-0"
140
0.03125
141
12.0
290
     0
  0
SCALE
  5
5C
102
{ACAD_REACTORS
330
47
102
}
330
47
100
AcDbScale
 70
     0
300
1/16" = 1'-0"
140
0.0625
141
12.0
290
     0
  0
SCALE
  5
5D
102
{ACAD_REACTORS
330
47
102
}
330
47
100
AcDbScale
 70
     0
300
3/32" = 1'-0"
140
0.09375
141
12.0
290
     0
  0
SCALE
  5
5E
102
{ACAD_REACTORS
330
47
102
}
330
47
100
AcDbScale
 70
     0
300
1/8" = 1'-0"
140
0.125
141
12.0
290
     0
  0
SCALE
  5
5F
102
{ACAD_REACTORS
330
47
102
}
330
47
100
AcDbScale
 70
     0
300
3/16" = 1'-0"
140
0.1875
141
12.0
290
     0
  0
SCALE
  5
60
102
{ACAD_REACTORS
330
47
102
}
330
47
100
AcDbScale
 70
     0
300
1/4" = 1'-0"
140
0.25
141
12.0
290
     0
  0
SCALE
  5
61
102
{ACAD_REACTORS
330
47
102
}
330
47
100
AcDbScale
 70
     0
300
3/8" = 1'-0"
140
0.375
141
12.0
290
     0
  0
SCALE
  5
62
102
{ACAD_REACTORS
330
47
102
}
330
47
100
AcDbScale
 70
     0
300
1/2" = 1'-0"
140
0.5
141
12.0
290
     0
  0
SCALE
  5
63
102
{ACAD_REACTORS
330
47
102
}
330
47
100
AcDbScale
 70
     0
300
3/4" = 1'-0"
140
0.75
141
12.0
290
     0
  0
SCALE
  5
64
102
{ACAD_REACTORS
330
47
102
}
330
47
100
AcDbScale
 70
     0
300
1" = 1'-0"
140
1.0
141
12.0
290
     0
  0
SCALE
  5
65
102
{ACAD_REACTORS
330
47
102
}
330
47
100
AcDbScale
 70
     0
300
1-1/2" = 1'-0"
140
1.5
141
12.0
290
     0
  0
SCALE
  5
66
102
{ACAD_REACTORS
330
47
102
}
330
47
100
AcDbScale
 70
     0
300
3" = 1'-0"
140
3.0
141
12.0
290
     0
  0
SCALE
  5
67
102
{ACAD_REACTORS
330
47
102
}
330
47
100
AcDbScale
 70
     0
300
6" = 1'-0"
140
6.0
141
12.0
290
     0
  0
SCALE
  5
68
102
{ACAD_REACTORS
330
47
102
}
330
47
100
AcDbScale
 70
     0
300
1'-0" = 1'-0"
140
12.0
141
12.0
290
     0
  0
ENDSEC
  0
EOF
