  0
SECTION
  2
HEADER
  9
$ACADVER
  1
AC1015
  9
$ACADMAINTVER
 70
     6
  9
$DWGCODEPAGE
  3
ANSI_1250
  9
$INSBASE
 10
0.0
 20
0.0
 30
0.0
  9
$EXTMIN
 10
0.0
 20
0.0
 30
0.0
  9
$EXTMAX
 10
20000.0
 20
10000.0
 30
0.0
  9
$LIMMIN
 10
0.0
 20
0.0
  9
$LIMMAX
 10
20000.0
 20
10000.0
  9
$ORTHOMODE
 70
     0
  9
$REGENMODE
 70
     1
  9
$FILLMODE
 70
     1
  9
$QTEXTMODE
 70
     0
  9
$MIRRTEXT
 70
     1
  9
$LTSCALE
 40
1.0
  9
$ATTMODE
 70
     1
  9
$TEXTSIZE
 40
2.0
  9
$TRACEWID
 40
1.0
  9
$TEXTSTYLE
  7
Standard
  9
$CLAYER
  8
0
  9
$CELTYPE
  6
ByLayer
  9
$CECOLOR
 62
   256
  9
$CELTSCALE
 40
1.0
  9
$DISPSILH
 70
     0
  9
$DIMSCALE
 40
1.0
  9
$DIMASZ
 40
2.0
  9
$DIMEXO
 40
1.0
  9
$DIMDLI
 40
3.75
  9
$DIMRND
 40
0.0
  9
$DIMDLE
 40
0.0
  9
$DIMEXE
 40
1.0
  9
$DIMTP
 40
0.0
  9
$DIMTM
 40
0.0
  9
$DIMTXT
 40
2.0
  9
$DIMCEN
 40
2.5
  9
$DIMTSZ
 40
0.0
  9
$DIMTOL
 70
     0
  9
$DIMLIM
 70
     0
  9
$DIMTIH
 70
     1
  9
$DIMTOH
 70
     1
  9
$DIMSE1
 70
     0
  9
$DIMSE2
 70
     0
  9
$DIMTAD
 70
     1
  9
$DIMZIN
 70
     0
  9
$DIMBLK
  1

  9
$DIMASO
 70
     1
  9
$DIMSHO
 70
     1
  9
$DIMPOST
  1

  9
$DIMAPOST
  1

  9
$DIMALT
 70
     0
  9
$DIMALTD
 70
     3
  9
$DIMALTF
 40
0.0393700787
  9
$DIMLFAC
 40
1.0
  9
$DIMTOFL
 70
     1
  9
$DIMTVP
 40
0.0
  9
$DIMTIX
 70
     0
  9
$DIMSOXD
 70
     0
  9
$DIMSAH
 70
     0
  9
$DIMBLK1
  1

  9
$DIMBLK2
  1

  9
$DIMSTYLE
  2
ISO-25
  9
$DIMCLRD
 70
     0
  9
$DIMCLRE
 70
     0
  9
$DIMCLRT
 70
     0
  9
$DIMTFAC
 40
1.0
  9
$DIMGAP
 40
1.524
  9
$DIMJUST
 70
     0
  9
$DIMSD1
 70
     0
  9
$DIMSD2
 70
     0
  9
$DIMTOLJ
 70
     0
  9
$DIMTZIN
 70
     0
  9
$DIMALTZ
 70
     0
  9
$DIMALTTZ
 70
     0
  9
$DIMUPT
 70
     0
  9
$DIMDEC
 70
     2
  9
$DIMTDEC
 70
     0
  9
$DIMALTU
 70
     2
  9
$DIMALTTD
 70
     3
  9
$DIMTXSTY
  7
Standard
  9
$DIMAUNIT
 70
     0
  9
$DIMADEC
 70
     2
  9
$DIMALTRND
 40
0.0
  9
$DIMAZIN
 70
     0
  9
$DIMDSEP
 70
    44
  9
$DIMATFIT
 70
     3
  9
$DIMFRAC
 70
     0
  9
$DIMLDRBLK
  1

  9
$DIMLUNIT
 70
     2
  9
$DIMLWD
 70
    -2
  9
$DIMLWE
 70
    -2
  9
$DIMTMOVE
 70
     0
  9
$LUNITS
 70
     2
  9
$LUPREC
 70
     3
  9
$SKETCHINC
 40
1.0
  9
$FILLETRAD
 40
10.0
  9
$AUNITS
 70
     0
  9
$AUPREC
 70
     2
  9
$MENU
  1
.
  9
$ELEVATION
 40
0.0
  9
$PELEVATION
 40
0.0
  9
$THICKNESS
 40
0.0
  9
$LIMCHECK
 70
     0
  9
$CHAMFERA
 40
0.0
  9
$CHAMFERB
 40
0.0
  9
$CHAMFERC
 40
0.0
  9
$CHAMFERD
 40
0.0
  9
$SKPOLY
 70
     0
  9
$TDCREATE
 40
2459116.411396782
  9
$TDUCREATE
 40
2459116.328063449
  9
$TDUPDATE
 40
2459116.411397025
  9
$TDUUPDATE
 40
2459116.328063692
  9
$TDINDWG
 40
0.0000000116
  9
$TDUSRTIMER
 40
0.0000000116
  9
$USRTIMER
 70
     1
  9
$ANGBASE
 50
0.0
  9
$ANGDIR
 70
     0
  9
$PDMODE
 70
     0
  9
$PDSIZE
 40
-1.0
  9
$PLINEWID
 40
0.0
  9
$SPLFRAME
 70
     0
  9
$SPLINETYPE
 70
     6
  9
$SPLINESEGS
 70
     8
  9
$HANDSEED
  5
37C
  9
$SURFTAB1
 70
     6
  9
$SURFTAB2
 70
     6
  9
$SURFTYPE
 70
     6
  9
$SURFU
 70
     6
  9
$SURFV
 70
     6
  9
$UCSBASE
  2

  9
$UCSNAME
  2

  9
$UCSORG
 10
0.0
 20
0.0
 30
0.0
  9
$UCSXDIR
 10
1.0
 20
0.0
 30
0.0
  9
$UCSYDIR
 10
0.0
 20
1.0
 30
0.0
  9
$UCSORTHOREF
  2

  9
$UCSORTHOVIEW
 70
     0
  9
$UCSORGTOP
 10
0.0
 20
0.0
 30
0.0
  9
$UCSORGBOTTOM
 10
0.0
 20
0.0
 30
0.0
  9
$UCSORGLEFT
 10
0.0
 20
0.0
 30
0.0
  9
$UCSORGRIGHT
 10
0.0
 20
0.0
 30
0.0
  9
$UCSORGFRONT
 10
0.0
 20
0.0
 30
0.0
  9
$UCSORGBACK
 10
0.0
 20
0.0
 30
0.0
  9
$PUCSBASE
  2

  9
$PUCSNAME
  2

  9
$PUCSORG
 10
0.0
 20
0.0
 30
0.0
  9
$PUCSXDIR
 10
1.0
 20
0.0
 30
0.0
  9
$PUCSYDIR
 10
0.0
 20
1.0
 30
0.0
  9
$PUCSORTHOREF
  2

  9
$PUCSORTHOVIEW
 70
     0
  9
$PUCSORGTOP
 10
0.0
 20
0.0
 30
0.0
  9
$PUCSORGBOTTOM
 10
0.0
 20
0.0
 30
0.0
  9
$PUCSORGLEFT
 10
0.0
 20
0.0
 30
0.0
  9
$PUCSORGRIGHT
 10
0.0
 20
0.0
 30
0.0
  9
$PUCSORGFRONT
 10
0.0
 20
0.0
 30
0.0
  9
$PUCSORGBACK
 10
0.0
 20
0.0
 30
0.0
  9
$USERI1
 70
     0
  9
$USERI2
 70
     0
  9
$USERI3
 70
     0
  9
$USERI4
 70
     0
  9
$USERI5
 70
     0
  9
$USERR1
 40
0.0
  9
$USERR2
 40
0.0
  9
$USERR3
 40
0.0
  9
$USERR4
 40
0.0
  9
$USERR5
 40
0.0
  9
$WORLDVIEW
 70
     1
  9
$SHADEDGE
 70
     3
  9
$SHADEDIF
 70
    70
  9
$TILEMODE
 70
     1
  9
$MAXACTVP
 70
    64
  9
$PINSBASE
 10
0.0
 20
0.0
 30
0.0
  9
$PLIMCHECK
 70
     0
  9
$PEXTMIN
 10
1.0000000000E+20
 20
1.0000000000E+20
 30
1.0000000000E+20
  9
$PEXTMAX
 10
-1.0000000000E+20
 20
-1.0000000000E+20
 30
-1.0000000000E+20
  9
$PLIMMIN
 10
0.0
 20
0.0
  9
$PLIMMAX
 10
420.0
 20
297.0
  9
$UNITMODE
 70
     0
  9
$VISRETAIN
 70
     1
  9
$PLINEGEN
 70
     0
  9
$PSLTSCALE
 70
     1
  9
$TREEDEPTH
 70
  3020
  9
$CMLSTYLE
  2
Standard
  9
$CMLJUST
 70
     0
  9
$CMLSCALE
 40
20.0
  9
$PROXYGRAPHICS
 70
     1
  9
$MEASUREMENT
 70
     1
  9
$CELWEIGHT
370
    -1
  9
$ENDCAPS
280
     0
  9
$JOINSTYLE
280
     0
  9
$LWDISPLAY
290
     1
  9
$INSUNITS
 70
     4
  9
$HYPERLINKBASE
  1

  9
$STYLESHEET
  1

  9
$XEDIT
290
     1
  9
$CEPSNTYPE
380
     0
  9
$PSTYLEMODE
290
     1
  9
$FINGERPRINTGUID
  2
{f1456866-3e6c-4fd0-9a83-480ac0010a61}
  9
$VERSIONGUID
  2
{FAEB1C32-E019-11D5-929B-00C0DF256EC4}
  9
$EXTNAMES
290
     1
  9
$PSVPSCALE
 40
0.0
  9
$OLESTARTUP
290
     0
  0
ENDSEC
  0
SECTION
  2
CLASSES
  0
CLASS
  1
ACDBDICTIONARYWDFLT
  2
AcDbDictionaryWithDefault
  3
ObjectDBX Classes
 90
        0
280
     0
281
     0
  0
CLASS
  1
VISUALSTYLE
  2
AcDbVisualStyle
  3
ObjectDBX Classes
 90
     4095
280
     0
281
     0
  0
CLASS
  1
MATERIAL
  2
AcDbMaterial
  3
ObjectDBX Classes
 90
     1153
280
     0
281
     0
  0
CLASS
  1
SCALE
  2
AcDbScale
  3
ObjectDBX Classes
 90
     1153
280
     0
281
     0
  0
CLASS
  1
TABLESTYLE
  2
AcDbTableStyle
  3
ObjectDBX Classes
 90
     4095
280
     0
281
     0
  0
CLASS
  1
MLEADERSTYLE
  2
AcDbMLeaderStyle
  3
ACDB_MLEADERSTYLE_CLASS
 90
     4095
280
     0
281
     0
  0
CLASS
  1
SUN
  2
AcDbSun
  3
SCENEOE
 90
     1153
280
     0
281
     0
  0
CLASS
  1
ACDBPLACEHOLDER
  2
AcDbPlaceHolder
  3
ObjectDBX Classes
 90
        0
280
     0
281
     0
  0
CLASS
  1
LAYOUT
  2
AcDbLayout
  3
ObjectDBX Classes
 90
        0
280
     0
281
     0
  0
ENDSEC
  0
SECTION
  2
TABLES
  0
TABLE
  2
VPORT
  5
8
330
0
100
AcDbSymbolTable
 70
     1
  0
VPORT
  5
29
330
8
100
AcDbSymbolTableRecord
100
AcDbViewportTableRecord
  2
*Active
 70
     0
 10
0.0
 20
0.0
 11
1.0
 21
1.0
 12
10000.0
 22
5000.0
 13
0.0
 23
0.0
 14
10.0
 24
10.0
 15
10.0
 25
10.0
 16
0.0
 26
0.0
 36
1.0
 17
0.0
 27
0.0
 37
0.0
 40
10000.0
 41
2.0
 42
50.0
 43
0.0
 44
0.0
 50
0.0
 51
0.0
 71
     0
 72
  2000
 73
     1
 74
     3
 75
     0
 76
     0
 77
     0
 78
     0
281
     0
 65
     1
110
0.0
120
0.0
130
0.0
111
1.0
121
0.0
131
0.0
112
0.0
122
1.0
132
0.0
 79
     0
146
0.0
  0
ENDTAB
  0
TABLE
  2
LTYPE
  5
5
330
0
100
AcDbSymbolTable
 70
     6
  0
LTYPE
  5
14
330
5
100
AcDbSymbolTableRecord
100
AcDbLinetypeTableRecord
  2
ByBlock
 70
     0
  3

 72
    65
 73
     0
 40
0.0
  0
LTYPE
  5
15
330
5
100
AcDbSymbolTableRecord
100
AcDbLinetypeTableRecord
  2
ByLayer
 70
     0
  3

 72
    65
 73
     0
 40
0.0
  0
LTYPE
  5
16
330
5
100
AcDbSymbolTableRecord
100
AcDbLinetypeTableRecord
  2
Continuous
 70
     0
  3
Solid line
 72
    65
 73
     0
 40
0.0
  0
LTYPE
  5
6E
330
5
100
AcDbSymbolTableRecord
100
AcDbLinetypeTableRecord
  2
HIDDEN
 70
     0
  3
Hidden __ __ __ __ __ __ __ __ __ __ __ __ __ __
 72
    65
 73
     2
 40
1.905
 49
1.27
 74
     0
 49
-0.635
 74
     0
  0
LTYPE
  5
6F
330
5
100
AcDbSymbolTableRecord
100
AcDbLinetypeTableRecord
  2
PHANTOM
 70
     0
  3
Phantom ______  __  __  ______  __  __  ______
 72
    65
 73
     6
 40
12.7
 49
6.35
 74
     0
 49
-1.27
 74
     0
 49
1.27
 74
     0
 49
-1.27
 74
     0
 49
1.27
 74
     0
 49
-1.27
 74
     0
  0
LTYPE
  5
70
330
5
100
AcDbSymbolTableRecord
100
AcDbLinetypeTableRecord
  2
CENTER
 70
     0
  3
Center ____ _ ____ _ ____ _ ____ _ ____ _ ____
 72
    65
 73
     4
 40
10.16
 49
6.35
 74
     0
 49
-1.27
 74
     0
 49
1.27
 74
     0
 49
-1.27
 74
     0
  0
LTYPE
  5
71
330
5
100
AcDbSymbolTableRecord
100
AcDbLinetypeTableRecord
  2
CENTERX2
 70
     0
  3
Center (2x) ________  __  ________  __  _____
 72
    65
 73
     4
 40
20.32
 49
12.7
 74
     0
 49
-2.54
 74
     0
 49
2.54
 74
     0
 49
-2.54
 74
     0
  0
LTYPE
  5
72
330
5
100
AcDbSymbolTableRecord
100
AcDbLinetypeTableRecord
  2
DOT2
 70
     0
  3
Dot (.5x) ........................................
 72
    65
 73
     2
 40
0.635
 49
0.0
 74
     0
 49
-0.635
 74
     0
  0
ENDTAB
  0
TABLE
  2
LAYER
  5
2
330
0
100
AcDbSymbolTable
 70
    13
  0
LAYER
  5
10
330
2
100
AcDbSymbolTableRecord
100
AcDbLayerTableRecord
  2
0
 70
     0
 62
     7
  6
Continuous
370
    -3
390
F
  0
LAYER
  5
73
330
2
100
AcDbSymbolTableRecord
100
AcDbLayerTableRecord
  2
FORMAT
 70
     0
 62
     7
  6
Continuous
370
    -3
390
F
  0
LAYER
  5
74
330
2
100
AcDbSymbolTableRecord
100
AcDbLayerTableRecord
  2
OSA
 70
     0
 62
     7
  6
CENTER
370
    -3
390
F
  0
LAYER
  5
75
330
2
100
AcDbSymbolTableRecord
100
AcDbLayerTableRecord
  2
0_35
 70
     0
 62
     7
  6
Continuous
370
    35
390
F
  0
LAYER
  5
76
330
2
100
AcDbSymbolTableRecord
100
AcDbLayerTableRecord
  2
0_5
 70
     0
 62
     7
  6
Continuous
370
    50
390
F
  0
LAYER
  5
77
330
2
100
AcDbSymbolTableRecord
100
AcDbLayerTableRecord
  2
0_25
 70
     0
 62
     7
  6
Continuous
370
    25
390
F
  0
LAYER
  5
78
330
2
100
AcDbSymbolTableRecord
100
AcDbLayerTableRecord
  2
0_18
 70
     0
 62
     7
  6
Continuous
370
    -3
390
F
  0
LAYER
  5
79
330
2
100
AcDbSymbolTableRecord
100
AcDbLayerTableRecord
  2
SLD-0
 70
     0
 62
   179
  6
Continuous
370
    -3
390
F
  0
LAYER
  5
7A
330
2
100
AcDbSymbolTableRecord
100
AcDbLayerTableRecord
  2
KOTY
 70
     0
 62
     7
  6
Continuous
370
    -3
390
F
  0
LAYER
  5
7B
330
2
100
AcDbSymbolTableRecord
100
AcDbLayerTableRecord
  2
SILNA
 70
     0
 62
   179
  6
Continuous
370
    -3
390
F
  0
LAYER
  5
7C
330
2
100
AcDbSymbolTableRecord
100
AcDbLayerTableRecord
  2
0_18_1
 70
     0
 62
   179
  6
Continuous
370
    -3
390
F
  0
LAYER
  5
7D
330
2
100
AcDbSymbolTableRecord
100
AcDbLayerTableRecord
  2
0_35_1
 70
     0
 62
   179
  6
Continuous
370
    35
390
F
  0
LAYER
  5
7E
330
2
100
AcDbSymbolTableRecord
100
AcDbLayerTableRecord
  2
0_5_1
 70
     0
 62
   179
  6
Continuous
370
    50
390
F
  0
ENDTAB
  0
TABLE
  2
STYLE
  5
3
330
0
100
AcDbSymbolTable
 70
     1
  0
STYLE
  5
11
330
3
100
AcDbSymbolTableRecord
100
AcDbTextStyleTableRecord
  2
Standard
 70
     0
 40
0.0
 41
1.0
 50
0.0
 71
     0
 42
2.0
  3
txt
  4

  0
ENDTAB
  0
TABLE
  2
VIEW
  5
6
330
0
100
AcDbSymbolTable
 70
     0
  0
ENDTAB
  0
TABLE
  2
UCS
  5
7
330
0
100
AcDbSymbolTable
 70
     0
  0
ENDTAB
  0
TABLE
  2
APPID
  5
9
330
0
100
AcDbSymbolTable
 70
     1
  0
APPID
  5
12
330
9
100
AcDbSymbolTableRecord
100
AcDbRegAppTableRecord
  2
ACAD
 70
     0
  0
ENDTAB
  0
TABLE
  2
DIMSTYLE
  5
A
330
0
100
AcDbSymbolTable
 70
     1
100
AcDbDimStyleTable
  0
DIMSTYLE
105
27
330
A
100
AcDbSymbolTableRecord
100
AcDbDimStyleTableRecord
  2
ISO-25
 70
     0
 41
2.5
 42
0.625
 43
3.75
 44
1.25
 73
     0
 74
     0
 77
     1
 78
     8
140
2.5
141
2.5
143
0.0393700787
147
0.625
171
     3
172
     1
178
     0
271
     2
272
     2
274
     3
278
    44
283
     0
284
     8
340
11
  0
ENDTAB
  0
TABLE
  2
BLOCK_RECORD
  5
1
330
0
100
AcDbSymbolTable
 70
     1
  0
BLOCK_RECORD
  5
1F
330
1
100
AcDbSymbolTableRecord
100
AcDbBlockTableRecord
  2
*Model_Space
340
22
  0
BLOCK_RECORD
  5
1B
330
1
100
AcDbSymbolTableRecord
100
AcDbBlockTableRecord
  2
*Paper_Space
340
1E
  0
BLOCK_RECORD
  5
23
330
1
100
AcDbSymbolTableRecord
100
AcDbBlockTableRecord
  2
*Paper_Space0
340
26
  0
ENDTAB
  0
ENDSEC
  0
SECTION
  2
BLOCKS
  0
BLOCK
  5
20
330
1F
100
AcDbEntity
  8
0
100
AcDbBlockBegin
  2
*Model_Space
 70
     0
 10
0.0
 20
0.0
 30
0.0
  3
*Model_Space
  1

  0
ENDBLK
  5
21
330
1F
100
AcDbEntity
  8
0
100
AcDbBlockEnd
  0
BLOCK
  5
1C
330
1B
100
AcDbEntity
 67
     1
  8
0
100
AcDbBlockBegin
  2
*Paper_Space
 70
     0
 10
0.0
 20
0.0
 30
0.0
  3
*Paper_Space
  1

  0
ENDBLK
  5
1D
330
1B
100
AcDbEntity
 67
     1
  8
0
100
AcDbBlockEnd
  0
BLOCK
  5
24
330
23
100
AcDbEntity
  8
0
100
AcDbBlockBegin
  2
*Paper_Space0
 70
     0
 10
0.0
 20
0.0
 30
0.0
  3
*Paper_Space0
  1

  0
ENDBLK
  5
25
330
23
100
AcDbEntity
  8
0
100
AcDbBlockEnd
  0
ENDSEC
  0
SECTION
  2
ENTITIES
  0
LINE
  5
7F
330
1F
100
AcDbEntity
  8
0
  6
Continuous
 62
     7
370
    25
100
AcDbLine
 10
9233.9493989484
 20
6268.3724278805
 30
0.0
 11
9233.9493989484
 21
6290.1992338587
 31
0.0
  0
LINE
  5
80
330
1F
100
AcDbEntity
  8
0
  6
Continuous
 62
     7
370
    25
100
AcDbLine
 10
9180.4673199712
 20
6366.4220657529
 30
0.0
 11
9180.4673199712
 21
6244.3105261289
 31
0.0
  0
LINE
  5
81
330
1F
100
AcDbEntity
  8
0
  6
Continuous
 62
     7
370
    25
100
AcDbLine
 10
9324.1786171395
 20
6396.0657093767
 30
0.0
 11
9181.2707648889
 21
6367.4025368756
 31
0.0
  0
ARC
  5
82
330
1F
100
AcDbEntity
  8
0
  6
Continuous
 62
     7
370
    25
100
AcDbCircle
 10
9262.3368497863
 20
6335.071418103
 30
0.0
 40
28.38578501640189
100
AcDbArc
 50
102.6833183812
 51
179.9955119692
  0
LINE
  5
83
330
1F
100
AcDbEntity
  8
0
  6
Continuous
 62
     7
370
    25
100
AcDbLine
 10
9233.9510648571
 20
6290.2344992815
 30
0.0
 11
9233.9510648571
 21
6335.0736419549
 31
0.0
  0
LINE
  5
84
330
1F
100
AcDbEntity
  8
0
  6
Continuous
 62
     7
370
    25
100
AcDbLine
 10
9233.9510648571
 20
6244.310748062
 30
0.0
 11
9233.9510648571
 21
6268.3868714719
 31
0.0
  0
LINE
  5
85
330
1F
100
AcDbEntity
  8
0
  6
Continuous
 62
     7
370
    25
100
AcDbLine
 10
9325.3021747004
 20
6394.2320572818
 30
0.0
 11
9325.3529652823
 21
6394.5274649271
 31
0.0
  0
LINE
  5
86
330
1F
100
AcDbEntity
  8
0
  6
Continuous
 62
     7
370
    25
100
AcDbLine
 10
9325.1917390128
 20
6390.3442062485
 30
0.0
 11
9325.3017893263
 21
6391.214828129
 31
0.0
  0
LINE
  5
87
330
1F
100
AcDbEntity
  8
0
  6
Continuous
 62
     7
370
    25
100
AcDbLine
 10
9256.1044052603
 20
6362.7645476883
 30
0.0
 11
9296.566838949
 21
6371.9639275336
 31
0.0
  0
ARC
  5
88
330
1F
100
AcDbEntity
  8
0
  6
Continuous
 62
     7
370
    25
100
AcDbCircle
 10
9305.1382026536
 20
6401.7881030158
 30
0.0
 40
25.96197790713286
100
AcDbArc
 50
302.7394301903
 51
317.2409652917
  0
ARC
  5
89
330
1F
100
AcDbEntity
  8
0
  6
Continuous
 62
     7
370
    25
100
AcDbCircle
 10
9321.3731301269
 20
6386.97008049
 30
0.0
 40
4.000294974958042
100
AcDbArc
 50
315.1914944735
 51
0.0399923492
  0
ARC
  5
8A
330
1F
100
AcDbEntity
  8
0
  6
Continuous
 62
     7
370
    25
100
AcDbCircle
 10
9324.3738030931
 20
6395.0841897446
 30
0.0
 40
0.9996211370795888
100
AcDbArc
 50
359.9740160808
 51
101.3677975532
  0
LINE
  5
8B
330
1F
100
AcDbEntity
  8
0
  6
Continuous
 62
     7
370
    25
100
AcDbLine
 10
9325.3021746708
 20
6394.2320573532
 30
0.0
 11
9325.352961262
 21
6394.5274853052
 31
0.0
  0
LINE
  5
8C
330
1F
100
AcDbEntity
  8
0
  6
Continuous
 62
     7
370
    25
100
AcDbLine
 10
9317.1518306608
 20
6378.664073975
 30
0.0
 11
9317.0142367356
 21
6379.4822393669
 31
0.0
  0
ARC
  5
8D
330
1F
100
AcDbEntity
  8
0
  6
Continuous
 62
     7
370
    25
100
AcDbCircle
 10
9306.9091747688
 20
6376.873353878
 30
0.0
 40
8.352329918301537
100
AcDbArc
 50
204.798465179
 51
222.9255885519
  0
ARC
  5
8E
330
1F
100
AcDbEntity
  8
0
  6
Continuous
 62
     7
370
    25
100
AcDbCircle
 10
9310.4361838808
 20
6377.5138660365
 30
0.0
 40
6.152531663752552
100
AcDbArc
 50
351.91962964
 51
8.1047505956
  0
ARC
  5
8F
330
1F
100
AcDbEntity
  8
0
  6
Continuous
 62
     7
370
    25
100
AcDbCircle
 10
9306.2483876615
 20
6375.697050203
 30
0.0
 40
6.418157678210322
100
AcDbArc
 50
221.2438304846
 51
236.8666562842
  0
LINE
  5
90
330
1F
100
AcDbEntity
  8
0
  6
Continuous
 62
     7
370
    25
100
AcDbLine
 10
9299.126268724
 20
6373.7945036452
 30
0.0
 11
9299.3216320461
 21
6373.3677564132
 31
0.0
  0
LINE
  5
91
330
1F
100
AcDbEntity
  8
0
  6
Continuous
 62
     7
370
    25
100
AcDbLine
 10
9317.1547416676
 20
6378.6725552071
 30
0.0
 11
9317.1540446995
 21
6378.6740776484
 31
0.0
  0
LINE
  5
92
330
1F
100
AcDbEntity
  8
0
  6
Continuous
 62
     7
370
    25
100
AcDbLine
 10
9300.7875506536
 20
6371.1815565342
 30
0.0
 11
9300.7882476217
 21
6371.1800340929
 31
0.0
  0
LINE
  5
93
330
1F
100
AcDbEntity
  8
0
  6
Continuous
 62
     7
370
    25
100
AcDbLine
 10
9302.7219441893
 20
6370.3198627497
 30
0.0
 11
9303.6326744959
 21
6369.470382682
 31
0.0
  0
LINE
  5
94
330
1F
100
AcDbEntity
  8
0
  6
Continuous
 62
     7
370
    25
100
AcDbLine
 10
9316.5901191402
 20
6375.4022534486
 30
0.0
 11
9316.5422379563
 21
6376.6467426889
 31
0.0
  0
LINE
  5
95
330
1F
100
AcDbEntity
  8
0
  6
Continuous
 62
     7
370
    25
100
AcDbLine
 10
9233.9308015191
 20
6268.2927175131
 30
0.0
 11
9233.9356856623
 21
6268.3724278805
 31
0.0
  0
LWPOLYLINE
  5
96
330
1F
100
AcDbEntity
  8
0
  6
Continuous
 62
     7
370
    25
100
AcDbPolyline
 90
       22
 70
   128
 43
0.0
 10
9233.9301720601
 20
6290.1992338587
 10
9233.9308015191
 20
6290.2927175131
 10
9233.8101491809
 20
6290.1542346056
 10
9233.5766245303
 20
6289.7277649114
 10
9233.262636704
 20
6289.0544969578
 10
9232.8777994195
 20
6288.1197798087
 10
9232.455175984
 20
6286.9420728523
 10
9232.0283721105
 20
6285.5241899809
 10
9231.6453807921
 20
6283.8976792755
 10
9231.3504529446
 20
6282.0663261145
 10
9231.2035335143
 20
6280.2863416128
 10
9231.1988379759
 20
6278.4133476723
 10
9231.323243487
 20
6276.7531060174
 10
9231.5631099232
 20
6275.1177984479
 10
9231.8884235146
 20
6273.6021065793
 10
9232.2783102181
 20
6272.1963887426
 10
9232.711393575
 20
6270.9082777007
 10
9233.1379501922
 20
6269.8208833919
 10
9233.5016050284
 20
6269.0104276539
 10
9233.7783847228
 20
6268.4828500873
 10
9233.9308015191
 20
6268.2927175131
 10
9233.9308015191
 20
6268.2927175131
  0
ARC
  5
97
330
1F
100
AcDbEntity
  8
0
  6
Continuous
 62
     7
370
    25
100
AcDbCircle
 10
9191.100918219
 20
6450.7703868515
 30
0.0
 40
85.01595546543065
100
AcDbArc
 50
262.8147584287
 51
290.7705617005
  0
ARC
  5
98
330
1F
100
AcDbEntity
  8
0
  6
Continuous
 62
     7
370
    25
100
AcDbCircle
 10
9268.5976129492
 20
6242.6761159869
 30
0.0
 40
137.0427532470426
100
AcDbArc
 50
100.8355095182
 51
110.2120994872
  0
LINE
  5
99
330
1F
100
AcDbEntity
  8
0
  6
Continuous
 62
     7
370
    25
100
AcDbLine
 10
9242.8349376875
 20
6365.2183542597
 30
0.0
 11
9242.8349376875
 21
6377.2755245193
 31
0.0
  0
LWPOLYLINE
  5
9A
330
1F
100
AcDbEntity
  8
0
  6
Continuous
 62
     7
370
    25
100
AcDbPolyline
 90
       13
 70
   128
 43
0.0
 10
9223.1250237057
 20
6335.0736412101
 10
9223.2308415126
 20
6336.6819394416
 10
9223.5216530034
 20
6338.2546819987
 10
9223.9379424616
 20
6339.784343091
 10
9224.7179747468
 20
6342.0042618616
 10
9225.6231978015
 20
6344.157283268
 10
9227.7196647674
 20
6348.2916556209
 10
9230.146220857
 20
6352.2085148697
 10
9232.8823784505
 20
6355.8961255174
 10
9235.9219674633
 20
6359.3227146107
 10
9238.1109614946
 20
6361.4442918819
 10
9240.4194731045
 20
6363.4214477568
 10
9242.8349376875
 20
6365.2183542597
  0
LINE
  5
9B
330
1F
100
AcDbEntity
  8
0
  6
Continuous
 62
     7
370
    25
100
AcDbLine
 10
9223.1250237043
 20
6244.3106889238
 30
0.0
 11
9223.1250237057
 21
6335.0736412101
 31
0.0
  0
LINE
  5
9C
330
1F
100
AcDbEntity
  8
0
  6
Continuous
 62
     7
370
    25
100
AcDbLine
 10
9221.2498381544
 20
6244.3106803822
 30
0.0
 11
9223.1250237043
 21
6244.3106889238
 31
0.0
  0
LWPOLYLINE
  5
9D
330
1F
100
AcDbEntity
  8
0
  6
Continuous
 62
     7
370
    25
100
AcDbPolyline
 90
       26
 70
   128
 43
0.0
 10
9180.4673199712
 20
6244.3105261289
 10
9180.5617614676
 20
6244.3105250207
 10
9180.843898145
 20
6244.3105247016
 10
9181.3289414115
 20
6244.310525203
 10
9182.0077232127
 20
6244.3105265411
 10
9182.8496250714
 20
6244.3105286393
 10
9183.8651546802
 20
6244.3105315091
 10
9185.0859964805
 20
6244.3105352548
 10
9186.4756938627
 20
6244.3105397758
 10
9187.9631353142
 20
6244.3105448297
 10
9189.588018672
 20
6244.3105505403
 10
9191.3946464318
 20
6244.3105570727
 10
9193.322344098
 20
6244.3105642153
 10
9195.2580613499
 20
6244.3105715392
 10
9197.2773141186
 20
6244.3105793194
 10
9199.4301216729
 20
6244.3105877558
 10
9201.6404463362
 20
6244.3105965564
 10
9203.7876243419
 20
6244.3106052324
 10
9205.9569401054
 20
6244.3106141192
 10
9208.197511432
 20
6244.3106234239
 10
9210.4288156219
 20
6244.3106328171
 10
9212.5548115473
 20
6244.310641888
 10
9214.6422682261
 20
6244.310650914
 10
9216.7344944527
 20
6244.3106600878
 10
9218.756035467
 20
6244.3106690831
 10
9221.2498381544
 20
6244.3106803822
  0
ARC
  5
9E
330
1F
100
AcDbEntity
  8
0
  6
Continuous
 62
     7
370
    25
100
AcDbCircle
 10
9181.4675988712
 20
6366.4219246467
 30
0.0
 40
1.000173383592003
100
AcDbArc
 50
101.3498291055
 51
179.9919223155
  0
ARC
  5
9F
330
1F
100
AcDbEntity
  8
0
  6
Continuous
 62
     7
370
    25
100
AcDbCircle
 10
9191.6590141177
 20
6444.9405212014
 30
0.0
 40
78.23077694089422
100
AcDbArc
 50
262.3691666248
 51
291.6433326717
  0
ARC
  5
A0
330
1F
100
AcDbEntity
  8
0
  6
Continuous
 62
     7
370
    25
100
AcDbCircle
 10
9219.9984790659
 20
6371.0641573387
 30
0.0
 40
1.269801464024662
100
AcDbArc
 50
9.7770269439
 51
66.1119364319
  0
ARC
  5
A1
330
1F
100
AcDbEntity
  8
0
  6
Continuous
 62
     7
370
    25
100
AcDbCircle
 10
9320.6586176199
 20
6400.4008948437
 30
0.0
 40
6.202314022404566
100
AcDbArc
 50
275.2382794537
 51
304.5781670206
  0
LINE
  5
A2
330
1F
100
AcDbEntity
  8
0
  6
Continuous
 62
     7
370
    25
100
AcDbLine
 10
9242.6265955477
 20
6378.2391047387
 30
0.0
 11
9321.2248759446
 21
6394.2244840136
 31
0.0
  0
ARC
  5
A3
330
1F
100
AcDbEntity
  8
0
  6
Continuous
 62
     7
370
    25
100
AcDbCircle
 10
9268.7851145105
 20
6238.3863447745
 30
0.0
 40
142.278117027731
100
AcDbArc
 50
100.5943737956
 51
109.8331458779
  0
ARC
  5
A4
330
1F
100
AcDbEntity
  8
0
  6
Continuous
 62
     7
370
    25
100
AcDbCircle
 10
9342.9865958845
 20
6399.4342999703
 30
0.0
 40
102.5737099285304
100
AcDbArc
 50
191.9251567564
 51
192.4758345039
  0
ARC
  5
A5
330
1F
100
AcDbEntity
  8
0
  6
Continuous
 62
     7
370
    25
100
AcDbCircle
 10
9387.9689354726
 20
6454.387074042
 30
0.0
 40
170.3377171993909
100
AcDbArc
 50
211.5661047562
 51
212.6929291197
  0
LWPOLYLINE
  5
A6
330
1F
100
AcDbEntity
  8
0
  6
Continuous
 62
     7
370
    25
100
AcDbPolyline
 90
       13
 70
   128
 43
0.0
 10
9244.61655436
 20
6362.3814615499
 10
9242.2459351196
 20
6360.7644145609
 10
9239.9168848762
 20
6359.0008651547
 10
9237.6802896639
 20
6357.1191594717
 10
9234.5216975229
 20
6354.0830434897
 10
9231.6052858438
 20
6350.800319051
 10
9228.9399631994
 20
6347.2822663334
 10
9226.5583806405
 20
6343.5235052961
 10
9225.5010148404
 20
6341.5431460686
 10
9224.573286306
 20
6339.4854192898
 10
9223.8712355874
 20
6337.3269376679
 10
9223.6609955872
 20
6336.2101684441
 10
9223.5880689309
 20
6335.0736412101
  0
LINE
  5
A7
330
1F
100
AcDbEntity
  8
0
  6
Continuous
 62
     7
370
    25
100
AcDbLine
 10
9223.1250237057
 20
6335.0736412101
 30
0.0
 11
9223.5880689309
 21
6335.0736412101
 31
0.0
  0
LINE
  5
A8
330
1F
100
AcDbEntity
  8
0
  6
Continuous
 62
     7
370
    25
100
AcDbLine
 10
9223.5880689309
 20
6335.0736418401
 30
0.0
 11
9223.5880689314
 21
6244.3106910512
 31
0.0
  0
LINE
  5
A9
330
1F
100
AcDbEntity
  8
0
  6
Continuous
 62
     7
370
    25
100
AcDbLine
 10
9223.1250237043
 20
6244.3106889238
 30
0.0
 11
9223.5880689314
 21
6244.3106910512
 31
0.0
  0
ARC
  5
AA
330
1F
100
AcDbEntity
  8
0
  6
Continuous
 62
     7
370
    25
100
AcDbCircle
 10
9261.9470297642
 20
6335.0520771684
 30
0.0
 40
32.3610974536835
100
AcDbArc
 50
102.001883215
 51
122.3801488258
  0
LINE
  5
AB
330
1F
100
AcDbEntity
  8
0
  6
Continuous
 62
     7
370
    25
100
AcDbLine
 10
9233.9338482358
 20
6268.3106360354
 30
0.0
 11
9233.9374101569
 21
6268.3868714719
 31
0.0
  0
ARC
  5
AC
330
1F
100
AcDbEntity
  8
0
  6
Continuous
 62
     7
370
    25
100
AcDbCircle
 10
9254.0379662183
 20
6279.308183804
 30
0.0
 40
22.9155322167553
100
AcDbArc
 50
151.3601477355
 51
208.6799650316
  0
LWPOLYLINE
  5
AD
330
1F
100
AcDbEntity
  8
0
  6
Continuous
 62
     7
370
    25
100
AcDbPolyline
 90
       13
 70
   128
 43
0.0
 10
9223.5880689314
 20
6244.3106910512
 10
9225.1461872147
 20
6244.3106983842
 10
9226.600427982
 20
6244.3107053612
 10
9227.9424896079
 20
6244.3107119424
 10
9229.1647108489
 20
6244.3107180901
 10
9230.2601145775
 20
6244.3107237693
 10
9231.2224476126
 20
6244.3107289475
 10
9232.0462164151
 20
6244.3107335953
 10
9232.7267184486
 20
6244.310737686
 10
9233.2600690245
 20
6244.3107411964
 10
9233.6432234771
 20
6244.3107441063
 10
9233.873994545
 20
6244.3107463992
 10
9233.9510648571
 20
6244.310748062
  0
LWPOLYLINE
  5
AE
330
1F
100
AcDbEntity
  8
0
  6
Continuous
 62
     7
370
    25
100
AcDbPolyline
 90
       29
 70
   128
 43
0.0
 10
9221.9953011362
 20
6244.310688439
 10
9221.1964884738
 20
6244.3106846366
 10
9219.7931055983
 20
6244.3106780668
 10
9218.2986803774
 20
6244.3106712002
 10
9216.7239801792
 20
6244.3106640864
 10
9215.0803507547
 20
6244.3106567767
 10
9213.3796344915
 20
6244.3106493237
 10
9211.6340850893
 20
6244.310641781
 10
9209.8562792715
 20
6244.3106342031
 10
9208.0590261698
 20
6244.3106266446
 10
9206.255275034
 20
6244.3106191598
 10
9204.4580219323
 20
6244.3106118028
 10
9202.6802161146
 20
6244.3106046266
 10
9200.9346667123
 20
6244.3105976827
 10
9199.2339504492
 20
6244.3105910214
 10
9197.5903210246
 20
6244.3105846905
 10
9196.0156208264
 20
6244.3105787357
 10
9194.5211956056
 20
6244.3105731999
 10
9193.11781273
 20
6244.310568123
 10
9191.8155836055
 20
6244.3105635415
 10
9190.6238908228
 20
6244.3105594885
 10
9189.5513205556
 20
6244.3105559931
 10
9188.6056006974
 20
6244.3105530806
 10
9187.7935451813
 20
6244.310550772
 10
9187.121004886
 20
6244.3105490838
 10
9186.5928254797
 20
6244.3105480282
 10
9186.2128125072
 20
6244.3105476129
 10
9185.9837039705
 20
6244.3105478408
 10
9185.907150602
 20
6244.3105487103
  0
ARC
  5
AF
330
1F
100
AcDbEntity
  8
0
  6
Continuous
 62
     7
370
    25
100
AcDbCircle
 10
9094.0207277043
 20
6334.9438623057
 30
0.0
 40
164.2963669551997
100
AcDbArc
 50
11.1466526231
 51
12.3284555029
  0
ARC
  5
B0
330
1F
100
AcDbEntity
  8
0
  6
Continuous
 62
     7
370
    25
100
AcDbCircle
 10
9262.0617646479
 20
6335.061586078
 30
0.0
 40
35.76452910539005
100
AcDbArc
 50
102.1597959975
 51
122.520060044
  0
LINE
  5
B1
330
1F
100
AcDbEntity
  8
0
  6
Continuous
 62
     7
370
    25
100
AcDbLine
 10
9254.5283636009
 20
6370.0237000129
 30
0.0
 11
9304.8469423937
 21
6381.0029440621
 31
0.0
  0
LINE
  5
B2
330
1F
100
AcDbEntity
  8
0
  6
Continuous
 62
     7
370
    25
100
AcDbLine
 10
9321.4337274441
 20
6393.258362945
 30
0.0
 11
9242.8349376875
 21
6377.2755245193
 31
0.0
  0
LINE
  5
B3
330
1F
100
AcDbEntity
  8
0
  6
Continuous
 62
     7
370
    25
100
AcDbLine
 10
9321.4336221603
 20
6391.2004643892
 30
0.0
 11
9321.4337274441
 21
6393.258362945
 31
0.0
  0
ARC
  5
B4
330
1F
100
AcDbEntity
  8
0
  6
Continuous
 62
     7
370
    25
100
AcDbCircle
 10
9298.388079262
 20
6410.0967598285
 30
0.0
 40
29.80213127958548
100
AcDbArc
 50
282.5167415401
 51
320.6498079529
  0
ARC
  5
B5
330
1F
100
AcDbEntity
  8
0
  6
Continuous
 62
     7
370
    25
100
AcDbCircle
 10
9341.7867082916
 20
6398.1638148032
 30
0.0
 40
20.93578938328378
100
AcDbArc
 50
190.8455704202
 51
193.5509165359
  0
LINE
  5
B6
330
1F
100
AcDbEntity
  8
0
  6
Continuous
 62
     7
370
    25
100
AcDbLine
 10
9305.5578340557
 20
6377.609747705
 30
0.0
 11
9255.2177388686
 21
6366.7057858366
 31
0.0
  0
ARC
  5
B7
330
1F
100
AcDbEntity
  8
0
  6
Continuous
 62
     7
370
    25
100
AcDbCircle
 10
9150.9802211471
 20
6346.9960280788
 30
0.0
 40
157.5799423844722
100
AcDbArc
 50
11.2023283865
 51
12.4628993648
  0
ARC
  5
B8
330
1F
100
AcDbEntity
  8
0
  6
Continuous
 62
     7
370
    25
100
AcDbCircle
 10
9170.9488455626
 20
6212.8860480299
 30
0.0
 40
233.3274503118368
100
AcDbArc
 50
48.98894657
 51
49.837996936
  0
ARC
  5
B9
330
1F
100
AcDbEntity
  8
0
  6
Continuous
 62
     7
370
    25
100
AcDbCircle
 10
9298.3736564811
 20
6410.091601694
 30
0.0
 40
33.26684905413246
100
AcDbArc
 50
282.4716231449
 51
320.5439396034
  0
ARC
  5
BA
330
1F
100
AcDbEntity
  8
0
  6
Continuous
 62
     7
370
    25
100
AcDbCircle
 10
9324.3759924559
 20
6394.316839911
 30
0.0
 40
0.9974503402225257
100
AcDbArc
 50
0.3505605944
 51
101.4171146435
  0
LWPOLYLINE
  5
BB
330
1F
100
AcDbEntity
  8
0
  6
Continuous
 62
     7
370
    25
100
AcDbPolyline
 90
        3
 70
   128
 43
0.0
 10
9325.2956550123
 20
6394.2320224961
 10
9325.34191006
 20
6394.2650845691
 10
9325.3734241262
 20
6394.3229427095
  0
LINE
  5
BC
330
1F
100
AcDbEntity
  8
0
  6
Continuous
 62
     7
370
    25
100
AcDbLine
 10
9325.2278793957
 20
6391.2024081881
 30
0.0
 11
9325.3734241244
 21
6391.202677731
 31
0.0
  0
ARC
  5
BD
330
1F
100
AcDbEntity
  8
0
  6
Continuous
 62
     7
370
    25
100
AcDbCircle
 10
9323.2615485597
 20
6391.1655951262
 30
0.0
 40
2.112201109825622
100
AcDbArc
 50
337.0561551398
 51
1.0059581455
  0
LINE
  5
BE
330
1F
100
AcDbEntity
  8
0
  6
Continuous
 62
     7
370
    25
100
AcDbLine
 10
9325.3734241263
 20
6394.3229427095
 30
0.0
 11
9325.3734241263
 21
6391.202677731
 31
0.0
  0
LINE
  5
BF
330
1F
100
AcDbEntity
  8
0
  6
Continuous
 62
     7
370
    25
100
AcDbLine
 10
9305.7197000758
 20
6376.8977985549
 30
0.0
 11
9305.5578340557
 21
6377.609747705
 31
0.0
  0
LWPOLYLINE
  5
C0
330
1F
100
AcDbEntity
  8
0
  6
Continuous
 62
     7
370
    25
100
AcDbPolyline
 90
       11
 70
   128
 43
0.0
 10
9296.5665081241
 20
6371.9653826295
 10
9296.5635613107
 20
6371.963245098
 10
9296.692394083
 20
6372.0681261341
 10
9297.0942115638
 20
6372.3788941249
 10
9297.7368627225
 20
6372.8545705059
 10
9298.6444146844
 20
6373.4863964336
 10
9299.7922393606
 20
6374.22033873
 10
9301.2058010067
 20
6375.0256284544
 10
9302.8004846398
 20
6375.8060191777
 10
9304.6332802722
 20
6376.5407470846
 10
9305.7197000758
 20
6376.8977985549
  0
LWPOLYLINE
  5
C1
330
1F
100
AcDbEntity
  8
0
  6
Continuous
 62
     7
370
    25
100
AcDbPolyline
 90
       12
 70
   128
 43
0.0
 10
9305.7197000758
 20
6376.8977985549
 10
9307.6356741979
 20
6377.4505411826
 10
9309.6128929536
 20
6377.9686810925
 10
9311.4820231969
 20
6378.4157104093
 10
9313.2955783881
 20
6378.8146562971
 10
9314.9191662073
 20
6379.1452171751
 10
9316.3751274264
 20
6379.4220373921
 10
9317.5391535013
 20
6379.6308593872
 10
9318.4387769429
 20
6379.7843423188
 10
9319.0120613278
 20
6379.8773742676
 10
9319.2157476193
 20
6379.9066863774
 10
9319.2108697852
 20
6379.9057382913
  0
LINE
  5
C2
330
1F
100
AcDbEntity
  8
0
  6
Continuous
 62
     7
370
    25
100
AcDbLine
 10
9325.3734241263
 20
6391.202677731
 30
0.0
 11
9325.3734241274
 21
6386.9709894919
 31
0.0
  0
LINE
  5
C3
330
1F
100
AcDbEntity
  8
0
  6
Continuous
 62
     7
370
    25
100
AcDbLine
 10
9325.3734241271
 20
6394.9887233308
 30
0.0
 11
9325.3734241263
 21
6394.3229427095
 31
0.0
  0
LWPOLYLINE
  5
C4
330
1F
100
AcDbEntity
  8
0
  6
Continuous
 62
     7
370
    25
100
AcDbPolyline
 90
       26
 70
   128
 43
0.0
 10
9300.7875506536
 20
6371.1815565342
 10
9300.8497247941
 20
6371.2307201939
 10
9301.0508527431
 20
6371.3431422066
 10
9301.3874931458
 20
6371.5168990004
 10
9301.8538859914
 20
6371.7490175484
 10
9302.4420511692
 20
6372.0355262379
 10
9303.1419250099
 20
6372.3715228258
 10
9303.9415324779
 20
6372.7512583173
 10
9304.8271920679
 20
6373.168235333
 10
9305.7837498986
 20
6373.6153192803
 10
9306.7948390005
 20
6374.0848604291
 10
9307.8431593586
 20
6374.5688248001
 10
9308.9107739209
 20
6375.0589316287
 10
9309.9794155064
 20
6375.5467950512
 10
9311.0307993611
 20
6376.0240675893
 10
9312.0469360159
 20
6376.4825829773
 10
9313.0104390908
 20
6376.91449589
 10
9313.9048227811
 20
6377.3124161777
 10
9314.714783934
 20
6377.6695353138
 10
9315.4264638894
 20
6377.979742891
 10
9316.0276856061
 20
6378.2377311716
 10
9316.5081620137
 20
6378.4390859046
 10
9316.8596720278
 20
6378.5803618548
 10
9317.0762012146
 20
6378.6591417513
 10
9317.1540446995
 20
6378.6740776484
 10
9317.1542414082
 20
6378.6733839086
  0
ARC
  5
C5
330
1F
100
AcDbEntity
  8
0
  6
Continuous
 62
     7
370
    25
100
AcDbCircle
 10
9374.9298437996
 20
6226.125937473
 30
0.0
 40
165.5196511878923
100
AcDbArc
 50
113.7710400958
 51
117.1803560334
  0
LWPOLYLINE
  5
C6
330
1F
100
AcDbEntity
  8
0
  6
Continuous
 62
     7
370
    25
100
AcDbPolyline
 90
       21
 70
   128
 43
0.0
 10
9301.4303107002
 20
6371.4731847912
 10
9301.4131447837
 20
6371.4716002819
 10
9301.5623137834
 20
6371.5647435039
 10
9301.9146483228
 20
6371.7493504691
 10
9302.4802920604
 20
6372.0307359841
 10
9303.2117577532
 20
6372.3852770131
 10
9304.1301041881
 20
6372.8231807389
 10
9305.1582338261
 20
6373.3076840202
 10
9306.3257463641
 20
6373.8527356334
 10
9307.5346261298
 20
6374.4125770974
 10
9308.8196765888
 20
6375.0033261633
 10
9310.0730144588
 20
6375.5753879317
 10
9311.3307231476
 20
6376.1452319744
 10
9312.4872147846
 20
6376.6650184223
 10
9313.5757845893
 20
6377.1497118488
 10
9314.5050443341
 20
6377.5586209972
 10
9315.3017472667
 20
6377.9035183003
 10
9315.7013271604
 20
6378.0730536429
 10
9316.1792014337
 20
6378.2692486218
 10
9316.4633248451
 20
6378.3748488845
 10
9316.5170094889
 20
6378.3798042749
  0
LWPOLYLINE
  5
C7
330
1F
100
AcDbEntity
  8
0
  6
Continuous
 62
     7
370
    25
100
AcDbPolyline
 90
       25
 70
   128
 43
0.0
 10
9302.7222114317
 20
6370.319644549
 10
9302.7214589494
 20
6370.3205247789
 10
9302.7845823406
 20
6370.3684816867
 10
9302.9870944508
 20
6370.4798622488
 10
9303.3248727174
 20
6370.6523990783
 10
9303.7910409489
 20
6370.8825798227
 10
9304.3761093044
 20
6371.165718666
 10
9305.0681674796
 20
6371.4960517178
 10
9305.8531271655
 20
6371.8668543497
 10
9306.7150088468
 20
6372.2705780895
 10
9307.6362670977
 20
6372.6990042862
 10
9308.598147757
 20
6373.1434114177
 10
9309.5810697084
 20
6373.5947526365
 10
9310.5650234953
 20
6374.0438399369
 10
9311.5299786562
 20
6374.4815311965
 10
9312.4562914867
 20
6374.8989162835
 10
9313.3251049289
 20
6375.2874984412
 10
9314.1187324465
 20
6375.6393672574
 10
9314.8210180718
 20
6375.9473596977
 10
9315.4176652948
 20
6376.2052059242
 10
9315.8965280987
 20
6376.4076569313
 10
9316.2478582176
 20
6376.5505914003
 10
9316.4645035834
 20
6376.6310995977
 10
9316.5420539214
 20
6376.6475426086
 10
9316.5420539214
 20
6376.6475426086
  0
ARC
  5
C8
330
1F
100
AcDbEntity
  8
0
  6
Continuous
 62
     7
370
    25
100
AcDbCircle
 10
9398.8625679661
 20
6178.5702625645
 30
0.0
 40
216.1413805804721
100
AcDbArc
 50
112.2116810176
 51
116.9845860786
  0
LWPOLYLINE
  5
C9
330
1F
100
AcDbEntity
  8
0
  6
Continuous
 62
     7
370
    25
100
AcDbPolyline
 90
       17
 70
   128
 43
0.0
 10
9307.2207393601
 20
6371.1564473485
 10
9308.3050451287
 20
6371.6611261714
 10
9309.5204542808
 20
6372.2219792724
 10
9310.8104614475
 20
6372.8122440512
 10
9312.0992672244
 20
6373.3967814869
 10
9313.3047915898
 20
6373.9381992623
 10
9314.3552303805
 20
6374.4044254738
 10
9315.2025969892
 20
6374.7747214127
 10
9315.8282367089
 20
6375.0419219817
 10
9316.2638451638
 20
6375.2202670568
 10
9316.5020389409
 20
6375.3057237994
 10
9316.496238118
 20
6375.2780697404
 10
9316.2232680631
 20
6375.128167843
 10
9315.6920016647
 20
6374.8616694659
 10
9314.9431822696
 20
6374.4986124788
 10
9314.0398963165
 20
6374.0687985966
 10
9313.0529572773
 20
6373.604997415
  0
LWPOLYLINE
  5
CA
330
1F
100
AcDbEntity
  8
0
  6
Continuous
 62
     7
370
    25
100
AcDbPolyline
 90
       17
 70
   128
 43
0.0
 10
9313.0529572773
 20
6373.604997415
 10
9311.9686515086
 20
6373.1003185921
 10
9310.7532423565
 20
6372.5394654911
 10
9309.4632351899
 20
6371.9492007123
 10
9308.174429413
 20
6371.3646632766
 10
9306.9689050476
 20
6370.8232455011
 10
9305.9184662569
 20
6370.3570192897
 10
9305.0710996482
 20
6369.9867233507
 10
9304.4454599285
 20
6369.7195227818
 10
9304.0098514736
 20
6369.5411777066
 10
9303.7716576965
 20
6369.4557209641
 10
9303.7774585194
 20
6369.4833750231
 10
9304.0504285743
 20
6369.6332769204
 10
9304.5816949727
 20
6369.8997752976
 10
9305.3305143678
 20
6370.2628322847
 10
9306.2338003208
 20
6370.6926461668
 10
9307.2207393601
 20
6371.1564473485
  0
LWPOLYLINE
  5
CB
330
1F
100
AcDbEntity
  8
0
  6
Continuous
 62
     7
370
    25
100
AcDbPolyline
 90
       42
 70
   128
 43
0.0
 10
9304.1585317437
 20
6369.6438709193
 10
9304.2219013043
 20
6369.6905673922
 10
9304.4239122097
 20
6369.800318818
 10
9304.7598294954
 20
6369.9705527163
 10
9305.2217795449
 20
6370.1972789487
 10
9305.7989346407
 20
6370.4751832447
 10
9306.4777667564
 20
6370.797751763
 10
9307.2423646427
 20
6371.1574237709
 10
9308.0748067731
 20
6371.5457688614
 10
9308.9555814096
 20
6371.9536845547
 10
9309.8640439413
 20
6372.3716096528
 10
9310.7789007763
 20
6372.7897483456
 10
9311.678708446
 20
6373.1982998164
 10
9312.542376221
 20
6373.5876879651
 10
9313.3496604609
 20
6373.9487858634
 10
9314.0816391072
 20
6374.2731296829
 10
9314.7211552009
 20
6374.5531170791
 10
9315.2532190267
 20
6374.7821853848
 10
9315.6653594596
 20
6374.9549654331
 10
9315.947916277
 20
6375.0674074062
 10
9316.0942665868
 20
6375.1168757593
 10
9316.1009800616
 20
6375.1022109964
 10
9315.9678993434
 20
6375.023756847
 10
9315.6981437313
 20
6374.8833522098
 10
9315.2980360682
 20
6374.6842880506
 10
9314.7769545387
 20
6374.4312302646
 10
9314.1471128522
 20
6374.1301103116
 10
9313.423273964
 20
6373.7879861884
 10
9312.6224040441
 20
6373.4128769942
 10
9311.7632748047
 20
6373.0135749707
 10
9310.8660235069
 20
6372.599439419
 10
9309.9516809607
 20
6372.1801773252
 10
9309.0416785805
 20
6371.7656158376
 10
9308.1573460507
 20
6371.3654719261
 10
9307.3194113763
 20
6370.9891246247
 10
9306.5475150359
 20
6370.6453951953
 10
9305.8597496254
 20
6370.3423403644
 10
9305.2722357833
 20
6370.0870634803
 10
9304.7987443359
 20
6369.8855480168
 10
9304.4503735215
 20
6369.7425173257
 10
9304.2352888567
 20
6369.661323925
 10
9304.1585317437
 20
6369.6438709193
  0
LWPOLYLINE
  5
CC
330
1F
100
AcDbEntity
  8
0
  6
Continuous
 62
     7
370
    25
100
AcDbPolyline
 90
       17
 70
   128
 43
0.0
 10
9307.9356059851
 20
6371.4565710316
 10
9308.7541006965
 20
6371.8375308673
 10
9309.6715595829
 20
6372.2608941937
 10
9310.6453292281
 20
6372.7064591014
 10
9311.6181919969
 20
6373.1477006899
 10
9312.5281892929
 20
6373.5563931442
 10
9313.3211193129
 20
6373.9083267956
 10
9313.9607590786
 20
6374.1878469056
 10
9314.4330269726
 20
6374.3895448573
 10
9314.7618486269
 20
6374.5241697067
 10
9314.9416506279
 20
6374.5886772412
 10
9314.9372718419
 20
6374.567802409
 10
9314.7312187592
 20
6374.4546480629
 10
9314.3301891327
 20
6374.2534801649
 10
9313.7649383221
 20
6373.9794244212
 10
9313.0830875041
 20
6373.6549768349
 10
9312.3380906523
 20
6373.3048737318
  0
LWPOLYLINE
  5
CD
330
1F
100
AcDbEntity
  8
0
  6
Continuous
 62
     7
370
    25
100
AcDbPolyline
 90
       17
 70
   128
 43
0.0
 10
9312.3380906523
 20
6373.3048737318
 10
9311.5195959409
 20
6372.9239138961
 10
9310.6021370544
 20
6372.5005505698
 10
9309.6283674093
 20
6372.054985662
 10
9308.6555046404
 20
6371.6137440736
 10
9307.7455073445
 20
6371.2050516193
 10
9306.9525773245
 20
6370.8531179679
 10
9306.3129375587
 20
6370.5735978579
 10
9305.8406696648
 20
6370.3718999062
 10
9305.5118480105
 20
6370.2372750568
 10
9305.3320460095
 20
6370.1727675222
 10
9305.3364247954
 20
6370.1936423545
 10
9305.5424778782
 20
6370.3067967006
 10
9305.9435075046
 20
6370.5079645986
 10
9306.5087583153
 20
6370.7820203423
 10
9307.1906091333
 20
6371.1064679285
 10
9307.9356059851
 20
6371.4565710316
  0
LWPOLYLINE
  5
CE
330
1F
100
AcDbEntity
  8
0
  6
Continuous
 62
     7
370
    25
100
AcDbPolyline
 90
       17
 70
   128
 43
0.0
 10
9312.3343853118
 20
6373.3033181124
 10
9313.0781281139
 20
6373.6528318886
 10
9313.7588311755
 20
6373.9767333337
 10
9314.323130502
 20
6374.2503277606
 10
9314.7234850771
 20
6374.4511570336
 10
9314.9291913115
 20
6374.5641209074
 10
9314.9335627266
 20
6374.5849606011
 10
9314.7540633854
 20
6374.5205616518
 10
9314.4257952349
 20
6374.3861634157
 10
9313.9543223072
 20
6374.1848049812
 10
9313.315759244
 20
6373.905755386
 10
9312.5241639594
 20
6373.5544141429
 10
9311.6156984575
 20
6373.1464096386
 10
9310.644473304
 20
6372.7059107901
 10
9309.6723428008
 20
6372.2610958997
 10
9308.7564282685
 20
6371.8384452188
 10
9307.9393113256
 20
6371.458126651
  0
LWPOLYLINE
  5
CF
330
1F
100
AcDbEntity
  8
0
  6
Continuous
 62
     7
370
    25
100
AcDbPolyline
 90
       17
 70
   128
 43
0.0
 10
9307.9393113256
 20
6371.458126651
 10
9307.1955685235
 20
6371.1086128749
 10
9306.5148654618
 20
6370.7847114298
 10
9305.9505661354
 20
6370.5111170028
 10
9305.5502115603
 20
6370.3102877299
 10
9305.3445053258
 20
6370.197323856
 10
9305.3401339108
 20
6370.1764841624
 10
9305.519633252
 20
6370.2408831117
 10
9305.8479014024
 20
6370.3752813478
 10
9306.3193743302
 20
6370.5766397823
 10
9306.9579373933
 20
6370.8556893774
 10
9307.749532678
 20
6371.2070306206
 10
9308.6579981798
 20
6371.6150351248
 10
9309.6292233334
 20
6372.0555339734
 10
9310.6013538366
 20
6372.5003488638
 10
9311.5172683688
 20
6372.9229995446
 10
9312.3343853118
 20
6373.3033181124
  0
LWPOLYLINE
  5
D0
330
1F
100
AcDbEntity
  8
0
  6
Continuous
 62
     7
370
    25
100
AcDbPolyline
 90
       13
 70
   128
 43
0.0
 10
9308.5967432201
 20
6371.7341374127
 10
9309.811307808
 20
6372.2968842689
 10
9310.4926083503
 20
6372.608624951
 10
9311.1732743942
 20
6372.917340811
 10
9311.8099564414
 20
6373.2032835821
 10
9312.3647320552
 20
6373.4495149046
 10
9313.1426812296
 20
6373.7862004113
 10
9313.4985411332
 20
6373.9255239174
 10
9313.4954775038
 20
6373.9109187851
 10
9313.3513119121
 20
6373.8317500435
 10
9313.0707304589
 20
6373.6910023844
 10
9312.6752512141
 20
6373.4992585487
 10
9311.6769534172
 20
6373.0273073508
  0
LWPOLYLINE
  5
D1
330
1F
100
AcDbEntity
  8
0
  6
Continuous
 62
     7
370
    25
100
AcDbPolyline
 90
       13
 70
   128
 43
0.0
 10
9311.6769534172
 20
6373.0273073508
 10
9310.4623888294
 20
6372.4645604945
 10
9309.7810882871
 20
6372.1528198125
 10
9309.1004222432
 20
6371.8441039525
 10
9308.463740196
 20
6371.5581611813
 10
9307.9089645821
 20
6371.3119298588
 10
9307.1310154077
 20
6370.9752443522
 10
9306.7751555042
 20
6370.835920846
 10
9306.7782191335
 20
6370.8505259784
 10
9306.9223847253
 20
6370.92969472
 10
9307.2029661784
 20
6371.0704423791
 10
9307.5984454233
 20
6371.2621862148
 10
9308.5967432201
 20
6371.7341374127
  0
LWPOLYLINE
  5
D2
330
1F
100
AcDbEntity
  8
0
  6
Continuous
 62
     7
370
    25
100
AcDbPolyline
 90
       13
 70
   128
 43
0.0
 10
9311.6709779176
 20
6373.0247986465
 10
9312.6654023885
 20
6373.4949187067
 10
9313.0593472014
 20
6373.6859185896
 10
9313.3388400179
 20
6373.8261201575
 10
9313.4824462571
 20
6373.9049817299
 10
9313.4854979997
 20
6373.9195301953
 10
9313.1310188075
 20
6373.7807472545
 10
9312.3560880214
 20
6373.445368064
 10
9311.8034648982
 20
6373.2000921018
 10
9311.1692531327
 20
6372.9152587687
 10
9310.4912280255
 20
6372.6077407046
 10
9309.8125708817
 20
6372.2972095547
 10
9308.6027187198
 20
6371.7366461169
  0
LWPOLYLINE
  5
D3
330
1F
100
AcDbEntity
  8
0
  6
Continuous
 62
     7
370
    25
100
AcDbPolyline
 90
       13
 70
   128
 43
0.0
 10
9308.6027187198
 20
6371.7366461169
 10
9307.6082942489
 20
6371.2665260568
 10
9307.214349436
 20
6371.0755261739
 10
9306.9348566194
 20
6370.9353246059
 10
9306.7912503803
 20
6370.8564630336
 10
9306.7881986377
 20
6370.8419145682
 10
9307.1426778299
 20
6370.9806975089
 10
9307.917608616
 20
6371.3160766994
 10
9308.4702317392
 20
6371.5613526616
 10
9309.1044435047
 20
6371.8461859948
 10
9309.7824686119
 20
6372.1537040589
 10
9310.4611257556
 20
6372.4642352088
 10
9311.6709779176
 20
6373.0247986465
  0
ARC
  5
D4
330
1F
100
AcDbEntity
  8
0
  6
Continuous
 62
     7
370
    25
100
AcDbCircle
 10
9253.4177024908
 20
6496.2743387484
 30
0.0
 40
136.2060165481212
100
AcDbArc
 50
294.2261331751
 51
294.9986200387
  0
LWPOLYLINE
  5
D5
330
1F
100
AcDbEntity
  8
0
  6
Continuous
 62
     7
370
    25
100
AcDbPolyline
 90
       13
 70
   128
 43
0.0
 10
9309.2209578107
 20
6371.9962024965
 10
9309.9432514892
 20
6372.3308643999
 10
9310.35251764
 20
6372.518131574
 10
9310.7532041795
 20
6372.6998458791
 10
9311.1280845392
 20
6372.868229072
 10
9311.4617563186
 20
6373.016326359
 10
9311.9243976441
 20
6373.2165510449
 10
9312.1360252195
 20
6373.2994058299
 10
9312.134208961
 20
6373.2906433669
 10
9312.0484689573
 20
6373.2436391157
 10
9311.8842527088
 20
6373.1612199844
 10
9311.6464200478
 20
6373.0459085815
 10
9311.0527388267
 20
6372.765242267
  0
LWPOLYLINE
  5
D6
330
1F
100
AcDbEntity
  8
0
  6
Continuous
 62
     7
370
    25
100
AcDbPolyline
 90
       13
 70
   128
 43
0.0
 10
9311.0527388267
 20
6372.765242267
 10
9310.3304451482
 20
6372.4305803635
 10
9309.9211789974
 20
6372.2433131895
 10
9309.5204924579
 20
6372.0615988844
 10
9309.145612098
 20
6371.8932156915
 10
9308.8119403188
 20
6371.7451184045
 10
9308.3492989933
 20
6371.5448937186
 10
9308.1376714179
 20
6371.4620389336
 10
9308.1394876765
 20
6371.4708013965
 10
9308.2252276801
 20
6371.5178056478
 10
9308.3894439285
 20
6371.6002247791
 10
9308.6272765896
 20
6371.7155361819
 10
9309.2209578107
 20
6371.9962024965
  0
LWPOLYLINE
  5
D7
330
1F
100
AcDbEntity
  8
0
  6
Continuous
 62
     7
370
    25
100
AcDbPolyline
 90
       13
 70
   128
 43
0.0
 10
9311.0490334853
 20
6372.7636866472
 10
9311.6403129005
 20
6373.0432174937
 10
9311.8769403344
 20
6373.1579429418
 10
9312.0407352749
 20
6373.2401480862
 10
9312.1260779928
 20
6373.2869296829
 10
9312.1279373182
 20
6373.2956891898
 10
9311.9171659068
 20
6373.2131696035
 10
9311.4563962504
 20
6373.0137549497
 10
9311.1244984073
 20
6372.8664461558
 10
9310.7507106409
 20
6372.6985548282
 10
9310.3521312637
 20
6372.5177971757
 10
9309.9440347079
 20
6372.3310661064
 10
9309.224663152
 20
6371.9977581163
  0
LWPOLYLINE
  5
D8
330
1F
100
AcDbEntity
  8
0
  6
Continuous
 62
     7
370
    25
100
AcDbPolyline
 90
       13
 70
   128
 43
0.0
 10
9309.224663152
 20
6371.9977581163
 10
9308.6333837369
 20
6371.7182272697
 10
9308.3967563029
 20
6371.6035018216
 10
9308.2329613625
 20
6371.5212966773
 10
9308.1476186446
 20
6371.4745150806
 10
9308.1457593191
 20
6371.4657555737
 10
9308.3565307306
 20
6371.54827516
 10
9308.817300387
 20
6371.7476898137
 10
9309.14919823
 20
6371.8949986077
 10
9309.5229859964
 20
6372.0628899353
 10
9309.9215653737
 20
6372.2436475878
 10
9310.3296619295
 20
6372.4303786571
 10
9311.0490334853
 20
6372.7636866472
  0
LINE
  5
D9
330
1F
100
AcDbEntity
  8
0
  6
Continuous
 62
     8
370
    25
100
AcDbLine
 10
9324.1786172746
 20
6395.2942029342
 30
0.0
 11
9324.1786172746
 21
6396.065708703
 31
0.0
  0
LINE
  5
DA
330
1F
100
AcDbEntity
  8
0
  6
Continuous
 62
     8
370
    25
100
AcDbLine
 10
9256.1044052579
 20
6362.7645476992
 30
0.0
 11
9255.2177388687
 21
6366.7057858365
 31
0.0
  0
LINE
  5
DB
330
1F
100
AcDbEntity
  8
0
  6
Continuous
 62
     8
370
    25
100
AcDbLine
 10
9223.5880689309
 20
6335.0736419549
 30
0.0
 11
9233.9510648571
 21
6335.0736419549
 31
0.0
  0
ARC
  5
DC
330
1F
100
AcDbEntity
  8
0
  6
Continuous
 62
     8
370
    25
100
AcDbCircle
 10
9320.296360683
 20
6405.9154326238
 30
0.0
 40
12.70806893289437
100
AcDbArc
 50
275.1348186364
 51
293.1659292719
  0
LWPOLYLINE
  5
DD
330
1F
100
AcDbEntity
  8
0
  6
Continuous
 62
     8
370
    25
100
AcDbPolyline
 90
        5
 70
   128
 43
0.0
 10
9321.4336221604
 20
6391.2004643892
 10
9322.9457443888
 20
6391.2010177246
 10
9324.2230115788
 20
6391.2015710601
 10
9325.0746403116
 20
6391.2021243955
 10
9325.2278793957
 20
6391.2024081881
  0
ARC
  5
DE
330
1F
100
AcDbEntity
  8
0
  6
Continuous
 62
     8
370
    25
100
AcDbCircle
 10
9322.465075802
 20
6391.4354435125
 30
0.0
 40
2.951508482785195
100
AcDbArc
 50
302.6857725869
 51
338.2595780933
  0
LWPOLYLINE
  5
DF
330
1F
100
AcDbEntity
  8
0
  6
Continuous
 62
     8
370
    25
100
AcDbPolyline
 90
        8
 70
   128
 43
0.0
 10
9324.2106733722
 20
6384.1522136181
 10
9324.2106736801
 20
6384.1521757973
 10
9324.2090365493
 20
6384.2972624286
 10
9324.2009890251
 20
6384.7273515716
 10
9324.1826524307
 20
6385.4256741507
 10
9324.1512580107
 20
6386.3864969434
 10
9324.108728536
 20
6387.5710398999
 10
9324.0587734787
 20
6388.9514968943
  0
ARC
  5
E0
330
1F
100
AcDbEntity
  8
0
  6
Continuous
 62
     8
370
    25
100
AcDbCircle
 10
9358.4020212765
 20
6270.8304708622
 30
0.0
 40
112.6210143514906
100
AcDbArc
 50
111.7934686705
 51
115.6857339129
  0
ARC
  5
E1
330
1F
100
AcDbEntity
  8
0
  6
Continuous
 62
     8
370
    25
100
AcDbCircle
 10
9350.6294182005
 20
6278.9916273021
 30
0.0
 40
101.9563587714262
100
AcDbArc
 50
113.7369035721
 51
117.4484010228
  0
LWPOLYLINE
  5
E2
330
1F
100
AcDbEntity
  8
0
  6
Continuous
 62
     7
370
    25
100
AcDbPolyline
 90
        7
 70
   128
 43
0.0
 10
9017.3653527632
 20
6393.4494988626
 10
9017.1675292164
 20
6393.8953201132
 10
9016.5630898816
 20
6394.3889227986
 10
9016.0406981103
 20
6394.6468324562
 10
9015.3472077482
 20
6394.9000173627
 10
9014.4854098193
 20
6395.1307125582
 10
9013.4891700202
 20
6395.3137422127
  0
LWPOLYLINE
  5
E3
330
1F
100
AcDbEntity
  8
0
  6
Continuous
 62
     7
370
    25
100
AcDbPolyline
 90
        6
 70
   128
 43
0.0
 10
8991.0923667317
 20
6395.3137322826
 10
8990.2916213802
 20
6395.1776488748
 10
8989.5561292688
 20
6395.0041698918
 10
8988.3448273287
 20
6394.567972245
 10
8987.5462707001
 20
6394.0370366433
 10
8987.2161237709
 20
6393.4484442663
  0
ARC
  5
E4
330
1F
100
AcDbEntity
  8
0
  6
Continuous
 62
     7
370
    25
100
AcDbCircle
 10
9002.2907705565
 20
6313.8628860801
 30
0.0
 40
82.21685725123623
100
AcDbArc
 50
82.1495079895
 51
97.8504966977
  0
LWPOLYLINE
  5
E5
330
1F
100
AcDbEntity
  8
0
  6
Continuous
 62
     7
370
    25
100
AcDbPolyline
 90
        3
 70
   128
 43
0.0
 10
9018.5772302837
 20
6364.6079404031
 10
9018.5628667808
 20
6364.7234618854
 10
9018.5390799645
 20
6364.8466282177
  0
LINE
  5
E6
330
1F
100
AcDbEntity
  8
0
  6
Continuous
 62
     7
370
    25
100
AcDbLine
 10
9018.5797836522
 20
6364.5874044017
 30
0.0
 11
9018.5772302837
 21
6364.6079404031
 31
0.0
  0
LWPOLYLINE
  5
E7
330
1F
100
AcDbEntity
  8
0
  6
Continuous
 62
     7
370
    25
100
AcDbPolyline
 90
        3
 70
   128
 43
0.0
 10
8986.0419558375
 20
6364.8028548129
 10
8986.0183153178
 20
6364.6865437198
 10
8986.0012738431
 20
6364.5543145323
  0
LINE
  5
E8
330
1F
100
AcDbEntity
  8
0
  6
Continuous
 62
     7
370
    25
100
AcDbLine
 10
9029.3001112203
 20
6244.3106538242
 30
0.0
 11
9029.3001112203
 21
6367.2593658428
 31
0.0
  0
LINE
  5
E9
330
1F
100
AcDbEntity
  8
0
  6
Continuous
 62
     7
370
    25
100
AcDbLine
 10
8975.2814234891
 20
6367.2547856445
 30
0.0
 11
8975.2814234891
 21
6244.310618263
 31
0.0
  0
ARC
  5
EA
330
1F
100
AcDbEntity
  8
0
  6
Continuous
 62
     7
370
    25
100
AcDbCircle
 10
8971.0328230476
 20
6390.1908003328
 30
0.0
 40
20.1046691095912
100
AcDbArc
 50
296.1116224106
 51
317.712676195
  0
ARC
  5
EB
330
1F
100
AcDbEntity
  8
0
  6
Continuous
 62
     7
370
    25
100
AcDbCircle
 10
9033.0806140387
 20
6389.5720419296
 30
0.0
 40
19.34365317296886
100
AcDbArc
 50
221.8670199502
 51
244.3281120874
  0
LINE
  5
EC
330
1F
100
AcDbEntity
  8
0
  6
Continuous
 62
     7
370
    25
100
AcDbLine
 10
9023.5538446473
 20
6244.3106508866
 30
0.0
 11
9023.5538446472
 21
6244.3106971754
 31
0.0
  0
LINE
  5
ED
330
1F
100
AcDbEntity
  8
0
  6
Continuous
 62
     7
370
    25
100
AcDbLine
 10
8981.0538446473
 20
6244.3106691784
 30
0.0
 11
8981.0538446473
 21
6244.3106228896
 31
0.0
  0
LWPOLYLINE
  5
EE
330
1F
100
AcDbEntity
  8
0
  6
Continuous
 62
     7
370
    25
100
AcDbPolyline
 90
       11
 70
   128
 43
0.0
 10
8979.8808220617
 20
6372.1377484121
 10
8978.6615814092
 20
6371.3719320361
 10
8977.7981531823
 20
6370.7535619412
 10
8977.2115087076
 20
6370.2806766612
 10
8976.8360303471
 20
6369.9456849693
 10
8976.5956075722
 20
6369.7127687205
 10
8976.2882786862
 20
6369.384979968
 10
8975.9490388808
 20
6368.9636869427
 10
8975.625916776
 20
6368.4548073595
 10
8975.3796026438
 20
6367.8729947562
 10
8975.2813613931
 20
6367.2453689778
  0
LWPOLYLINE
  5
EF
330
1F
100
AcDbEntity
  8
0
  6
Continuous
 62
     7
370
    25
100
AcDbPolyline
 90
        9
 70
   128
 43
0.0
 10
9029.300053444
 20
6367.2479009876
 10
9029.2101668865
 20
6367.8593778546
 10
9028.9953540292
 20
6368.393239166
 10
9028.7333515909
 20
6368.8287503876
 10
9028.430044087
 20
6369.2268402912
 10
9027.9535045045
 20
6369.7437226677
 10
9027.2293291556
 20
6370.3975308847
 10
9026.1751527818
 20
6371.1962667208
 10
9024.7005340853
 20
6372.137856502
  0
LWPOLYLINE
  5
F0
330
1F
100
AcDbEntity
  8
0
  6
Continuous
 62
     7
370
    25
100
AcDbPolyline
 90
        3
 70
   128
 43
0.0
 10
8993.8758520229
 20
6374.5347016524
 10
8994.1459736967
 20
6373.8346660135
 10
8994.6384453851
 20
6372.9054560608
  0
ARC
  5
F1
330
1F
100
AcDbEntity
  8
0
  6
Continuous
 62
     7
370
    25
100
AcDbCircle
 10
9003.9824473428
 20
6376.533637976
 30
0.0
 40
6.703108382674864
100
AcDbArc
 50
328.6224985684
 51
340.0751889296
  0
ARC
  5
F2
330
1F
100
AcDbEntity
  8
0
  6
Continuous
 62
     7
370
    25
100
AcDbCircle
 10
9003.8843778155
 20
6377.1263424161
 30
0.0
 40
7.64874914438356
100
AcDbArc
 50
337.7047848681
 51
358.0274904103
  0
ARC
  5
F3
330
1F
100
AcDbEntity
  8
0
  6
Continuous
 62
     7
370
    25
100
AcDbCircle
 10
9002.1112683353
 20
6377.4698876604
 30
0.0
 40
9.404566239632002
100
AcDbArc
 50
180.9104729383
 51
198.1963181531
  0
LINE
  5
F4
330
1F
100
AcDbEntity
  8
0
  6
Continuous
 62
     7
370
    25
100
AcDbLine
 10
9011.0854132468
 20
6374.7677057229
 30
0.0
 11
9011.0854400778
 21
6374.7692281642
 31
0.0
  0
LINE
  5
F5
330
1F
100
AcDbEntity
  8
0
  6
Continuous
 62
     7
370
    25
100
AcDbLine
 10
8993.088234789
 20
6375.0864060184
 30
0.0
 11
8993.0882079579
 21
6375.0848835771
 31
0.0
  0
LINE
  5
F6
330
1F
100
AcDbEntity
  8
0
  6
Continuous
 62
     7
370
    25
100
AcDbLine
 10
8994.5884062357
 20
6373.0191332204
 30
0.0
 11
8995.03651825
 21
6372.0011282865
 31
0.0
  0
LINE
  5
F7
330
1F
100
AcDbEntity
  8
0
  6
Continuous
 62
     7
370
    25
100
AcDbLine
 10
9009.0296520723
 20
6371.7545170995
 30
0.0
 11
9009.5133567528
 21
6372.7560999492
 31
0.0
  0
LINE
  5
F8
330
1F
100
AcDbEntity
  8
0
  6
Continuous
 62
     7
370
    25
100
AcDbLine
 10
8992.7203524
 20
6378.210661131
 30
0.0
 11
8992.707053881
 21
6377.4560807801
 31
0.0
  0
LINE
  5
F9
330
1F
100
AcDbEntity
  8
0
  6
Continuous
 62
     7
370
    25
100
AcDbLine
 10
8999.4921648607
 20
6374.9404912491
 30
0.0
 11
8999.5287346724
 21
6374.909700458
 31
0.0
  0
LINE
  5
FA
330
1F
100
AcDbEntity
  8
0
  6
Continuous
 62
     7
370
    25
100
AcDbLine
 10
9005.103500555
 20
6374.6908509165
 30
0.0
 11
9005.1819762652
 21
6374.7394597185
 31
0.0
  0
LINE
  5
FB
330
1F
100
AcDbEntity
  8
0
  6
Continuous
 62
     7
370
    25
100
AcDbLine
 10
8996.5903153142
 20
6373.0319595825
 30
0.0
 11
8996.6390196911
 21
6372.4617855412
 31
0.0
  0
LINE
  5
FC
330
1F
100
AcDbEntity
  8
0
  6
Continuous
 62
     7
370
    25
100
AcDbLine
 10
9007.4443777374
 20
6372.271354848
 30
0.0
 11
9007.489868932
 21
6372.6471810898
 31
0.0
  0
LINE
  5
FD
330
1F
100
AcDbEntity
  8
0
  6
Continuous
 62
     7
370
    25
100
AcDbLine
 10
8998.2113722846
 20
6374.6607941614
 30
0.0
 11
8998.3787532938
 21
6374.5801715689
 31
0.0
  0
LINE
  5
FE
330
1F
100
AcDbEntity
  8
0
  6
Continuous
 62
     7
370
    25
100
AcDbLine
 10
9000.0210985482
 20
6374.4951434083
 30
0.0
 11
9000.2330503223
 21
6374.3166857544
 31
0.0
  0
LINE
  5
FF
330
1F
100
AcDbEntity
  8
0
  6
Continuous
 62
     7
370
    25
100
AcDbLine
 10
9006.1561174129
 20
6374.2794853763
 30
0.0
 11
9006.3998524787
 21
6374.3663676994
 31
0.0
  0
LINE
  5
100
330
1F
100
AcDbEntity
  8
0
  6
Continuous
 62
     7
370
    25
100
AcDbLine
 10
9004.2432192228
 20
6374.1579822771
 30
0.0
 11
9004.5308601423
 21
6374.336150534
 31
0.0
  0
LINE
  5
101
330
1F
100
AcDbEntity
  8
0
  6
Continuous
 62
     7
370
    25
100
AcDbLine
 10
8998.1519930637
 20
6372.9718226449
 30
0.0
 11
8998.2384454953
 21
6372.4111337372
 31
0.0
  0
LINE
  5
102
330
1F
100
AcDbEntity
  8
0
  6
Continuous
 62
     7
370
    25
100
AcDbLine
 10
9005.8441603817
 20
6372.2770926854
 30
0.0
 11
9005.921247564
 21
6372.6817845916
 31
0.0
  0
LINE
  5
103
330
1F
100
AcDbEntity
  8
0
  6
Continuous
 62
     7
370
    25
100
AcDbLine
 10
8997.0798913276
 20
6374.248327338
 30
0.0
 11
8997.464802307
 21
6374.1374973413
 31
0.0
  0
LINE
  5
104
330
1F
100
AcDbEntity
  8
0
  6
Continuous
 62
     7
370
    25
100
AcDbLine
 10
9006.9413331185
 20
6373.7723026527
 30
0.0
 11
9007.4334686967
 21
6373.8682159195
 31
0.0
  0
LINE
  5
105
330
1F
100
AcDbEntity
  8
0
  6
Continuous
 62
     7
370
    25
100
AcDbLine
 10
9003.4017574669
 20
6373.6367707102
 30
0.0
 11
9003.6484383345
 21
6373.7895678166
 31
0.0
  0
LINE
  5
106
330
1F
100
AcDbEntity
  8
0
  6
Continuous
 62
     7
370
    25
100
AcDbLine
 10
8998.1197169347
 20
6373.9489233855
 30
0.0
 11
8998.7754155442
 21
6373.7601236926
 31
0.0
  0
LINE
  5
107
330
1F
100
AcDbEntity
  8
0
  6
Continuous
 62
     7
370
    25
100
AcDbLine
 10
8999.698244393
 20
6372.9122797464
 30
0.0
 11
8999.7366589019
 21
6372.4625674764
 31
0.0
  0
LINE
  5
108
330
1F
100
AcDbEntity
  8
0
  6
Continuous
 62
     7
370
    25
100
AcDbLine
 10
9004.3486897093
 20
6372.381286299
 30
0.0
 11
9004.393683725
 21
6372.753005091
 31
0.0
  0
LINE
  5
109
330
1F
100
AcDbEntity
  8
0
  6
Continuous
 62
     7
370
    25
100
AcDbLine
 10
9005.5406297435
 20
6373.4993168287
 30
0.0
 11
9006.3066605455
 21
6373.6486100721
 31
0.0
  0
LINE
  5
10A
330
1F
100
AcDbEntity
  8
0
  6
Continuous
 62
     7
370
    25
100
AcDbLine
 10
8996.1910993847
 20
6373.7139883247
 30
0.0
 11
8996.8626929017
 21
6373.6117875589
 31
0.0
  0
LINE
  5
10B
330
1F
100
AcDbEntity
  8
0
  6
Continuous
 62
     7
370
    25
100
AcDbLine
 10
9001.4858723018
 20
6373.2582026052
 30
0.0
 11
9001.7506854143
 21
6373.0352371359
 31
0.0
  0
LINE
  5
10C
330
1F
100
AcDbEntity
  8
0
  6
Continuous
 62
     7
370
    25
100
AcDbLine
 10
9002.3802433508
 20
6373.0010511175
 30
0.0
 11
9002.7579459177
 21
6373.2350046457
 31
0.0
  0
LINE
  5
10D
330
1F
100
AcDbEntity
  8
0
  6
Continuous
 62
     7
370
    25
100
AcDbLine
 10
9007.3936296159
 20
6373.2062318993
 30
0.0
 11
9008.1875385983
 21
6373.2631640834
 31
0.0
  0
LINE
  5
10E
330
1F
100
AcDbEntity
  8
0
  6
Continuous
 62
     7
370
    25
100
AcDbLine
 10
8995.6249873193
 20
6373.0691323407
 30
0.0
 11
8996.6092220357
 21
6373.0312315242
 31
0.0
  0
LINE
  5
10F
330
1F
100
AcDbEntity
  8
0
  6
Continuous
 62
     7
370
    25
100
AcDbLine
 10
8996.9692342152
 20
6373.0173682097
 30
0.0
 11
8998.1746604867
 21
6372.97094977
 31
0.0
  0
LINE
  5
110
330
1F
100
AcDbEntity
  8
0
  6
Continuous
 62
     7
370
    25
100
AcDbLine
 10
8998.5974310404
 20
6372.9546697618
 30
0.0
 11
8999.7040584921
 21
6372.9120558576
 31
0.0
  0
LINE
  5
111
330
1F
100
AcDbEntity
  8
0
  6
Continuous
 62
     7
370
    25
100
AcDbLine
 10
9000.1821109009
 20
6372.8920078854
 30
0.0
 11
9001.6229248738
 21
6372.8365251585
 31
0.0
  0
ARC
  5
112
330
1F
100
AcDbEntity
  8
0
  6
Continuous
 62
     7
370
    25
100
AcDbCircle
 10
9002.26577538
 20
6373.2468212494
 30
0.0
 40
0.5634190364999057
100
AcDbArc
 50
287.42260797
 51
307.2978288228
  0
LINE
  5
113
330
1F
100
AcDbEntity
  8
0
  6
Continuous
 62
     7
370
    25
100
AcDbLine
 10
9002.4708203346
 20
6372.8038744808
 30
0.0
 11
9003.976924878
 21
6372.7458775508
 31
0.0
  0
LINE
  5
114
330
1F
100
AcDbEntity
  8
0
  6
Continuous
 62
     7
370
    25
100
AcDbLine
 10
9004.3910889285
 20
6372.7315681377
 30
0.0
 11
9005.5861272348
 21
6372.6855497167
 31
0.0
  0
LWPOLYLINE
  5
115
330
1F
100
AcDbEntity
  8
0
  6
Continuous
 62
     7
370
    25
100
AcDbPolyline
 90
        3
 70
   128
 43
0.0
 10
9001.4340246274
 20
6372.8499510029
 10
9001.5655124454
 20
6372.7624243879
 10
9001.6283279161
 20
6372.7364984135
  0
LINE
  5
116
330
1F
100
AcDbEntity
  8
0
  6
Continuous
 62
     7
370
    25
100
AcDbLine
 10
9005.9195360414
 20
6372.6727108422
 30
0.0
 11
9007.2143240601
 21
6372.6228512688
 31
0.0
  0
LINE
  5
117
330
1F
100
AcDbEntity
  8
0
  6
Continuous
 62
     7
370
    25
100
AcDbLine
 10
9007.4856592483
 20
6372.6124027195
 30
0.0
 11
9008.5804148599
 21
6372.570245975
 31
0.0
  0
LINE
  5
118
330
1F
100
AcDbEntity
  8
0
  6
Continuous
 62
     7
370
    25
100
AcDbLine
 10
9000.9647599347
 20
6372.1242836072
 30
0.0
 11
9001.8526864767
 21
6372.6742760232
 31
0.0
  0
ARC
  5
119
330
1F
100
AcDbEntity
  8
0
  6
Continuous
 62
     7
370
    25
100
AcDbCircle
 10
9002.0609205268
 20
6373.7210335253
 30
0.0
 40
1.071493448777005
100
AcDbArc
 50
258.5074020912
 51
277.3649174818
  0
LINE
  5
11A
330
1F
100
AcDbEntity
  8
0
  6
Continuous
 62
     7
370
    25
100
AcDbLine
 10
9002.1974494035
 20
6372.6590739558
 30
0.0
 11
9002.917035494
 21
6372.0532019547
 31
0.0
  0
LINE
  5
11B
330
1F
100
AcDbEntity
  8
0
  6
Continuous
 62
     7
370
    25
100
AcDbLine
 10
8995.5004998944
 20
6372.3533610217
 30
0.0
 11
8996.6416675299
 21
6372.4351955486
 31
0.0
  0
LINE
  5
11C
330
1F
100
AcDbEntity
  8
0
  6
Continuous
 62
     7
370
    25
100
AcDbLine
 10
9007.3762333647
 20
6372.0118735348
 30
0.0
 11
9008.3949348525
 21
6371.8568510852
 31
0.0
  0
LINE
  5
11D
330
1F
100
AcDbEntity
  8
0
  6
Continuous
 62
     7
370
    25
100
AcDbLine
 10
8997.4312291993
 20
6371.918859872
 30
0.0
 11
8998.3607684762
 21
6372.1000196024
 31
0.0
  0
LINE
  5
11E
330
1F
100
AcDbEntity
  8
0
  6
Continuous
 62
     7
370
    25
100
AcDbLine
 10
9000.1378578425
 20
6371.6150718925
 30
0.0
 11
9000.4292284458
 21
6371.7955503605
 31
0.0
  0
LINE
  5
11F
330
1F
100
AcDbEntity
  8
0
  6
Continuous
 62
     7
370
    25
100
AcDbLine
 10
9003.3946702464
 20
6371.6546873997
 30
0.0
 11
9003.5950144356
 21
6371.4860030178
 31
0.0
  0
LINE
  5
120
330
1F
100
AcDbEntity
  8
0
  6
Continuous
 62
     7
370
    25
100
AcDbLine
 10
9005.5705242002
 20
6371.8035625399
 30
0.0
 11
9006.3638218681
 21
6371.5751430284
 31
0.0
  0
LINE
  5
121
330
1F
100
AcDbEntity
  8
0
  6
Continuous
 62
     7
370
    25
100
AcDbLine
 10
8996.09138713
 20
6371.6577354266
 30
0.0
 11
8996.9186825154
 21
6371.8189686446
 31
0.0
  0
LINE
  5
122
330
1F
100
AcDbEntity
  8
0
  6
Continuous
 62
     7
370
    25
100
AcDbLine
 10
9011.9747873096
 20
6377.6848208288
 30
0.0
 11
9012.8973167045
 21
6377.6996437598
 31
0.0
  0
LINE
  5
123
330
1F
100
AcDbEntity
  8
0
  6
Continuous
 62
     7
370
    25
100
AcDbLine
 10
9006.9164446184
 20
6371.4160226579
 30
0.0
 11
9007.617565122
 21
6371.2141443348
 31
0.0
  0
LINE
  5
124
330
1F
100
AcDbEntity
  8
0
  6
Continuous
 62
     7
370
    25
100
AcDbLine
 10
8999.2596137029
 20
6371.0710768739
 30
0.0
 11
8999.5698181589
 21
6371.2632212576
 31
0.0
  0
LINE
  5
125
330
1F
100
AcDbEntity
  8
0
  6
Continuous
 62
     7
370
    25
100
AcDbLine
 10
9004.072242915
 20
6371.0841895616
 30
0.0
 11
9004.3141868476
 21
6370.8804793225
 31
0.0
  0
LINE
  5
126
330
1F
100
AcDbEntity
  8
0
  6
Continuous
 62
     7
370
    25
100
AcDbLine
 10
8997.0885941713
 20
6371.0472566415
 30
0.0
 11
8997.6156653516
 21
6371.2351375621
 31
0.0
  0
LINE
  5
127
330
1F
100
AcDbEntity
  8
0
  6
Continuous
 62
     7
370
    25
100
AcDbLine
 10
9006.0569384197
 20
6370.8818117974
 30
0.0
 11
9006.4603145959
 21
6370.6875171564
 31
0.0
  0
LINE
  5
128
330
1F
100
AcDbEntity
  8
0
  6
Continuous
 62
     7
370
    25
100
AcDbLine
 10
8998.4363172571
 20
6370.5611171193
 30
0.0
 11
8998.6977889816
 21
6370.723075861
 31
0.0
  0
LINE
  5
129
330
1F
100
AcDbEntity
  8
0
  6
Continuous
 62
     7
370
    25
100
AcDbLine
 10
8991.5778963034
 20
6377.357089581
 30
0.0
 11
8992.490833154
 21
6377.3717583819
 31
0.0
  0
LINE
  5
12A
330
1F
100
AcDbEntity
  8
0
  6
Continuous
 62
     7
370
    25
100
AcDbLine
 10
9004.8076554745
 20
6370.4649921025
 30
0.0
 11
9004.9883555747
 21
6370.3128475116
 31
0.0
  0
LINE
  5
12B
330
1F
100
AcDbEntity
  8
0
  6
Continuous
 62
     7
370
    25
100
AcDbLine
 10
9000.0334924579
 20
6370.2455168713
 30
0.0
 11
9000.123608204
 21
6370.3577009252
 31
0.0
  0
LINE
  5
12C
330
1F
100
AcDbEntity
  8
0
  6
Continuous
 62
     7
370
    25
100
AcDbLine
 10
9003.2704055003
 20
6370.2210111891
 30
0.0
 11
9003.3148630248
 21
6370.1310636
 31
0.0
  0
CIRCLE
  5
12D
330
1F
100
AcDbEntity
  8
0
  6
Continuous
 62
     7
370
    25
100
AcDbCircle
 10
9001.2920288526
 20
6279.281564382
 30
0.0
 40
10.98884733989806
  0
ARC
  5
12E
330
1F
100
AcDbEntity
  8
0
  6
Continuous
 62
     7
370
    25
100
AcDbCircle
 10
8711.7341101504
 20
6390.4536862546
 30
0.0
 40
277.5375848566803
100
AcDbArc
 50
357.3475073572
 51
359.68977389
  0
ARC
  5
12F
330
1F
100
AcDbEntity
  8
0
  6
Continuous
 62
     7
370
    25
100
AcDbCircle
 10
9002.2907065358
 20
6404.3465262315
 30
0.0
 40
20.16422319925616
100
AcDbArc
 50
229.7721670986
 51
310.2281527072
  0
ARC
  5
130
330
1F
100
AcDbEntity
  8
0
  6
Continuous
 62
     7
370
    25
100
AcDbCircle
 10
9292.8257886453
 20
6390.4539905317
 30
0.0
 40
277.5159861799742
100
AcDbArc
 50
180.3102980848
 51
182.6527620989
  0
ARC
  5
131
330
1F
100
AcDbEntity
  8
0
  6
Continuous
 62
     7
370
    25
100
AcDbCircle
 10
9002.4246709448
 20
6401.4577231102
 30
0.0
 40
27.2489430571721
100
AcDbArc
 50
295.3970047915
 51
298.9326480181
  0
LWPOLYLINE
  5
132
330
1F
100
AcDbEntity
  8
0
  6
Continuous
 62
     7
370
    25
100
AcDbPolyline
 90
       21
 70
   128
 43
0.0
 10
8990.353690497
 20
6376.8977985549
 10
8990.2385943379
 20
6377.4579158492
 10
8990.460491732
 20
6377.9686810925
 10
8991.0153481846
 20
6378.4214837668
 10
8991.882264031
 20
6378.8146562971
 10
8993.0556388251
 20
6379.1493780358
 10
8994.4916943489
 20
6379.4220373921
 10
8996.1576026325
 20
6379.6333748368
 10
8998.0017413263
 20
6379.7843423188
 10
9000.0816851423
 20
6379.8782484925
 10
9002.2330943114
 20
6379.9066863774
 10
9004.2227432396
 20
6379.8744900967
 10
9006.1560544837
 20
6379.7865392379
 10
9007.9763477534
 20
6379.6420135341
 10
9009.6366998214
 20
6379.4408928575
 10
9011.1031846103
 20
6379.1793125745
 10
9012.3230762196
 20
6378.8587018913
 10
9013.2725578094
 20
6378.4716919839
 10
9013.90857515
 20
6378.0247630072
 10
9014.2188201341
 20
6377.4635704697
 10
9014.1114131778
 20
6376.8421801807
  0
ARC
  5
133
330
1F
100
AcDbEntity
  8
0
  6
Continuous
 62
     7
370
    25
100
AcDbCircle
 10
9002.1550022821
 20
6401.4541926465
 30
0.0
 40
27.24495275514459
100
AcDbArc
 50
241.067186359
 51
244.3319917145
  0
LWPOLYLINE
  5
134
330
1F
100
AcDbEntity
  8
0
  6
Continuous
 62
     7
370
    25
100
AcDbPolyline
 90
        3
 70
   128
 43
0.0
 10
9017.3839701707
 20
6393.2583631181
 10
9017.3691682792
 20
6393.4292819744
 10
9017.3431879373
 20
6393.5382206985
  0
ARC
  5
135
330
1F
100
AcDbEntity
  8
0
  6
Continuous
 62
     7
370
    25
100
AcDbCircle
 10
9013.5748519229
 20
6386.993080269
 30
0.0
 40
7.332335884628411
100
AcDbArc
 50
58.7015580382
 51
91.4879360895
  0
LWPOLYLINE
  5
136
330
1F
100
AcDbEntity
  8
0
  6
Continuous
 62
     7
370
    25
100
AcDbPolyline
 90
        3
 70
   128
 43
0.0
 10
9013.5206534452
 20
6395.309195614
 10
9013.5212477132
 20
6395.3134918344
 10
9013.519938992
 20
6395.3040040999
  0
LWPOLYLINE
  5
137
330
1F
100
AcDbEntity
  8
0
  6
Continuous
 62
     7
370
    25
100
AcDbPolyline
 90
        3
 70
   128
 43
0.0
 10
8991.0609914585
 20
6395.3084001828
 10
8991.0602873517
 20
6395.313491018
 10
8991.0615900632
 20
6395.3040472139
  0
ARC
  5
138
330
1F
100
AcDbEntity
  8
0
  6
Continuous
 62
     7
370
    25
100
AcDbCircle
 10
8991.2142932184
 20
6386.2131027602
 30
0.0
 40
8.109858222082359
100
AcDbArc
 50
90.1216278498
 51
119.6888507165
  0
LINE
  5
139
330
1F
100
AcDbEntity
  8
0
  6
Continuous
 62
     7
370
    25
100
AcDbLine
 10
8987.1975645393
 20
6393.2583629944
 30
0.0
 11
8987.2301376835
 21
6393.4472101264
 31
0.0
  0
ARC
  5
13A
330
1F
100
AcDbEntity
  8
0
  6
Continuous
 62
     7
370
    25
100
AcDbCircle
 10
9002.2907712668
 20
6313.8705757279
 30
0.0
 40
81.21362812203506
100
AcDbArc
 50
82.1489178942
 51
97.8510877186
  0
LWPOLYLINE
  5
13B
330
1F
100
AcDbEntity
  8
0
  6
Continuous
 62
     7
370
    25
100
AcDbPolyline
 90
        5
 70
   128
 43
0.0
 10
8987.1975629496
 20
6391.2004643892
 10
8987.5190929567
 20
6391.2010177246
 10
8988.3900026563
 20
6391.2015710601
 10
8989.6802056174
 20
6391.2021243955
 10
8991.1969862254
 20
6391.202677731
  0
LWPOLYLINE
  5
13C
330
1F
100
AcDbEntity
  8
0
  6
Continuous
 62
     7
370
    25
100
AcDbPolyline
 90
        7
 70
   128
 43
0.0
 10
8991.1969862254
 20
6391.202677731
 10
8990.8527519614
 20
6390.8010065846
 10
8990.508138329
 20
6390.3988630311
 10
8990.2789100377
 20
6390.1315222697
 10
8990.0253960174
 20
6389.8363701493
 10
8989.7098407462
 20
6389.4690351695
 10
8989.2679231415
 20
6388.9513214332
  0
ARC
  5
13D
330
1F
100
AcDbEntity
  8
0
  6
Continuous
 62
     7
370
    25
100
AcDbCircle
 10
8989.8989723605
 20
6391.6091828106
 30
0.0
 40
2.732153612893609
100
AcDbArc
 50
188.6034972882
 51
256.6393466829
  0
LINE
  5
13E
330
1F
100
AcDbEntity
  8
0
  6
Continuous
 62
     7
370
    25
100
AcDbLine
 10
8991.1970775721
 20
6394.3229427095
 30
0.0
 11
8991.1969862254
 21
6391.202677731
 31
0.0
  0
LINE
  5
13F
330
1F
100
AcDbEntity
  8
0
  6
Continuous
 62
     7
370
    25
100
AcDbLine
 10
9013.3844570803
 20
6394.3229437963
 30
0.0
 11
9013.3845518659
 21
6391.20267857
 31
0.0
  0
ARC
  5
140
330
1F
100
AcDbEntity
  8
0
  6
Continuous
 62
     7
370
    25
100
AcDbCircle
 10
9002.2907688544
 20
6403.7225062082
 30
0.0
 40
16.72776488711817
100
AcDbArc
 50
228.4559430872
 51
311.5440586635
  0
LINE
  5
141
330
1F
100
AcDbEntity
  8
0
  6
Continuous
 62
     7
370
    25
100
AcDbLine
 10
8987.1975629482
 20
6391.2004643892
 30
0.0
 11
8987.1975645357
 21
6393.258362945
 31
0.0
  0
LWPOLYLINE
  5
142
330
1F
100
AcDbEntity
  8
0
  6
Continuous
 62
     7
370
    25
100
AcDbPolyline
 90
        5
 70
   128
 43
0.0
 10
9013.3845518659
 20
6391.20267807
 10
9013.9501278687
 20
6390.5433297304
 10
9014.4396143974
 20
6389.9715226501
 10
9014.8559260187
 20
6389.4856303322
 10
9015.3134253948
 20
6388.9515696817
  0
LWPOLYLINE
  5
143
330
1F
100
AcDbEntity
  8
0
  6
Continuous
 62
     7
370
    25
100
AcDbPolyline
 90
        5
 70
   128
 43
0.0
 10
9013.3845518659
 20
6391.20267807
 10
9014.9013221416
 20
6391.2021433386
 10
9016.1915189417
 20
6391.2016086072
 10
9017.0624302362
 20
6391.2010738758
 10
9017.3839711549
 20
6391.2005391444
  0
ARC
  5
144
330
1F
100
AcDbEntity
  8
0
  6
Continuous
 62
     7
370
    25
100
AcDbCircle
 10
9014.6818251316
 20
6391.6106842347
 30
0.0
 40
2.733095149858598
100
AcDbArc
 50
283.3614535827
 51
351.3692394411
  0
LINE
  5
145
330
1F
100
AcDbEntity
  8
0
  6
Continuous
 62
     7
370
    25
100
AcDbLine
 10
9017.3839701799
 20
6393.2583629944
 30
0.0
 11
9017.3839711554
 21
6391.2005391444
 31
0.0
  0
ARC
  5
146
330
1F
100
AcDbEntity
  8
0
  6
Continuous
 62
     7
370
    25
100
AcDbCircle
 10
9276.48402799
 20
6392.4528969926
 30
0.0
 40
259.1030834471949
100
AcDbArc
 50
180.2769364902
 51
182.5327667758
  0
ARC
  5
147
330
1F
100
AcDbEntity
  8
0
  6
Continuous
 62
     7
370
    25
100
AcDbCircle
 10
9013.7252934448
 20
6381.0358200863
 30
0.0
 40
3.908903866402703
100
AcDbArc
 50
298.7794940559
 51
359.5181116586
  0
ARC
  5
148
330
1F
100
AcDbEntity
  8
0
  6
Continuous
 62
     7
370
    25
100
AcDbCircle
 10
8727.7538222387
 20
6392.4613193109
 30
0.0
 40
259.4468044676944
100
AcDbArc
 50
357.4687290714
 51
359.7215539035
  0
ARC
  5
149
330
1F
100
AcDbEntity
  8
0
  6
Continuous
 62
     7
370
    25
100
AcDbCircle
 10
8990.8562400827
 20
6381.0358193032
 30
0.0
 40
3.90890264958641
100
AcDbArc
 50
180.4818832654
 51
241.2205165893
  0
LWPOLYLINE
  5
14A
330
1F
100
AcDbEntity
  8
0
  6
Continuous
 62
     7
370
    25
100
AcDbPolyline
 90
        3
 70
   128
 43
0.0
 10
9018.5690510192
 20
6365.2570801812
 10
9018.5690154447
 20
6365.239216254
 10
9018.5689186226
 20
6365.2239558446
  0
ARC
  5
14B
330
1F
100
AcDbEntity
  8
0
  6
Continuous
 62
     7
370
    25
100
AcDbCircle
 10
8894.650259858
 20
6363.0785817645
 30
0.0
 40
123.9372285471422
100
AcDbArc
 50
0.9918490291
 51
3.212388473
  0
LINE
  5
14C
330
1F
100
AcDbEntity
  8
0
  6
Continuous
 62
     7
370
    25
100
AcDbLine
 10
9017.6340590282
 20
6381.0029441409
 30
0.0
 11
9018.3927422608
 21
6370.0237001042
 31
0.0
  0
LINE
  5
14D
330
1F
100
AcDbEntity
  8
0
  6
Continuous
 62
     7
370
    25
100
AcDbLine
 10
9018.5690541775
 20
6377.277439237
 30
0.0
 11
9017.3839701799
 21
6393.2583629944
 31
0.0
  0
LINE
  5
14E
330
1F
100
AcDbEntity
  8
0
  6
Continuous
 62
     7
370
    25
100
AcDbLine
 10
9018.5690510198
 20
6377.277439237
 30
0.0
 11
9018.5690510192
 21
6365.2570801812
 31
0.0
  0
LINE
  5
14F
330
1F
100
AcDbEntity
  8
0
  6
Continuous
 62
     7
370
    25
100
AcDbLine
 10
8986.1887924491
 20
6370.0237000129
 30
0.0
 11
8986.9474756817
 21
6381.0029440621
 31
0.0
  0
ARC
  5
150
330
1F
100
AcDbEntity
  8
0
  6
Continuous
 62
     7
370
    25
100
AcDbCircle
 10
9109.8980264475
 20
6363.078884903
 30
0.0
 40
123.9040154045892
100
AcDbArc
 50
176.7868899656
 51
179.0106159483
  0
LINE
  5
151
330
1F
100
AcDbEntity
  8
0
  6
Continuous
 62
     7
370
    25
100
AcDbLine
 10
8986.0124836902
 20
6365.2183542597
 30
0.0
 11
8986.0124836902
 21
6377.2755245193
 31
0.0
  0
LINE
  5
152
330
1F
100
AcDbEntity
  8
0
  6
Continuous
 62
     7
370
    25
100
AcDbLine
 10
8987.1975645357
 20
6393.258362945
 30
0.0
 11
8986.0124836902
 21
6377.2755245193
 31
0.0
  0
ARC
  5
153
330
1F
100
AcDbEntity
  8
0
  6
Continuous
 62
     7
370
    25
100
AcDbCircle
 10
9007.4807166867
 20
6381.4366884966
 30
0.0
 40
8.0669475405874
100
AcDbArc
 50
295.1155379598
 51
325.2813352837
  0
ARC
  5
154
330
1F
100
AcDbEntity
  8
0
  6
Continuous
 62
     7
370
    25
100
AcDbCircle
 10
8996.5741566019
 20
6381.026890612
 30
0.0
 40
7.466163658660939
100
AcDbArc
 50
213.5758658846
 51
244.2659219334
  0
LINE
  5
155
330
1F
100
AcDbEntity
  8
0
  6
Continuous
 62
     7
370
    25
100
AcDbLine
 10
9015.6071961699
 20
6377.6097477994
 30
0.0
 11
9016.4978123994
 21
6366.7057859453
 31
0.0
  0
ARC
  5
156
330
1F
100
AcDbEntity
  8
0
  6
Continuous
 62
     7
370
    25
100
AcDbCircle
 10
9002.2907672772
 20
6390.3192590354
 30
0.0
 40
27.55787079015283
100
AcDbArc
 50
238.9667829578
 51
301.0332174804
  0
LINE
  5
157
330
1F
100
AcDbEntity
  8
0
  6
Continuous
 62
     7
370
    25
100
AcDbLine
 10
8988.9743385636
 20
6377.609747705
 30
0.0
 11
8988.0837223357
 21
6366.7057858366
 31
0.0
  0
ARC
  5
158
330
1F
100
AcDbEntity
  8
0
  6
Continuous
 62
     7
370
    25
100
AcDbCircle
 10
9014.4868269126
 20
6370.0543756587
 30
0.0
 40
3.906035803288953
100
AcDbArc
 50
300.9867954208
 51
359.5500302702
  0
ARC
  5
159
330
1F
100
AcDbEntity
  8
0
  6
Continuous
 62
     7
370
    25
100
AcDbCircle
 10
8990.094714406
 20
6370.0543793396
 30
0.0
 40
3.906042441485088
100
AcDbArc
 50
180.450024299
 51
239.0131504095
  0
ARC
  5
15A
330
1F
100
AcDbEntity
  8
0
  6
Continuous
 62
     7
370
    25
100
AcDbCircle
 10
9075.8932840275
 20
6360.3361229415
 30
0.0
 40
88.04028469908528
100
AcDbArc
 50
175.8510590553
 51
178.668793332
  0
ARC
  5
15B
330
1F
100
AcDbEntity
  8
0
  6
Continuous
 62
     7
370
    25
100
AcDbCircle
 10
8931.0284725392
 20
6360.4507623316
 30
0.0
 40
85.69791932455564
100
AcDbArc
 50
1.3025527337
 51
4.1856959277
  0
LWPOLYLINE
  5
15C
330
1F
100
AcDbEntity
  8
0
  6
Continuous
 62
     7
370
    25
100
AcDbPolyline
 90
       12
 70
   128
 43
0.0
 10
9016.7042500425
 20
6362.398848468
 10
9016.9192750034
 20
6359.8817263196
 10
9017.5029448579
 20
6357.1029236913
 10
9018.3694140004
 20
6354.0685949073
 10
9019.4353775276
 20
6350.7876868893
 10
9020.6220341237
 20
6347.2720180594
 10
9021.8434238966
 20
6343.5163754538
 10
9022.4305774984
 20
6341.537923211
 10
9022.9671603194
 20
6339.4807921637
 10
9023.3848785508
 20
6337.3254478304
 10
9023.5125249204
 20
6336.2085706806
 10
9023.5568119229
 20
6335.0736412101
  0
LINE
  5
15D
330
1F
100
AcDbEntity
  8
0
  6
Continuous
 62
     7
370
    25
100
AcDbLine
 10
9023.5568119229
 20
6335.0736419549
 30
0.0
 11
8981.0247233731
 21
6335.0736419549
 31
0.0
  0
LWPOLYLINE
  5
15E
330
1F
100
AcDbEntity
  8
0
  6
Continuous
 62
     7
370
    25
100
AcDbPolyline
 90
       13
 70
   128
 43
0.0
 10
8987.8767610339
 20
6362.3814615499
 10
8987.7809066737
 20
6360.7644145609
 10
8987.5078315651
 20
6359.0008651547
 10
8987.0826025728
 20
6357.1191594717
 10
8986.216741135
 20
6354.0830434897
 10
8985.1503306418
 20
6350.800319051
 10
8983.9628067247
 20
6347.2822663334
 10
8982.7403372063
 20
6343.5235052961
 10
8982.1525898828
 20
6341.5431460686
 10
8981.6154474694
 20
6339.4854192898
 10
8981.196616591
 20
6337.3269376679
 10
8981.0691228395
 20
6336.2101684441
 10
8981.0247233731
 20
6335.0736412101
  0
ARC
  5
15F
330
1F
100
AcDbEntity
  8
0
  6
Continuous
 62
     7
370
    25
100
AcDbCircle
 10
9015.3007204137
 20
6365.3531531331
 30
0.0
 40
3.270750903614198
100
AcDbArc
 50
295.4114351988
 51
357.7361817035
  0
ARC
  5
160
330
1F
100
AcDbEntity
  8
0
  6
Continuous
 62
     7
370
    25
100
AcDbCircle
 10
8989.2384811954
 20
6365.3073279908
 30
0.0
 40
3.227224229593026
100
AcDbArc
 50
181.5798298908
 51
245.042378594
  0
LWPOLYLINE
  5
161
330
1F
100
AcDbEntity
  8
0
  6
Continuous
 62
     7
370
    25
100
AcDbPolyline
 90
       12
 70
   128
 43
0.0
 10
9018.5690510192
 20
6365.2570801812
 10
9018.7332616868
 20
6362.4528311552
 10
9019.1833216689
 20
6359.32267781
 10
9019.852925751
 20
6355.8961554417
 10
9020.6775406704
 20
6352.2085278393
 10
9021.3608911986
 20
6349.2912977913
 10
9022.070699041
 20
6346.252009529
 10
9022.7724239302
 20
6343.0886000622
 10
9023.4124711645
 20
6339.7836854538
 10
9023.6433000227
 20
6338.255195982
 10
9023.8084942338
 20
6336.681648167
 10
9023.8695481785
 20
6335.0736412101
  0
LINE
  5
162
330
1F
100
AcDbEntity
  8
0
  6
Continuous
 62
     7
370
    25
100
AcDbLine
 10
9023.8695481795
 20
6335.0736412101
 30
0.0
 11
9023.5568119229
 21
6335.0736412101
 31
0.0
  0
LWPOLYLINE
  5
163
330
1F
100
AcDbEntity
  8
0
  6
Continuous
 62
     7
370
    25
100
AcDbPolyline
 90
       13
 70
   128
 43
0.0
 10
8980.7119869623
 20
6335.0736412101
 10
8980.7729366031
 20
6336.6819394416
 10
8980.9382701535
 20
6338.2546819987
 10
8981.169188052
 20
6339.784343091
 10
8981.584870083
 20
6342.0042618616
 10
8982.0396779754
 20
6344.157283268
 10
8982.9854740723
 20
6348.2916556209
 10
8983.9039627037
 20
6352.2085148697
 10
8984.7286797423
 20
6355.8961255174
 10
8985.3981475843
 20
6359.3227146107
 10
8985.7268366859
 20
6361.4442918819
 10
8985.9379729376
 20
6363.4214477568
 10
8986.0124836902
 20
6365.2183542597
  0
LINE
  5
164
330
1F
100
AcDbEntity
  8
0
  6
Continuous
 62
     7
370
    25
100
AcDbLine
 10
8980.7119869623
 20
6335.0736412101
 30
0.0
 11
8981.0247233731
 21
6335.0736412101
 31
0.0
  0
LINE
  5
165
330
1F
100
AcDbEntity
  8
0
  6
Continuous
 62
     7
370
    25
100
AcDbLine
 10
9018.7276079132
 20
6376.6326414944
 30
0.0
 11
9018.5690510198
 21
6377.277439237
 31
0.0
  0
LINE
  5
166
330
1F
100
AcDbEntity
  8
0
  6
Continuous
 62
     7
370
    25
100
AcDbLine
 10
9029.2737148746
 20
6367.2593658428
 30
0.0
 11
9029.2735273726
 21
6367.2790166556
 31
0.0
  0
LINE
  5
167
330
1F
100
AcDbEntity
  8
0
  6
Continuous
 62
     7
370
    25
100
AcDbLine
 10
8975.2951322301
 20
6367.2717139994
 30
0.0
 11
8975.2939960766
 21
6367.2547856445
 31
0.0
  0
LINE
  5
168
330
1F
100
AcDbEntity
  8
0
  6
Continuous
 62
     7
370
    25
100
AcDbLine
 10
8986.0124836902
 20
6377.2755245327
 30
0.0
 11
8985.8701317254
 21
6376.6541303967
 31
0.0
  0
LINE
  5
169
330
1F
100
AcDbEntity
  8
0
  6
Continuous
 62
     7
370
    25
100
AcDbLine
 10
8980.7119869615
 20
6244.3106889238
 30
0.0
 11
8980.7119869623
 21
6335.0736412101
 31
0.0
  0
LINE
  5
16A
330
1F
100
AcDbEntity
  8
0
  6
Continuous
 62
     7
370
    25
100
AcDbLine
 10
8979.5577104176
 20
6244.3106803822
 30
0.0
 11
8980.7119869615
 21
6244.3106889238
 31
0.0
  0
LWPOLYLINE
  5
16B
330
1F
100
AcDbEntity
  8
0
  6
Continuous
 62
     7
370
    25
100
AcDbPolyline
 90
        9
 70
   128
 43
0.0
 10
9002.2907673878
 20
6244.3105261289
 10
9000.0136436233
 20
6244.3105250207
 10
8997.7520974041
 20
6244.3105247016
 10
8995.4579155231
 20
6244.310525203
 10
8993.2134274194
 20
6244.3105265411
 10
8991.0953520778
 20
6244.3105286393
 10
8989.0548492695
 20
6244.3105315091
 10
8987.0507056867
 20
6244.3105352548
 10
8987.0447995753
 20
6244.310535269
  0
LWPOLYLINE
  5
16C
330
1F
100
AcDbEntity
  8
0
  6
Continuous
 62
     7
370
    25
100
AcDbPolyline
 90
        9
 70
   128
 43
0.0
 10
8981.0538446473
 20
6244.3105542971
 10
8980.4319263826
 20
6244.3105570727
 10
8979.131846135
 20
6244.3105642153
 10
8978.0563548127
 20
6244.3105715392
 10
8977.1473939402
 20
6244.3105793194
 10
8976.3933313016
 20
6244.3105877558
 10
8975.829787602
 20
6244.3105965564
 10
8975.4748192607
 20
6244.3106052324
 10
8975.3004083472
 20
6244.3106141192
  0
LWPOLYLINE
  5
16D
330
1F
100
AcDbEntity
  8
0
  6
Continuous
 62
     7
370
    25
100
AcDbPolyline
 90
        8
 70
   128
 43
0.0
 10
8975.3053962771
 20
6244.310618263
 10
8975.311608604
 20
6244.3106234239
 10
8975.5155174724
 20
6244.3106328171
 10
8975.8934916366
 20
6244.310641888
 10
8976.446023012
 20
6244.310650914
 10
8977.1928568528
 20
6244.3106600878
 10
8978.1140650286
 20
6244.3106690831
 10
8979.5577104176
 20
6244.3106803822
  0
LWPOLYLINE
  5
16E
330
1F
100
AcDbEntity
  8
0
  6
Continuous
 62
     7
370
    25
100
AcDbPolyline
 90
        8
 70
   128
 43
0.0
 10
9025.0238246745
 20
6244.3107103331
 10
9026.1375934184
 20
6244.3107033243
 10
9027.0938758214
 20
6244.3106958575
 10
9027.9052618959
 20
6244.3106877476
 10
9028.5359097879
 20
6244.310679263
 10
9028.9701854065
 20
6244.310670713
 10
9029.2254745514
 20
6244.3106619258
 10
9029.2896030153
 20
6244.3106538242
  0
LWPOLYLINE
  5
16F
330
1F
100
AcDbEntity
  8
0
  6
Continuous
 62
     7
370
    25
100
AcDbPolyline
 90
        9
 70
   128
 43
0.0
 10
9029.2985368911
 20
6244.3106526956
 10
9029.1792415283
 20
6244.3106433469
 10
9028.8818005327
 20
6244.3106342739
 10
9028.4082379939
 20
6244.3106252176
 10
9027.7403299475
 20
6244.3106159826
 10
9026.8951488495
 20
6244.3106068974
 10
9025.9058920833
 20
6244.3105982438
 10
9024.761670633
 20
6244.3105898519
 10
9023.5538446473
 20
6244.3105823167
  0
LWPOLYLINE
  5
170
330
1F
100
AcDbEntity
  8
0
  6
Continuous
 62
     7
370
    25
100
AcDbPolyline
 90
        4
 70
   128
 43
0.0
 10
9010.3323686652
 20
6244.3105364678
 10
9008.4777924393
 20
6244.3105331272
 10
9006.2136965589
 20
6244.3105298784
 10
9002.2907673878
 20
6244.3105261289
  0
LINE
  5
171
330
1F
100
AcDbEntity
  8
0
  6
Continuous
 62
     7
370
    25
100
AcDbLine
 10
9023.8695481789
 20
6244.3107173539
 30
0.0
 11
9025.0238246745
 21
6244.3107103331
 31
0.0
  0
LINE
  5
172
330
1F
100
AcDbEntity
  8
0
  6
Continuous
 62
     7
370
    25
100
AcDbLine
 10
9023.8695481785
 20
6335.0736412101
 30
0.0
 11
9023.8695481789
 21
6244.3107173539
 31
0.0
  0
LINE
  5
173
330
1F
100
AcDbEntity
  8
0
  6
Continuous
 62
     7
370
    25
100
AcDbLine
 10
9023.5568119229
 20
6335.0736412101
 30
0.0
 11
9023.5568119225
 21
6244.3107190693
 31
0.0
  0
ELLIPSE
  5
174
330
1F
100
AcDbEntity
  8
0
  6
Continuous
 62
     7
370
    25
100
AcDbEllipse
 10
9002.2907672708
 20
6244.3106360174
 30
0.0
 11
27.00166590870504
 21
1.778739897417836E-5
 31
0.0
210
0.0
220
0.0
230
1.0
 40
0.0000041495
 41
0.663920097175253
 42
2.47767251529704
  0
LINE
  5
175
330
1F
100
AcDbEntity
  8
0
  6
Continuous
 62
     7
370
    25
100
AcDbLine
 10
8981.0247233731
 20
6335.0736418401
 30
0.0
 11
8981.0247233735
 21
6244.3106910512
 31
0.0
  0
CIRCLE
  5
176
330
1F
100
AcDbEntity
  8
0
  6
Continuous
 62
     7
370
    25
100
AcDbCircle
 10
9001.3266829889
 20
6279.3106360354
 30
0.0
 40
10.99999999999454
  0
LWPOLYLINE
  5
177
330
1F
100
AcDbEntity
  8
0
  6
Continuous
 62
     7
370
    25
100
AcDbPolyline
 90
        4
 70
   128
 43
0.0
 10
8980.7119869615
 20
6244.3106889238
 10
8980.8089992172
 20
6244.3106896481
 10
8980.913320192
 20
6244.3106903578
 10
8981.0247233735
 20
6244.3106910512
  0
ELLIPSE
  5
178
330
1F
100
AcDbEntity
  8
0
  6
Continuous
 62
     7
370
    25
100
AcDbEllipse
 10
9020.4064811656
 20
6244.3107067661
 30
0.0
 11
4.000000000063665
 21
2.635008058859967E-6
 31
0.0
210
0.0
220
0.0
230
1.0
 40
0.0000041495
 41
0.5241158698848642
 42
0.6639201283977495
  0
LWPOLYLINE
  5
179
330
1F
100
AcDbEntity
  8
0
  6
Continuous
 62
     7
370
    25
100
AcDbPolyline
 90
       80
 70
   128
 43
0.0
 10
9002.3038446473
 20
6244.310537299
 10
9004.2106486546
 20
6244.31053887
 10
9006.1053972331
 20
6244.3105410606
 10
9007.9761111721
 20
6244.3105438571
 10
9009.8109632158
 20
6244.3105472417
 10
9011.5983528389
 20
6244.3105511932
 10
9013.3269795886
 20
6244.3105556864
 10
9014.9859145301
 20
6244.310560693
 10
9016.5646693426
 20
6244.3105661813
 10
9018.0532626298
 20
6244.3105721167
 10
9019.4422830256
 20
6244.3105784615
 10
9020.7229486959
 20
6244.3105851758
 10
9021.8871628601
 20
6244.310592217
 10
9022.9275649812
 20
6244.3105995406
 10
9023.8375773021
 20
6244.3106071004
 10
9024.611446432
 20
6244.3106148484
 10
9025.244279721
 20
6244.3106227359
 10
9025.7320761933
 20
6244.3106307128
 10
9026.0717518426
 20
6244.3106387287
 10
9026.26115913
 20
6244.310646733
 10
9026.2991005618
 20
6244.310654675
 10
9026.1853362598
 20
6244.3106625046
 10
9025.9205854788
 20
6244.3106701723
 10
9025.5065220583
 20
6244.3106776295
 10
9024.9457638406
 20
6244.3106848291
 10
9024.2418561198
 20
6244.3106917257
 10
9023.399249227
 20
6244.3106982755
 10
9022.4232703944
 20
6244.3107044372
 10
9021.3200900744
 20
6244.3107101719
 10
9020.096682928
 20
6244.3107154432
 10
9018.7607837294
 20
6244.3107202179
 10
9017.3208384631
 20
6244.3107244657
 10
9015.785950927
 20
6244.3107281599
 10
9014.1658251741
 20
6244.310731277
 10
9012.4707041611
 20
6244.3107337973
 10
9010.7113049888
 20
6244.3107357049
 10
9008.8987511453
 20
6244.3107369878
 10
9007.0445021796
 20
6244.3107376379
 10
9005.1602812505
 20
6244.3107376509
 10
9003.2580010096
 20
6244.3107370269
 10
9001.349688285
 20
6244.3107357698
 10
8999.447408044
 20
6244.3107338876
 10
8997.563187115
 20
6244.310731392
 10
8995.7089381493
 20
6244.310728299
 10
8993.8963843058
 20
6244.3107246281
 10
8992.1369851335
 20
6244.3107204024
 10
8990.4418641205
 20
6244.3107156487
 10
8988.8217383676
 20
6244.3107103971
 10
8987.2868508314
 20
6244.3107046808
 10
8985.8469055652
 20
6244.3106985358
 10
8984.5110063665
 20
6244.3106920011
 10
8983.2875992202
 20
6244.3106851179
 10
8982.1844189002
 20
6244.3106779298
 10
8981.2084400676
 20
6244.3106704822
 10
8980.3658331748
 20
6244.3106628222
 10
8979.661925454
 20
6244.3106549983
 10
8979.1011672363
 20
6244.3106470599
 10
8978.6871038158
 20
6244.3106390571
 10
8978.4223530348
 20
6244.3106310407
 10
8978.3085887328
 20
6244.3106230612
 10
8978.3465301645
 20
6244.3106151691
 10
8978.535937452
 20
6244.3106074144
 10
8978.8756131012
 20
6244.310599846
 10
8979.3634095736
 20
6244.3105925118
 10
8979.9962428626
 20
6244.3105854581
 10
8980.7701119924
 20
6244.3105787296
 10
8981.6801243134
 20
6244.3105723688
 10
8982.7205264345
 20
6244.3105664159
 10
8983.8847405986
 20
6244.3105609086
 10
8985.165406269
 20
6244.3105558816
 10
8986.5544266648
 20
6244.3105513668
 10
8988.043019952
 20
6244.3105473926
 10
8989.6217747644
 20
6244.3105439843
 10
8991.2807097059
 20
6244.3105411634
 10
8993.0093364557
 20
6244.3105389476
 10
8994.7967260788
 20
6244.3105373511
 10
8996.6315781225
 20
6244.3105363838
 10
8998.5022920615
 20
6244.310536052
 10
9000.39704064
 20
6244.3105363577
 10
9002.3038446473
 20
6244.310537299
  0
LWPOLYLINE
  5
17A
330
1F
100
AcDbEntity
  8
0
  6
Continuous
 62
     7
370
    25
100
AcDbPolyline
 90
       75
 70
   128
 43
0.0
 10
9002.3038446473
 20
6244.3105487103
 10
9004.1059705424
 20
6244.3105502151
 10
9005.8951120791
 20
6244.3105523444
 10
9007.6583784517
 20
6244.3105550828
 10
9009.3830652856
 20
6244.3105584107
 10
9011.0567461725
 20
6244.3105623039
 10
9012.6673622033
 20
6244.3105667346
 10
9014.2033088527
 20
6244.3105716707
 10
9015.6535195898
 20
6244.3105770767
 10
9017.0075456131
 20
6244.3105829137
 10
9018.2556311339
 20
6244.3105891395
 10
9019.3887836676
 20
6244.3105957094
 10
9020.3988388241
 20
6244.3106025759
 10
9021.278519133
 20
6244.3106096897
 10
9022.0214864773
 20
6244.3106169994
 10
9022.6223877605
 20
6244.3106244525
 10
9023.0768934749
 20
6244.3106319951
 10
9023.3817288965
 20
6244.310639573
 10
9023.5346976791
 20
6244.3106471316
 10
9023.5346976791
 20
6244.3106546163
 10
9023.3817288965
 20
6244.3106619733
 10
9023.0768934749
 20
6244.3106691496
 10
9022.6223877605
 20
6244.3106760934
 10
9022.0214864773
 20
6244.3106827548
 10
9021.278519133
 20
6244.3106890857
 10
9020.3988388241
 20
6244.3106950404
 10
9019.3887836676
 20
6244.3107005763
 10
9018.2556311339
 20
6244.3107056532
 10
9017.0075456131
 20
6244.3107102347
 10
9015.6535195898
 20
6244.3107142877
 10
9014.2033088527
 20
6244.310717783
 10
9012.6673622033
 20
6244.3107206955
 10
9011.0567461725
 20
6244.3107230042
 10
9009.3830652856
 20
6244.3107246924
 10
9007.6583784517
 20
6244.3107257479
 10
9005.8951120791
 20
6244.3107261633
 10
9004.1059705424
 20
6244.3107259354
 10
9002.3038446473
 20
6244.3107250659
 10
9000.5017187522
 20
6244.3107235611
 10
8998.7125772154
 20
6244.3107214318
 10
8996.9493108429
 20
6244.3107186933
 10
8995.224624009
 20
6244.3107153655
 10
8993.5509431221
 20
6244.3107114722
 10
8991.9403270912
 20
6244.3107070415
 10
8990.4043804419
 20
6244.3107021054
 10
8988.9541697048
 20
6244.3106966994
 10
8987.6001436815
 20
6244.3106908625
 10
8986.3520581607
 20
6244.3106846366
 10
8985.218905627
 20
6244.3106780668
 10
8984.2088504705
 20
6244.3106712002
 10
8983.3291701616
 20
6244.3106640864
 10
8982.5862028172
 20
6244.3106567767
 10
8981.9853015341
 20
6244.3106493237
 10
8981.5307958196
 20
6244.310641781
 10
8981.225960398
 20
6244.3106342031
 10
8981.0729916154
 20
6244.3106266446
 10
8981.0729916154
 20
6244.3106191598
 10
8981.225960398
 20
6244.3106118028
 10
8981.5307958197
 20
6244.3106046266
 10
8981.9853015341
 20
6244.3105976827
 10
8982.5862028172
 20
6244.3105910214
 10
8983.3291701616
 20
6244.3105846905
 10
8984.2088504705
 20
6244.3105787357
 10
8985.218905627
 20
6244.3105731999
 10
8986.3520581607
 20
6244.310568123
 10
8987.6001436815
 20
6244.3105635415
 10
8988.9541697048
 20
6244.3105594885
 10
8990.4043804419
 20
6244.3105559931
 10
8991.9403270912
 20
6244.3105530806
 10
8993.5509431221
 20
6244.310550772
 10
8995.224624009
 20
6244.3105490838
 10
8996.9493108429
 20
6244.3105480282
 10
8998.7125772154
 20
6244.3105476129
 10
9000.5017187522
 20
6244.3105478408
 10
9002.3038446473
 20
6244.3105487103
  0
LWPOLYLINE
  5
17B
330
1F
100
AcDbEntity
  8
0
  6
Continuous
 62
     7
370
    25
100
AcDbPolyline
 90
       26
 70
   128
 43
0.0
 10
9019.551618151
 20
6244.3106813202
 10
9018.7570164314
 20
6244.3106871567
 10
9017.8265729927
 20
6244.3106925782
 10
9016.7679698209
 20
6244.3106975398
 10
9015.5899470226
 20
6244.3107020008
 10
9014.3022306643
 20
6244.3107059241
 10
9012.9154524713
 20
6244.3107092774
 10
9011.4410620497
 20
6244.3107120331
 10
9009.8912323549
 20
6244.3107141684
 10
9008.2787591891
 20
6244.3107156656
 10
9006.6169555554
 20
6244.3107165124
 10
9004.9195417422
 20
6244.3107167018
 10
9003.2005320449
 20
6244.3107162322
 10
9001.4741190604
 20
6244.3107151076
 10
8999.7545565088
 20
6244.3107133372
 10
8998.0560415514
 20
6244.3107109355
 10
8996.392597575
 20
6244.3107079226
 10
8994.7779584112
 20
6244.3107043231
 10
8993.225454946
 20
6244.3107001669
 10
8991.7479050569
 20
6244.3106954882
 10
8990.3575077849
 20
6244.3106903257
 10
8989.0657426161
 20
6244.310684722
 10
8987.8832747038
 20
6244.3106787234
 10
8986.8198668146
 20
6244.3106723794
 10
8985.8842987239
 20
6244.3106657424
 10
8985.0842893132
 20
6244.3106588671
  0
LINE
  5
17C
330
1F
100
AcDbEntity
  8
0
  6
Continuous
 62
     7
370
    25
100
AcDbLine
 10
8985.0842893132
 20
6244.3106588671
 30
0.0
 11
9019.551618151
 21
6244.3106813202
 31
0.0
  0
LWPOLYLINE
  5
17D
330
1F
100
AcDbEntity
  8
0
  6
Continuous
 62
     7
370
    25
100
AcDbPolyline
 90
       37
 70
   128
 43
0.0
 10
9006.3038446473
 20
6244.3106612789
 10
9007.21549758
 20
6244.3106615485
 10
9008.0994503997
 20
6244.310661148
 10
9008.9288446473
 20
6244.3106600895
 10
9009.6784795981
 20
6244.3106584052
 10
9010.3255779737
 20
6244.3106561463
 10
9010.8504780172
 20
6244.3106533815
 10
9011.2372309064
 20
6244.3106501946
 10
9011.4740853506
 20
6244.3106466827
 10
9011.5538446473
 20
6244.3106429523
 10
9011.4740853506
 20
6244.3106391168
 10
9011.2372309064
 20
6244.3106352927
 10
9010.8504780172
 20
6244.3106315964
 10
9010.3255779737
 20
6244.3106281399
 10
9009.6784795981
 20
6244.3106250285
 10
9008.9288446473
 20
6244.3106223566
 10
9008.0994503997
 20
6244.3106202054
 10
9007.21549758
 20
6244.3106186402
 10
9006.3038446473
 20
6244.3106177087
 10
9005.3921917145
 20
6244.3106174391
 10
9004.5082388948
 20
6244.3106178396
 10
9003.6788446473
 20
6244.3106188981
 10
9002.9292096964
 20
6244.3106205824
 10
9002.2821113209
 20
6244.3106228413
 10
9001.7572112774
 20
6244.3106256061
 10
9001.3704583882
 20
6244.310628793
 10
9001.133603944
 20
6244.310632305
 10
9001.0538446473
 20
6244.3106360354
 10
9001.133603944
 20
6244.3106398708
 10
9001.3704583882
 20
6244.3106436949
 10
9001.7572112774
 20
6244.3106473913
 10
9002.2821113209
 20
6244.3106508477
 10
9002.9292096964
 20
6244.3106539591
 10
9003.6788446473
 20
6244.310656631
 10
9004.5082388948
 20
6244.3106587822
 10
9005.3921917145
 20
6244.3106603474
 10
9006.3038446473
 20
6244.3106612789
  0
LWPOLYLINE
  5
17E
330
1F
100
AcDbEntity
  8
0
  6
Continuous
 62
     7
370
    25
100
AcDbPolyline
 90
       37
 70
   128
 43
0.0
 10
8994.3038446473
 20
6244.3106533739
 10
8995.21549758
 20
6244.3106536435
 10
8996.0994503997
 20
6244.3106532429
 10
8996.9288446473
 20
6244.3106521845
 10
8997.6784795981
 20
6244.3106505002
 10
8998.3255779737
 20
6244.3106482413
 10
8998.8504780172
 20
6244.3106454764
 10
8999.2372309064
 20
6244.3106422896
 10
8999.4740853506
 20
6244.3106387776
 10
8999.5538446473
 20
6244.3106350472
 10
8999.4740853506
 20
6244.3106312117
 10
8999.2372309064
 20
6244.3106273877
 10
8998.8504780172
 20
6244.3106236913
 10
8998.3255779737
 20
6244.3106202349
 10
8997.6784795981
 20
6244.3106171235
 10
8996.9288446473
 20
6244.3106144516
 10
8996.0994503997
 20
6244.3106123003
 10
8995.21549758
 20
6244.3106107352
 10
8994.3038446473
 20
6244.3106098037
 10
8993.3921917145
 20
6244.3106095341
 10
8992.5082388948
 20
6244.3106099346
 10
8991.6788446473
 20
6244.3106109931
 10
8990.9292096964
 20
6244.3106126774
 10
8990.2821113209
 20
6244.3106149363
 10
8989.7572112774
 20
6244.3106177011
 10
8989.3704583882
 20
6244.310620888
 10
8989.133603944
 20
6244.3106243999
 10
8989.0538446473
 20
6244.3106281303
 10
8989.133603944
 20
6244.3106319658
 10
8989.3704583882
 20
6244.3106357898
 10
8989.7572112774
 20
6244.3106394862
 10
8990.2821113209
 20
6244.3106429427
 10
8990.9292096964
 20
6244.3106460541
 10
8991.6788446473
 20
6244.310648726
 10
8992.5082388948
 20
6244.3106508772
 10
8993.3921917145
 20
6244.3106524424
 10
8994.3038446473
 20
6244.3106533739
  0
LWPOLYLINE
  5
17F
330
1F
100
AcDbEntity
  8
0
  6
Continuous
 62
     7
370
    25
100
AcDbPolyline
 90
       28
 70
   128
 43
0.0
 10
9013.3038446473
 20
6244.3106067885
 10
9013.9956922595
 20
6244.3106069087
 10
9014.6502421879
 20
6244.3106063513
 10
9015.2322074764
 20
6244.3106051463
 10
9015.7102142256
 20
6244.3106033588
 10
9016.058492968
 20
6244.3106010851
 10
9016.2582679064
 20
6244.3105984477
 10
9016.2987691221
 20
6244.3105955889
 10
9016.1778131843
 20
6244.3105926628
 10
9015.9019208587
 20
6244.310589827
 10
9015.485965572
 20
6244.3105872345
 10
9014.9523715815
 20
6244.3105850251
 10
9014.3299050773
 20
6244.3105833179
 10
9013.6521233897
 20
6244.3105822048
 10
9012.9555659049
 20
6244.3105817459
 10
9012.2777842173
 20
6244.310581966
 10
9011.6553177131
 20
6244.3105828532
 10
9011.1217237226
 20
6244.3105843596
 10
9010.705768436
 20
6244.310586404
 10
9010.4298761104
 20
6244.3105888763
 10
9010.3089201725
 20
6244.3105916431
 10
9010.3494213883
 20
6244.3105945553
 10
9010.5491963267
 20
6244.3105974558
 10
9010.8974750691
 20
6244.3106001884
 10
9011.3754818183
 20
6244.3106026057
 10
9011.9574471067
 20
6244.3106045774
 10
9012.6119970351
 20
6244.3106059971
 10
9013.3038446473
 20
6244.3106067885
  0
LWPOLYLINE
  5
180
330
1F
100
AcDbEntity
  8
0
  6
Continuous
 62
     7
370
    25
100
AcDbPolyline
 90
       28
 70
   128
 43
0.0
 10
8991.3038446473
 20
6244.3105922959
 10
8991.9956922595
 20
6244.3105924161
 10
8992.6502421879
 20
6244.3105918587
 10
8993.2322074764
 20
6244.3105906538
 10
8993.7102142256
 20
6244.3105888663
 10
8994.058492968
 20
6244.3105865926
 10
8994.2582679064
 20
6244.3105839552
 10
8994.2987691221
 20
6244.3105810964
 10
8994.1778131843
 20
6244.3105781702
 10
8993.9019208587
 20
6244.3105753345
 10
8993.485965572
 20
6244.310572742
 10
8992.9523715815
 20
6244.3105705326
 10
8992.3299050773
 20
6244.3105688253
 10
8991.6521233897
 20
6244.3105677123
 10
8990.9555659049
 20
6244.3105672534
 10
8990.2777842173
 20
6244.3105674735
 10
8989.6553177131
 20
6244.3105683606
 10
8989.1217237226
 20
6244.310569867
 10
8988.705768436
 20
6244.3105719115
 10
8988.4298761104
 20
6244.3105743837
 10
8988.3089201725
 20
6244.3105771505
 10
8988.3494213883
 20
6244.3105800627
 10
8988.5491963267
 20
6244.3105829633
 10
8988.8974750691
 20
6244.3105856959
 10
8989.3754818183
 20
6244.3105881132
 10
8989.9574471067
 20
6244.3105900848
 10
8990.6119970351
 20
6244.3105915046
 10
8991.3038446473
 20
6244.3105922959
  0
ARC
  5
181
330
1F
100
AcDbEntity
  8
0
  6
Continuous
 62
     7
370
    25
100
AcDbCircle
 10
8994.5594892319
 20
6379.6354811983
 30
0.0
 40
4.527373194353694
100
AcDbArc
 50
203.3841857289
 51
249.0846807199
  0
ARC
  5
182
330
1F
100
AcDbEntity
  8
0
  6
Continuous
 62
     7
370
    25
100
AcDbCircle
 10
9010.3562332761
 20
6378.2337997338
 30
0.0
 40
3.223309919197237
100
AcDbArc
 50
286.0056640141
 51
1.9219054729
  0
ARC
  5
183
330
1F
100
AcDbEntity
  8
0
  6
Continuous
 62
     7
370
    25
100
AcDbCircle
 10
9011.9189863777
 20
6378.3618147571
 30
0.0
 40
2.086373916353049
100
AcDbArc
 50
307.1106642141
 51
348.0837924732
  0
LWPOLYLINE
  5
184
330
1F
100
AcDbEntity
  8
0
  6
Continuous
 62
     7
370
    25
100
AcDbPolyline
 90
        3
 70
   128
 43
0.0
 10
9011.0291143031
 20
6377.1636794579
 10
9009.7486062759
 20
6376.6887423533
 10
9009.6121310978
 20
6376.6539375552
  0
LWPOLYLINE
  5
185
330
1F
100
AcDbEntity
  8
0
  6
Continuous
 62
     7
370
    25
100
AcDbPolyline
 90
       23
 70
   128
 43
0.0
 10
8993.8823024179
 20
6374.5371906564
 10
8993.7722665725
 20
6375.0033261633
 10
8993.8693926982
 20
6375.5753879317
 10
8994.2058932909
 20
6376.1452319744
 10
8994.7535182625
 20
6376.6650184223
 10
8995.5280336534
 20
6377.1497118488
 10
8996.4644169096
 20
6377.5586209972
 10
8997.5896263636
 20
6377.9035183003
 10
8998.3494469392
 20
6378.0730536429
 10
8999.6303402512
 20
6378.2692486218
 10
9001.0188316986
 20
6378.3748488845
 10
9002.3983538626
 20
6378.3809890181
 10
9003.8086229779
 20
6378.2878457961
 10
9005.1312433347
 20
6378.1032388309
 10
9006.4042929731
 20
6377.8218533159
 10
9007.5208961105
 20
6377.4673122868
 10
9008.5131995825
 20
6377.0294085611
 10
9009.297896967
 20
6376.5449052798
 10
9009.8975795833
 20
6375.9998536665
 10
9010.2619025374
 20
6375.4400122026
 10
9010.4013546322
 20
6374.8492631367
 10
9010.3042285064
 20
6374.2772013683
 10
9010.2870882656
 20
6374.2481753745
  0
LWPOLYLINE
  5
186
330
1F
100
AcDbEntity
  8
0
  6
Continuous
 62
     7
370
    25
100
AcDbPolyline
 90
       14
 70
   128
 43
0.0
 10
9002.0613925873
 20
6376.6475426086
 10
9003.1428465189
 20
6376.5995857008
 10
9004.2022851672
 20
6376.4882051387
 10
9005.2181414164
 20
6376.3156683093
 10
9006.1697353628
 20
6376.0854875648
 10
9007.0376952977
 20
6375.8023487215
 10
9007.8043520599
 20
6375.4720156698
 10
9008.4540987286
 20
6375.1012130378
 10
9008.9737083352
 20
6374.697489298
 10
9009.3526031268
 20
6374.2690631014
 10
9009.5830698978
 20
6373.8246559698
 10
9009.6604170095
 20
6373.3733147511
 10
9009.5830698978
 20
6372.9242274507
 10
9009.5133567528
 20
6372.7560999492
  0
LWPOLYLINE
  5
187
330
1F
100
AcDbEntity
  8
0
  6
Continuous
 62
     7
370
    25
100
AcDbPolyline
 90
       14
 70
   128
 43
0.0
 10
8994.5884062357
 20
6373.0191332204
 10
8994.5397152767
 20
6373.1434114177
 10
8994.462368165
 20
6373.5947526365
 10
8994.5397152767
 20
6374.0438399369
 10
8994.7701820478
 20
6374.4815311965
 10
8995.1490768393
 20
6374.8989162835
 10
8995.6686864459
 20
6375.2874984412
 10
8996.3184331146
 20
6375.6393672574
 10
8997.0850898768
 20
6375.9473596977
 10
8997.9530498117
 20
6376.2052059242
 10
8998.9046437581
 20
6376.4076569313
 10
8999.9205000073
 20
6376.5505914003
 10
9000.9799386556
 20
6376.6310995977
 10
9002.0613925873
 20
6376.6475426086
  0
LWPOLYLINE
  5
188
330
1F
100
AcDbEntity
  8
0
  6
Continuous
 62
     7
370
    25
100
AcDbPolyline
 90
       26
 70
   128
 43
0.0
 10
8993.088234789
 20
6375.0864060184
 10
8993.1649790867
 20
6375.5467950512
 10
8993.3946209206
 20
6376.0240675893
 10
8993.772988989
 20
6376.4825829773
 10
8994.2936093093
 20
6376.91449589
 10
8994.9475739234
 20
6377.3124161777
 10
8995.7236933157
 20
6377.6695353138
 10
8996.6086878679
 20
6377.979742891
 10
8997.5874150781
 20
6378.2377311716
 10
8998.6431286522
 20
6378.4390859046
 10
8999.7577650384
 20
6378.5803618548
 10
9000.912252499
 20
6378.6591417513
 10
9002.0868374334
 20
6378.6740776484
 10
9003.2614223679
 20
6378.6249139887
 10
9004.4159098285
 20
6378.512491976
 10
9005.5305462146
 20
6378.3387351822
 10
9006.5862597888
 20
6378.1066166342
 10
9007.5649869989
 20
6377.8201079447
 10
9008.4499815512
 20
6377.4841113568
 10
9009.2261009434
 20
6377.1043758652
 10
9009.8800655576
 20
6376.6873988496
 10
9010.4006858779
 20
6376.2403149023
 10
9010.7790539462
 20
6375.7707737535
 10
9011.0086957801
 20
6375.2868093825
 10
9011.0856821441
 20
6374.7967025539
 10
9011.0854400778
 20
6374.7692281642
  0
ARC
  5
189
330
1F
100
AcDbEntity
  8
0
  6
Continuous
 62
     7
370
    25
100
AcDbCircle
 10
8995.2876705342
 20
6377.1304868818
 30
0.0
 40
2.594085539517193
100
AcDbArc
 50
121.8742941832
 51
174.1449654163
  0
ARC
  5
18A
330
1F
100
AcDbEntity
  8
0
  6
Continuous
 62
     7
370
    25
100
AcDbCircle
 10
9008.7363795716
 20
6376.8274283871
 30
0.0
 40
2.824165345011856
100
AcDbArc
 50
5.2397067261
 51
66.4969690873
  0
LINE
  5
18B
330
1F
100
AcDbEntity
  8
0
  6
Continuous
 62
     7
370
    25
100
AcDbLine
 10
8990.9235502486
 20
6377.8643696673
 30
0.0
 11
8990.9019501877
 21
6378.3929389291
 31
0.0
  0
LINE
  5
18C
330
1F
100
AcDbEntity
  8
0
  6
Continuous
 62
     7
370
    25
100
AcDbLine
 10
9013.3023224989
 20
6378.4666195855
 30
0.0
 11
9013.3599840167
 21
6378.2248716885
 31
0.0
  0
ARC
  5
18D
330
1F
100
AcDbEntity
  8
0
  6
Continuous
 62
     7
370
    25
100
AcDbCircle
 10
8998.760059696
 20
6387.401732449
 30
0.0
 40
11.14035694420329
100
AcDbArc
 50
237.7435200737
 51
252.8110996234
  0
LWPOLYLINE
  5
18E
330
1F
100
AcDbEntity
  8
0
  6
Continuous
 62
     7
370
    25
100
AcDbPolyline
 90
        8
 70
   128
 43
0.0
 10
9013.3599840167
 20
6378.2248716885
 10
9013.3799770503
 20
6377.6800797991
 10
9013.2479925736
 20
6377.1402176998
 10
9012.9658154505
 20
6376.6125860993
 10
9012.5372616423
 20
6376.1043203098
 10
9011.9681266042
 20
6375.6222937543
 10
9011.2661069112
 20
6375.1730250149
 10
9011.2566059572
 20
6375.1676858003
  0
ARC
  5
18F
330
1F
100
AcDbEntity
  8
0
  6
Continuous
 62
     7
370
    25
100
AcDbCircle
 10
8994.603112552
 20
6378.9539555691
 30
0.0
 40
3.837496082325151
100
AcDbArc
 50
196.4949879696
 51
242.8776445164
  0
LINE
  5
190
330
1F
100
AcDbEntity
  8
0
  6
Continuous
 62
     7
370
    25
100
AcDbLine
 10
9012.0133466548
 20
6377.9110704862
 30
0.0
 11
9012.9149992388
 21
6377.9255579748
 31
0.0
  0
ARC
  5
191
330
1F
100
AcDbEntity
  8
0
  6
Continuous
 62
     7
370
    25
100
AcDbCircle
 10
9010.9509507729
 20
6377.8796397196
 30
0.0
 40
1.964585162977649
100
AcDbArc
 50
1.3392963965
 51
18.6607036036
  0
LINE
  5
192
330
1F
100
AcDbEntity
  8
0
  6
Continuous
 62
     7
370
    25
100
AcDbLine
 10
9012.8122575914
 20
6378.5082348118
 30
0.0
 11
9011.9106050073
 21
6378.4937473232
 31
0.0
  0
ARC
  5
193
330
1F
100
AcDbEntity
  8
0
  6
Continuous
 62
     7
370
    25
100
AcDbCircle
 10
9010.2115039166
 20
6377.8937534769
 30
0.0
 40
1.801925950793418
100
AcDbArc
 50
0.5506368428
 51
19.4493631728
  0
LINE
  5
194
330
1F
100
AcDbEntity
  8
0
  6
Continuous
 62
     7
370
    25
100
AcDbLine
 10
8992.2701876106
 20
6378.178170871
 30
0.0
 11
8991.3685350265
 21
6378.1636833824
 31
0.0
  0
ARC
  5
195
330
1F
100
AcDbEntity
  8
0
  6
Continuous
 62
     7
370
    25
100
AcDbCircle
 10
8993.3325834924
 20
6378.2096016375
 30
0.0
 40
1.964585162880894
100
AcDbArc
 50
181.339296396
 51
198.6607036039
  0
LINE
  5
196
330
1F
100
AcDbEntity
  8
0
  6
Continuous
 62
     7
370
    25
100
AcDbLine
 10
8991.4712766739
 20
6377.5810065453
 30
0.0
 11
8992.372929258
 21
6377.595494034
 31
0.0
  0
ARC
  5
197
330
1F
100
AcDbEntity
  8
0
  6
Continuous
 62
     7
370
    25
100
AcDbCircle
 10
8994.0720303487
 20
6378.1954878802
 30
0.0
 40
1.801925950705839
100
AcDbArc
 50
180.5506368421
 51
199.4493631731
  0
ARC
  5
198
330
1F
100
AcDbEntity
  8
0
  6
Continuous
 62
     7
370
    25
100
AcDbCircle
 10
8994.2065516179
 20
6378.1490198503
 30
0.0
 40
1.914693901484707
100
AcDbArc
 50
153.0546219351
 51
173.1618844176
  0
LINE
  5
199
330
1F
100
AcDbEntity
  8
0
  6
Continuous
 62
     7
370
    25
100
AcDbLine
 10
8991.4195978571
 20
6378.6103600662
 30
0.0
 11
8991.3814942954
 21
6378.3621456354
 31
0.0
  0
LINE
  5
19A
330
1F
100
AcDbEntity
  8
0
  6
Continuous
 62
     7
370
    25
100
AcDbLine
 10
8991.3814942954
 20
6378.3621456354
 30
0.0
 11
8992.3054778512
 21
6378.3769919316
 31
0.0
  0
ARC
  5
19B
330
1F
100
AcDbEntity
  8
0
  6
Continuous
 62
     7
370
    25
100
AcDbCircle
 10
9009.9961155894
 20
6378.2157085611
 30
0.0
 40
2.946716649476148
100
AcDbArc
 50
299.0193437198
 51
350.4553577526
  0
LINE
  5
19C
330
1F
100
AcDbEntity
  8
0
  6
Continuous
 62
     7
370
    25
100
AcDbLine
 10
9012.90203997
 20
6377.7270957217
 30
0.0
 11
9011.9780564141
 21
6377.7122494256
 31
0.0
  0
ARC
  5
19D
330
1F
100
AcDbEntity
  8
0
  6
Continuous
 62
     7
370
    25
100
AcDbCircle
 10
9009.8951406915
 20
6377.9924347098
 30
0.0
 40
2.101675926763731
100
AcDbArc
 50
321.237344803
 51
352.3387943758
  0
ARC
  5
19E
330
1F
100
AcDbEntity
  8
0
  6
Continuous
 62
     7
370
    25
100
AcDbCircle
 10
9009.5303919486
 20
6377.8431444733
 30
0.0
 40
2.033098752661541
100
AcDbArc
 50
0.9986833605
 51
42.3958474597
  0
ARC
  5
19F
330
1F
100
AcDbEntity
  8
0
  6
Continuous
 62
     7
370
    25
100
AcDbCircle
 10
8994.5953959485
 20
6378.1402286082
 30
0.0
 40
1.876365915622043
100
AcDbArc
 50
146.8590627399
 51
177.8488020207
  0
ARC
  5
1A0
330
1F
100
AcDbEntity
  8
0
  6
Continuous
 62
     7
370
    25
100
AcDbCircle
 10
8994.9600900443
 20
6379.0929872856
 30
0.0
 40
3.810790877701813
100
AcDbArc
 50
206.6435605395
 51
234.8707650219
  0
LWPOLYLINE
  5
1A1
330
1F
100
AcDbEntity
  8
0
  6
Continuous
 62
     7
370
    25
100
AcDbPolyline
 90
        3
 70
   128
 43
0.0
 10
8992.689559617
 20
6377.0335670106
 10
8992.6293400506
 20
6377.1240891127
 10
8992.4779370451
 20
6377.3989272408
  0
LINE
  5
1A2
330
1F
100
AcDbEntity
  8
0
  6
Continuous
 62
     7
370
    25
100
AcDbLine
 10
8992.4779370451
 20
6377.3989272408
 30
0.0
 11
8991.5539534892
 21
6377.3840809447
 31
0.0
  0
LWPOLYLINE
  5
1A3
330
1F
100
AcDbEntity
  8
0
  6
Continuous
 62
     7
370
    25
100
AcDbPolyline
 90
        3
 70
   128
 43
0.0
 10
9011.5844213175
 20
6379.0693500043
 10
9011.6541942147
 20
6378.9651522442
 10
9011.8055972203
 20
6378.6903141163
  0
LINE
  5
1A4
330
1F
100
AcDbEntity
  8
0
  6
Continuous
 62
     7
370
    25
100
AcDbLine
 10
9011.8055972203
 20
6378.6903141163
 30
0.0
 11
9012.7295807761
 21
6378.7051604124
 31
0.0
  0
LWPOLYLINE
  5
1A5
330
1F
100
AcDbEntity
  8
0
  6
Continuous
 62
     7
370
    25
100
AcDbPolyline
 90
       35
 70
   128
 43
0.0
 10
8994.6219410672
 20
6372.9429499831
 10
8994.2935824782
 20
6373.1667128916
 10
8993.7729621579
 20
6373.613796839
 10
8993.3945940895
 20
6374.0833379878
 10
8993.1649522556
 20
6374.5673023588
 10
8993.0879658917
 20
6375.0574091874
 10
8993.1649522556
 20
6375.5452726099
 10
8993.3945940895
 20
6376.022545148
 10
8993.7729621579
 20
6376.481060536
 10
8994.2935824782
 20
6376.9129734487
 10
8994.9475470924
 20
6377.3108937364
 10
8995.7236664846
 20
6377.6680128725
 10
8996.6086610368
 20
6377.9782204497
 10
8997.587388247
 20
6378.2362087303
 10
8998.6431018211
 20
6378.4375634633
 10
8999.7577382073
 20
6378.5788394134
 10
9000.9122256679
 20
6378.65761931
 10
9002.0868106023
 20
6378.6725552071
 10
9003.2613955368
 20
6378.6233915474
 10
9004.4158829974
 20
6378.5109695347
 10
9005.5305193835
 20
6378.3372127409
 10
9006.5862329577
 20
6378.1050941929
 10
9007.5649601678
 20
6377.8185855034
 10
9008.4499547201
 20
6377.4825889155
 10
9009.2260741123
 20
6377.1028534239
 10
9009.8800387265
 20
6376.6858764083
 10
9010.4006590468
 20
6376.238792461
 10
9010.7790271151
 20
6375.7692513122
 10
9011.008668949
 20
6375.2852869412
 10
9011.085655313
 20
6374.7951801126
 10
9011.008668949
 20
6374.30731669
 10
9010.7790271151
 20
6373.830044152
 10
9010.4006590468
 20
6373.3715287639
 10
9009.8800387265
 20
6372.9396158512
 10
9009.4771583148
 20
6372.6811456721
  0
LWPOLYLINE
  5
1A6
330
1F
100
AcDbEntity
  8
0
  6
Continuous
 62
     7
370
    25
100
AcDbPolyline
 90
        3
 70
   128
 43
0.0
 10
9009.0283499654
 20
6371.7518274627
 10
9008.866277213
 20
6371.484226469
 10
9008.5451881072
 20
6371.1299269971
  0
ARC
  5
1A7
330
1F
100
AcDbEntity
  8
0
  6
Continuous
 62
     7
370
    25
100
AcDbCircle
 10
8997.0981455657
 20
6372.9791573158
 30
0.0
 40
2.282023395312291
100
AcDbArc
 50
205.5351165222
 51
233.8426056634
  0
LWPOLYLINE
  5
1A8
330
1F
100
AcDbEntity
  8
0
  6
Continuous
 62
     7
370
    25
100
AcDbPolyline
 90
       17
 70
   128
 43
0.0
 10
8995.7601341338
 20
6371.1564473485
 10
8995.2898813155
 20
6371.6611261714
 10
8995.0377646004
 20
6372.2219792724
 10
8995.0545478766
 20
6372.8122440512
 10
8995.3651027797
 20
6373.3967814869
 10
8995.9590105917
 20
6373.9381992623
 10
8996.7908904774
 20
6374.4044254738
 10
8997.7909850699
 20
6374.7747214127
 10
8998.8812768769
 20
6375.0419219817
 10
9000.0771011682
 20
6375.2202670568
 10
9001.4154954731
 20
6375.3057237994
 10
9002.8339503653
 20
6375.2780697404
 10
9004.2489293272
 20
6375.128167843
 10
9005.5702481083
 20
6374.8616694659
 10
9006.7192789239
 20
6374.4986124788
 10
9007.6437641644
 20
6374.0687985966
 10
9008.3237621234
 20
6373.604997415
  0
LWPOLYLINE
  5
1A9
330
1F
100
AcDbEntity
  8
0
  6
Continuous
 62
     7
370
    25
100
AcDbPolyline
 90
       14
 70
   128
 43
0.0
 10
9008.9019296126
 20
6371.7093685951
 10
9008.7187934775
 20
6371.3646632766
 10
9008.1248856655
 20
6370.8232455011
 10
9007.2930057797
 20
6370.3570192897
 10
9006.2929111873
 20
6369.9867233507
 10
9005.2026193802
 20
6369.7195227818
 10
9004.006795089
 20
6369.5411777066
 10
9002.668400784
 20
6369.4557209641
 10
9001.2499458919
 20
6369.4833750231
 10
8999.83496693
 20
6369.6332769204
 10
8998.5136481489
 20
6369.8997752976
 10
8997.3646173332
 20
6370.2628322847
 10
8996.4401320928
 20
6370.6926461668
 10
8995.7601341338
 20
6371.1564473485
  0
LWPOLYLINE
  5
1AA
330
1F
100
AcDbEntity
  8
0
  6
Continuous
 62
     7
370
    25
100
AcDbPolyline
 90
       42
 70
   128
 43
0.0
 10
9002.0419481286
 20
6369.6438709193
 10
9001.0384079213
 20
6369.6905673922
 10
9000.058389846
 20
6369.800318818
 10
8999.1248646956
 20
6369.9705527163
 10
8998.2597135084
 20
6370.1972789487
 10
8997.4832146951
 20
6370.4751832447
 10
8996.8135687297
 20
6370.797751763
 10
8996.266471546
 20
6371.1574237709
 10
8995.8547466383
 20
6371.5457688614
 10
8995.5880444896
 20
6371.9536845547
 10
8995.472616372
 20
6372.3716096528
 10
8995.511167823
 20
6372.7897483456
 10
8995.702795229
 20
6373.1982998164
 10
8996.0430070062
 20
6373.5876879651
 10
8996.5238288789
 20
6373.9487858634
 10
8997.1339907898
 20
6374.2731296829
 10
8997.8591910609
 20
6374.5531170791
 10
8998.6824316126
 20
6374.7821853848
 10
8999.584416384
 20
6374.9549654331
 10
9000.5440036166
 20
6375.0674074062
 10
9001.538701399
 20
6375.1168757593
 10
9002.5451948582
 20
6375.1022109964
 10
9003.5398926405
 20
6375.023756847
 10
9004.4994798731
 20
6374.8833522098
 10
9005.4014646445
 20
6374.6842880506
 10
9006.2247051962
 20
6374.4312302646
 10
9006.9499054674
 20
6374.1301103116
 10
9007.5600673783
 20
6373.7879861884
 10
9008.0408892509
 20
6373.4128769942
 10
9008.3811010281
 20
6373.0135749707
 10
9008.5727284342
 20
6372.599439419
 10
9008.6112798851
 20
6372.1801773252
 10
9008.4958517676
 20
6371.7656158376
 10
9008.2291496188
 20
6371.3654719261
 10
9007.8174247112
 20
6370.9891246247
 10
9007.2703275275
 20
6370.6453951953
 10
9006.600681562
 20
6370.3423403644
 10
9005.8241827487
 20
6370.0870634803
 10
9004.9590315616
 20
6369.8855480168
 10
9004.0255064112
 20
6369.7425173257
 10
9003.0454883358
 20
6369.661323925
 10
9002.0419481286
 20
6369.6438709193
  0
LWPOLYLINE
  5
1AB
330
1F
100
AcDbEntity
  8
0
  6
Continuous
 62
     7
370
    25
100
AcDbPolyline
 90
       12
 70
   128
 43
0.0
 10
9002.0436555514
 20
6369.7407529661
 10
9003.0471957587
 20
6369.7582059718
 10
9004.0272138341
 20
6369.8393993725
 10
9004.9607389845
 20
6369.9824300636
 10
9005.8258901716
 20
6370.1839455271
 10
9006.6023889849
 20
6370.4392224112
 10
9007.2720349503
 20
6370.7422772421
 10
9007.819132134
 20
6371.0860066715
 10
9008.2308570417
 20
6371.4623539729
 10
9008.4975591905
 20
6371.8624978844
 10
9008.612987308
 20
6372.277059372
 10
9008.6157506009
 20
6372.3133235425
  0
LWPOLYLINE
  5
1AC
330
1F
100
AcDbEntity
  8
0
  6
Continuous
 62
     7
370
    25
100
AcDbPolyline
 90
       12
 70
   128
 43
0.0
 10
8995.4698530791
 20
6372.5450032675
 10
8995.4743237949
 20
6372.4684916996
 10
8995.5897519124
 20
6372.0505666015
 10
8995.8564540612
 20
6371.6426509082
 10
8996.2681789689
 20
6371.2543058176
 10
8996.8152761525
 20
6370.8946338097
 10
8997.484922118
 20
6370.5720652915
 10
8998.2614209313
 20
6370.2941609955
 10
8999.1265721184
 20
6370.067434763
 10
9000.0600972688
 20
6369.8972008648
 10
9001.0401153442
 20
6369.787449439
 10
9002.0436555514
 20
6369.7407529661
  0
LWPOLYLINE
  5
1AD
330
1F
100
AcDbEntity
  8
0
  6
Continuous
 62
     7
370
    25
100
AcDbPolyline
 90
       20
 70
   128
 43
0.0
 10
8995.5050339125
 20
6372.288700145
 10
8995.5214425636
 20
6372.2580744861
 10
8995.8278024679
 20
6371.8461302026
 10
8996.2799856769
 20
6371.4563054944
 10
8996.8673933993
 20
6371.0977375222
 10
8997.5762572961
 20
6370.7788308153
 10
8998.3899621982
 20
6370.5070602767
 10
8999.2894355526
 20
6370.2887959774
 10
9000.253594466
 20
6370.1291538476
 10
9001.2598398708
 20
6370.0318757636
 10
9002.2845862275
 20
6369.9992418412
 10
9003.30381435
 20
6370.0320169918
 10
9004.2936343951
 20
6370.1294329938
 10
9005.2308458198
 20
6370.2892064985
 10
9006.0934811826
 20
6370.5075925505
 10
9006.8613210417
 20
6370.7794723658
 10
9007.5163678818
 20
6371.098473312
 10
9008.0432679599
 20
6371.4571182772
 10
9008.4296711849
 20
6371.8470009274
 10
9008.5715603867
 20
6372.058419234
  0
LWPOLYLINE
  5
1AE
330
1F
100
AcDbEntity
  8
0
  6
Continuous
 62
     7
370
    25
100
AcDbPolyline
 90
        3
 70
   128
 43
0.0
 10
8996.0704418976
 20
6371.6649337845
 10
8996.0855272592
 20
6371.6575574672
 10
8996.0911076811
 20
6371.6590772004
  0
ARC
  5
1AF
330
1F
100
AcDbEntity
  8
0
  6
Continuous
 62
     7
370
    25
100
AcDbCircle
 10
8999.219827194
 20
6375.8828676598
 30
0.0
 40
5.081393850076009
100
AcDbArc
 50
235.3240742957
 51
243.7896961868
  0
LINE
  5
1B0
330
1F
100
AcDbEntity
  8
0
  6
Continuous
 62
     7
370
    25
100
AcDbLine
 10
8996.9755421771
 20
6371.3239480265
 30
0.0
 11
8996.9802019066
 21
6371.1716100321
 31
0.0
  0
ARC
  5
1B1
330
1F
100
AcDbEntity
  8
0
  6
Continuous
 62
     7
370
    25
100
AcDbCircle
 10
8997.1137508873
 20
6371.1688831003
 30
0.0
 40
0.1335768183409924
100
AcDbArc
 50
178.8302421265
 51
238.7491908849
  0
ARC
  5
1B2
330
1F
100
AcDbEntity
  8
0
  6
Continuous
 62
     7
370
    25
100
AcDbCircle
 10
8999.8614143519
 20
6376.8917897028
 30
0.0
 40
6.48128307475663
100
AcDbArc
 50
244.2382367018
 51
244.3242200507
  0
LWPOLYLINE
  5
1B3
330
1F
100
AcDbEntity
  8
0
  6
Continuous
 62
     7
370
    25
100
AcDbPolyline
 90
        3
 70
   128
 43
0.0
 10
8997.0532160576
 20
6371.0504668531
 10
8997.0754110324
 20
6371.045015478
 10
8997.0881904328
 20
6371.0485008443
  0
ARC
  5
1B4
330
1F
100
AcDbEntity
  8
0
  6
Continuous
 62
     7
370
    25
100
AcDbCircle
 10
9000.7960434378
 20
6379.3359525429
 30
0.0
 40
8.880285262124659
100
AcDbArc
 50
247.2666940139
 51
253.4716792548
  0
ELLIPSE
  5
1B5
330
1F
100
AcDbEntity
  8
0
  6
Continuous
 62
     7
370
    25
100
AcDbEllipse
 10
9002.0358596499
 20
6372.0352518553
 30
0.0
 11
-4.521497367755729
 21
55.2609227218718
 31
0.0
210
0.0
220
0.0
230
1.0
 40
0.0694918507
 41
1.587055886426576
 42
1.589906867828371
  0
ARC
  5
1B6
330
1F
100
AcDbEntity
  8
0
  6
Continuous
 62
     7
370
    25
100
AcDbCircle
 10
8998.4016594287
 20
6370.6732576522
 30
0.0
 40
0.1191589003926199
100
AcDbArc
 50
183.9254790511
 51
251.5312406298
  0
ARC
  5
1B7
330
1F
100
AcDbEntity
  8
0
  6
Continuous
 62
     7
370
    25
100
AcDbCircle
 10
9001.3034389209
 20
6380.7354759086
 30
0.0
 40
10.591332893489
100
AcDbArc
 50
253.8865102981
 51
253.9873867812
  0
ARC
  5
1B8
330
1F
100
AcDbEntity
  8
0
  6
Continuous
 62
     7
370
    25
100
AcDbCircle
 10
8998.4034044633
 20
6370.6055811902
 30
0.0
 40
0.0549197524082009
100
AcDbArc
 50
246.8697306754
 51
306.4981012124
  0
LINE
  5
1B9
330
1F
100
AcDbEntity
  8
0
  6
Continuous
 62
     7
370
    25
100
AcDbLine
 10
8999.8403697133
 20
6370.468769292
 30
0.0
 11
8999.8482785398
 21
6370.3183706776
 31
0.0
  0
ARC
  5
1BA
330
1F
100
AcDbEntity
  8
0
  6
Continuous
 62
     7
370
    25
100
AcDbCircle
 10
8999.9580096816
 20
6370.3277458544
 30
0.0
 40
0.1101309103187258
100
AcDbArc
 50
184.8833606429
 51
261.2398163889
  0
LINE
  5
1BB
330
1F
100
AcDbEntity
  8
0
  6
Continuous
 62
     7
370
    25
100
AcDbLine
 10
8999.9412368483
 20
6370.2188996809
 30
0.0
 11
8999.9537417539
 21
6370.2169967277
 31
0.0
  0
ARC
  5
1BC
330
1F
100
AcDbEntity
  8
0
  6
Continuous
 62
     7
370
    25
100
AcDbCircle
 10
8999.969319874
 20
6370.29780818
 30
0.0
 40
0.0822992627242018
100
AcDbArc
 50
259.0888655691
 51
320.8624765426
  0
ARC
  5
1BD
330
1F
100
AcDbEntity
  8
0
  6
Continuous
 62
     7
370
    25
100
AcDbCircle
 10
9001.6562959433
 20
6370.1575616132
 30
0.0
 40
0.1005505229419219
100
AcDbArc
 50
188.9820838494
 51
269.0846611024
  0
ARC
  5
1BE
330
1F
100
AcDbEntity
  8
0
  6
Continuous
 62
     7
370
    25
100
AcDbCircle
 10
9002.2829272037
 20
6386.0932268393
 30
0.0
 40
16.04850418109619
100
AcDbArc
 50
267.7565161389
 51
267.832981345
  0
ARC
  5
1BF
330
1F
100
AcDbEntity
  8
0
  6
Continuous
 62
     7
370
    25
100
AcDbCircle
 10
9001.6842938808
 20
6370.1497255083
 30
0.0
 40
0.0938847142069153
100
AcDbArc
 50
264.98795734
 51
349.9861336165
  0
ARC
  5
1C0
330
1F
100
AcDbEntity
  8
0
  6
Continuous
 62
     7
370
    25
100
AcDbCircle
 10
9003.3938140303
 20
6370.1724408064
 30
0.0
 40
0.0887517309449996
100
AcDbArc
 50
207.632450253
 51
275.9739477849
  0
LINE
  5
1C1
330
1F
100
AcDbEntity
  8
0
  6
Continuous
 62
     7
370
    25
100
AcDbLine
 10
9003.4030509774
 20
6370.0841710575
 30
0.0
 11
9003.4159472446
 21
6370.0850958648
 31
0.0
  0
ARC
  5
1C2
330
1F
100
AcDbEntity
  8
0
  6
Continuous
 62
     7
370
    25
100
AcDbCircle
 10
9003.4106556652
 20
6370.1900479027
 30
0.0
 40
0.1050853514299214
100
AcDbArc
 50
272.8863531892
 51
352.9635454137
  0
ARC
  5
1C3
330
1F
100
AcDbEntity
  8
0
  6
Continuous
 62
     7
370
    25
100
AcDbCircle
 10
9005.0332597319
 20
6370.3630216537
 30
0.0
 40
0.0672625748412262
100
AcDbArc
 50
228.1788097196
 51
285.6284198029
  0
ARC
  5
1C4
330
1F
100
AcDbEntity
  8
0
  6
Continuous
 62
     7
370
    25
100
AcDbCircle
 10
9002.740346839
 20
6382.2072652027
 30
0.0
 40
12.1311836578493
100
AcDbArc
 50
280.9821708673
 51
281.0743181993
  0
ARC
  5
1C5
330
1F
100
AcDbEntity
  8
0
  6
Continuous
 62
     7
370
    25
100
AcDbCircle
 10
9005.0447026483
 20
6370.4157024172
 30
0.0
 40
0.1166203056960269
100
AcDbArc
 50
282.7951508099
 51
352.391468818
  0
ARC
  5
1C6
330
1F
100
AcDbEntity
  8
0
  6
Continuous
 62
     7
370
    25
100
AcDbCircle
 10
9003.1383219608
 20
6380.6537593654
 30
0.0
 40
10.30157542180821
100
AcDbArc
 50
281.4305851676
 51
287.2547406795
  0
ARC
  5
1C7
330
1F
100
AcDbEntity
  8
0
  6
Continuous
 62
     7
370
    25
100
AcDbCircle
 10
9006.4834722363
 20
6370.7262737724
 30
0.0
 40
0.0439148610387155
100
AcDbArc
 50
239.0624130451
 51
295.3948246386
  0
ARC
  5
1C8
330
1F
100
AcDbEntity
  8
0
  6
Continuous
 62
     7
370
    25
100
AcDbCircle
 10
9003.8175440063
 20
6378.2338326063
 30
0.0
 40
8.010532409863876
100
AcDbArc
 50
289.5818975159
 51
289.6565563853
  0
ARC
  5
1C9
330
1F
100
AcDbEntity
  8
0
  6
Continuous
 62
     7
370
    25
100
AcDbCircle
 10
9006.4563275462
 20
6370.8090938504
 30
0.0
 40
0.1314252942131402
100
AcDbArc
 50
295.1285436879
 51
356.753717928
  0
LINE
  5
1CA
330
1F
100
AcDbEntity
  8
0
  6
Continuous
 62
     7
370
    25
100
AcDbLine
 10
9006.5875419485
 20
6370.8016514986
 30
0.0
 11
9006.5983639491
 21
6370.9533933241
 31
0.0
  0
ARC
  5
1CB
330
1F
100
AcDbEntity
  8
0
  6
Continuous
 62
     7
370
    25
100
AcDbCircle
 10
9004.3858244103
 20
6377.0090136835
 30
0.0
 40
6.44715977366336
100
AcDbArc
 50
290.0707664579
 51
297.4651658433
  0
LWPOLYLINE
  5
1CC
330
1F
100
AcDbEntity
  8
0
  6
Continuous
 62
     7
370
    25
100
AcDbPolyline
 90
        4
 70
   128
 43
0.0
 10
9007.6178140103
 20
6371.2148537059
 10
9007.6201721278
 20
6371.2135420125
 10
9007.6379035293
 20
6371.2161333619
 10
9007.6438422736
 20
6371.2192663859
  0
ARC
  5
1CD
330
1F
100
AcDbEntity
  8
0
  6
Continuous
 62
     7
370
    25
100
AcDbCircle
 10
9005.3689800146
 20
6374.905024277
 30
0.0
 40
4.331259577718234
100
AcDbArc
 50
301.6830252446
 51
301.8661223147
  0
ARC
  5
1CE
330
1F
100
AcDbEntity
  8
0
  6
Continuous
 62
     7
370
    25
100
AcDbCircle
 10
9007.5490952293
 20
6371.3484567205
 30
0.0
 40
0.1618803674604578
100
AcDbArc
 50
311.1458773826
 51
357.4292524896
  0
ELLIPSE
  5
1CF
330
1F
100
AcDbEntity
  8
0
  6
Continuous
 62
     7
370
    25
100
AcDbEllipse
 10
9002.0358596501
 20
6372.0352518626
 30
0.0
 11
4.505226725015746
 21
55.90148843118914
 31
0.0
210
0.0
220
0.0
230
1.0
 40
0.101856973
 41
4.708182080726868
 42
4.711033062117826
  0
ARC
  5
1D0
330
1F
100
AcDbEntity
  8
0
  6
Continuous
 62
     7
370
    25
100
AcDbCircle
 10
9005.9710596351
 20
6374.254374327
 30
0.0
 40
3.26423307081668
100
AcDbArc
 50
302.4744322281
 51
313.4382599912
  0
LWPOLYLINE
  5
1D1
330
1F
100
AcDbEntity
  8
0
  6
Continuous
 62
     7
370
    25
100
AcDbPolyline
 90
        3
 70
   128
 43
0.0
 10
9008.3950061722
 20
6371.8574652781
 10
9008.4037539911
 20
6371.8598784277
 10
9008.4085570684
 20
6371.8647722445
  0
ARC
  5
1D2
330
1F
100
AcDbEntity
  8
0
  6
Continuous
 62
     7
370
    25
100
AcDbCircle
 10
9006.8316447276
 20
6373.135714968
 30
0.0
 40
2.025326624815261
100
AcDbArc
 50
321.1322566639
 51
321.3189737457
  0
ARC
  5
1D3
330
1F
100
AcDbEntity
  8
0
  6
Continuous
 62
     7
370
    25
100
AcDbCircle
 10
9008.1840810993
 20
6371.9950495749
 30
0.0
 40
0.2606150198142666
100
AcDbArc
 50
331.3054516084
 51
359.7126842629
  0
LINE
  5
1D4
330
1F
100
AcDbEntity
  8
0
  6
Continuous
 62
     7
370
    25
100
AcDbLine
 10
9008.4446928424
 20
6371.9937426989
 30
0.0
 11
9008.4506366875
 21
6372.1468410877
 31
0.0
  0
ARC
  5
1D5
330
1F
100
AcDbEntity
  8
0
  6
Continuous
 62
     7
370
    25
100
AcDbCircle
 10
9007.1144021163
 20
6373.1658409581
 30
0.0
 40
1.680441479168012
100
AcDbArc
 50
322.6711985777
 51
332.8946598677
  0
ARC
  5
1D6
330
1F
100
AcDbEntity
  8
0
  6
Continuous
 62
     7
370
    25
100
AcDbCircle
 10
8996.8762733692
 20
6373.0499500625
 30
0.0
 40
1.546108189605528
100
AcDbArc
 50
206.1895898614
 51
206.4131315409
  0
LWPOLYLINE
  5
1D7
330
1F
100
AcDbEntity
  8
0
  6
Continuous
 62
     7
370
    25
100
AcDbPolyline
 90
        3
 70
   128
 43
0.0
 10
8995.4915636742
 20
6372.3621785928
 10
8995.4984821557
 20
6372.3537223844
 10
8995.5003997864
 20
6372.3545410966
  0
ARC
  5
1D8
330
1F
100
AcDbEntity
  8
0
  6
Continuous
 62
     7
370
    25
100
AcDbCircle
 10
8997.6077868039
 20
6373.7906904961
 30
0.0
 40
2.434447159801454
100
AcDbArc
 50
215.9037460695
 51
229.0668243479
  0
ELLIPSE
  5
1D9
330
1F
100
AcDbEntity
  8
0
  6
Continuous
 62
     7
370
    25
100
AcDbEllipse
 10
9002.0358596498
 20
6372.0352518494
 30
0.0
 11
-1.964157341293685
 21
56.14937842349446
 31
0.0
210
0.0
220
0.0
230
1.0
 40
0.1071899529
 41
1.568537814651973
 42
1.571388796060226
  0
ARC
  5
1DA
330
1F
100
AcDbEntity
  8
0
  6
Continuous
 62
     7
370
    25
100
AcDbCircle
 10
8996.1831939059
 20
6371.7837100167
 30
0.0
 40
0.1650002282068823
100
AcDbArc
 50
177.3123121597
 51
222.1201637625
  0
ARC
  5
1DB
330
1F
100
AcDbEntity
  8
0
  6
Continuous
 62
     7
370
    25
100
AcDbCircle
 10
8998.1680180697
 20
6374.1659750188
 30
0.0
 40
3.264204811771474
100
AcDbArc
 50
229.7929831143
 51
230.0140728518
  0
ARC
  5
1DC
330
1F
100
AcDbEntity
  8
0
  6
Continuous
 62
     7
370
    25
100
AcDbCircle
 10
9001.8605991194
 20
6362.0579341708
 30
0.0
 40
13.04599062031071
100
AcDbArc
 50
87.747718192
 51
87.8417817718
  0
ARC
  5
1DD
330
1F
100
AcDbEntity
  8
0
  6
Continuous
 62
     7
370
    25
100
AcDbCircle
 10
9001.83011378
 20
6362.7245306571
 30
0.0
 40
12.37865615497038
100
AcDbArc
 50
94.0718051349
 51
94.1316500288
  0
ARC
  5
1DE
330
1F
100
AcDbEntity
  8
0
  6
Continuous
 62
     7
370
    25
100
AcDbCircle
 10
9002.0157916039
 20
6363.5066341384
 30
0.0
 40
11.58835938266983
100
AcDbArc
 50
81.3160431611
 51
81.3785823848
  0
ARC
  5
1DF
330
1F
100
AcDbEntity
  8
0
  6
Continuous
 62
     7
370
    25
100
AcDbCircle
 10
9001.4885689493
 20
6365.2168540104
 30
0.0
 40
9.861565485298422
100
AcDbArc
 50
100.9715685169
 51
101.0849234053
  0
ARC
  5
1E0
330
1F
100
AcDbEntity
  8
0
  6
Continuous
 62
     7
370
    25
100
AcDbCircle
 10
8999.5748124502
 20
6374.9559529838
 30
0.0
 40
0.0640232494604988
100
AcDbArc
 50
225.0629500424
 51
286.0817350764
  0
LINE
  5
1E1
330
1F
100
AcDbEntity
  8
0
  6
Continuous
 62
     7
370
    25
100
AcDbLine
 10
8996.650180785
 20
6372.3764930919
 30
0.0
 11
8996.6390196911
 21
6372.4617855412
 31
0.0
  0
LWPOLYLINE
  5
1E2
330
1F
100
AcDbEntity
  8
0
  6
Continuous
 62
     7
370
    25
100
AcDbPolyline
 90
        3
 70
   128
 43
0.0
 10
9007.4440688209
 20
6372.2688310614
 10
9007.3626108782
 20
6371.9798062937
 10
9007.2358293716
 20
6371.7584691169
  0
LWPOLYLINE
  5
1E3
330
1F
100
AcDbEntity
  8
0
  6
Continuous
 62
     7
370
    25
100
AcDbPolyline
 90
        3
 70
   128
 43
0.0
 10
8997.0800255423
 20
6371.6416939463
 10
8996.794835967
 20
6371.9973178013
 10
8996.650180785
 20
6372.3764930919
  0
LWPOLYLINE
  5
1E4
330
1F
100
AcDbEntity
  8
0
  6
Continuous
 62
     7
370
    25
100
AcDbPolyline
 90
       17
 70
   128
 43
0.0
 10
8997.3000831669
 20
6371.4565710316
 10
8996.9451100071
 20
6371.8375308673
 10
8996.7547981929
 20
6372.2608941937
 10
8996.7674671494
 20
6372.7064591014
 10
8997.0018913801
 20
6373.1477006899
 10
8997.4502062533
 20
6373.5563931442
 10
8998.0781557733
 20
6373.9083267956
 10
8998.8330831733
 20
6374.1878469056
 10
8999.6560964816
 20
6374.3895448573
 10
9000.5587716185
 20
6374.5241697067
 10
9001.5690665851
 20
6374.5886772412
 10
9002.639795766
 20
6374.567802409
 10
9003.7079011201
 20
6374.4546480629
 10
9004.705306525
 20
6374.2534801649
 10
9005.5726593262
 20
6373.9794244212
 10
9006.2705125535
 20
6373.6549768349
 10
9006.7838130903
 20
6373.3048737318
  0
LWPOLYLINE
  5
1E5
330
1F
100
AcDbEntity
  8
0
  6
Continuous
 62
     7
370
    25
100
AcDbPolyline
 90
       15
 70
   128
 43
0.0
 10
9007.3201640019
 20
6372.1863412126
 10
9007.3164291077
 20
6372.054985662
 10
9007.082004877
 20
6371.6137440736
 10
9006.6336900039
 20
6371.2050516193
 10
9006.0057404839
 20
6370.8531179679
 10
9005.2508130839
 20
6370.5735978579
 10
9004.4277997755
 20
6370.3718999062
 10
9003.5251246387
 20
6370.2372750568
 10
9002.5148296721
 20
6370.1727675222
 10
9001.4441004912
 20
6370.1936423545
 10
9000.3759951371
 20
6370.3067967006
 10
8999.3785897321
 20
6370.5079645986
 10
8998.511236931
 20
6370.7820203423
 10
8997.8133837037
 20
6371.1064679285
 10
8997.3000831669
 20
6371.4565710316
  0
ARC
  5
1E6
330
1F
100
AcDbEntity
  8
0
  6
Continuous
 62
     7
370
    25
100
AcDbCircle
 10
9002.6568689987
 20
6366.4127552988
 30
0.0
 40
8.610343034379932
100
AcDbArc
 50
73.8749060507
 51
73.9989913303
  0
ARC
  5
1E7
330
1F
100
AcDbEntity
  8
0
  6
Continuous
 62
     7
370
    25
100
AcDbCircle
 10
9005.0680098871
 20
6374.744391848
 30
0.0
 40
0.0632077222755718
100
AcDbArc
 50
251.7984149053
 51
303.6310883866
  0
LWPOLYLINE
  5
1E8
330
1F
100
AcDbEntity
  8
0
  6
Continuous
 62
     7
370
    25
100
AcDbPolyline
 90
        3
 70
   128
 43
0.0
 10
9006.9198371018
 20
6373.779393663
 10
9006.935089936
 20
6373.772061256
 10
9006.9410552964
 20
6373.773640248
  0
ARC
  5
1E9
330
1F
100
AcDbEntity
  8
0
  6
Continuous
 62
     7
370
    25
100
AcDbCircle
 10
9005.9560870062
 20
6372.7006423766
 30
0.0
 40
1.638147989459387
100
AcDbArc
 50
29.2469797826
 51
42.8351500612
  0
LINE
  5
1EA
330
1F
100
AcDbEntity
  8
0
  6
Continuous
 62
     7
370
    25
100
AcDbLine
 10
9007.370255193
 20
6373.3466466676
 30
0.0
 11
9007.3854067771
 21
6373.5010009387
 31
0.0
  0
ARC
  5
1EB
330
1F
100
AcDbEntity
  8
0
  6
Continuous
 62
     7
370
    25
100
AcDbCircle
 10
9007.6299450833
 20
6373.3060928139
 30
0.0
 40
0.2628373150483741
100
AcDbArc
 50
171.1242280933
 51
199.0240065736
  0
LINE
  5
1EC
330
1F
100
AcDbEntity
  8
0
  6
Continuous
 62
     7
370
    25
100
AcDbLine
 10
9007.3841362168
 20
6373.2150095139
 30
0.0
 11
9007.3814633953
 21
6373.2204172345
 31
0.0
  0
LWPOLYLINE
  5
1ED
330
1F
100
AcDbEntity
  8
0
  6
Continuous
 62
     7
370
    25
100
AcDbPolyline
 90
        3
 70
   128
 43
0.0
 10
9007.3841362168
 20
6373.2150095139
 10
9007.3913050847
 20
6373.2065792527
 10
9007.3935297643
 20
6373.207412424
  0
ARC
  5
1EE
330
1F
100
AcDbEntity
  8
0
  6
Continuous
 62
     7
370
    25
100
AcDbCircle
 10
9006.5602201235
 20
6372.9890370071
 30
0.0
 40
0.9640477902059509
100
AcDbArc
 50
355.4204853856
 51
13.4759952838
  0
ELLIPSE
  5
1EF
330
1F
100
AcDbEntity
  8
0
  6
Continuous
 62
     7
370
    25
100
AcDbEllipse
 10
9004.7850339348
 20
6488.6440596521
 30
0.0
 11
3.322808428392819
 21
141.3443051525819
 31
0.0
210
0.0
220
0.0
230
1.0
 40
0.0670611619
 41
3.752682439942537
 42
3.754658582205499
  0
ARC
  5
1F0
330
1F
100
AcDbEntity
  8
0
  6
Continuous
 62
     7
370
    25
100
AcDbCircle
 10
9001.3027151542
 20
6373.4232726519
 30
0.0
 40
6.235615121164971
100
AcDbArc
 50
352.8503897876
 51
353.8194876462
  0
LWPOLYLINE
  5
1F1
330
1F
100
AcDbEntity
  8
0
  6
Continuous
 62
     7
370
    25
100
AcDbPolyline
 90
        3
 70
   128
 43
0.0
 10
8996.6121598154
 20
6373.0402175185
 10
8996.6099940235
 20
6373.0316360001
 10
8996.6092692357
 20
6373.0323570938
  0
ARC
  5
1F2
330
1F
100
AcDbEntity
  8
0
  6
Continuous
 62
     7
370
    25
100
AcDbCircle
 10
8997.5641998558
 20
6372.9129863425
 30
0.0
 40
0.9605040398758966
100
AcDbArc
 50
171.8525908305
 51
172.3880613087
  0
ARC
  5
1F3
330
1F
100
AcDbEntity
  8
0
  6
Continuous
 62
     7
370
    25
100
AcDbCircle
 10
8995.9608552218
 20
6373.1097541235
 30
0.0
 40
0.6553472391146447
100
AcDbArc
 50
354.6903433857
 51
5.3837454622
  0
ELLIPSE
  5
1F4
330
1F
100
AcDbEntity
  8
0
  6
Continuous
 62
     7
370
    25
100
AcDbEllipse
 10
9004.7850339409
 20
6488.6440599336
 30
0.0
 11
3.322808433938917
 21
141.3443053884612
 31
0.0
210
0.0
220
0.0
230
1.0
 40
0.0670611619
 41
2.526516806482406
 42
2.528492948752016
  0
ARC
  5
1F5
330
1F
100
AcDbEntity
  8
0
  6
Continuous
 62
     7
370
    25
100
AcDbCircle
 10
8997.6684272778
 20
6373.1179410725
 30
0.0
 40
1.088016474985082
100
AcDbArc
 50
151.633762205
 51
168.6240211805
  0
LWPOLYLINE
  5
1F6
330
1F
100
AcDbEntity
  8
0
  6
Continuous
 62
     7
370
    25
100
AcDbPolyline
 90
        3
 70
   128
 43
0.0
 10
8996.8768872425
 20
6373.6196216542
 10
8996.8662477472
 20
6373.6118771555
 10
8996.8629003508
 20
6373.6130198117
  0
ARC
  5
1F7
330
1F
100
AcDbEntity
  8
0
  6
Continuous
 62
     7
370
    25
100
AcDbCircle
 10
8998.1625614396
 20
6372.5910921001
 30
0.0
 40
1.646460198417563
100
AcDbArc
 50
141.1107755518
 51
141.3404581449
  0
ARC
  5
1F8
330
1F
100
AcDbEntity
  8
0
  6
Continuous
 62
     7
370
    25
100
AcDbCircle
 10
8996.7095475298
 20
6373.7247908617
 30
0.0
 40
0.1985138441644875
100
AcDbArc
 50
329.7441620907
 51
7.174527403
  0
LINE
  5
1F9
330
1F
100
AcDbEntity
  8
0
  6
Continuous
 62
     7
370
    25
100
AcDbLine
 10
8996.8982829568
 20
6373.9048381018
 30
0.0
 11
8996.9065070749
 21
6373.7495836818
 31
0.0
  0
ARC
  5
1FA
330
1F
100
AcDbEntity
  8
0
  6
Continuous
 62
     7
370
    25
100
AcDbCircle
 10
8998.5586588496
 20
6372.4481415836
 30
0.0
 40
2.208803488654854
100
AcDbArc
 50
127.214349689
 51
138.7385726822
  0
LWPOLYLINE
  5
1FB
330
1F
100
AcDbEntity
  8
0
  6
Continuous
 62
     7
370
    25
100
AcDbPolyline
 90
        3
 70
   128
 43
0.0
 10
8997.4916568989
 20
6374.1424531259
 10
8997.4733214989
 20
6374.1364141314
 10
8997.4651960128
 20
6374.1388502579
  0
ARC
  5
1FC
330
1F
100
AcDbEntity
  8
0
  6
Continuous
 62
     7
370
    25
100
AcDbCircle
 10
8999.3517297283
 20
6371.1526305018
 30
0.0
 40
3.521208635432759
100
AcDbArc
 50
121.6619640185
 51
121.887182525
  0
ARC
  5
1FD
330
1F
100
AcDbEntity
  8
0
  6
Continuous
 62
     7
370
    25
100
AcDbCircle
 10
8997.4189230115
 20
6374.254864005
 30
0.0
 40
0.1348743089602465
100
AcDbArc
 50
308.7933935005
 51
4.6950070977
  0
ELLIPSE
  5
1FE
330
1F
100
AcDbEntity
  8
0
  6
Continuous
 62
     7
370
    25
100
AcDbEllipse
 10
9011.5947072658
 20
6487.6077877016
 30
0.0
 11
11.49382573841285
 21
140.1049830324164
 31
0.0
210
0.0
220
0.0
230
1.0
 40
0.05757928
 41
2.515940325133578
 42
2.517916467208608
  0
LINE
  5
1FF
330
1F
100
AcDbEntity
  8
0
  6
Continuous
 62
     7
370
    25
100
AcDbLine
 10
8997.6373213497
 20
6374.4766522153
 30
0.0
 11
8997.5536967743
 21
6374.4288834591
 31
0.0
  0
LWPOLYLINE
  5
200
330
1F
100
AcDbEntity
  8
0
  6
Continuous
 62
     7
370
    25
100
AcDbPolyline
 90
        3
 70
   128
 43
0.0
 10
8998.4214397876
 20
6374.5789214875
 10
8998.3966225739
 20
6374.575358757
 10
8998.3791165604
 20
6374.58106713
  0
ARC
  5
201
330
1F
100
AcDbEntity
  8
0
  6
Continuous
 62
     7
370
    25
100
AcDbCircle
 10
9000.6131637687
 20
6368.4459184286
 30
0.0
 40
6.512862698461344
100
AcDbArc
 50
109.5733118868
 51
109.6651390038
  0
ARC
  5
202
330
1F
100
AcDbEntity
  8
0
  6
Continuous
 62
     7
370
    25
100
AcDbCircle
 10
8998.3826769817
 20
6374.6916213367
 30
0.0
 40
0.1195199969500658
100
AcDbArc
 50
293.9904129327
 51
2.1811261132
  0
ARC
  5
203
330
1F
100
AcDbEntity
  8
0
  6
Continuous
 62
     7
370
    25
100
AcDbCircle
 10
9006.1824384693
 20
6374.396188739
 30
0.0
 40
0.130570891131229
100
AcDbArc
 50
175.9405011837
 51
236.9993607854
  0
ARC
  5
204
330
1F
100
AcDbEntity
  8
0
  6
Continuous
 62
     7
370
    25
100
AcDbCircle
 10
9003.8289945106
 20
6369.5371217739
 30
0.0
 40
5.269474517446812
100
AcDbArc
 50
64.2283484384
 51
64.3341051973
  0
ARC
  5
205
330
1F
100
AcDbEntity
  8
0
  6
Continuous
 62
     7
370
    25
100
AcDbCircle
 10
9006.1398810624
 20
6374.3135171075
 30
0.0
 40
0.0368268015227904
100
AcDbArc
 50
237.4853752045
 51
295.5590402623
  0
ARC
  5
206
330
1F
100
AcDbEntity
  8
0
  6
Continuous
 62
     7
370
    25
100
AcDbCircle
 10
9004.7537264749
 20
6371.3705997098
 30
0.0
 40
3.436772690174357
100
AcDbArc
 50
51.7538847877
 51
59.1186137201
  0
ELLIPSE
  5
207
330
1F
100
AcDbEntity
  8
0
  6
Continuous
 62
     7
370
    25
100
AcDbEllipse
 10
8997.7622406419
 20
6488.1404465735
 30
0.0
 11
-5.098980077162196
 21
140.7429305046471
 31
0.0
210
0.0
220
0.0
230
1.0
 40
0.0605884061
 41
3.763232843258137
 42
3.765208985344443
  0
ARC
  5
208
330
1F
100
AcDbEntity
  8
0
  6
Continuous
 62
     7
370
    25
100
AcDbCircle
 10
9007.0378993804
 20
6373.8922280229
 30
0.0
 40
0.1651463017358668
100
AcDbArc
 50
174.8656204455
 51
219.3543769258
  0
ARC
  5
209
330
1F
100
AcDbEntity
  8
0
  6
Continuous
 62
     7
370
    25
100
AcDbCircle
 10
9005.2009973193
 20
6371.7477146945
 30
0.0
 40
2.661227133534863
100
AcDbArc
 50
49.9035941146
 51
50.0393159136
  0
LINE
  5
20A
330
1F
100
AcDbEntity
  8
0
  6
Continuous
 62
     7
370
    25
100
AcDbLine
 10
9006.9198371018
 20
6373.779393663
 30
0.0
 11
9006.9150289039
 21
6373.7834518054
 31
0.0
  0
LWPOLYLINE
  5
20B
330
1F
100
AcDbEntity
  8
0
  6
Continuous
 62
     7
370
    25
100
AcDbPolyline
 90
       17
 70
   128
 43
0.0
 10
9006.775831131
 20
6373.3033181124
 10
9006.2633946305
 20
6373.6528318886
 10
9005.5667160962
 20
6373.9767333337
 10
9004.7008233058
 20
6374.2503277606
 10
9003.7050968287
 20
6374.4511570336
 10
9002.6387894113
 20
6374.5641209074
 10
9001.5698625838
 20
6374.5849606011
 10
9000.561268242
 20
6374.5205616518
 10
8999.660112574
 20
6374.3861634157
 10
8998.8384846402
 20
6374.1848049812
 10
8998.084828006
 20
6373.905755386
 10
8997.4579355106
 20
6373.5544141429
 10
8997.0103752839
 20
6373.1464096386
 10
8996.7763456585
 20
6372.7059107901
 10
8996.7636980277
 20
6372.2610958997
 10
8996.953689491
 20
6371.8384452188
 10
8997.3080651262
 20
6371.458126651
  0
LWPOLYLINE
  5
20C
330
1F
100
AcDbEntity
  8
0
  6
Continuous
 62
     7
370
    25
100
AcDbPolyline
 90
       17
 70
   128
 43
0.0
 10
8997.3080651262
 20
6371.458126651
 10
8997.8205016267
 20
6371.1086128749
 10
8998.517180161
 20
6370.7847114298
 10
8999.3830729513
 20
6370.5111170028
 10
9000.3787994285
 20
6370.3102877299
 10
9001.4451068459
 20
6370.197323856
 10
9002.5140336734
 20
6370.1764841624
 10
9003.5226280152
 20
6370.2408831117
 10
9004.4237836831
 20
6370.3752813478
 10
9005.2454116169
 20
6370.5766397823
 10
9005.9990682511
 20
6370.8556893774
 10
9006.6259607465
 20
6371.2070306206
 10
9007.0735209732
 20
6371.6150351248
 10
9007.3075505987
 20
6372.0555339734
 10
9007.3201982295
 20
6372.5003488638
 10
9007.1302067662
 20
6372.9229995446
 10
9006.775831131
 20
6373.3033181124
  0
LINE
  5
20D
330
1F
100
AcDbEntity
  8
0
  6
Continuous
 62
     7
370
    25
100
AcDbLine
 10
9007.2288594966
 20
6372.5549516997
 30
0.0
 11
9007.2427429983
 21
6372.3800065191
 31
0.0
  0
LWPOLYLINE
  5
20E
330
1F
100
AcDbEntity
  8
0
  6
Continuous
 62
     7
370
    25
100
AcDbPolyline
 90
       19
 70
   128
 43
0.0
 10
8996.8443577212
 20
6372.5632648349
 10
8996.8707515207
 20
6372.7653997039
 10
8997.0404346936
 20
6373.1335538821
 10
8997.3621350042
 20
6373.4815960106
 10
8997.8260777516
 20
6373.7989510055
 10
8998.41816627
 20
6374.0759761957
 10
8999.1204102495
 20
6374.3042543112
 10
8999.911472362
 20
6374.4768492367
 10
9000.7673165856
 20
6374.588516763
 10
9001.6619385266
 20
6374.6358639286
 10
9002.5681555501
 20
6374.617452114
 10
9003.4584327103
 20
6374.5338407528
 10
9004.3057193863
 20
6374.3875703338
 10
9005.0842712011
 20
6374.1830852099
 10
9005.7704322518
 20
6373.9265985579
 10
9006.3433538822
 20
6373.625903595
 10
9006.7856281583
 20
6373.2901367855
 10
9007.0838168001
 20
6372.929500234
 10
9007.2288594966
 20
6372.5549516997
  0
ARC
  5
20F
330
1F
100
AcDbEntity
  8
0
  6
Continuous
 62
     7
370
    25
100
AcDbCircle
 10
8998.2951947793
 20
6373.3547866203
 30
0.0
 40
1.480640234113151
100
AcDbArc
 50
199.4836554637
 51
230.4747757812
  0
LINE
  5
210
330
1F
100
AcDbEntity
  8
0
  6
Continuous
 62
     7
370
    25
100
AcDbLine
 10
8997.3583864475
 20
6372.0526045946
 30
0.0
 11
8997.3528888857
 21
6372.2127029519
 31
0.0
  0
ARC
  5
211
330
1F
100
AcDbEntity
  8
0
  6
Continuous
 62
     7
370
    25
100
AcDbCircle
 10
8997.5231839771
 20
6372.0445790891
 30
0.0
 40
0.1649928316368826
100
AcDbArc
 50
177.2119448449
 51
222.0086508722
  0
LINE
  5
212
330
1F
100
AcDbEntity
  8
0
  6
Continuous
 62
     7
370
    25
100
AcDbLine
 10
8997.4053948291
 20
6371.9301005944
 30
0.0
 11
8997.4005870785
 21
6371.9341588239
 31
0.0
  0
LINE
  5
213
330
1F
100
AcDbEntity
  8
0
  6
Continuous
 62
     7
370
    25
100
AcDbLine
 10
8997.4102223192
 20
6371.9260462117
 30
0.0
 11
8997.4053948291
 21
6371.9301005944
 31
0.0
  0
LWPOLYLINE
  5
214
330
1F
100
AcDbEntity
  8
0
  6
Continuous
 62
     7
370
    25
100
AcDbPolyline
 90
        3
 70
   128
 43
0.0
 10
8997.4102223192
 20
6371.9260462117
 10
8997.4253418775
 20
6371.9186767263
 10
8997.4309497783
 20
6371.9202015686
  0
ARC
  5
215
330
1F
100
AcDbEntity
  8
0
  6
Continuous
 62
     7
370
    25
100
AcDbCircle
 10
9000.6068775679
 20
6376.6288278237
 30
0.0
 40
5.508263533749132
100
AcDbArc
 50
237.8306571068
 51
254.0490173225
  0
ELLIPSE
  5
216
330
1F
100
AcDbEntity
  8
0
  6
Continuous
 62
     7
370
    25
100
AcDbEllipse
 10
9002.0358596499
 20
6372.0352518553
 30
0.0
 11
-3.509221837432051
 21
42.88907434850535
 31
0.0
210
0.0
220
0.0
230
1.0
 40
0.0694918507
 41
1.581492853543107
 42
1.585166620985496
  0
ARC
  5
217
330
1F
100
AcDbEntity
  8
0
  6
Continuous
 62
     7
370
    25
100
AcDbCircle
 10
8999.2249830324
 20
6371.1830809475
 30
0.0
 40
0.1190972046624344
100
AcDbArc
 50
183.838861894
 51
251.4744098362
  0
ARC
  5
218
330
1F
100
AcDbEntity
  8
0
  6
Continuous
 62
     7
370
    25
100
AcDbCircle
 10
9001.4705322993
 20
6378.9666385238
 30
0.0
 40
8.219995062063786
100
AcDbArc
 50
253.8719600868
 51
254.0019378878
  0
ARC
  5
219
330
1F
100
AcDbEntity
  8
0
  6
Continuous
 62
     7
370
    25
100
AcDbCircle
 10
8999.2266269408
 20
6371.1156251246
 30
0.0
 40
0.0550310093104538
100
AcDbArc
 50
246.9289901987
 51
306.5078774423
  0
LINE
  5
21A
330
1F
100
AcDbEntity
  8
0
  6
Continuous
 62
     7
370
    25
100
AcDbLine
 10
9001.6430909945
 20
6370.7640639797
 30
0.0
 11
9001.6267444612
 21
6370.9177756431
 31
0.0
  0
ARC
  5
21B
330
1F
100
AcDbEntity
  8
0
  6
Continuous
 62
     7
370
    25
100
AcDbCircle
 10
9001.7424654045
 20
6370.7797007408
 30
0.0
 40
0.1005971255265519
100
AcDbArc
 50
188.9422833351
 51
269.0442129736
  0
ARC
  5
21C
330
1F
100
AcDbEntity
  8
0
  6
Continuous
 62
     7
370
    25
100
AcDbCircle
 10
9002.2307451105
 20
6383.1243749675
 30
0.0
 40
12.45489820294339
100
AcDbArc
 50
267.7454848362
 51
267.8440125472
  0
ARC
  5
21D
330
1F
100
AcDbEntity
  8
0
  6
Continuous
 62
     7
370
    25
100
AcDbCircle
 10
9001.7703098824
 20
6370.7719207768
 30
0.0
 40
0.0939788084353743
100
AcDbArc
 50
265.0429958154
 51
349.9997363063
  0
LINE
  5
21E
330
1F
100
AcDbEntity
  8
0
  6
Continuous
 62
     7
370
    25
100
AcDbLine
 10
9001.8846434921
 20
6370.9078444919
 30
0.0
 11
9001.8628608664
 21
6370.7556011021
 31
0.0
  0
ARC
  5
21F
330
1F
100
AcDbEntity
  8
0
  6
Continuous
 62
     7
370
    25
100
AcDbCircle
 10
9004.3591761674
 20
6370.9307081024
 30
0.0
 40
0.0673605538276236
100
AcDbArc
 50
228.1557757899
 51
285.5857241272
  0
ARC
  5
220
330
1F
100
AcDbEntity
  8
0
  6
Continuous
 62
     7
370
    25
100
AcDbCircle
 10
9002.5857726352
 20
6380.1091037894
 30
0.0
 40
9.41529036314938
100
AcDbArc
 50
280.9688803031
 51
281.0876080963
  0
ARC
  5
221
330
1F
100
AcDbEntity
  8
0
  6
Continuous
 62
     7
370
    25
100
AcDbCircle
 10
9004.3704422469
 20
6370.9832704449
 30
0.0
 40
0.1166444115967722
100
AcDbArc
 50
282.8704940588
 51
352.4467436693
  0
ELLIPSE
  5
222
330
1F
100
AcDbEntity
  8
0
  6
Continuous
 62
     7
370
    25
100
AcDbEllipse
 10
9002.0358596502
 20
6372.0352518732
 30
0.0
 11
5.282964337900921
 21
42.55145463832469
 31
0.0
210
0.0
220
0.0
230
1.0
 40
0.0597844885
 41
4.694726526993199
 42
4.698400294053226
  0
ARC
  5
223
330
1F
100
AcDbEntity
  8
0
  6
Continuous
 62
     7
370
    25
100
AcDbCircle
 10
9003.2993497674
 20
6377.4585203397
 30
0.0
 40
6.448133008148647
100
AcDbArc
 50
280.7820804467
 51
295.7526143603
  0
LWPOLYLINE
  5
224
330
1F
100
AcDbEntity
  8
0
  6
Continuous
 62
     7
370
    25
100
AcDbPolyline
 90
        4
 70
   128
 43
0.0
 10
9006.364070663
 20
6371.5758521016
 10
9006.3664380119
 20
6371.5745379229
 10
9006.3842136095
 20
6371.5771160128
 10
9006.3901595644
 20
6371.5802476461
  0
ARC
  5
225
330
1F
100
AcDbEntity
  8
0
  6
Continuous
 62
     7
370
    25
100
AcDbCircle
 10
9004.625913387
 20
6374.4416494802
 30
0.0
 40
3.361574784294195
100
AcDbArc
 50
301.6566170924
 51
301.8925307541
  0
ARC
  5
226
330
1F
100
AcDbEntity
  8
0
  6
Continuous
 62
     7
370
    25
100
AcDbCircle
 10
9006.2950423124
 20
6371.7093071866
 30
0.0
 40
0.1620258748333621
100
AcDbArc
 50
311.2748940965
 51
357.4998756461
  0
LINE
  5
227
330
1F
100
AcDbEntity
  8
0
  6
Continuous
 62
     7
370
    25
100
AcDbLine
 10
9006.4697211078
 20
6371.8616328475
 30
0.0
 11
9006.4569139592
 21
6371.7022393659
 31
0.0
  0
ARC
  5
228
330
1F
100
AcDbEntity
  8
0
  6
Continuous
 62
     7
370
    25
100
AcDbCircle
 10
9005.6105652405
 20
6373.3676156455
 30
0.0
 40
1.733820345949272
100
AcDbArc
 50
299.7045481286
 51
334.6135640989
  0
ARC
  5
229
330
1F
100
AcDbEntity
  8
0
  6
Continuous
 62
     7
370
    25
100
AcDbCircle
 10
9002.264685658
 20
6374.5444977391
 30
0.0
 40
0.1004740779393115
100
AcDbArc
 50
186.2037623309
 51
268.3858908346
  0
ARC
  5
22A
330
1F
100
AcDbEntity
  8
0
  6
Continuous
 62
     7
370
    25
100
AcDbCircle
 10
9002.2890088375
 20
6374.5397310539
 30
0.0
 40
0.0966629210953733
100
AcDbArc
 50
266.588957741
 51
351.3404295601
  0
ARC
  5
22B
330
1F
100
AcDbEntity
  8
0
  6
Continuous
 62
     7
370
    25
100
AcDbCircle
 10
9001.9151287765
 20
6365.1617174439
 30
0.0
 40
9.288819530412278
100
AcDbArc
 50
87.7286943503
 51
87.8608050821
  0
LINE
  5
22C
330
1F
100
AcDbEntity
  8
0
  6
Continuous
 62
     7
370
    25
100
AcDbLine
 10
8997.5280832907
 20
6374.436258521
 30
0.0
 11
8997.5536967743
 21
6374.4288834591
 31
0.0
  0
ARC
  5
22D
330
1F
100
AcDbEntity
  8
0
  6
Continuous
 62
     7
370
    25
100
AcDbCircle
 10
9000.2911737094
 20
6374.411836013
 30
0.0
 40
0.1102575496504741
100
AcDbArc
 50
283.3863844082
 51
357.5795894124
  0
LINE
  5
22E
330
1F
100
AcDbEntity
  8
0
  6
Continuous
 62
     7
370
    25
100
AcDbLine
 10
9000.4095401872
 20
6374.5730192675
 30
0.0
 11
9000.4013328927
 21
6374.4071796635
 31
0.0
  0
ARC
  5
22F
330
1F
100
AcDbEntity
  8
0
  6
Continuous
 62
     7
370
    25
100
AcDbCircle
 10
9001.6503152459
 20
6367.4107356289
 30
0.0
 40
7.021647773627024
100
AcDbArc
 50
100.9486451486
 51
101.1078466393
  0
ARC
  5
230
330
1F
100
AcDbEntity
  8
0
  6
Continuous
 62
     7
370
    25
100
AcDbCircle
 10
9000.2798641519
 20
6374.3673982429
 30
0.0
 40
0.0688661410085466
100
AcDbArc
 50
227.2998810633
 51
284.8813206866
  0
ARC
  5
231
330
1F
100
AcDbEntity
  8
0
  6
Continuous
 62
     7
370
    25
100
AcDbCircle
 10
9004.2046100456
 20
6374.2606069674
 30
0.0
 40
0.1101750189888214
100
AcDbArc
 50
177.7342283599
 51
251.353204799
  0
LINE
  5
232
330
1F
100
AcDbEntity
  8
0
  6
Continuous
 62
     7
370
    25
100
AcDbLine
 10
9004.0945211624
 20
6374.2649627223
 30
0.0
 11
9004.0953495109
 21
6374.4310864739
 31
0.0
  0
ARC
  5
233
330
1F
100
AcDbEntity
  8
0
  6
Continuous
 62
     7
370
    25
100
AcDbCircle
 10
9002.482087088
 20
6368.2625629648
 30
0.0
 40
6.130424682559993
100
AcDbArc
 50
73.8498077108
 51
74.0240887906
  0
ARC
  5
234
330
1F
100
AcDbEntity
  8
0
  6
Continuous
 62
     7
370
    25
100
AcDbCircle
 10
9004.2086388436
 20
6374.2040798767
 30
0.0
 40
0.0571558841661773
100
AcDbArc
 50
248.0809634032
 51
306.8685366321
  0
LINE
  5
235
330
1F
100
AcDbEntity
  8
0
  6
Continuous
 62
     7
370
    25
100
AcDbLine
 10
9006.8812286521
 20
6374.0696997468
 30
0.0
 11
9007.0186452895
 21
6374.0964811499
 31
0.0
  0
LINE
  5
236
330
1F
100
AcDbEntity
  8
0
  6
Continuous
 62
     7
370
    25
100
AcDbLine
 10
9005.4938381084
 20
6373.7993084911
 30
0.0
 11
9005.8831268763
 21
6373.8751777419
 31
0.0
  0
ARC
  5
237
330
1F
100
AcDbEntity
  8
0
  6
Continuous
 62
     7
370
    25
100
AcDbCircle
 10
9003.3803074541
 20
6370.8909980459
 30
0.0
 40
3.595174748525087
100
AcDbArc
 50
53.993302876
 51
72.0252055419
  0
ARC
  5
238
330
1F
100
AcDbEntity
  8
0
  6
Continuous
 62
     7
370
    25
100
AcDbCircle
 10
9012.7993723994
 20
6379.0377879882
 30
0.0
 40
1.052771199429211
100
AcDbArc
 50
177.3065220791
 51
199.2721987654
  0
LINE
  5
239
330
1F
100
AcDbEntity
  8
0
  6
Continuous
 62
     7
370
    25
100
AcDbLine
 10
9005.8439247033
 20
6372.275861551
 30
0.0
 11
9005.80617524
 21
6372.1469417695
 31
0.0
  0
ARC
  5
23A
330
1F
100
AcDbEntity
  8
0
  6
Continuous
 62
     7
370
    25
100
AcDbCircle
 10
8999.7423680398
 20
6372.9606843985
 30
0.0
 40
1.604000081552327
100
AcDbArc
 50
200.5933634878
 51
246.6688531006
  0
LWPOLYLINE
  5
23B
330
1F
100
AcDbEntity
  8
0
  6
Continuous
 62
     7
370
    25
100
AcDbPolyline
 90
       13
 70
   128
 43
0.0
 10
8998.7242895979
 20
6371.7341374127
 10
8998.3427795044
 20
6372.2968842689
 10
8998.3516433738
 20
6372.608624951
 10
8998.5156589153
 20
6372.917340811
 10
8998.829323618
 20
6373.2032835821
 10
8999.2686701828
 20
6373.4495149046
 10
9000.3726806291
 20
6373.7862004113
 10
9001.7110952895
 20
6373.9255239174
 10
9002.4602338309
 20
6373.9109187851
 10
9003.2075366048
 20
6373.8317500435
 10
9003.9053739698
 20
6373.6910023844
 10
9004.512219682
 20
6373.4992585487
 10
9005.3596066592
 20
6373.0273073508
  0
LWPOLYLINE
  5
23C
330
1F
100
AcDbEntity
  8
0
  6
Continuous
 62
     7
370
    25
100
AcDbPolyline
 90
       12
 70
   128
 43
0.0
 10
9005.7336037918
 20
6372.2003310184
 10
9005.7322528833
 20
6372.1528198125
 10
9005.5682373419
 20
6371.8441039525
 10
9005.2545726392
 20
6371.5581611813
 10
9004.8152260743
 20
6371.3119298588
 10
9003.7112156281
 20
6370.9752443522
 10
9002.3728009676
 20
6370.835920846
 10
9001.6236624262
 20
6370.8505259784
 10
9000.8763596523
 20
6370.92969472
 10
9000.1785222873
 20
6371.0704423791
 10
8999.5716765752
 20
6371.2621862148
 10
8998.7242895979
 20
6371.7341374127
  0
LWPOLYLINE
  5
23D
330
1F
100
AcDbEntity
  8
0
  6
Continuous
 62
     7
370
    25
100
AcDbPolyline
 90
        4
 70
   128
 43
0.0
 10
9005.5404970036
 20
6373.4998408285
 10
9005.5389099562
 20
6373.4990479535
 10
9005.5232772034
 20
6373.5029344208
 10
9005.5186485805
 20
6373.5063132879
  0
ARC
  5
23E
330
1F
100
AcDbEntity
  8
0
  6
Continuous
 62
     7
370
    25
100
AcDbCircle
 10
9005.1415062541
 20
6372.9910819581
 30
0.0
 40
0.8293630805660888
100
AcDbArc
 50
358.6659546874
 51
41.6539046087
  0
LINE
  5
23F
330
1F
100
AcDbEntity
  8
0
  6
Continuous
 62
     7
370
    25
100
AcDbLine
 10
9005.9706445374
 20
6372.9717732416
 30
0.0
 11
9005.9412136136
 21
6372.812044699
 31
0.0
  0
ARC
  5
240
330
1F
100
AcDbEntity
  8
0
  6
Continuous
 62
     7
370
    25
100
AcDbCircle
 10
9008.6003514587
 20
6372.32433966
 30
0.0
 40
2.70349223856231
100
AcDbArc
 50
169.607047354
 51
172.2124789969
  0
ARC
  5
241
330
1F
100
AcDbEntity
  8
0
  6
Continuous
 62
     7
370
    25
100
AcDbCircle
 10
9005.2437714384
 20
6372.7799692622
 30
0.0
 40
0.6838774125776471
100
AcDbArc
 50
351.7442908101
 51
352.4963603052
  0
LWPOLYLINE
  5
242
330
1F
100
AcDbEntity
  8
0
  6
Continuous
 62
     7
370
    25
100
AcDbPolyline
 90
        3
 70
   128
 43
0.0
 10
9005.9205618866
 20
6372.6817704605
 10
9005.9194011567
 20
6372.6731649963
 10
9005.9195832151
 20
6372.6738389457
  0
LWPOLYLINE
  5
243
330
1F
100
AcDbEntity
  8
0
  6
Continuous
 62
     7
370
    25
100
AcDbPolyline
 90
        3
 70
   128
 43
0.0
 10
8998.1781260561
 20
6372.97991544
 10
8998.1756909921
 20
6372.9713590474
 10
8998.1747076603
 20
6372.9720778736
  0
ARC
  5
244
330
1F
100
AcDbEntity
  8
0
  6
Continuous
 62
     7
370
    25
100
AcDbCircle
 10
8998.8561490136
 20
6372.8906081988
 30
0.0
 40
0.6838793126556918
100
AcDbArc
 50
171.7442922472
 51
172.4963596963
  0
ARC
  5
245
330
1F
100
AcDbEntity
  8
0
  6
Continuous
 62
     7
370
    25
100
AcDbCircle
 10
8997.5972724784
 20
6373.0254703409
 30
0.0
 40
0.5832376895690253
100
AcDbArc
 50
356.3959360477
 51
8.4462026904
  0
LINE
  5
246
330
1F
100
AcDbEntity
  8
0
  6
Continuous
 62
     7
370
    25
100
AcDbLine
 10
8998.1523316643
 20
6373.2728400845
 30
0.0
 11
8998.1741844954
 21
6373.1111367123
 31
0.0
  0
ARC
  5
247
330
1F
100
AcDbEntity
  8
0
  6
Continuous
 62
     7
370
    25
100
AcDbCircle
 10
8999.2070075451
 20
6372.9684398518
 30
0.0
 40
1.0977252457961
100
AcDbArc
 50
128.1863189894
 51
163.9008183178
  0
LWPOLYLINE
  5
248
330
1F
100
AcDbEntity
  8
0
  6
Continuous
 62
     7
370
    25
100
AcDbPolyline
 90
        4
 70
   128
 43
0.0
 10
8998.775688441
 20
6373.7609086788
 10
8998.7786836754
 20
6373.7593701012
 10
8998.797177645
 20
6373.7619424199
 10
8998.8028014695
 20
6373.764926487
  0
ARC
  5
249
330
1F
100
AcDbEntity
  8
0
  6
Continuous
 62
     7
370
    25
100
AcDbCircle
 10
9000.128832346
 20
6371.6372794938
 30
0.0
 40
2.507038015866776
100
AcDbArc
 50
121.6164106625
 51
121.9327368813
  0
ARC
  5
24A
330
1F
100
AcDbEntity
  8
0
  6
Continuous
 62
     7
370
    25
100
AcDbCircle
 10
8998.7210775667
 20
6373.8761500792
 30
0.0
 40
0.1397963244930094
100
AcDbArc
 50
311.9716871543
 51
5.5230468227
  0
LINE
  5
24B
330
1F
100
AcDbEntity
  8
0
  6
Continuous
 62
     7
370
    25
100
AcDbLine
 10
8998.8519300609
 20
6374.0550744526
 30
0.0
 11
8998.8602248958
 21
6373.8896049353
 31
0.0
  0
LINE
  5
24C
330
1F
100
AcDbEntity
  8
0
  6
Continuous
 62
     7
370
    25
100
AcDbLine
 10
9005.4767844901
 20
6373.6348150901
 30
0.0
 11
9005.4938381084
 21
6373.7993084911
 31
0.0
  0
ARC
  5
24D
330
1F
100
AcDbEntity
  8
0
  6
Continuous
 62
     7
370
    25
100
AcDbCircle
 10
9005.6131688239
 20
6373.606817412
 30
0.0
 40
0.1392284328014303
100
AcDbArc
 50
168.3991958165
 51
221.5747492382
  0
LINE
  5
24E
330
1F
100
AcDbEntity
  8
0
  6
Continuous
 62
     7
370
    25
100
AcDbLine
 10
9005.513844194
 20
6373.5103721727
 30
0.0
 11
9005.5090133398
 21
6373.5144258992
 31
0.0
  0
LINE
  5
24F
330
1F
100
AcDbEntity
  8
0
  6
Continuous
 62
     7
370
    25
100
AcDbLine
 10
9005.5186485805
 20
6373.5063132879
 30
0.0
 11
9005.513844194
 21
6373.5103721727
 31
0.0
  0
LWPOLYLINE
  5
250
330
1F
100
AcDbEntity
  8
0
  6
Continuous
 62
     7
370
    25
100
AcDbPolyline
 90
       13
 70
   128
 43
0.0
 10
9005.3467343755
 20
6373.0247986465
 10
9004.5026352004
 20
6373.4949187067
 10
9003.8981440072
 20
6373.6859185896
 10
9003.2030142024
 20
6373.8261201575
 10
9002.4586109111
 20
6373.9049817299
 10
9001.7123789749
 20
6373.9195301953
 10
9000.3791572699
 20
6373.7807472545
 10
8999.2794303073
 20
6373.445368064
 10
8998.8417883765
 20
6373.2000921018
 10
8998.529340671
 20
6372.9152587687
 10
8998.3659614986
 20
6372.6077407046
 10
8998.3571320204
 20
6372.2972095547
 10
8998.7371618817
 20
6371.7366461169
  0
LWPOLYLINE
  5
251
330
1F
100
AcDbEntity
  8
0
  6
Continuous
 62
     7
370
    25
100
AcDbPolyline
 90
       13
 70
   128
 43
0.0
 10
8998.7371618817
 20
6371.7366461169
 10
8999.5812610568
 20
6371.2665260568
 10
9000.1857522499
 20
6371.0755261739
 10
9000.8808820547
 20
6370.9353246059
 10
9001.6252853461
 20
6370.8564630336
 10
9002.3715172823
 20
6370.8419145682
 10
9003.7047389872
 20
6370.9806975089
 10
9004.8044659499
 20
6371.3160766994
 10
9005.2421078806
 20
6371.5613526616
 10
9005.5545555861
 20
6371.8461859948
 10
9005.7179347586
 20
6372.1537040589
 10
9005.7267642367
 20
6372.4642352088
 10
9005.3467343755
 20
6373.0247986465
  0
LINE
  5
252
330
1F
100
AcDbEntity
  8
0
  6
Continuous
 62
     7
370
    25
100
AcDbLine
 10
9005.6333797623
 20
6372.5293160004
 30
0.0
 11
9005.6429914173
 21
6372.4082001062
 31
0.0
  0
LWPOLYLINE
  5
253
330
1F
100
AcDbEntity
  8
0
  6
Continuous
 62
     7
370
    25
100
AcDbPolyline
 90
       14
 70
   128
 43
0.0
 10
8998.4441093023
 20
6372.5350712479
 10
8998.4772385694
 20
6372.7267323606
 10
8998.6566211198
 20
6373.0283604185
 10
8998.9840287302
 20
6373.3056569336
 10
8999.4451521171
 20
6373.5465027178
 10
9000.0198379757
 20
6373.7403716545
 10
9000.6829697763
 20
6373.878790741
 10
9001.4055654772
 20
6373.9557103988
 10
9002.1560441789
 20
6373.9677688699
 10
9002.9016063608
 20
6373.9144391413
 10
9003.6096673782
 20
6373.7980519779
 10
9004.2492815667
 20
6373.6236940573
 10
9004.7924947172
 20
6373.3989856574
 10
9005.0844787665
 20
6373.2291263181
  0
ARC
  5
254
330
1F
100
AcDbEntity
  8
0
  6
Continuous
 62
     7
370
    25
100
AcDbCircle
 10
9004.4969319868
 20
6372.19477827
 30
0.0
 40
1.184664104074062
100
AcDbArc
 50
16.4029211842
 51
56.3526863347
  0
ARC
  5
255
330
1F
100
AcDbEntity
  8
0
  6
Continuous
 62
     7
370
    25
100
AcDbCircle
 10
9000.4495324928
 20
6374.1800497821
 30
0.0
 40
2.352304187333277
100
AcDbArc
 50
214.9547074528
 51
258.2779378635
  0
ELLIPSE
  5
256
330
1F
100
AcDbEntity
  8
0
  6
Continuous
 62
     7
370
    25
100
AcDbEllipse
 10
9002.0358596499
 20
6372.0352518553
 30
0.0
 11
-2.429461272247864
 21
29.69243608961188
 31
0.0
210
0.0
220
0.0
230
1.0
 40
0.0694918507
 41
1.570446756000126
 42
1.575754839415332
  0
ARC
  5
257
330
1F
100
AcDbEntity
  8
0
  6
Continuous
 62
     7
370
    25
100
AcDbCircle
 10
9000.1032820394
 20
6371.726806243
 30
0.0
 40
0.1189765048264368
100
AcDbArc
 50
183.667165693
 51
251.3611565589
  0
ARC
  5
258
330
1F
100
AcDbEntity
  8
0
  6
Continuous
 62
     7
370
    25
100
AcDbCircle
 10
9001.6488504379
 20
6377.0801704635
 30
0.0
 40
5.690872040632033
100
AcDbArc
 50
253.8430772545
 51
254.0308194965
  0
ARC
  5
259
330
1F
100
AcDbEntity
  8
0
  6
Continuous
 62
     7
370
    25
100
AcDbCircle
 10
9000.1047237013
 20
6371.6597875539
 30
0.0
 40
0.0552521284544003
100
AcDbArc
 50
247.0465350853
 51
306.5274313579
  0
ARC
  5
25A
330
1F
100
AcDbEntity
  8
0
  6
Continuous
 62
     7
370
    25
100
AcDbCircle
 10
9003.6401728518
 20
6371.5363415427
 30
0.0
 40
0.0675564166253434
100
AcDbArc
 50
228.1109207994
 51
285.5010280986
  0
ARC
  5
25B
330
1F
100
AcDbEntity
  8
0
  6
Continuous
 62
     7
370
    25
100
AcDbCircle
 10
9002.4209443641
 20
6377.8707987437
 30
0.0
 40
6.518066494358107
100
AcDbArc
 50
280.9424941397
 51
281.1139954375
  0
ARC
  5
25C
330
1F
100
AcDbEntity
  8
0
  6
Continuous
 62
     7
370
    25
100
AcDbCircle
 10
9003.6510869339
 20
6371.5886679405
 30
0.0
 40
0.1166935004072153
100
AcDbArc
 50
283.0203620137
 51
352.5562709238
  0
ELLIPSE
  5
25D
330
1F
100
AcDbEntity
  8
0
  6
Continuous
 62
     7
370
    25
100
AcDbEllipse
 10
9002.0358596502
 20
6372.0352518732
 30
0.0
 11
3.657436849585793
 21
29.45869936716281
 31
0.0
210
0.0
220
0.0
230
1.0
 40
0.0597844885
 41
4.704138308360808
 42
4.7094463916777
  0
ARC
  5
25E
330
1F
100
AcDbEntity
  8
0
  6
Continuous
 62
     7
370
    25
100
AcDbCircle
 10
9003.5760750043
 20
6374.2521263215
 30
0.0
 40
2.530959020766145
100
AcDbArc
 50
274.7637159927
 51
321.783263721
  0
LINE
  5
25F
330
1F
100
AcDbEntity
  8
0
  6
Continuous
 62
     7
370
    25
100
AcDbLine
 10
8996.5406016843
 20
6373.959268794
 30
0.0
 11
8996.8982829568
 21
6373.9048381018
 31
0.0
  0
ARC
  5
260
330
1F
100
AcDbEntity
  8
0
  6
Continuous
 62
     7
370
    25
100
AcDbCircle
 10
9000.9804819266
 20
6373.834847945
 30
0.0
 40
0.112354709380377
100
AcDbArc
 50
282.5275956173
 51
355.1224556757
  0
ELLIPSE
  5
261
330
1F
100
AcDbEntity
  8
0
  6
Continuous
 62
     7
370
    25
100
AcDbEllipse
 10
9008.085064067
 20
6419.8497519871
 30
0.0
 11
7.291179261224896
 21
57.97627280717916
 31
0.0
210
0.0
220
0.0
230
1.0
 40
0.0338207835
 41
2.487578449290115
 42
2.492151788648758
  0
ARC
  5
262
330
1F
100
AcDbEntity
  8
0
  6
Continuous
 62
     7
370
    25
100
AcDbCircle
 10
9001.8081296372
 20
6369.5525209277
 30
0.0
 40
4.249263362799957
100
AcDbArc
 50
100.8967118124
 51
101.1597826838
  0
ARC
  5
263
330
1F
100
AcDbEntity
  8
0
  6
Continuous
 62
     7
370
    25
100
AcDbCircle
 10
9000.9676444528
 20
6373.7865162671
 30
0.0
 40
0.0675391706189673
100
AcDbArc
 50
227.8717703867
 51
285.5081653203
  0
ARC
  5
264
330
1F
100
AcDbEntity
  8
0
  6
Continuous
 62
     7
370
    25
100
AcDbCircle
 10
9003.3644201398
 20
6373.7439151095
 30
0.0
 40
0.1138933421378917
100
AcDbArc
 50
180.8676164301
 51
251.8796621156
  0
ELLIPSE
  5
265
330
1F
100
AcDbEntity
  8
0
  6
Continuous
 62
     7
370
    25
100
AcDbEllipse
 10
8997.971843822
 20
6420.2391911531
 30
0.0
 11
-4.88105970653487
 21
58.44457729224087
 31
0.0
210
0.0
220
0.0
230
1.0
 40
0.0393057876
 41
3.789158583490942
 42
3.793731923672412
  0
ARC
  5
266
330
1F
100
AcDbEntity
  8
0
  6
Continuous
 62
     7
370
    25
100
AcDbCircle
 10
9002.3114535355
 20
6370.0680573271
 30
0.0
 40
3.709886556611032
100
AcDbArc
 50
73.7929524426
 51
74.0809444605
  0
ARC
  5
267
330
1F
100
AcDbEntity
  8
0
  6
Continuous
 62
     7
370
    25
100
AcDbCircle
 10
9000.8426932759
 20
6372.5819211904
 30
0.0
 40
1.307041175637956
100
AcDbArc
 50
101.9392529678
 51
151.1141147645
  0
LINE
  5
268
330
1F
100
AcDbEntity
  8
0
  6
Continuous
 62
     7
370
    25
100
AcDbLine
 10
8999.6982695147
 20
6373.2133092562
 30
0.0
 11
8998.8956255161
 21
6373.2442173948
 31
0.0
  0
ARC
  5
269
330
1F
100
AcDbEntity
  8
0
  6
Continuous
 62
     7
370
    25
100
AcDbCircle
 10
9003.3684506153
 20
6373.6815398903
 30
0.0
 40
0.0553866298336026
100
AcDbArc
 50
247.1210414774
 51
306.6381607906
  0
ARC
  5
26A
330
1F
100
AcDbEntity
  8
0
  6
Continuous
 62
     7
370
    25
100
AcDbCircle
 10
8987.3765414664
 20
6378.8665903924
 30
0.0
 40
4.953192963975198
100
AcDbArc
 50
354.3273344801
 51
358.943294333
  0
LINE
  5
26B
330
1F
100
AcDbEntity
  8
0
  6
Continuous
 62
     7
370
    25
100
AcDbLine
 10
8992.3318468895
 20
6378.9429061597
 30
0.0
 11
8992.3288920548
 21
6378.7752438674
 31
0.0
  0
LINE
  5
26C
330
1F
100
AcDbEntity
  8
0
  6
Continuous
 62
     7
370
    25
100
AcDbLine
 10
9004.4247066877
 20
6373.0313040782
 30
0.0
 11
9005.3708162111
 21
6372.994871372
 31
0.0
  0
ARC
  5
26D
330
1F
100
AcDbEntity
  8
0
  6
Continuous
 62
     7
370
    25
100
AcDbCircle
 10
9003.4075774873
 20
6372.7508494591
 30
0.0
 40
1.055086064593365
100
AcDbArc
 50
15.4152121722
 51
77.5595736856
  0
LINE
  5
26E
330
1F
100
AcDbEntity
  8
0
  6
Continuous
 62
     7
370
    25
100
AcDbLine
 10
9007.3854067771
 20
6373.5010009387
 30
0.0
 11
9007.8995737606
 21
6373.5378724832
 31
0.0
  0
LINE
  5
26F
330
1F
100
AcDbEntity
  8
0
  6
Continuous
 62
     7
370
    25
100
AcDbLine
 10
8997.1822591924
 20
6373.3101955437
 30
0.0
 11
8998.1523316643
 21
6373.2728400845
 31
0.0
  0
LINE
  5
270
330
1F
100
AcDbEntity
  8
0
  6
Continuous
 62
     7
370
    25
100
AcDbLine
 10
8999.7414227708
 20
6372.4261622592
 30
0.0
 11
8999.7366589019
 21
6372.4625674764
 31
0.0
  0
ARC
  5
271
330
1F
100
AcDbEntity
  8
0
  6
Continuous
 62
     7
370
    25
100
AcDbCircle
 10
9003.722712894
 20
6372.5139664462
 30
0.0
 40
0.6399130194308397
100
AcDbArc
 50
306.4249915644
 51
348.0030826088
  0
ARC
  5
272
330
1F
100
AcDbEntity
  8
0
  6
Continuous
 62
     7
370
    25
100
AcDbCircle
 10
9000.6597041528
 20
6372.7705575332
 30
0.0
 40
0.980738905800354
100
AcDbArc
 50
200.5582199147
 51
248.8707458776
  0
LWPOLYLINE
  5
273
330
1F
100
AcDbEntity
  8
0
  6
Continuous
 62
     7
370
    25
100
AcDbPolyline
 90
       13
 70
   128
 43
0.0
 10
9000.06895813
 20
6371.9962024965
 10
8999.8420765534
 20
6372.3308643999
 10
8999.8473746914
 20
6372.518131574
 10
8999.9448868173
 20
6372.6998458791
 10
9000.1284838765
 20
6372.868229072
 10
9000.3926977315
 20
6373.016326359
 10
9001.0492455793
 20
6373.2165510449
 10
9001.8451920921
 20
6373.2994058299
 10
9002.2952096108
 20
6373.2906433669
 10
9002.7351160312
 20
6373.2436391157
 10
9003.1460128243
 20
6373.1612199844
 10
9003.5110025906
 20
6373.0459085815
 10
9004.0149381272
 20
6372.765242267
  0
LWPOLYLINE
  5
274
330
1F
100
AcDbEntity
  8
0
  6
Continuous
 62
     7
370
    25
100
AcDbPolyline
 90
       12
 70
   128
 43
0.0
 10
9004.2381306569
 20
6372.3001878754
 10
9004.2365215658
 20
6372.2433131895
 10
9004.1390094399
 20
6372.0615988844
 10
9003.9554123806
 20
6371.8932156915
 10
9003.6911985257
 20
6371.7451184045
 10
9003.0346506779
 20
6371.5448937186
 10
9002.238704165
 20
6371.4620389336
 10
9001.7886866462
 20
6371.4708013965
 10
9001.3487802259
 20
6371.5178056478
 10
9000.9378834329
 20
6371.6002247791
 10
9000.5728936665
 20
6371.7155361819
 10
9000.06895813
 20
6371.9962024965
  0
ARC
  5
275
330
1F
100
AcDbEntity
  8
0
  6
Continuous
 62
     7
370
    25
100
AcDbCircle
 10
9008.0668187455
 20
6372.4245453673
 30
0.0
 40
3.687826535736616
100
AcDbArc
 50
173.04415578
 51
174.8900620477
  0
LWPOLYLINE
  5
276
330
1F
100
AcDbEntity
  8
0
  6
Continuous
 62
     7
370
    25
100
AcDbPolyline
 90
        3
 70
   128
 43
0.0
 10
8999.7066643329
 20
6372.921054634
 10
8999.7047140109
 20
6372.9124615635
 10
8999.7041057006
 20
6372.9131809107
  0
ARC
  5
277
330
1F
100
AcDbEntity
  8
0
  6
Continuous
 62
     7
370
    25
100
AcDbCircle
 10
9000.1172077005
 20
6372.8687665408
 30
0.0
 40
0.4138597605683925
100
AcDbArc
 50
171.4989442409
 51
172.7417076439
  0
ARC
  5
278
330
1F
100
AcDbEntity
  8
0
  6
Continuous
 62
     7
370
    25
100
AcDbCircle
 10
8999.076255261
 20
6372.99806959
 30
0.0
 40
0.635302660708998
100
AcDbArc
 50
353.8443714186
 51
4.871838014
  0
ELLIPSE
  5
279
330
1F
100
AcDbEntity
  8
0
  6
Continuous
 62
     7
370
    25
100
AcDbEllipse
 10
9003.1963231419
 20
6421.2574001507
 30
0.0
 11
1.40260219693846
 21
59.6633351634273
 31
0.0
210
0.0
220
0.0
230
1.0
 40
0.0670611628
 41
2.508473509291886
 42
2.513046849697828
  0
ELLIPSE
  5
27A
330
1F
100
AcDbEntity
  8
0
  6
Continuous
 62
     7
370
    25
100
AcDbEllipse
 10
9003.1963231353
 20
6421.2573998459
 30
0.0
 11
1.402602190859398
 21
59.66333490460329
 31
0.0
210
0.0
220
0.0
230
1.0
 40
0.0670611628
 41
3.768128540819042
 42
3.772701881215732
  0
LWPOLYLINE
  5
27B
330
1F
100
AcDbEntity
  8
0
  6
Continuous
 62
     7
370
    25
100
AcDbPolyline
 90
       12
 70
   128
 43
0.0
 10
9004.0069561679
 20
6372.7636866472
 10
9003.5050593611
 20
6373.0432174937
 10
9003.1420105077
 20
6373.1579429418
 10
9002.7323117406
 20
6373.2401480862
 10
9002.2947191679
 20
6373.2869296829
 10
9001.8459880917
 20
6373.2956891898
 10
9001.0532616725
 20
6373.2131696035
 10
9000.3993699649
 20
6373.0137549497
 10
9000.1364956947
 20
6372.8664461558
 10
8999.9533707214
 20
6372.6985548282
 10
8999.8563124494
 20
6372.5177971757
 10
8999.8535130887
 20
6372.4198358497
  0
LWPOLYLINE
  5
27C
330
1F
100
AcDbEntity
  8
0
  6
Continuous
 62
     7
370
    25
100
AcDbPolyline
 90
       13
 70
   128
 43
0.0
 10
9000.0769400892
 20
6371.9977581163
 10
9000.5788368961
 20
6371.7182272697
 10
9000.9418857495
 20
6371.6035018216
 10
9001.3515845166
 20
6371.5212966773
 10
9001.7891770893
 20
6371.4745150806
 10
9002.2379081654
 20
6371.4657555737
 10
9003.0306345847
 20
6371.54827516
 10
9003.6845262923
 20
6371.7476898137
 10
9003.9474005625
 20
6371.8949986077
 10
9004.1305255357
 20
6372.0628899353
 10
9004.2275838078
 20
6372.2436475878
 10
9004.2329198689
 20
6372.4303786571
 10
9004.0069561679
 20
6372.7636866472
  0
LINE
  5
27D
330
1F
100
AcDbEntity
  8
0
  6
Continuous
 62
     7
370
    25
100
AcDbLine
 10
9004.1376175116
 20
6372.5052825323
 30
0.0
 11
9004.1432243103
 21
6372.434631594
 31
0.0
  0
ARC
  5
27E
330
1F
100
AcDbEntity
  8
0
  6
Continuous
 62
     7
370
    25
100
AcDbCircle
 10
9000.6142309917
 20
6372.3913644221
 30
0.0
 40
0.678086727038774
100
AcDbArc
 50
111.109746061
 51
171.3155147284
  0
LWPOLYLINE
  5
27F
330
1F
100
AcDbEntity
  8
0
  6
Continuous
 62
     7
370
    25
100
AcDbPolyline
 90
        3
 70
   128
 43
0.0
 10
9003.9243184792
 20
6372.8328879434
 10
9004.018384774
 20
6372.7398413096
 10
9004.1376175116
 20
6372.5052825323
  0
ARC
  5
280
330
1F
100
AcDbEntity
  8
0
  6
Continuous
 62
     7
370
    25
100
AcDbCircle
 10
9001.1697024324
 20
6373.8644371802
 30
0.0
 40
1.523099711636372
100
AcDbArc
 50
224.0754327558
 51
255.4252727999
  0
ELLIPSE
  5
281
330
1F
100
AcDbEntity
  8
0
  6
Continuous
 62
     7
370
    25
100
AcDbEllipse
 10
9002.0398881169
 20
6372.2638338545
 30
0.0
 11
-1.489731650437534
 21
12.52544455908719
 31
0.0
210
0.0
220
0.0
230
1.0
 40
0.0975157612
 41
1.549098413661071
 42
1.56218975788137
  0
ARC
  5
282
330
1F
100
AcDbEntity
  8
0
  6
Continuous
 62
     7
370
    25
100
AcDbCircle
 10
9000.923295079
 20
6372.23670303
 30
0.0
 40
0.1180646380544005
100
AcDbArc
 50
185.0225692795
 51
251.1862783152
  0
ARC
  5
283
330
1F
100
AcDbEntity
  8
0
  6
Continuous
 62
     7
370
    25
100
AcDbCircle
 10
9001.8159808275
 20
6375.3114102993
 30
0.0
 40
3.319618655690944
100
AcDbArc
 50
253.717006191
 51
254.1568910684
  0
ARC
  5
284
330
1F
100
AcDbEntity
  8
0
  6
Continuous
 62
     7
370
    25
100
AcDbCircle
 10
9000.9312030901
 20
6372.1695026522
 30
0.0
 40
0.0559044382274999
100
AcDbArc
 50
247.3910401809
 51
306.5684645806
  0
ARC
  5
285
330
1F
100
AcDbEntity
  8
0
  6
Continuous
 62
     7
370
    25
100
AcDbCircle
 10
9002.1258591406
 20
6377.0557036178
 30
0.0
 40
4.862128980791454
100
AcDbArc
 50
259.2080396813
 51
276.8845623653
  0
ARC
  5
286
330
1F
100
AcDbEntity
  8
0
  6
Continuous
 62
     7
370
    25
100
AcDbCircle
 10
9002.9632098154
 20
6372.1033191513
 30
0.0
 40
0.0674494093799464
100
AcDbArc
 50
227.3759103485
 51
284.9375354883
  0
ARC
  5
287
330
1F
100
AcDbEntity
  8
0
  6
Continuous
 62
     7
370
    25
100
AcDbCircle
 10
9002.2663738733
 20
6375.7725549909
 30
0.0
 40
3.802091670376507
100
AcDbArc
 50
280.8273265087
 51
281.2291634421
  0
ARC
  5
288
330
1F
100
AcDbEntity
  8
0
  6
Continuous
 62
     7
370
    25
100
AcDbCircle
 10
9002.9794514556
 20
6372.1570698937
 30
0.0
 40
0.1170522484190169
100
AcDbArc
 50
283.496087035
 51
350.7283008522
  0
ELLIPSE
  5
289
330
1F
100
AcDbEntity
  8
0
  6
Continuous
 62
     7
370
    25
100
AcDbEllipse
 10
9002.0398881173
 20
6372.2638338726
 30
0.0
 11
2.037124157650396
 21
12.39041834249292
 31
0.0
210
0.0
220
0.0
230
1.0
 40
0.0845358481
 41
4.716148813148825
 42
4.729240156870587
  0
ARC
  5
28A
330
1F
100
AcDbEntity
  8
0
  6
Continuous
 62
     7
370
    25
100
AcDbCircle
 10
9002.9051203026
 20
6373.8953317023
 30
0.0
 40
1.609511347146323
100
AcDbArc
 50
277.7261397045
 51
314.3219321138
  0
LINE
  5
28B
330
1F
100
AcDbEntity
  8
0
  6
Continuous
 62
     7
370
    25
100
AcDbLine
 10
9005.9706445374
 20
6372.9717732416
 30
0.0
 11
9007.0841825375
 21
6372.9288932251
 31
0.0
  0
LWPOLYLINE
  5
28C
330
1F
100
AcDbEntity
  8
0
  6
Continuous
 62
     7
370
    25
100
AcDbPolyline
 90
        3
 70
   128
 43
0.0
 10
9001.9119693915
 20
6372.9650415542
 10
9001.9053054241
 20
6373.0461857177
 10
9001.8812779131
 20
6373.160110538
  0
ARC
  5
28D
330
1F
100
AcDbEntity
  8
0
  6
Continuous
 62
     7
370
    25
100
AcDbCircle
 10
9002.0384805888
 20
6372.2161105446
 30
0.0
 40
0.7595411373847315
100
AcDbArc
 50
76.0014733968
 51
99.5880249929
  0
LWPOLYLINE
  5
28E
330
1F
100
AcDbEntity
  8
0
  6
Continuous
 62
     7
370
    25
100
AcDbPolyline
 90
        3
 70
   128
 43
0.0
 10
9002.246702343
 20
6372.94604291
 10
9002.3060516454
 20
6372.9224887047
 10
9002.3505077157
 20
6372.8938633308
  0
LWPOLYLINE
  5
28F
330
1F
100
AcDbEntity
  8
0
  6
Continuous
 62
     7
370
    25
100
AcDbPolyline
 90
        3
 70
   128
 43
0.0
 10
9002.3505077157
 20
6372.8938633308
 10
9002.3779790595
 20
6372.8619277699
 10
9002.3863741814
 20
6372.8284430043
  0
ARC
  5
290
330
1F
100
AcDbEntity
  8
0
  6
Continuous
 62
     7
370
    25
100
AcDbCircle
 10
9002.202630745
 20
6372.9197028855
 30
0.0
 40
0.2093813914989873
100
AcDbArc
 50
273.1461375399
 51
330.4030100222
  0
LINE
  5
291
330
1F
100
AcDbEntity
  8
0
  6
Continuous
 62
     7
370
    25
100
AcDbLine
 10
9002.2141221965
 20
6372.7106370737
 30
0.0
 11
9003.0067689871
 21
6372.0432499423
 31
0.0
  0
LINE
  5
292
330
1F
100
AcDbEntity
  8
0
  6
Continuous
 62
     7
370
    25
100
AcDbLine
 10
9002.9805959683
 20
6372.0381490315
 30
0.0
 11
9002.1879491777
 21
6372.7055361627
 31
0.0
  0
ARC
  5
293
330
1F
100
AcDbEntity
  8
0
  6
Continuous
 62
     7
370
    25
100
AcDbCircle
 10
9002.0614379804
 20
6373.4544671718
 30
0.0
 40
0.759541137382635
100
AcDbArc
 50
256.0014733971
 51
279.5880249928
  0
LINE
  5
294
330
1F
100
AcDbEntity
  8
0
  6
Continuous
 62
     7
370
    25
100
AcDbLine
 10
9001.8777073006
 20
6372.7174829273
 30
0.0
 11
9000.9097112053
 21
6372.1178944639
 31
0.0
  0
LINE
  5
295
330
1F
100
AcDbEntity
  8
0
  6
Continuous
 62
     7
370
    25
100
AcDbLine
 10
9000.8852201307
 20
6372.1249463431
 30
0.0
 11
9001.8532162262
 21
6372.7245348064
 31
0.0
  0
LWPOLYLINE
  5
296
330
1F
100
AcDbEntity
  8
0
  6
Continuous
 62
     7
370
    25
100
AcDbPolyline
 90
        3
 70
   128
 43
0.0
 10
9001.8532162262
 20
6372.7245348064
 10
9001.7938669238
 20
6372.7480890117
 10
9001.7494108535
 20
6372.7767143856
  0
LWPOLYLINE
  5
297
330
1F
100
AcDbEntity
  8
0
  6
Continuous
 62
     7
370
    25
100
AcDbPolyline
 90
        3
 70
   128
 43
0.0
 10
9001.7494108535
 20
6372.7767143856
 10
9001.7219395097
 20
6372.8086499465
 10
9001.7135443878
 20
6372.8421347121
  0
ARC
  5
298
330
1F
100
AcDbEntity
  8
0
  6
Continuous
 62
     7
370
    25
100
AcDbCircle
 10
9001.8972878242
 20
6372.750874831
 30
0.0
 40
0.2093813914987764
100
AcDbArc
 50
93.1461375419
 51
150.4030100231
  0
LWPOLYLINE
  5
299
330
1F
100
AcDbEntity
  8
0
  6
Continuous
 62
     7
370
    25
100
AcDbPolyline
 90
        3
 70
   128
 43
0.0
 10
9001.7512112319
 20
6373.0356156062
 10
9001.753607741
 20
6373.0328064879
 10
9001.8857963727
 20
6372.9599406429
  0
LINE
  5
29A
330
1F
100
AcDbEntity
  8
0
  6
Continuous
 62
     7
370
    25
100
AcDbLine
 10
8996.6017860223
 20
6373.3325483461
 30
0.0
 11
8995.8260440762
 21
6373.3624205433
 31
0.0
  0
LWPOLYLINE
  5
29B
330
1F
100
AcDbEntity
  8
0
  6
Continuous
 62
     7
370
    25
100
AcDbPolyline
 90
        3
 70
   128
 43
0.0
 10
9002.2878742615
 20
6373.1444533645
 10
9002.250501937
 20
6373.0465955333
 10
9002.2222112686
 20
6372.9530947891
  0
LWPOLYLINE
  5
29C
330
1F
100
AcDbEntity
  8
0
  6
Continuous
 62
     7
370
    25
100
AcDbPolyline
 90
        3
 70
   128
 43
0.0
 10
9002.2878742607
 20
6373.1444533647
 10
9002.3394830729
 20
6373.2902712579
 10
9002.3536805329
 20
6373.3611268819
  0
LINE
  5
29D
330
1F
100
AcDbEntity
  8
0
  6
Continuous
 62
     7
370
    25
100
AcDbLine
 10
9002.246702343
 20
6372.9460429102
 30
0.0
 11
9002.3795770691
 21
6373.0031415474
 31
0.0
  0
LINE
  5
29E
330
1F
100
AcDbEntity
  8
0
  6
Continuous
 62
     7
370
    25
100
AcDbLine
 10
9000.91592398
 20
6373.1712862945
 30
0.0
 11
9001.3030990295
 21
6373.1563769947
 31
0.0
  0
LWPOLYLINE
  5
29F
330
1F
100
AcDbEntity
  8
0
  6
Continuous
 62
     7
370
    25
100
AcDbPolyline
 90
        3
 70
   128
 43
0.0
 10
9002.7448142107
 20
6373.2033522415
 10
9002.7820334909
 20
6373.1666717669
 10
9002.8212170388
 20
6373.0979174511
  0
LINE
  5
2A0
330
1F
100
AcDbEntity
  8
0
  6
Continuous
 62
     7
370
    25
100
AcDbLine
 10
9002.8212170388
 20
6373.0979174511
 30
0.0
 11
9003.4028364286
 21
6373.0755205074
 31
0.0
  0
LINE
  5
2A1
330
1F
100
AcDbEntity
  8
0
  6
Continuous
 62
     7
370
    25
100
AcDbLine
 10
9007.5211901804
 20
6372.9120649891
 30
0.0
 11
9008.4622415556
 21
6372.87582706
 31
0.0
  0
LWPOLYLINE
  5
2A2
330
1F
100
AcDbEntity
  8
0
  6
Continuous
 62
     7
370
    25
100
AcDbPolyline
 90
        3
 70
   128
 43
0.0
 10
9001.7152263329
 20
6372.8542875022
 10
9001.5827339077
 20
6372.9035978651
 10
9001.4551409838
 20
6372.9821603451
  0
LWPOLYLINE
  5
2A3
330
1F
100
AcDbEntity
  8
0
  6
Continuous
 62
     7
370
    25
100
AcDbPolyline
 90
        3
 70
   128
 43
0.0
 10
9001.3030990295
 20
6373.1563769947
 10
9001.3993186255
 20
6373.0279616326
 10
9001.4551409839
 20
6372.9821603453
  0
ARC
  5
2A4
330
1F
100
AcDbEntity
  8
0
  6
Continuous
 62
     7
370
    25
100
AcDbCircle
 10
9002.2227907409
 20
6373.462510948
 30
0.0
 40
0.5828136392764662
100
AcDbArc
 50
282.6584448275
 51
333.5978861433
  0
LWPOLYLINE
  5
2A5
330
1F
100
AcDbEntity
  8
0
  6
Continuous
 62
     7
370
    25
100
AcDbPolyline
 90
        3
 70
   128
 43
0.0
 10
9002.6604976251
 20
6372.9357445864
 10
9002.5478867354
 20
6372.8765290932
 10
9002.3863741814
 20
6372.8284430047
  0
LWPOLYLINE
  5
2A6
330
1F
100
AcDbEntity
  8
0
  6
Continuous
 62
     7
370
    25
100
AcDbPolyline
 90
        3
 70
   128
 43
0.0
 10
9002.660497625
 20
6372.9357445865
 10
9002.7983672573
 20
6373.0628262199
 10
9002.8212170388
 20
6373.0979174511
  0
LINE
  5
2A7
330
1F
100
AcDbEntity
  8
0
  6
Continuous
 62
     7
370
    25
100
AcDbLine
 10
9001.7135443878
 20
6372.8421347125
 30
0.0
 11
9001.6231839012
 21
6372.8436466044
 31
0.0
  0
LINE
  5
2A8
330
1F
100
AcDbEntity
  8
0
  6
Continuous
 62
     7
370
    25
100
AcDbLine
 10
8995.4806328251
 20
6372.6472950424
 30
0.0
 11
8996.6162173126
 21
6372.7287291949
 31
0.0
  0
LINE
  5
2A9
330
1F
100
AcDbEntity
  8
0
  6
Continuous
 62
     7
370
    25
100
AcDbLine
 10
8997.3528888857
 20
6372.2127029519
 30
0.0
 11
8998.2427730554
 21
6372.3861342209
 31
0.0
  0
LINE
  5
2AA
330
1F
100
AcDbEntity
  8
0
  6
Continuous
 62
     7
370
    25
100
AcDbLine
 10
9002.3846922363
 20
6372.8162902149
 30
0.0
 11
9002.4710793621
 21
6372.8109959274
 31
0.0
  0
LINE
  5
2AB
330
1F
100
AcDbEntity
  8
0
  6
Continuous
 62
     7
370
    25
100
AcDbLine
 10
9002.4239331424
 20
6372.7032095284
 30
0.0
 11
9002.4371961792
 21
6372.714480837
 31
0.0
  0
LWPOLYLINE
  5
2AC
330
1F
100
AcDbEntity
  8
0
  6
Continuous
 62
     7
370
    25
100
AcDbPolyline
 90
        3
 70
   128
 43
0.0
 10
9002.4239331441
 20
6372.7032095285
 10
9002.3472056622
 20
6372.6885456145
 10
9002.2141221965
 20
6372.7106370739
  0
LINE
  5
2AD
330
1F
100
AcDbEntity
  8
0
  6
Continuous
 62
     7
370
    25
100
AcDbLine
 10
8999.9716281725
 20
6371.8768037139
 30
0.0
 11
9000.1130735794
 21
6371.9644167024
 31
0.0
  0
LWPOLYLINE
  5
2AE
330
1F
100
AcDbEntity
  8
0
  6
Continuous
 62
     7
370
    25
100
AcDbPolyline
 90
        3
 70
   128
 43
0.0
 10
9001.8532162262
 20
6372.7245348066
 10
9001.7278382675
 20
6372.7115661521
 10
9001.6251728526
 20
6372.7339681141
  0
LWPOLYLINE
  5
2AF
330
1F
100
AcDbEntity
  8
0
  6
Continuous
 62
     7
370
    25
100
AcDbPolyline
 90
        3
 70
   128
 43
0.0
 10
9001.6024391496
 20
6372.7471835439
 10
9001.6031339161
 20
6372.7463760721
 10
9001.6251728514
 20
6372.7339681144
  0
LINE
  5
2B0
330
1F
100
AcDbEntity
  8
0
  6
Continuous
 62
     7
370
    25
100
AcDbLine
 10
9000.7864258384
 20
6372.3903504175
 30
0.0
 11
9001.4795239724
 21
6372.8196637585
 31
0.0
  0
LINE
  5
2B1
330
1F
100
AcDbEntity
  8
0
  6
Continuous
 62
     7
370
    25
100
AcDbLine
 10
9001.6251728526
 20
6372.7339681141
 30
0.0
 11
9000.8056837749
 21
6372.2263666899
 31
0.0
  0
LINE
  5
2B2
330
1F
100
AcDbEntity
  8
0
  6
Continuous
 62
     7
370
    25
100
AcDbLine
 10
9003.0949744654
 20
6372.1382108625
 30
0.0
 11
9002.4239331441
 21
6372.7032095285
 31
0.0
  0
LINE
  5
2B3
330
1F
100
AcDbEntity
  8
0
  6
Continuous
 62
     7
370
    25
100
AcDbLine
 10
9001.8520201926
 20
6372.6763664599
 30
0.0
 11
9001.8777073006
 21
6372.7174829275
 31
0.0
  0
LWPOLYLINE
  5
2B4
330
1F
100
AcDbEntity
  8
0
  6
Continuous
 62
     7
370
    25
100
AcDbPolyline
 90
        3
 70
   128
 43
0.0
 10
9002.1879491777
 20
6372.7055361633
 10
9002.1972029489
 20
6372.6593113751
 10
9002.1979755645
 20
6372.6594526779
  0
LINE
  5
2B5
330
1F
100
AcDbEntity
  8
0
  6
Continuous
 62
     7
370
    25
100
AcDbLine
 10
9002.5641428096
 20
6372.769711458
 30
0.0
 11
9003.1215002425
 21
6372.3004315492
 31
0.0
  0
LINE
  5
2B6
330
1F
100
AcDbEntity
  8
0
  6
Continuous
 62
     7
370
    25
100
AcDbLine
 10
9005.7677489035
 20
6372.0637564065
 30
0.0
 11
9006.4697211078
 21
6371.8616328475
 31
0.0
  0
LINE
  5
2B7
330
1F
100
AcDbEntity
  8
0
  6
Continuous
 62
     7
370
    25
100
AcDbLine
 10
9007.4477787681
 20
6372.2994525183
 30
0.0
 11
9008.4506366875
 21
6372.1468410877
 31
0.0
  0
LINE
  5
2B8
330
1F
100
AcDbEntity
  8
0
  6
Continuous
 62
     7
370
    25
100
AcDbLine
 10
9012.0133466548
 20
6377.9110704862
 30
0.0
 11
9012.0236476036
 21
6378.4955636584
 31
0.0
  0
LINE
  5
2B9
330
1F
100
AcDbEntity
  8
0
  6
Continuous
 62
     7
370
    25
100
AcDbLine
 10
8996.0127897026
 20
6371.9515283986
 30
0.0
 11
8996.7430343758
 21
6372.0938472131
 31
0.0
  0
LINE
  5
2BA
330
1F
100
AcDbEntity
  8
0
  6
Continuous
 62
     7
370
    25
100
AcDbLine
 10
9007.1620635175
 20
6371.6622820597
 30
0.0
 11
9007.7237020956
 21
6371.5005657015
 31
0.0
  0
LINE
  5
2BB
330
1F
100
AcDbEntity
  8
0
  6
Continuous
 62
     7
370
    25
100
AcDbLine
 10
8999.0931247719
 20
6371.3326481033
 30
0.0
 11
8999.2390655521
 21
6371.4230455831
 31
0.0
  0
LINE
  5
2BC
330
1F
100
AcDbEntity
  8
0
  6
Continuous
 62
     7
370
    25
100
AcDbLine
 10
9004.4324744379
 20
6371.1858175725
 30
0.0
 11
9004.505628382
 21
6371.1242239151
 31
0.0
  0
LINE
  5
2BD
330
1F
100
AcDbEntity
  8
0
  6
Continuous
 62
     7
370
    25
100
AcDbLine
 10
8996.9755421771
 20
6371.3239480265
 30
0.0
 11
8997.3102010814
 21
6371.4432412566
 31
0.0
  0
LINE
  5
2BE
330
1F
100
AcDbEntity
  8
0
  6
Continuous
 62
     7
370
    25
100
AcDbLine
 10
8991.4712766739
 20
6377.5810065453
 30
0.0
 11
8991.4815776227
 21
6378.1654997176
 31
0.0
  0
ARC
  5
2BF
330
1F
100
AcDbEntity
  8
0
  6
Continuous
 62
     7
370
    25
100
AcDbCircle
 10
9009.2964750808
 20
6380.0780085467
 30
0.0
 40
3.970600491332804
100
AcDbArc
 50
307.1969131825
 51
323.0785433091
  0
LWPOLYLINE
  5
2C0
330
1F
100
AcDbEntity
  8
0
  6
Continuous
 62
     7
370
    25
100
AcDbPolyline
 90
        3
 70
   128
 43
0.0
 10
9012.8972608077
 20
6377.7037383879
 10
9012.8994915637
 20
6377.7057567318
 10
9012.90203997
 20
6377.7270957217
  0
LINE
  5
2C1
330
1F
100
AcDbEntity
  8
0
  6
Continuous
 62
     7
370
    25
100
AcDbLine
 10
9006.3835244686
 20
6371.05687529
 30
0.0
 11
9006.5983639491
 21
6370.9533933241
 31
0.0
  0
LINE
  5
2C2
330
1F
100
AcDbEntity
  8
0
  6
Continuous
 62
     7
370
    25
100
AcDbLine
 10
9001.6549728518
 20
6370.849915554
 30
0.0
 11
9001.6430909945
 21
6370.7640639797
 31
0.0
  0
LINE
  5
2C3
330
1F
100
AcDbEntity
  8
0
  6
Continuous
 62
     7
370
    25
100
AcDbLine
 10
9001.8628608664
 20
6370.7556011021
 30
0.0
 11
9001.8753194356
 21
6370.8456196973
 31
0.0
  0
LWPOLYLINE
  5
2C4
330
1F
100
AcDbEntity
  8
0
  6
Continuous
 62
     7
370
    25
100
AcDbPolyline
 90
        3
 70
   128
 43
0.0
 10
8991.5539534892
 20
6377.3840809447
 10
8991.5729589685
 20
6377.3582550653
 10
8991.5778225483
 20
6377.3604643961
  0
LWPOLYLINE
  5
2C5
330
1F
100
AcDbEntity
  8
0
  6
Continuous
 62
     7
370
    25
100
AcDbPolyline
 90
        3
 70
   128
 43
0.0
 10
8992.4167992889
 20
6377.3705688275
 10
8992.5426539061
 20
6377.2610431002
 10
8992.5527441267
 20
6377.2525689956
  0
LWPOLYLINE
  5
2C6
330
1F
100
AcDbEntity
  8
0
  6
Continuous
 62
     8
370
    25
100
AcDbPolyline
 90
        8
 70
   128
 43
0.0
 10
9013.519938992
 20
6395.3040040999
 10
9013.5178632047
 20
6395.2889554256
 10
9013.507513031
 20
6395.2139848663
 10
9013.4901888801
 20
6395.0885230686
 10
9013.4670351054
 20
6394.9208585249
 10
9013.44012206
 20
6394.7259833719
 10
9013.4118745343
 20
6394.5214546264
 10
9013.3844570835
 20
6394.322943796
  0
LWPOLYLINE
  5
2C7
330
1F
100
AcDbEntity
  8
0
  6
Continuous
 62
     8
370
    25
100
AcDbPolyline
 90
        8
 70
   128
 43
0.0
 10
8991.0615900632
 20
6395.3040472139
 10
8991.0636719747
 20
6395.2889547212
 10
8991.0740221353
 20
6395.2139841721
 10
8991.0913461776
 20
6395.0885222876
 10
8991.1144997965
 20
6394.9208576029
 10
8991.1414126931
 20
6394.7259823188
 10
8991.1696601248
 20
6394.5214535088
 10
8991.1970775721
 20
6394.3229427095
  0
LWPOLYLINE
  5
2C8
330
1F
100
AcDbEntity
  8
0
  6
Continuous
 62
     8
370
    25
100
AcDbPolyline
 90
        7
 70
   128
 43
0.0
 10
9025.0238244042
 20
6371.2797880156
 10
9023.2851872184
 20
6372.3573042392
 10
9021.7310358555
 20
6373.4108570103
 10
9020.4250108252
 20
6374.4355402311
 10
9019.4255912377
 20
6375.4272722544
 10
9018.7901188864
 20
6376.3784303181
 10
9018.7276079132
 20
6376.6326414944
  0
LWPOLYLINE
  5
2C9
330
1F
100
AcDbEntity
  8
0
  6
Continuous
 62
     8
370
    25
100
AcDbPolyline
 90
        9
 70
   128
 43
0.0
 10
9029.2735273726
 20
6367.2790166556
 10
9029.2714778534
 20
6367.4938128516
 10
9029.1365670458
 20
6367.8639799861
 10
9028.884600672
 20
6368.276668824
 10
9028.5099110639
 20
6368.7293729159
 10
9028.0086106315
 20
6369.2193672105
 10
9027.2096064387
 20
6369.8714196078
 10
9026.1499421922
 20
6370.602186984
 10
9025.0238244042
 20
6371.2797880156
  0
LWPOLYLINE
  5
2CA
330
1F
100
AcDbEntity
  8
0
  6
Continuous
 62
     8
370
    25
100
AcDbPolyline
 90
       10
 70
   128
 43
0.0
 10
8979.5577103227
 20
6371.2797879157
 10
8978.7532830222
 20
6370.8064802201
 10
8978.0597295267
 20
6370.3610690321
 10
8977.4706252045
 20
6369.9464423038
 10
8976.9780340148
 20
6369.565166537
 10
8976.5729551978
 20
6369.2194631634
 10
8975.9331784738
 20
6368.574760408
 10
8975.5158330082
 20
6367.9974615013
 10
8975.3100342022
 20
6367.4937490306
 10
8975.2951322301
 20
6367.2717139994
  0
LWPOLYLINE
  5
2CB
330
1F
100
AcDbEntity
  8
0
  6
Continuous
 62
     8
370
    25
100
AcDbPolyline
 90
        7
 70
   128
 43
0.0
 10
8985.8701317254
 20
6376.6541303967
 10
8985.8235760631
 20
6376.4509058356
 10
8985.2622703454
 20
6375.5568921673
 10
8984.3382824493
 20
6374.5976127914
 10
8983.0653495721
 20
6373.5704929607
 10
8981.4645486335
 20
6372.4674383751
 10
8979.5577103276
 20
6371.2797878881
  0
ARC
  5
2CC
330
1F
100
AcDbEntity
  8
0
  6
Continuous
 62
     8
370
    25
100
AcDbCircle
 10
8980.3208328791
 20
6371.4822302928
 30
0.0
 40
0.7895181795320385
100
AcDbArc
 50
123.8961993892
 51
194.8573041333
  0
ARC
  5
2CD
330
1F
100
AcDbEntity
  8
0
  6
Continuous
 62
     8
370
    25
100
AcDbCircle
 10
9024.2605939136
 20
6371.482215647
 30
0.0
 40
0.7896187339654742
100
AcDbArc
 50
345.1457309394
 51
56.0539695416
  0
LINE
  5
2CE
330
1F
100
AcDbEntity
  8
0
  6
Continuous
 62
     8
370
    25
100
AcDbLine
 10
9013.3599840167
 20
6378.2248716885
 30
0.0
 11
9013.5094699541
 21
6378.305213972
 31
0.0
  0
LINE
  5
2CF
330
1F
100
AcDbEntity
  8
0
  6
Continuous
 62
     8
370
    25
100
AcDbLine
 10
8990.5613088416
 20
6378.0509550872
 30
0.0
 11
8990.9235502486
 21
6377.8643696673
 31
0.0
  0
LWPOLYLINE
  5
2D0
330
1F
100
AcDbEntity
  8
0
  6
Continuous
 62
     8
370
    25
100
AcDbPolyline
 90
       26
 70
   128
 43
0.0
 10
8995.0390273516
 20
6371.9954587049
 10
8994.9375652418
 20
6372.3228363298
 10
8994.9371470327
 20
6372.7558505982
 10
8995.0881764641
 20
6373.1820691923
 10
8995.3874346061
 20
6373.5924080026
 10
8995.8285432907
 20
6373.9781213697
 10
8996.4021010523
 20
6374.3309884831
 10
8997.0958835029
 20
6374.6434885926
 10
8997.8951038742
 20
6374.9089613012
 10
8998.7827281714
 20
6375.1217485188
 10
8999.7398382237
 20
6375.2773150554
 10
9000.7460348921
 20
6375.3723452803
 10
9001.7798728415
 20
6375.4048137893
 10
9002.8193176108
 20
6375.3740285724
 10
9003.8422152395
 20
6375.2806457632
 10
9004.8267644404
 20
6375.126655654
 10
9005.7519812568
 20
6374.9153402768
 10
9006.5981462984
 20
6374.6512034518
 10
9007.3472250266
 20
6374.339874797
 10
9007.9832521286
 20
6373.987989742
 10
9008.4926717911
 20
6373.603048106
 10
9008.8646266184
 20
6373.1932542516
 10
9009.0911890391
 20
6372.7673422232
 10
9009.1675302686
 20
6372.3343895965
 10
9009.092023226
 20
6371.9036240048
 10
9009.0283499654
 20
6371.7518274627
  0
LWPOLYLINE
  5
2D1
330
1F
100
AcDbEntity
  8
0
  6
Continuous
 62
     8
370
    25
100
AcDbPolyline
 90
        5
 70
   128
 43
0.0
 10
9008.3237621234
 20
6373.604997415
 10
9008.7940149417
 20
6373.1003185921
 10
9009.0461316567
 20
6372.5394654911
 10
9009.0293483806
 20
6371.9492007123
 10
9008.9019296126
 20
6371.7093685951
  0
LINE
  5
2D2
330
1F
100
AcDbEntity
  8
0
  6
Continuous
 62
     8
370
    25
100
AcDbLine
 10
9002.3518994757
 20
6375.0946705425
 30
0.0
 11
9002.3540130254
 21
6375.1099418638
 31
0.0
  0
LINE
  5
2D3
330
1F
100
AcDbEntity
  8
0
  6
Continuous
 62
     8
370
    25
100
AcDbLine
 10
9002.3754252532
 20
6375.1091917047
 30
0.0
 11
9002.373301464
 21
6375.0938463971
 31
0.0
  0
LINE
  5
2D4
330
1F
100
AcDbEntity
  8
0
  6
Continuous
 62
     8
370
    25
100
AcDbLine
 10
9000.9398012108
 20
6375.0948972135
 30
0.0
 11
9000.9511474711
 21
6375.0719411723
 31
0.0
  0
LINE
  5
2D5
330
1F
100
AcDbEntity
  8
0
  6
Continuous
 62
     8
370
    25
100
AcDbLine
 10
9000.9382512007
 20
6375.0710163652
 30
0.0
 11
9000.9268115784
 21
6375.0941612985
 31
0.0
  0
LINE
  5
2D6
330
1F
100
AcDbEntity
  8
0
  6
Continuous
 62
     8
370
    25
100
AcDbLine
 10
9003.7529438979
 20
6374.9640498631
 30
0.0
 11
9003.7779178236
 21
6374.995139615
 31
0.0
  0
LINE
  5
2D7
330
1F
100
AcDbEntity
  8
0
  6
Continuous
 62
     8
370
    25
100
AcDbLine
 10
9003.7906337377
 20
6374.9934993414
 30
0.0
 11
9003.7654488059
 21
6374.9621469099
 31
0.0
  0
LINE
  5
2D8
330
1F
100
AcDbEntity
  8
0
  6
Continuous
 62
     8
370
    25
100
AcDbLine
 10
8999.6116974052
 20
6374.8981673009
 30
0.0
 11
8999.5504706357
 21
6374.9497185826
 31
0.0
  0
LINE
  5
2D9
330
1F
100
AcDbEntity
  8
0
  6
Continuous
 62
     8
370
    25
100
AcDbLine
 10
8999.5925474254
 20
6374.8944351236
 30
0.0
 11
8999.5305885937
 21
6374.9466027819
 31
0.0
  0
LINE
  5
2DA
330
1F
100
AcDbEntity
  8
0
  6
Continuous
 62
     8
370
    25
100
AcDbLine
 10
9005.0303468947
 20
6374.6895064637
 30
0.0
 11
9005.1307273297
 21
6374.7516833166
 31
0.0
  0
LWPOLYLINE
  5
2DB
330
1F
100
AcDbEntity
  8
0
  6
Continuous
 62
     8
370
    25
100
AcDbPolyline
 90
       21
 70
   128
 43
0.0
 10
8996.6390196911
 20
6372.4617855412
 10
8996.6606787236
 20
6372.7581613372
 10
8996.8260277762
 20
6373.1313426367
 10
8997.1414711516
 20
6373.4853012439
 10
8997.5979341183
 20
6373.8098544141
 10
8998.1822850677
 20
6374.0956653435
 10
8998.877713287
 20
6374.334511772
 10
8999.6642125726
 20
6374.5195225227
 10
9000.5191567718
 20
6374.6453751733
 10
9001.4179506967
 20
6374.7084491721
 10
9002.3347376825
 20
6374.7069299949
 10
9003.2431434368
 20
6374.6408613458
 10
9004.1170347801
 20
6374.5121438995
 10
9004.9312714493
 20
6374.3244806225
 10
9005.6624293381
 20
6374.0832702457
 10
9006.2894743652
 20
6373.7954519524
 10
9006.7943675868
 20
6373.4693057509
 10
9007.1625841442
 20
6373.1142142737
 10
9007.3835311174
 20
6372.7403928559
 10
9007.4508522643
 20
6372.3585956592
 10
9007.4440688209
 20
6372.2688310614
  0
ARC
  5
2DC
330
1F
100
AcDbEntity
  8
0
  6
Continuous
 62
     8
370
    25
100
AcDbCircle
 10
9006.1626265245
 20
6372.3191467992
 30
0.0
 40
1.165131037806675
100
AcDbArc
 50
353.4550079225
 51
57.7816413627
  0
LINE
  5
2DD
330
1F
100
AcDbEntity
  8
0
  6
Continuous
 62
     8
370
    25
100
AcDbLine
 10
9005.0482662472
 20
6374.6843468246
 30
0.0
 11
9005.1497120377
 21
6374.7471835715
 31
0.0
  0
LWPOLYLINE
  5
2DE
330
1F
100
AcDbEntity
  8
0
  6
Continuous
 62
     8
370
    25
100
AcDbPolyline
 90
       20
 70
   128
 43
0.0
 10
9007.2427429983
 20
6372.3800065191
 10
9007.2163491989
 20
6372.1778716502
 10
9007.046666026
 20
6371.8097174719
 10
9006.7249657153
 20
6371.4616753434
 10
9006.261022968
 20
6371.1443203486
 10
9005.6689344495
 20
6370.8672951583
 10
9004.9666904701
 20
6370.6390170429
 10
9004.1756283576
 20
6370.4664221173
 10
9003.319784134
 20
6370.3547545911
 10
9002.4251621929
 20
6370.3074074254
 10
9001.5189451695
 20
6370.3258192401
 10
9000.6286680093
 20
6370.4094306013
 10
8999.7813813333
 20
6370.5557010202
 10
8999.0028295185
 20
6370.7601861442
 10
8998.3166684677
 20
6371.0166727962
 10
8997.7437468374
 20
6371.3173677591
 10
8997.3014725613
 20
6371.6531345685
 10
8997.0032839195
 20
6372.01377112
 10
8996.858241223
 20
6372.3883196544
 10
8996.8443577212
 20
6372.5632648349
  0
LINE
  5
2DF
330
1F
100
AcDbEntity
  8
0
  6
Continuous
 62
     8
370
    25
100
AcDbLine
 10
9002.2618555249
 20
6374.4440635283
 30
0.0
 11
9002.2876167388
 21
6374.6301995902
 31
0.0
  0
LINE
  5
2E0
330
1F
100
AcDbEntity
  8
0
  6
Continuous
 62
     8
370
    25
100
AcDbLine
 10
9002.3090290854
 20
6374.6294502849
 30
0.0
 11
9002.2832575139
 21
6374.4432393828
 31
0.0
  0
LINE
  5
2E1
330
1F
100
AcDbEntity
  8
0
  6
Continuous
 62
     8
370
    25
100
AcDbLine
 10
8998.2474601312
 20
6374.6709630551
 30
0.0
 11
8998.4312718735
 21
6374.5824262537
 31
0.0
  0
LINE
  5
2E2
330
1F
100
AcDbEntity
  8
0
  6
Continuous
 62
     8
370
    25
100
AcDbLine
 10
8998.5021103873
 20
6374.696170105
 30
0.0
 11
8998.4445687373
 21
6374.7238862528
 31
0.0
  0
LINE
  5
2E3
330
1F
100
AcDbEntity
  8
0
  6
Continuous
 62
     8
370
    25
100
AcDbLine
 10
8998.4214397876
 20
6374.5789214875
 30
0.0
 11
8998.2366453325
 21
6374.6679316336
 31
0.0
  0
LINE
  5
2E4
330
1F
100
AcDbEntity
  8
0
  6
Continuous
 62
     8
370
    25
100
AcDbLine
 10
9000.0794054502
 20
6374.5043697928
 30
0.0
 11
9000.3167001767
 21
6374.3045740593
 31
0.0
  0
LINE
  5
2E5
330
1F
100
AcDbEntity
  8
0
  6
Continuous
 62
     8
370
    25
100
AcDbLine
 10
9000.2552901155
 20
6374.5301437277
 30
0.0
 11
9000.4013328927
 21
6374.4071796635
 31
0.0
  0
LINE
  5
2E6
330
1F
100
AcDbEntity
  8
0
  6
Continuous
 62
     8
370
    25
100
AcDbLine
 10
9000.2975501977
 20
6374.3008418821
 30
0.0
 11
9000.0595149116
 21
6374.5012611466
 31
0.0
  0
LINE
  5
2E7
330
1F
100
AcDbEntity
  8
0
  6
Continuous
 62
     8
370
    25
100
AcDbLine
 10
9006.1744954846
 20
6374.4490275907
 30
0.0
 11
9006.0521951709
 21
6374.4054321601
 31
0.0
  0
LINE
  5
2E8
330
1F
100
AcDbEntity
  8
0
  6
Continuous
 62
     8
370
    25
100
AcDbLine
 10
9006.1113232435
 20
6374.286683569
 30
0.0
 11
9006.3684309204
 21
6374.3783327217
 31
0.0
  0
LINE
  5
2E9
330
1F
100
AcDbEntity
  8
0
  6
Continuous
 62
     8
370
    25
100
AcDbLine
 10
9006.3784145336
 20
6374.3745470531
 30
0.0
 11
9006.120086109
 21
6374.2824627498
 31
0.0
  0
LINE
  5
2EA
330
1F
100
AcDbEntity
  8
0
  6
Continuous
 62
     8
370
    25
100
AcDbLine
 10
9004.0945211624
 20
6374.2649627223
 30
0.0
 11
9004.2958811332
 21
6374.389687518
 31
0.0
  0
LINE
  5
2EB
330
1F
100
AcDbEntity
  8
0
  6
Continuous
 62
     8
370
    25
100
AcDbLine
 10
9004.169383426
 20
6374.1562153006
 30
0.0
 11
9004.4796013497
 21
6374.3483680264
 31
0.0
  0
LINE
  5
2EC
330
1F
100
AcDbEntity
  8
0
  6
Continuous
 62
     8
370
    25
100
AcDbLine
 10
9004.4985984545
 20
6374.3438759594
 30
0.0
 11
9004.1873027786
 21
6374.1510556613
 31
0.0
  0
LWPOLYLINE
  5
2ED
330
1F
100
AcDbEntity
  8
0
  6
Continuous
 62
     8
370
    25
100
AcDbPolyline
 90
       18
 70
   128
 43
0.0
 10
8998.2408631096
 20
6372.3965042798
 10
8998.2623679328
 20
6372.7172258611
 10
8998.4386646824
 20
6373.0273183605
 10
8998.7625357488
 20
6373.3140865547
 10
8999.2207218124
 20
6373.5657901201
 10
8999.794464682
 20
6373.7721242831
 10
9000.460275257
 20
6373.9246416988
 10
9001.1908951744
 20
6374.0170982864
 10
9001.9564127687
 20
6374.0457088624
 10
9002.7254876599
 20
6374.0093021062
 10
9003.4666338315
 20
6373.9093685149
 10
9004.149508672
 20
6373.7499993814
 10
9004.7461552054
 20
6373.5377192967
 10
9005.2321466525
 20
6373.2812190324
 10
9005.5875864662
 20
6372.9909997396
 10
9005.7979228989
 20
6372.6789430301
 10
9005.8545447523
 20
6372.3578245424
 10
9005.8439247033
 20
6372.275861551
  0
LWPOLYLINE
  5
2EE
330
1F
100
AcDbEntity
  8
0
  6
Continuous
 62
     8
370
    25
100
AcDbPolyline
 90
        3
 70
   128
 43
0.0
 10
9005.3596066592
 20
6373.0273073508
 10
9005.7411167528
 20
6372.4645604945
 10
9005.7336037918
 20
6372.2003310184
  0
LWPOLYLINE
  5
2EF
330
1F
100
AcDbEntity
  8
0
  6
Continuous
 62
     8
370
    25
100
AcDbPolyline
 90
       17
 70
   128
 43
0.0
 10
9005.6429914173
 20
6372.4082001062
 10
9005.6098621502
 20
6372.2165389934
 10
9005.4304795998
 20
6371.9149109356
 10
9005.1030719894
 20
6371.6376144204
 10
9004.6419486025
 20
6371.3967686362
 10
9004.0672627439
 20
6371.2028996995
 10
9003.4041309433
 20
6371.0644806131
 10
9002.6815352424
 20
6370.9875609553
 10
9001.9310565407
 20
6370.9755024841
 10
9001.1854943587
 20
6371.0288322128
 10
9000.4774333414
 20
6371.1452193761
 10
8999.8378191529
 20
6371.3195772967
 10
8999.2946060023
 20
6371.5442856967
 10
8998.8715349111
 20
6371.8095237407
 10
8998.587096116
 20
6372.1036992536
 10
8998.4537209573
 20
6372.4139553536
 10
8998.4441093023
 20
6372.5350712479
  0
LINE
  5
2F0
330
1F
100
AcDbEntity
  8
0
  6
Continuous
 62
     8
370
    25
100
AcDbLine
 10
8997.1110898074
 20
6374.2627089024
 30
0.0
 11
8997.503423647
 21
6374.1497415915
 31
0.0
  0
LINE
  5
2F1
330
1F
100
AcDbEntity
  8
0
  6
Continuous
 62
     8
370
    25
100
AcDbLine
 10
8997.5533447529
 20
6374.2659036909
 30
0.0
 11
8997.2907262346
 21
6374.3415211981
 31
0.0
  0
LINE
  5
2F2
330
1F
100
AcDbEntity
  8
0
  6
Continuous
 62
     8
370
    25
100
AcDbLine
 10
8997.4916568989
 20
6374.1424531259
 30
0.0
 11
8997.096797901
 21
6374.2561475222
 31
0.0
  0
LINE
  5
2F3
330
1F
100
AcDbEntity
  8
0
  6
Continuous
 62
     8
370
    25
100
AcDbLine
 10
9001.0048527649
 20
6373.725168216
 30
0.0
 11
9000.8016889106
 21
6373.8962266791
 31
0.0
  0
LINE
  5
2F4
330
1F
100
AcDbEntity
  8
0
  6
Continuous
 62
     8
370
    25
100
AcDbLine
 10
9001.0924297655
 20
6373.8252948259
 30
0.0
 11
9000.98128251
 21
6373.9188777901
 31
0.0
  0
LINE
  5
2F5
330
1F
100
AcDbEntity
  8
0
  6
Continuous
 62
     8
370
    25
100
AcDbLine
 10
9000.9857027859
 20
6373.7214360384
 30
0.0
 11
9000.7814657826
 21
6373.8933980639
 31
0.0
  0
LINE
  5
2F6
330
1F
100
AcDbEntity
  8
0
  6
Continuous
 62
     8
370
    25
100
AcDbLine
 10
9007.2428320025
 20
6373.9790035481
 30
0.0
 11
9006.8734157205
 21
6373.9070072861
 31
0.0
  0
LINE
  5
2F7
330
1F
100
AcDbEntity
  8
0
  6
Continuous
 62
     8
370
    25
100
AcDbLine
 10
9006.9102018609
 20
6373.7875062749
 30
0.0
 11
9007.4069360115
 21
6373.8843157663
 31
0.0
  0
LINE
  5
2F8
330
1F
100
AcDbEntity
  8
0
  6
Continuous
 62
     8
370
    25
100
AcDbLine
 10
9007.4194342318
 20
6373.8767611264
 30
0.0
 11
9006.9198371018
 21
6373.779393663
 31
0.0
  0
LINE
  5
2F9
330
1F
100
AcDbEntity
  8
0
  6
Continuous
 62
     8
370
    25
100
AcDbLine
 10
9003.2505398555
 20
6373.7421905155
 30
0.0
 11
9003.4063897257
 21
6373.8387258056
 31
0.0
  0
LINE
  5
2FA
330
1F
100
AcDbEntity
  8
0
  6
Continuous
 62
     8
370
    25
100
AcDbLine
 10
9003.3289977378
 20
6373.6356702629
 30
0.0
 11
9003.5959172847
 21
6373.8010034514
 31
0.0
  0
LINE
  5
2FB
330
1F
100
AcDbEntity
  8
0
  6
Continuous
 62
     8
370
    25
100
AcDbLine
 10
9003.3469170898
 20
6373.6305106237
 30
0.0
 11
9003.6154005356
 21
6373.7968125104
 31
0.0
  0
LINE
  5
2FC
330
1F
100
AcDbEntity
  8
0
  6
Continuous
 62
     8
370
    25
100
AcDbLine
 10
8998.8602248958
 20
6373.8896049353
 30
0.0
 11
8998.3322708634
 21
6374.0416222766
 31
0.0
  0
LINE
  5
2FD
330
1F
100
AcDbEntity
  8
0
  6
Continuous
 62
     8
370
    25
100
AcDbLine
 10
8998.1509597459
 20
6373.9632921853
 30
0.0
 11
8998.8145682177
 21
6373.7722149528
 31
0.0
  0
LINE
  5
2FE
330
1F
100
AcDbEntity
  8
0
  6
Continuous
 62
     8
370
    25
100
AcDbLine
 10
8998.8028014695
 20
6373.764926487
 30
0.0
 11
8998.1366381122
 21
6373.9567393648
 31
0.0
  0
LWPOLYLINE
  5
2FF
330
1F
100
AcDbEntity
  8
0
  6
Continuous
 62
     8
370
    25
100
AcDbPolyline
 90
       14
 70
   128
 43
0.0
 10
8999.7366589019
 20
6372.4625674764
 10
8999.7760132955
 20
6372.6760939638
 10
8999.9651225322
 20
6372.9115138733
 10
9000.2958629987
 20
6373.1163785097
 10
9000.7456952788
 20
6373.2767266867
 10
9001.2839640461
 20
6373.3816309411
 10
9001.8739871736
 20
6373.4239422212
 10
9002.4755555602
 20
6373.4007770832
 10
9003.0476733145
 20
6373.313714193
 10
9003.551351557
 20
6373.1686867427
 10
9003.9522654478
 20
6372.9755781133
 10
9004.2230933679
 20
6372.7475483389
 10
9004.345378842
 20
6372.5001372717
 10
9004.3486494358
 20
6372.3809547246
  0
LWPOLYLINE
  5
300
330
1F
100
AcDbEntity
  8
0
  6
Continuous
 62
     8
370
    25
100
AcDbPolyline
 90
        3
 70
   128
 43
0.0
 10
9004.0149381272
 20
6372.765242267
 10
9004.2418197038
 20
6372.4305803635
 10
9004.2381306569
 20
6372.3001878754
  0
LWPOLYLINE
  5
301
330
1F
100
AcDbEntity
  8
0
  6
Continuous
 62
     8
370
    25
100
AcDbPolyline
 90
        3
 70
   128
 43
0.0
 10
8999.8535130887
 20
6372.4198358497
 10
8999.8509763883
 20
6372.3310661064
 10
9000.0769400892
 20
6371.9977581163
  0
LINE
  5
302
330
1F
100
AcDbEntity
  8
0
  6
Continuous
 62
     8
370
    25
100
AcDbLine
 10
9006.1140327147
 20
6373.7590096441
 30
0.0
 11
9005.4767844901
 21
6373.6348150901
 31
0.0
  0
LINE
  5
303
330
1F
100
AcDbEntity
  8
0
  6
Continuous
 62
     8
370
    25
100
AcDbLine
 10
9005.5090133398
 20
6373.5144258992
 30
0.0
 11
9006.2800764773
 21
6373.6646999039
 31
0.0
  0
LWPOLYLINE
  5
304
330
1F
100
AcDbEntity
  8
0
  6
Continuous
 62
     8
370
    25
100
AcDbPolyline
 90
       13
 70
   128
 43
0.0
 10
9004.1432243103
 20
6372.434631594
 10
9004.1015428682
 20
6372.2682283218
 10
9003.9128363352
 20
6372.0462599042
 10
9003.5854934128
 20
6371.8558396618
 10
9003.1437916281
 20
6371.7110901927
 10
9002.6204899817
 20
6371.6227469029
 10
9002.054399363
 20
6371.5973618101
 10
9001.4875041233
 20
6371.6368176105
 10
9000.9618482892
 20
6371.7381880478
 10
9000.5164173492
 20
6371.8939549405
 10
9000.1842468785
 20
6372.0925657707
 10
8999.9899724412
 20
6372.3192904817
 10
8999.9439186582
 20
6372.4937508712
  0
LINE
  5
305
330
1F
100
AcDbEntity
  8
0
  6
Continuous
 62
     8
370
    25
100
AcDbLine
 10
9006.2926084848
 20
6373.6571518497
 30
0.0
 11
9005.5186485805
 21
6373.5063132879
 31
0.0
  0
LINE
  5
306
330
1F
100
AcDbEntity
  8
0
  6
Continuous
 62
     8
370
    25
100
AcDbLine
 10
8996.2077932267
 20
6373.7272166879
 30
0.0
 11
8996.8810206461
 21
6373.6247672809
 31
0.0
  0
LINE
  5
307
330
1F
100
AcDbEntity
  8
0
  6
Continuous
 62
     8
370
    25
100
AcDbLine
 10
8996.9065070749
 20
6373.7495836818
 30
0.0
 11
8996.3513456011
 21
6373.8340662245
 31
0.0
  0
LINE
  5
308
330
1F
100
AcDbEntity
  8
0
  6
Continuous
 62
     8
370
    25
100
AcDbLine
 10
8996.8768872425
 20
6373.6196216542
 30
0.0
 11
8996.2016573256
 21
6373.7223757946
 31
0.0
  0
LINE
  5
309
330
1F
100
AcDbEntity
  8
0
  6
Continuous
 62
     8
370
    25
100
AcDbLine
 10
9001.5552130899
 20
6373.2654206981
 30
0.0
 11
9001.9119693915
 21
6372.9650415537
 31
0.0
  0
LINE
  5
30A
330
1F
100
AcDbEntity
  8
0
  6
Continuous
 62
     8
370
    25
100
AcDbLine
 10
9001.8812779131
 20
6373.160110538
 30
0.0
 11
9001.7340875898
 21
6373.2840408041
 31
0.0
  0
LINE
  5
30B
330
1F
100
AcDbEntity
  8
0
  6
Continuous
 62
     8
370
    25
100
AcDbLine
 10
9002.2222112686
 20
6372.9530947891
 30
0.0
 11
9002.692509534
 21
6373.2444032105
 31
0.0
  0
LINE
  5
30C
330
1F
100
AcDbEntity
  8
0
  6
Continuous
 62
     8
370
    25
100
AcDbLine
 10
9002.7231048399
 20
6373.2411323659
 30
0.0
 11
9002.246702343
 21
6372.94604291
 31
0.0
  0
LINE
  5
30D
330
1F
100
AcDbEntity
  8
0
  6
Continuous
 62
     8
370
    25
100
AcDbLine
 10
9002.3863741814
 20
6372.8284430043
 30
0.0
 11
9003.9943783643
 21
6372.766522133
 31
0.0
  0
LINE
  5
30E
330
1F
100
AcDbEntity
  8
0
  6
Continuous
 62
     8
370
    25
100
AcDbLine
 10
9003.9694112228
 20
6372.7552660074
 30
0.0
 11
9002.3846922363
 21
6372.8162902145
 31
0.0
  0
LINE
  5
30F
330
1F
100
AcDbEntity
  8
0
  6
Continuous
 62
     8
370
    25
100
AcDbLine
 10
9001.7135443878
 20
6372.8421347125
 30
0.0
 11
9000.1973043307
 21
6372.9005219398
 31
0.0
  0
LINE
  5
310
330
1F
100
AcDbEntity
  8
0
  6
Continuous
 62
     8
370
    25
100
AcDbLine
 10
9000.2177048282
 20
6372.9119539167
 30
0.0
 11
9001.7152263329
 21
6372.8542875019
 31
0.0
  0
LINE
  5
311
330
1F
100
AcDbEntity
  8
0
  6
Continuous
 62
     8
370
    25
100
AcDbLine
 10
9001.8857963727
 20
6372.9599406427
 30
0.0
 11
9001.5265281963
 21
6373.2624347178
 31
0.0
  0
LINE
  5
312
330
1F
100
AcDbEntity
  8
0
  6
Continuous
 62
     8
370
    25
100
AcDbLine
 10
9002.4850439924
 20
6373.2665826752
 30
0.0
 11
9002.2878742615
 21
6373.1444533645
 31
0.0
  0
LINE
  5
313
330
1F
100
AcDbEntity
  8
0
  6
Continuous
 62
     8
370
    25
100
AcDbLine
 10
9008.0586154864
 20
6373.3960098248
 30
0.0
 11
9007.370255193
 21
6373.3466466676
 31
0.0
  0
LINE
  5
314
330
1F
100
AcDbEntity
  8
0
  6
Continuous
 62
     8
370
    25
100
AcDbLine
 10
9007.3814633953
 20
6373.2204172345
 30
0.0
 11
9008.174702995
 21
6373.2773014164
 31
0.0
  0
LINE
  5
315
330
1F
100
AcDbEntity
  8
0
  6
Continuous
 62
     8
370
    25
100
AcDbLine
 10
9008.1794987407
 20
6373.2720459341
 30
0.0
 11
9007.3841362168
 21
6373.2150095139
 31
0.0
  0
LINE
  5
316
330
1F
100
AcDbEntity
  8
0
  6
Continuous
 62
     8
370
    25
100
AcDbLine
 10
8996.6133114769
 20
6373.1712426506
 30
0.0
 11
8995.708027063
 21
6373.2061032682
 31
0.0
  0
LINE
  5
317
330
1F
100
AcDbEntity
  8
0
  6
Continuous
 62
     8
370
    25
100
AcDbLine
 10
8996.6133904419
 20
6373.0491093351
 30
0.0
 11
8995.6346626354
 21
6373.0867980914
 31
0.0
  0
LINE
  5
318
330
1F
100
AcDbEntity
  8
0
  6
Continuous
 62
     8
370
    25
100
AcDbLine
 10
8996.6121598154
 20
6373.0402175185
 30
0.0
 11
8995.6298308585
 21
6373.078044948
 31
0.0
  0
LINE
  5
319
330
1F
100
AcDbEntity
  8
0
  6
Continuous
 62
     8
370
    25
100
AcDbLine
 10
8996.9789759838
 20
6373.0350314018
 30
0.0
 11
8998.1793566826
 21
6372.9888072564
 31
0.0
  0
LINE
  5
31A
330
1F
100
AcDbEntity
  8
0
  6
Continuous
 62
     8
370
    25
100
AcDbLine
 10
8997.0549014715
 20
6373.1542379549
 30
0.0
 11
8998.1741844954
 21
6373.1111367123
 31
0.0
  0
LINE
  5
31B
330
1F
100
AcDbEntity
  8
0
  6
Continuous
 62
     8
370
    25
100
AcDbLine
 10
8998.1781260561
 20
6372.97991544
 30
0.0
 11
8996.9741014544
 21
6373.0262799044
 31
0.0
  0
LINE
  5
31C
330
1F
100
AcDbEntity
  8
0
  6
Continuous
 62
     8
370
    25
100
AcDbLine
 10
8999.7078949594
 20
6372.9299464505
 30
0.0
 11
8998.6105636064
 21
6372.9722023809
 31
0.0
  0
LINE
  5
31D
330
1F
100
AcDbEntity
  8
0
  6
Continuous
 62
     8
370
    25
100
AcDbLine
 10
8999.7092626748
 20
6373.0520240596
 30
0.0
 11
8998.7147689277
 21
6373.0903199396
 31
0.0
  0
LINE
  5
31E
330
1F
100
AcDbEntity
  8
0
  6
Continuous
 62
     8
370
    25
100
AcDbLine
 10
8999.7066643329
 20
6372.921054634
 30
0.0
 11
8998.6039846579
 21
6372.9635165175
 31
0.0
  0
LINE
  5
31F
330
1F
100
AcDbEntity
  8
0
  6
Continuous
 62
     8
370
    25
100
AcDbLine
 10
9001.4551409838
 20
6372.9821603451
 30
0.0
 11
9000.4257502173
 21
6373.0218000264
 31
0.0
  0
LINE
  5
320
330
1F
100
AcDbEntity
  8
0
  6
Continuous
 62
     8
370
    25
100
AcDbLine
 10
9003.7750905252
 20
6372.8928239494
 30
0.0
 11
9002.6604976251
 21
6372.9357445864
 31
0.0
  0
ARC
  5
321
330
1F
100
AcDbEntity
  8
0
  6
Continuous
 62
     8
370
    25
100
AcDbCircle
 10
9001.6672440567
 20
6373.1399211867
 30
0.0
 40
0.3723849658608535
100
AcDbArc
 50
232.7509947682
 51
282.7472220678
  0
LINE
  5
322
330
1F
100
AcDbEntity
  8
0
  6
Continuous
 62
     8
370
    25
100
AcDbLine
 10
9004.4061354348
 20
6372.8711573428
 30
0.0
 11
9005.4938638092
 21
6372.8292712037
 31
0.0
  0
LINE
  5
323
330
1F
100
AcDbEntity
  8
0
  6
Continuous
 62
     8
370
    25
100
AcDbLine
 10
9004.3932542364
 20
6372.7495230826
 30
0.0
 11
9005.5779612054
 21
6372.7039024995
 31
0.0
  0
LINE
  5
324
330
1F
100
AcDbEntity
  8
0
  6
Continuous
 62
     8
370
    25
100
AcDbLine
 10
9004.392185205
 20
6372.740625044
 30
0.0
 11
9005.5820789007
 21
6372.694804731
 31
0.0
  0
LINE
  5
325
330
1F
100
AcDbEntity
  8
0
  6
Continuous
 62
     8
370
    25
100
AcDbLine
 10
9005.9412136136
 20
6372.812044699
 30
0.0
 11
9007.1672497669
 21
6372.7648326172
 31
0.0
  0
LINE
  5
326
330
1F
100
AcDbEntity
  8
0
  6
Continuous
 62
     8
370
    25
100
AcDbLine
 10
9005.9217925131
 20
6372.6906622764
 30
0.0
 11
9007.2095488284
 21
6372.641073479
 31
0.0
  0
LINE
  5
327
330
1F
100
AcDbEntity
  8
0
  6
Continuous
 62
     8
370
    25
100
AcDbLine
 10
9007.2119621044
 20
6372.6320413445
 30
0.0
 11
9005.9205618866
 21
6372.6817704605
 31
0.0
  0
LINE
  5
328
330
1F
100
AcDbEntity
  8
0
  6
Continuous
 62
     8
370
    25
100
AcDbLine
 10
9007.4878325342
 20
6372.6303573567
 30
0.0
 11
9008.5757060805
 21
6372.5884656259
 31
0.0
  0
LINE
  5
329
330
1F
100
AcDbEntity
  8
0
  6
Continuous
 62
     8
370
    25
100
AcDbLine
 10
9007.5020866329
 20
6372.75193875
 30
0.0
 11
9008.5359680809
 21
6372.7121261432
 31
0.0
  0
LINE
  5
32A
330
1F
100
AcDbEntity
  8
0
  6
Continuous
 62
     8
370
    25
100
AcDbLine
 10
9007.4867555248
 20
6372.6214596255
 30
0.0
 11
9008.5780766043
 21
6372.5794351375
 31
0.0
  0
LINE
  5
32B
330
1F
100
AcDbEntity
  8
0
  6
Continuous
 62
     8
370
    25
100
AcDbLine
 10
8995.4888908533
 20
6372.3675863116
 30
0.0
 11
8996.6400866774
 21
6372.4501399729
 31
0.0
  0
LINE
  5
32C
330
1F
100
AcDbEntity
  8
0
  6
Continuous
 62
     8
370
    25
100
AcDbLine
 10
8996.6292297632
 20
6372.5763945998
 30
0.0
 11
8995.4723031269
 21
6372.4934299746
 31
0.0
  0
LINE
  5
32D
330
1F
100
AcDbEntity
  8
0
  6
Continuous
 62
     8
370
    25
100
AcDbLine
 10
8996.6406469558
 20
6372.4445807597
 30
0.0
 11
8995.4915636742
 21
6372.3621785928
 31
0.0
  0
LINE
  5
32E
330
1F
100
AcDbEntity
  8
0
  6
Continuous
 62
     8
370
    25
100
AcDbLine
 10
9008.4446928424
 20
6371.9937426989
 30
0.0
 11
9007.4215750317
 21
6372.1494372094
 31
0.0
  0
LINE
  5
32F
330
1F
100
AcDbEntity
  8
0
  6
Continuous
 62
     8
370
    25
100
AcDbLine
 10
9007.3821535844
 20
6372.02674139
 30
0.0
 11
9008.4126904713
 21
6371.8699178699
 31
0.0
  0
LINE
  5
330
330
1F
100
AcDbEntity
  8
0
  6
Continuous
 62
     8
370
    25
100
AcDbLine
 10
9008.4085570684
 20
6371.8647722445
 30
0.0
 11
9007.3800128998
 21
6372.0212925188
 31
0.0
  0
LINE
  5
331
330
1F
100
AcDbEntity
  8
0
  6
Continuous
 62
     8
370
    25
100
AcDbLine
 10
8998.2896007365
 20
6372.234090772
 30
0.0
 11
8997.3583864475
 21
6372.0526045946
 31
0.0
  0
LINE
  5
332
330
1F
100
AcDbEntity
  8
0
  6
Continuous
 62
     8
370
    25
100
AcDbLine
 10
8997.4005870785
 20
6371.9341588239
 30
0.0
 11
8998.3489530205
 21
6372.1189877199
 31
0.0
  0
LINE
  5
333
330
1F
100
AcDbEntity
  8
0
  6
Continuous
 62
     8
370
    25
100
AcDbLine
 10
8998.3544374842
 20
6372.1100661545
 30
0.0
 11
8997.4102223192
 21
6371.9260462117
 31
0.0
  0
LINE
  5
334
330
1F
100
AcDbEntity
  8
0
  6
Continuous
 62
     8
370
    25
100
AcDbLine
 10
9000.3914283623
 20
6371.8161043401
 30
0.0
 11
9000.0652569377
 21
6371.6140698233
 31
0.0
  0
LINE
  5
335
330
1F
100
AcDbEntity
  8
0
  6
Continuous
 62
     8
370
    25
100
AcDbLine
 10
9000.2506319462
 20
6371.8840113524
 30
0.0
 11
8999.9845491466
 21
6371.7191964552
 31
0.0
  0
LINE
  5
336
330
1F
100
AcDbEntity
  8
0
  6
Continuous
 62
     8
370
    25
100
AcDbLine
 10
9000.4056738502
 20
6371.8086690652
 30
0.0
 11
9000.0831762898
 21
6371.6089101841
 31
0.0
  0
LINE
  5
337
330
1F
100
AcDbEntity
  8
0
  6
Continuous
 62
     8
370
    25
100
AcDbLine
 10
8992.3288920548
 20
6378.7752438674
 30
0.0
 11
8991.7757664077
 21
6378.7663564071
 31
0.0
  0
LINE
  5
338
330
1F
100
AcDbEntity
  8
0
  6
Continuous
 62
     8
370
    25
100
AcDbLine
 10
9005.5884127279
 20
6371.8217765277
 30
0.0
 11
9006.4019263126
 21
6371.587536112
 31
0.0
  0
LINE
  5
339
330
1F
100
AcDbEntity
  8
0
  6
Continuous
 62
     8
370
    25
100
AcDbLine
 10
9006.4569139592
 20
6371.7022393659
 30
0.0
 11
9005.6787731768
 21
6371.9262946537
 31
0.0
  0
LINE
  5
33A
330
1F
100
AcDbEntity
  8
0
  6
Continuous
 62
     8
370
    25
100
AcDbLine
 10
9003.5971076162
 20
6371.7164238884
 30
0.0
 11
9003.7667970086
 21
6371.5735500153
 31
0.0
  0
LINE
  5
33B
330
1F
100
AcDbEntity
  8
0
  6
Continuous
 62
     8
370
    25
100
AcDbLine
 10
9003.4455179597
 20
6371.6701942167
 30
0.0
 11
9003.6773776663
 21
6371.4749746231
 31
0.0
  0
LINE
  5
33C
330
1F
100
AcDbEntity
  8
0
  6
Continuous
 62
     8
370
    25
100
AcDbLine
 10
9003.4282058412
 20
6371.6649146114
 30
0.0
 11
9003.658227687
 21
6371.4712424463
 31
0.0
  0
LINE
  5
33D
330
1F
100
AcDbEntity
  8
0
  6
Continuous
 62
     8
370
    25
100
AcDbLine
 10
9006.3901595644
 20
6371.5802476461
 30
0.0
 11
9005.5803020703
 21
6371.8134353392
 31
0.0
  0
LINE
  5
33E
330
1F
100
AcDbEntity
  8
0
  6
Continuous
 62
     8
370
    25
100
AcDbLine
 10
8996.0608066604
 20
6371.6730463937
 30
0.0
 11
8996.9041396825
 21
6371.8374052183
 31
0.0
  0
LINE
  5
33F
330
1F
100
AcDbEntity
  8
0
  6
Continuous
 62
     8
370
    25
100
AcDbLine
 10
8996.8249583217
 20
6371.9486437424
 30
0.0
 11
8996.0183751821
 21
6371.7914471745
 31
0.0
  0
LINE
  5
340
330
1F
100
AcDbEntity
  8
0
  6
Continuous
 62
     8
370
    25
100
AcDbLine
 10
8996.9109258783
 20
6371.8287373507
 30
0.0
 11
8996.0704418976
 21
6371.6649337845
 31
0.0
  0
LINE
  5
341
330
1F
100
AcDbEntity
  8
0
  6
Continuous
 62
     8
370
    25
100
AcDbLine
 10
9007.7108126804
 20
6371.3411959076
 30
0.0
 11
9007.0439722327
 21
6371.5332037446
 31
0.0
  0
LINE
  5
342
330
1F
100
AcDbEntity
  8
0
  6
Continuous
 62
     8
370
    25
100
AcDbLine
 10
9006.9367909427
 20
6371.4335289563
 30
0.0
 11
9007.655609018
 21
6371.2265548494
 31
0.0
  0
LINE
  5
343
330
1F
100
AcDbEntity
  8
0
  6
Continuous
 62
     8
370
    25
100
AcDbLine
 10
9007.6438422736
 20
6371.2192663859
 30
0.0
 11
9006.9275370917
 21
6371.4255169352
 31
0.0
  0
LINE
  5
344
330
1F
100
AcDbEntity
  8
0
  6
Continuous
 62
     8
370
    25
100
AcDbLine
 10
8999.1871424947
 20
6371.0701551406
 30
0.0
 11
8999.5324420379
 21
6371.2840378449
 31
0.0
  0
LINE
  5
345
330
1F
100
AcDbEntity
  8
0
  6
Continuous
 62
     8
370
    25
100
AcDbLine
 10
8999.1061530476
 20
6371.1751073108
 30
0.0
 11
8999.395283606
 21
6371.3541982684
 31
0.0
  0
LINE
  5
346
330
1F
100
AcDbEntity
  8
0
  6
Continuous
 62
     8
370
    25
100
AcDbLine
 10
8999.5462635637
 20
6371.2763399622
 30
0.0
 11
8999.2050618478
 21
6371.0649955014
 31
0.0
  0
LINE
  5
347
330
1F
100
AcDbEntity
  8
0
  6
Continuous
 62
     8
370
    25
100
AcDbLine
 10
9004.2816556299
 20
6371.1400529989
 30
0.0
 11
9004.4860745477
 21
6370.9679378074
 31
0.0
  0
LINE
  5
348
330
1F
100
AcDbEntity
  8
0
  6
Continuous
 62
     8
370
    25
100
AcDbLine
 10
9004.1255554621
 20
6371.0976210555
 30
0.0
 11
9004.3964245689
 21
6370.8695566037
 31
0.0
  0
LINE
  5
349
330
1F
100
AcDbEntity
  8
0
  6
Continuous
 62
     8
370
    25
100
AcDbLine
 10
9004.3772745895
 20
6370.8658244271
 30
0.0
 11
9004.1074574771
 21
6371.0930031289
 31
0.0
  0
LINE
  5
34A
330
1F
100
AcDbEntity
  8
0
  6
Continuous
 62
     8
370
    25
100
AcDbLine
 10
8997.0444531934
 20
6371.0546876713
 30
0.0
 11
8997.5917744825
 21
6371.2497869891
 31
0.0
  0
LINE
  5
34B
330
1F
100
AcDbEntity
  8
0
  6
Continuous
 62
     8
370
    25
100
AcDbLine
 10
8997.4527764477
 20
6371.3400649641
 30
0.0
 11
8996.9802019066
 21
6371.1716100321
 31
0.0
  0
LINE
  5
34C
330
1F
100
AcDbEntity
  8
0
  6
Continuous
 62
     8
370
    25
100
AcDbLine
 10
8997.5993225021
 20
6371.2451331241
 30
0.0
 11
8997.0532160576
 21
6371.0504668531
 31
0.0
  0
LINE
  5
34D
330
1F
100
AcDbEntity
  8
0
  6
Continuous
 62
     8
370
    25
100
AcDbLine
 10
9001.7407873582
 20
6370.6791176119
 30
0.0
 11
9001.764131243
 21
6370.8477874121
 31
0.0
  0
LINE
  5
34E
330
1F
100
AcDbEntity
  8
0
  6
Continuous
 62
     8
370
    25
100
AcDbLine
 10
9001.785589394
 20
6370.8473690658
 30
0.0
 11
9001.7621893469
 21
6370.678293466
 31
0.0
  0
LINE
  5
34F
330
1F
100
AcDbEntity
  8
0
  6
Continuous
 62
     8
370
    25
100
AcDbLine
 10
9006.5875419485
 20
6370.8016514986
 30
0.0
 11
9006.2266370086
 21
6370.975488972
 31
0.0
  0
LINE
  5
350
330
1F
100
AcDbEntity
  8
0
  6
Continuous
 62
     8
370
    25
100
AcDbLine
 10
9006.0833762251
 20
6370.8966288378
 30
0.0
 11
9006.5121373641
 21
6370.6901069932
 31
0.0
  0
LINE
  5
351
330
1F
100
AcDbEntity
  8
0
  6
Continuous
 62
     8
370
    25
100
AcDbLine
 10
9006.5023052798
 20
6370.6866022273
 30
0.0
 11
9006.075468693
 21
6370.8921970697
 31
0.0
  0
LINE
  5
352
330
1F
100
AcDbEntity
  8
0
  6
Continuous
 62
     8
370
    25
100
AcDbLine
 10
8998.4885605816
 20
6370.7925630836
 30
0.0
 11
8998.282780083
 21
6370.6651001593
 31
0.0
  0
LINE
  5
353
330
1F
100
AcDbEntity
  8
0
  6
Continuous
 62
     8
370
    25
100
AcDbLine
 10
8998.6507836965
 20
6370.7379280276
 30
0.0
 11
8998.3639113745
 21
6370.5602358493
 31
0.0
  0
LINE
  5
354
330
1F
100
AcDbEntity
  8
0
  6
Continuous
 62
     8
370
    25
100
AcDbLine
 10
8998.6681660452
 20
6370.7324357615
 30
0.0
 11
8998.3818307213
 21
6370.5550762117
 31
0.0
  0
LINE
  5
355
330
1F
100
AcDbEntity
  8
0
  6
Continuous
 62
     8
370
    25
100
AcDbLine
 10
9004.8613047636
 20
6370.4781400689
 30
0.0
 11
9005.0705300769
 21
6370.3019780151
 31
0.0
  0
LINE
  5
356
330
1F
100
AcDbEntity
  8
0
  6
Continuous
 62
     8
370
    25
100
AcDbLine
 10
9005.0212466102
 20
6370.517337422
 30
0.0
 11
9005.1602962098
 21
6370.4002614248
 31
0.0
  0
LINE
  5
357
330
1F
100
AcDbEntity
  8
0
  6
Continuous
 62
     8
370
    25
100
AcDbLine
 10
9004.8430387925
 20
6370.4736635816
 30
0.0
 11
9005.0513801037
 21
6370.2982458396
 31
0.0
  0
LINE
  5
358
330
1F
100
AcDbEntity
  8
0
  6
Continuous
 62
     8
370
    25
100
AcDbLine
 10
8999.9412368483
 20
6370.2188996809
 30
0.0
 11
9000.0626155357
 21
6370.37000261
 31
0.0
  0
LINE
  5
359
330
1F
100
AcDbEntity
  8
0
  6
Continuous
 62
     8
370
    25
100
AcDbLine
 10
8999.913855169
 20
6370.4000062676
 30
0.0
 11
8999.8482785398
 21
6370.3183706776
 31
0.0
  0
LINE
  5
35A
330
1F
100
AcDbEntity
  8
0
  6
Continuous
 62
     8
370
    25
100
AcDbLine
 10
9000.0746924149
 20
6370.3675668096
 30
0.0
 11
8999.9537417539
 21
6370.2169967277
 31
0.0
  0
LINE
  5
35B
330
1F
100
AcDbEntity
  8
0
  6
Continuous
 62
     8
370
    25
100
AcDbLine
 10
9003.3463722872
 20
6370.2258616838
 30
0.0
 11
9003.4159472446
 21
6370.0850958648
 31
0.0
  0
LINE
  5
35C
330
1F
100
AcDbEntity
  8
0
  6
Continuous
 62
     8
370
    25
100
AcDbLine
 10
9003.4030509774
 20
6370.0841710575
 30
0.0
 11
9003.3334274442
 21
6370.2250351529
 31
0.0
  0
LINE
  5
35D
330
1F
100
AcDbEntity
  8
0
  6
Continuous
 62
     8
370
    25
100
AcDbLine
 10
9001.6546896489
 20
6370.0570239214
 30
0.0
 11
9001.6729800575
 21
6370.1891801406
 31
0.0
  0
LINE
  5
35E
330
1F
100
AcDbEntity
  8
0
  6
Continuous
 62
     8
370
    25
100
AcDbLine
 10
9001.6944382089
 20
6370.1887617943
 30
0.0
 11
9001.676091631
 21
6370.0561997757
 31
0.0
  0
LINE
  5
35F
330
1F
100
AcDbEntity
  8
0
  6
Continuous
 62
     7
370
    25
100
AcDbLine
 10
8985.8694037523
 20
6045.3670469135
 30
0.0
 11
8985.87914045
 21
6045.2213599574
 31
0.0
  0
LWPOLYLINE
  5
360
330
1F
100
AcDbEntity
  8
0
  6
Continuous
 62
     7
370
    25
100
AcDbPolyline
 90
       17
 70
   128
 43
0.0
 10
9002.290767412
 20
6103.5849568328
 10
8998.779856839
 20
6103.3570701296
 10
8995.3296608996
 20
6102.6780198924
 10
8992.0019188497
 20
6101.5555467283
 10
8988.85252227
 20
6100.0110198053
 10
8985.9368266509
 20
6098.0692063724
 10
8983.3113100659
 20
6095.7556045078
 10
8981.0246282745
 20
6093.1116197708
 10
8979.1201405664
 20
6090.189243402
 10
8977.6408932023
 20
6087.0408631444
 10
8976.6188198877
 20
6083.7293999089
 10
8976.0687520382
 20
6080.332409631
 10
8975.9940448047
 20
6076.9209639875
 10
8976.3861001816
 20
6073.5607857994
 10
8977.2235155883
 20
6070.3134737613
 10
8978.4804126447
 20
6067.2268782918
 10
8980.1294141666
 20
6064.3430361094
  0
LWPOLYLINE
  5
361
330
1F
100
AcDbEntity
  8
0
  6
Continuous
 62
     7
370
    25
100
AcDbPolyline
 90
       17
 70
   128
 43
0.0
 10
9002.290767412
 20
6103.5849568328
 10
9005.8018265579
 20
6103.3574534078
 10
9009.2513612882
 20
6102.6772678051
 10
9012.5797952698
 20
6101.5557327044
 10
9015.7297015673
 20
6100.0124093088
 10
9018.6439342963
 20
6098.0680909658
 10
9021.2695543343
 20
6095.7542550997
 10
9023.558104049
 20
6093.1136480149
 10
9025.4615920659
 20
6090.1899556201
 10
9026.9396338331
 20
6087.0388412791
 10
9027.962838319
 20
6083.7298911806
 10
9028.5134332757
 20
6080.3334394027
 10
9028.5872753586
 20
6076.9205142891
 10
9028.1954729702
 20
6073.5610347645
 10
9027.3581435374
 20
6070.3135343562
 10
9026.101028273
 20
6067.2267942733
 10
9024.4521205421
 20
6064.3430361098
  0
ARC
  5
362
330
1F
100
AcDbEntity
  8
0
  6
Continuous
 62
     7
370
    25
100
AcDbCircle
 10
9057.8103284717
 20
6042.1675513029
 30
0.0
 40
40.05648714871023
100
AcDbArc
 50
146.3852929567
 51
179.9227019401
  0
LINE
  5
363
330
1F
100
AcDbEntity
  8
0
  6
Continuous
 62
     7
370
    25
100
AcDbLine
 10
9017.7538775249
 20
6042.2215919196
 30
0.0
 11
9016.5545576721
 21
5963.6308467573
 31
0.0
  0
ARC
  5
364
330
1F
100
AcDbEntity
  8
0
  6
Continuous
 62
     7
370
    25
100
AcDbCircle
 10
9013.5322446704
 20
5963.7001827028
 30
0.0
 40
3.023108292001792
100
AcDbArc
 50
269.7410089013
 51
358.6857901176
  0
LINE
  5
365
330
1F
100
AcDbEntity
  8
0
  6
Continuous
 62
     7
370
    25
100
AcDbLine
 10
8991.0629549758
 20
5960.6771054148
 30
0.0
 11
9013.5185795195
 21
5960.677105415
 31
0.0
  0
ARC
  5
366
330
1F
100
AcDbEntity
  8
0
  6
Continuous
 62
     7
370
    25
100
AcDbCircle
 10
8991.049137006
 20
5963.7000256228
 30
0.0
 40
3.022951669992779
100
AcDbArc
 50
181.3113024002
 51
270.2619010138
  0
LINE
  5
367
330
1F
100
AcDbEntity
  8
0
  6
Continuous
 62
     7
370
    25
100
AcDbLine
 10
8986.8275421753
 20
6042.2291271418
 30
0.0
 11
8988.0269770033
 21
5963.6308467449
 31
0.0
  0
ARC
  5
368
330
1F
100
AcDbEntity
  8
0
  6
Continuous
 62
     7
370
    25
100
AcDbCircle
 10
8946.7757275152
 20
6042.1691088966
 30
0.0
 40
40.05185964817478
100
AcDbArc
 50
0.0858585219
 51
33.6164320911
  0
ARC
  5
369
330
1F
100
AcDbEntity
  8
0
  6
Continuous
 62
     7
370
    25
100
AcDbCircle
 10
8993.4582751286
 20
5960.3411764089
 30
0.0
 40
2.418819039038226
100
AcDbArc
 50
172.0151958474
 51
200.7984382223
  0
ARC
  5
36A
330
1F
100
AcDbEntity
  8
0
  6
Continuous
 62
     7
370
    25
100
AcDbCircle
 10
9011.1232748161
 20
5960.341174993
 30
0.0
 40
2.418804242723827
100
AcDbArc
 50
339.2014645805
 51
7.9848860445
  0
LINE
  5
36B
330
1F
100
AcDbEntity
  8
0
  6
Continuous
 62
     7
370
    25
100
AcDbLine
 10
9013.3844570803
 20
5959.4822985609
 30
0.0
 11
8991.1970775721
 21
5959.4822985631
 31
0.0
  0
ARC
  5
36C
330
1F
100
AcDbEntity
  8
0
  6
Continuous
 62
     7
370
    25
100
AcDbCircle
 10
9016.7091750065
 20
5962.493530248
 30
0.0
 40
1.147778446585222
100
AcDbArc
 50
53.9908723279
 51
97.7418559659
  0
ARC
  5
36D
330
1F
100
AcDbEntity
  8
0
  6
Continuous
 62
     7
370
    25
100
AcDbCircle
 10
9013.384424761
 20
5963.4822985609
 30
0.0
 40
4.000000000001418
100
AcDbArc
 50
270.0004629398
 51
359.1361915263
  0
ARC
  5
36E
330
1F
100
AcDbEntity
  8
0
  6
Continuous
 62
     7
370
    25
100
AcDbCircle
 10
8991.1971099486
 20
5963.4822985632
 30
0.0
 40
4.000000000008248
100
AcDbArc
 50
180.8638141241
 51
269.9995362408
  0
ARC
  5
36F
330
1F
100
AcDbEntity
  8
0
  6
Continuous
 62
     7
370
    25
100
AcDbCircle
 10
8987.8415082507
 20
5962.6160505435
 30
0.0
 40
1.031605535463655
100
AcDbArc
 50
79.6426735422
 51
128.6245981273
  0
ARC
  5
370
330
1F
100
AcDbEntity
  8
0
  6
Continuous
 62
     7
370
    25
100
AcDbCircle
 10
9017.9145172116
 20
6041.1177660395
 30
0.0
 40
1.11545334302318
100
AcDbArc
 50
54.0706493523
 51
98.2801103849
  0
LINE
  5
371
330
1F
100
AcDbEntity
  8
0
  6
Continuous
 62
     7
370
    25
100
AcDbLine
 10
9018.5690541775
 20
6042.020994469
 30
0.0
 11
9017.3839701799
 21
5963.4219956375
 31
0.0
  0
ARC
  5
372
330
1F
100
AcDbEntity
  8
0
  6
Continuous
 62
     7
370
    25
100
AcDbCircle
 10
8986.6813817548
 20
6041.102451106
 30
0.0
 40
1.136116968099115
100
AcDbArc
 50
82.6084633345
 51
126.0689284691
  0
LINE
  5
373
330
1F
100
AcDbEntity
  8
0
  6
Continuous
 62
     7
370
    25
100
AcDbLine
 10
8987.1975645357
 20
5963.4219952453
 30
0.0
 11
8986.0124836902
 21
6042.0207850019
 31
0.0
  0
LWPOLYLINE
  5
374
330
1F
100
AcDbEntity
  8
0
  6
Continuous
 62
     7
370
    25
100
AcDbPolyline
 90
        9
 70
   128
 43
0.0
 10
9025.0238243818
 20
6063.6058846726
 10
9025.0403178622
 20
6063.6611131495
 10
9025.028759189
 20
6063.732526473
 10
9024.9895283622
 20
6063.8177768772
 10
9024.9239151245
 20
6063.9140616917
 10
9024.8340765596
 20
6064.0182154816
 10
9024.7229661772
 20
6064.1268141138
 10
9024.5942368135
 20
6064.2362873276
 10
9024.4521205421
 20
6064.3430361098
  0
ARC
  5
375
330
1F
100
AcDbEntity
  8
0
  6
Continuous
 62
     7
370
    25
100
AcDbCircle
 10
9057.9891864972
 20
6041.9903133641
 30
0.0
 40
39.42014741721537
100
AcDbArc
 50
146.7469212422
 51
179.9554060304
  0
ARC
  5
376
330
1F
100
AcDbEntity
  8
0
  6
Continuous
 62
     7
370
    25
100
AcDbCircle
 10
8946.5975935534
 20
6041.9918822181
 30
0.0
 40
39.41490073400998
100
AcDbArc
 50
0.0420147621
 51
33.2553525915
  0
LWPOLYLINE
  5
377
330
1F
100
AcDbEntity
  8
0
  6
Continuous
 62
     7
370
    25
100
AcDbPolyline
 90
        9
 70
   128
 43
0.0
 10
8979.5577103276
 20
6063.6058846726
 10
8979.5412168472
 20
6063.6611131494
 10
8979.5527755203
 20
6063.7325264729
 10
8979.592006347
 20
6063.8177768771
 10
8979.6576195846
 20
6063.9140616914
 10
8979.7474581494
 20
6064.0182154813
 10
8979.8585685317
 20
6064.1268141135
 10
8979.9872978953
 20
6064.2362873273
 10
8980.1294141666
 20
6064.3430361094
  0
LWPOLYLINE
  5
378
330
1F
100
AcDbEntity
  8
0
  6
Continuous
 62
     7
370
    25
100
AcDbPolyline
 90
        5
 70
   128
 43
0.0
 10
9002.290767412
 20
6103.5849568328
 10
9002.2907773628
 20
6103.8944269983
 10
9002.2907811196
 20
6104.1617457455
 10
9002.29077741
 20
6104.3333782842
 10
9002.2907674983
 20
6104.3882971919
  0
LWPOLYLINE
  5
379
330
1F
100
AcDbEntity
  8
0
  6
Continuous
 62
     7
370
    25
100
AcDbPolyline
 90
       40
 70
   128
 43
0.0
 10
9002.2907674581
 20
6104.3884027182
 10
9004.0634423835
 20
6104.3313040753
 10
9005.8518550125
 20
6104.1572152812
 10
9007.6440944442
 20
6103.8630195768
 10
9009.427659872
 20
6103.4471532315
 10
9010.7092441427
 20
6103.0691731125
 10
9012.0224187166
 20
6102.6096824819
 10
9013.3597748132
 20
6102.0623427773
 10
9014.7127123489
 20
6101.4214230686
 10
9016.071470447
 20
6100.6820340789
 10
9016.4697696505
 20
6100.4457803096
 10
9016.8789908529
 20
6100.1933148197
 10
9017.2984134081
 20
6099.9239667312
 10
9017.7272574757
 20
6099.6370730037
 10
9018.164682384
 20
6099.3319837595
 10
9018.6097853906
 20
6099.0080679763
 10
9019.0616009037
 20
6098.6647195265
 10
9019.4570041681
 20
6098.3516376066
 10
9020.0509724808
 20
6097.8579540248
 10
9021.2078432903
 20
6096.8080918316
 10
9022.4200973713
 20
6095.5634020852
 10
9023.401854169
 20
6094.4244805288
 10
9024.2424022082
 20
6093.3352738652
 10
9024.95620726
 20
6092.3089566294
 10
9025.5574899939
 20
6091.3556867455
 10
9026.0598519861
 20
6090.4828860435
 10
9026.9362447455
 20
6088.740543252
 10
9027.6484059827
 20
6087.0248248298
 10
9028.2080230973
 20
6085.3603510059
 10
9028.6300228565
 20
6083.7683510694
 10
9029.0640028602
 20
6081.3999906531
 10
9029.2757945979
 20
6079.0295145328
 10
9029.2714778534
 20
6076.686910989
 10
9029.1365670458
 20
6074.9961341053
 10
9028.884600672
 20
6073.2786915385
 10
9028.5099110639
 20
6071.5470854775
 10
9028.0086106315
 20
6069.8149084995
 10
9027.2096064387
 20
6067.6902615179
 10
9026.1499421922
 20
6065.4942169285
 10
9025.0238244042
 20
6063.6058847068
  0
ARC
  5
37A
330
1F
100
AcDbEntity
  8
0
  6
Continuous
 62
     7
370
    25
100
AcDbCircle
 10
9001.837031136
 20
6077.9141174036
 30
0.0
 40
26.47817326729114
100
AcDbArc
 50
89.0181177335
 51
212.7094014217
  0
ENDSEC
  0
SECTION
  2
OBJECTS
  0
DICTIONARY
  5
C
330
0
100
AcDbDictionary
281
     1
  3
ACAD_GROUP
350
D
  3
ACAD_LAYOUT
350
1A
  3
ACAD_MLINESTYLE
350
17
  3
ACAD_PLOTSETTINGS
350
19
  3
ACAD_PLOTSTYLENAME
350
E
  3
ACAD_SCALELIST
350
47
  3
DWGPROPS
350
37B
  0
DICTIONARY
  5
D
102
{ACAD_REACTORS
330
C
102
}
330
C
100
AcDbDictionary
281
     1
  0
DICTIONARY
  5
1A
102
{ACAD_REACTORS
330
C
102
}
330
C
100
AcDbDictionary
281
     1
  3
Layout1
350
1E
  3
Layout2
350
26
  3
Model
350
22
  0
DICTIONARY
  5
17
102
{ACAD_REACTORS
330
C
102
}
330
C
100
AcDbDictionary
281
     1
  3
Standard
350
18
  0
DICTIONARY
  5
19
102
{ACAD_REACTORS
330
C
102
}
330
C
100
AcDbDictionary
281
     1
  0
ACDBDICTIONARYWDFLT
  5
E
102
{ACAD_REACTORS
330
C
102
}
330
C
100
AcDbDictionary
281
     1
  3
Normal
350
F
100
AcDbDictionaryWithDefault
340
F
  0
DICTIONARY
  5
47
102
{ACAD_REACTORS
330
C
102
}
330
C
100
AcDbDictionary
281
     1
  3
A0
350
48
  3
A1
350
49
  3
A2
350
4A
  3
A3
350
4B
  3
A4
350
4C
  3
A5
350
4D
  3
A6
350
4E
  3
A7
350
4F
  3
A8
350
50
  3
A9
350
51
  3
B0
350
52
  3
B1
350
53
  3
B2
350
54
  3
B3
350
55
  3
B4
350
56
  3
B5
350
57
  3
B6
350
58
  3
B7
350
59
  3
B8
350
5A
  3
B9
350
5B
  3
C0
350
5C
  3
C1
350
5D
  3
C2
350
5E
  3
C3
350
5F
  3
C4
350
60
  3
C5
350
61
  3
C6
350
62
  3
C7
350
63
  3
C8
350
64
  3
C9
350
65
  3
D0
350
66
  3
D1
350
67
  3
D2
350
68
  0
XRECORD
  5
37B
102
{ACAD_REACTORS
330
C
102
}
330
C
100
AcDbXrecord
280
     1
  1
DWGPROPS COOKIE
  2

  3

  4

  6

  7

  8
radek.stransky
  9

300
=
301
=
302
=
303
=
304
=
305
=
306
=
307
=
308
=
309
=
 40
0.0
 41
2459116.328063449
 42
2459116.328063692
  1

 90
        0
  0
LAYOUT
  5
1E
102
{ACAD_REACTORS
330
1A
102
}
330
1A
100
AcDbPlotSettings
  1

  2
none_device
  4

  6

 40
0.0
 41
0.0
 42
0.0
 43
0.0
 44
0.0
 45
0.0
 46
0.0
 47
0.0
 48
0.0
 49
0.0
140
0.0
141
0.0
142
1.0
143
1.0
 70
   688
 72
     1
 73
     0
 74
     5
  7

 75
    16
147
1.0
148
0.0
149
0.0
100
AcDbLayout
  1
Layout1
 70
     1
 71
     1
 10
0.0
 20
0.0
 11
420.0
 21
297.0
 12
0.0
 22
0.0
 32
0.0
 14
1.0000000000E+20
 24
1.0000000000E+20
 34
1.0000000000E+20
 15
-1.0000000000E+20
 25
-1.0000000000E+20
 35
-1.0000000000E+20
146
0.0
 13
0.0
 23
0.0
 33
0.0
 16
1.0
 26
0.0
 36
0.0
 17
0.0
 27
1.0
 37
0.0
 76
     0
330
1B
  0
LAYOUT
  5
26
102
{ACAD_REACTORS
330
1A
102
}
330
1A
100
AcDbPlotSettings
  1

  2
none_device
  4

  6

 40
0.0
 41
0.0
 42
0.0
 43
0.0
 44
0.0
 45
0.0
 46
0.0
 47
0.0
 48
0.0
 49
0.0
140
0.0
141
0.0
142
1.0
143
1.0
 70
   688
 72
     1
 73
     0
 74
     5
  7

 75
    16
147
1.0
148
0.0
149
0.0
100
AcDbLayout
  1
Layout2
 70
     1
 71
     2
 10
0.0
 20
0.0
 11
0.0
 21
0.0
 12
0.0
 22
0.0
 32
0.0
 14
0.0
 24
0.0
 34
0.0
 15
0.0
 25
0.0
 35
0.0
146
0.0
 13
0.0
 23
0.0
 33
0.0
 16
1.0
 26
0.0
 36
0.0
 17
0.0
 27
1.0
 37
0.0
 76
     0
330
23
  0
LAYOUT
  5
22
102
{ACAD_REACTORS
330
1A
102
}
330
1A
100
AcDbPlotSettings
  1

  2
none_device
  4
Letter_(8.50_x_11.00_Inches)
  6

 40
6.35
 41
6.35
 42
6.35000508
 43
6.35000508
 44
215.9
 45
279.4
 46
0.0
 47
0.0
 48
0.0
 49
0.0
140
0.0
141
0.0
142
1.0
143
1.0
 70
  1712
 72
     1
 73
     0
 74
     0
  7

 75
     0
147
1.0
148
0.0
149
0.0
100
AcDbLayout
  1
Model
 70
     1
 71
     0
 10
0.0
 20
0.0
 11
20000.0
 21
10000.0
 12
0.0
 22
0.0
 32
0.0
 14
0.0
 24
0.0
 34
0.0
 15
20000.0
 25
10000.0
 35
0.0
146
0.0
 13
0.0
 23
0.0
 33
0.0
 16
1.0
 26
0.0
 36
0.0
 17
0.0
 27
1.0
 37
0.0
 76
     0
330
1F
331
29
  0
MLINESTYLE
  5
18
102
{ACAD_REACTORS
330
17
102
}
330
17
100
AcDbMlineStyle
  2
Standard
 70
     0
  3

 62
   256
 51
90.0
 52
90.0
 71
     2
 49
0.5
 62
   256
  6
BYLAYER
 49
-0.5
 62
   256
  6
BYLAYER
  0
ACDBPLACEHOLDER
  5
F
102
{ACAD_REACTORS
330
E
102
}
330
E
  0
SCALE
  5
48
102
{ACAD_REACTORS
330
47
102
}
330
47
100
AcDbScale
 70
     0
300
1:1
140
1.0
141
1.0
290
     1
  0
SCALE
  5
49
102
{ACAD_REACTORS
330
47
102
}
330
47
100
AcDbScale
 70
     0
300
1:2
140
1.0
141
2.0
290
     0
  0
SCALE
  5
4A
102
{ACAD_REACTORS
330
47
102
}
330
47
100
AcDbScale
 70
     0
300
1:4
140
1.0
141
4.0
290
     0
  0
SCALE
  5
4B
102
{ACAD_REACTORS
330
47
102
}
330
47
100
AcDbScale
 70
     0
300
1:5
140
1.0
141
5.0
290
     0
  0
SCALE
  5
4C
102
{ACAD_REACTORS
330
47
102
}
330
47
100
AcDbScale
 70
     0
300
1:8
140
1.0
141
8.0
290
     0
  0
SCALE
  5
4D
102
{ACAD_REACTORS
330
47
102
}
330
47
100
AcDbScale
 70
     0
300
1:10
140
1.0
141
10.0
290
     0
  0
SCALE
  5
4E
102
{ACAD_REACTORS
330
47
102
}
330
47
100
AcDbScale
 70
     0
300
1:16
140
1.0
141
16.0
290
     0
  0
SCALE
  5
4F
102
{ACAD_REACTORS
330
47
102
}
330
47
100
AcDbScale
 70
     0
300
1:20
140
1.0
141
20.0
290
     0
  0
SCALE
  5
50
102
{ACAD_REACTORS
330
47
102
}
330
47
100
AcDbScale
 70
     0
300
1:30
140
1.0
141
30.0
290
     0
  0
SCALE
  5
51
102
{ACAD_REACTORS
330
47
102
}
330
47
100
AcDbScale
 70
     0
300
1:40
140
1.0
141
40.0
290
     0
  0
SCALE
  5
52
102
{ACAD_REACTORS
330
47
102
}
330
47
100
AcDbScale
 70
     0
300
1:50
140
1.0
141
50.0
290
     0
  0
SCALE
  5
53
102
{ACAD_REACTORS
330
47
102
}
330
47
100
AcDbScale
 70
     0
300
1:100
140
1.0
141
100.0
290
     0
  0
SCALE
  5
54
102
{ACAD_REACTORS
330
47
102
}
330
47
100
AcDbScale
 70
     0
300
2:1
140
2.0
141
1.0
290
     0
  0
SCALE
  5
55
102
{ACAD_REACTORS
330
47
102
}
330
47
100
AcDbScale
 70
     0
300
4:1
140
4.0
141
1.0
290
     0
  0
SCALE
  5
56
102
{ACAD_REACTORS
330
47
102
}
330
47
100
AcDbScale
 70
     0
300
8:1
140
8.0
141
1.0
290
     0
  0
SCALE
  5
57
102
{ACAD_REACTORS
330
47
102
}
330
47
100
AcDbScale
 70
     0
300
10:1
140
10.0
141
1.0
290
     0
  0
SCALE
  5
58
102
{ACAD_REACTORS
330
47
102
}
330
47
100
AcDbScale
 70
     0
300
100:1
140
100.0
141
1.0
290
     0
  0
SCALE
  5
59
102
{ACAD_REACTORS
330
47
102
}
330
47
100
AcDbScale
 70
     0
300
1/128" = 1'-0"
140
0.0078125
141
12.0
290
     0
  0
SCALE
  5
5A
102
{ACAD_REACTORS
330
47
102
}
330
47
100
AcDbScale
 70
     0
300
1/64" = 1'-0"
140
0.015625
141
12.0
290
     0
  0
SCALE
  5
5B
102
{ACAD_REACTORS
330
47
102
}
330
47
100
AcDbScale
 70
     0
300
1/32" = 1'-0"
140
0.03125
141
12.0
290
     0
  0
SCALE
  5
5C
102
{ACAD_REACTORS
330
47
102
}
330
47
100
AcDbScale
 70
     0
300
1/16" = 1'-0"
140
0.0625
141
12.0
290
     0
  0
SCALE
  5
5D
102
{ACAD_REACTORS
330
47
102
}
330
47
100
AcDbScale
 70
     0
300
3/32" = 1'-0"
140
0.09375
141
12.0
290
     0
  0
SCALE
  5
5E
102
{ACAD_REACTORS
330
47
102
}
330
47
100
AcDbScale
 70
     0
300
1/8" = 1'-0"
140
0.125
141
12.0
290
     0
  0
SCALE
  5
5F
102
{ACAD_REACTORS
330
47
102
}
330
47
100
AcDbScale
 70
     0
300
3/16" = 1'-0"
140
0.1875
141
12.0
290
     0
  0
SCALE
  5
60
102
{ACAD_REACTORS
330
47
102
}
330
47
100
AcDbScale
 70
     0
300
1/4" = 1'-0"
140
0.25
141
12.0
290
     0
  0
SCALE
  5
61
102
{ACAD_REACTORS
330
47
102
}
330
47
100
AcDbScale
 70
     0
300
3/8" = 1'-0"
140
0.375
141
12.0
290
     0
  0
SCALE
  5
62
102
{ACAD_REACTORS
330
47
102
}
330
47
100
AcDbScale
 70
     0
300
1/2" = 1'-0"
140
0.5
141
12.0
290
     0
  0
SCALE
  5
63
102
{ACAD_REACTORS
330
47
102
}
330
47
100
AcDbScale
 70
     0
300
3/4" = 1'-0"
140
0.75
141
12.0
290
     0
  0
SCALE
  5
64
102
{ACAD_REACTORS
330
47
102
}
330
47
100
AcDbScale
 70
     0
300
1" = 1'-0"
140
1.0
141
12.0
290
     0
  0
SCALE
  5
65
102
{ACAD_REACTORS
330
47
102
}
330
47
100
AcDbScale
 70
     0
300
1-1/2" = 1'-0"
140
1.5
141
12.0
290
     0
  0
SCALE
  5
66
102
{ACAD_REACTORS
330
47
102
}
330
47
100
AcDbScale
 70
     0
300
3" = 1'-0"
140
3.0
141
12.0
290
     0
  0
SCALE
  5
67
102
{ACAD_REACTORS
330
47
102
}
330
47
100
AcDbScale
 70
     0
300
6" = 1'-0"
140
6.0
141
12.0
290
     0
  0
SCALE
  5
68
102
{ACAD_REACTORS
330
47
102
}
330
47
100
AcDbScale
 70
     0
300
1'-0" = 1'-0"
140
12.0
141
12.0
290
     0
  0
ENDSEC
  0
EOF
