  0
SECTION
  2
HEADER
  9
$ACADVER
  1
AC1015
  9
$ACADMAINTVER
 70
     6
  9
$DWGCODEPAGE
  3
ANSI_1250
  9
$INSBASE
 10
0.0
 20
0.0
 30
0.0
  9
$EXTMIN
 10
0.0
 20
0.0
 30
0.0
  9
$EXTMAX
 10
20000.0
 20
10000.0
 30
0.0
  9
$LIMMIN
 10
0.0
 20
0.0
  9
$LIMMAX
 10
20000.0
 20
10000.0
  9
$ORTHOMODE
 70
     0
  9
$REGENMODE
 70
     1
  9
$FILLMODE
 70
     1
  9
$QTEXTMODE
 70
     0
  9
$MIRRTEXT
 70
     1
  9
$LTSCALE
 40
1.0
  9
$ATTMODE
 70
     1
  9
$TEXTSIZE
 40
2.0
  9
$TRACEWID
 40
1.0
  9
$TEXTSTYLE
  7
Standard
  9
$CLAYER
  8
0
  9
$CELTYPE
  6
ByLayer
  9
$CECOLOR
 62
   256
  9
$CELTSCALE
 40
1.0
  9
$DISPSILH
 70
     0
  9
$DIMSCALE
 40
1.0
  9
$DIMASZ
 40
2.0
  9
$DIMEXO
 40
1.0
  9
$DIMDLI
 40
3.75
  9
$DIMRND
 40
0.0
  9
$DIMDLE
 40
0.0
  9
$DIMEXE
 40
1.0
  9
$DIMTP
 40
0.0
  9
$DIMTM
 40
0.0
  9
$DIMTXT
 40
2.0
  9
$DIMCEN
 40
2.5
  9
$DIMTSZ
 40
0.0
  9
$DIMTOL
 70
     0
  9
$DIMLIM
 70
     0
  9
$DIMTIH
 70
     1
  9
$DIMTOH
 70
     1
  9
$DIMSE1
 70
     0
  9
$DIMSE2
 70
     0
  9
$DIMTAD
 70
     1
  9
$DIMZIN
 70
     0
  9
$DIMBLK
  1

  9
$DIMASO
 70
     1
  9
$DIMSHO
 70
     1
  9
$DIMPOST
  1

  9
$DIMAPOST
  1

  9
$DIMALT
 70
     0
  9
$DIMALTD
 70
     3
  9
$DIMALTF
 40
0.0393700787
  9
$DIMLFAC
 40
1.0
  9
$DIMTOFL
 70
     1
  9
$DIMTVP
 40
0.0
  9
$DIMTIX
 70
     0
  9
$DIMSOXD
 70
     0
  9
$DIMSAH
 70
     0
  9
$DIMBLK1
  1

  9
$DIMBLK2
  1

  9
$DIMSTYLE
  2
ISO-25
  9
$DIMCLRD
 70
     0
  9
$DIMCLRE
 70
     0
  9
$DIMCLRT
 70
     0
  9
$DIMTFAC
 40
1.0
  9
$DIMGAP
 40
1.524
  9
$DIMJUST
 70
     0
  9
$DIMSD1
 70
     0
  9
$DIMSD2
 70
     0
  9
$DIMTOLJ
 70
     0
  9
$DIMTZIN
 70
     0
  9
$DIMALTZ
 70
     0
  9
$DIMALTTZ
 70
     0
  9
$DIMUPT
 70
     0
  9
$DIMDEC
 70
     2
  9
$DIMTDEC
 70
     0
  9
$DIMALTU
 70
     2
  9
$DIMALTTD
 70
     3
  9
$DIMTXSTY
  7
Standard
  9
$DIMAUNIT
 70
     0
  9
$DIMADEC
 70
     2
  9
$DIMALTRND
 40
0.0
  9
$DIMAZIN
 70
     0
  9
$DIMDSEP
 70
    44
  9
$DIMATFIT
 70
     3
  9
$DIMFRAC
 70
     0
  9
$DIMLDRBLK
  1

  9
$DIMLUNIT
 70
     2
  9
$DIMLWD
 70
    -2
  9
$DIMLWE
 70
    -2
  9
$DIMTMOVE
 70
     0
  9
$LUNITS
 70
     2
  9
$LUPREC
 70
     3
  9
$SKETCHINC
 40
1.0
  9
$FILLETRAD
 40
10.0
  9
$AUNITS
 70
     0
  9
$AUPREC
 70
     2
  9
$MENU
  1
.
  9
$ELEVATION
 40
0.0
  9
$PELEVATION
 40
0.0
  9
$THICKNESS
 40
0.0
  9
$LIMCHECK
 70
     0
  9
$CHAMFERA
 40
0.0
  9
$CHAMFERB
 40
0.0
  9
$CHAMFERC
 40
0.0
  9
$CHAMFERD
 40
0.0
  9
$SKPOLY
 70
     0
  9
$TDCREATE
 40
2460034.466231956
  9
$TDUCREATE
 40
2460034.382898623
  9
$TDUPDATE
 40
2460034.466232512
  9
$TDUUPDATE
 40
2460034.382899178
  9
$TDINDWG
 40
0.0000000116
  9
$TDUSRTIMER
 40
0.0000000116
  9
$USRTIMER
 70
     1
  9
$ANGBASE
 50
0.0
  9
$ANGDIR
 70
     0
  9
$PDMODE
 70
     0
  9
$PDSIZE
 40
-1.0
  9
$PLINEWID
 40
0.0
  9
$SPLFRAME
 70
     0
  9
$SPLINETYPE
 70
     6
  9
$SPLINESEGS
 70
     8
  9
$HANDSEED
  5
2C4
  9
$SURFTAB1
 70
     6
  9
$SURFTAB2
 70
     6
  9
$SURFTYPE
 70
     6
  9
$SURFU
 70
     6
  9
$SURFV
 70
     6
  9
$UCSBASE
  2

  9
$UCSNAME
  2

  9
$UCSORG
 10
0.0
 20
0.0
 30
0.0
  9
$UCSXDIR
 10
1.0
 20
0.0
 30
0.0
  9
$UCSYDIR
 10
0.0
 20
1.0
 30
0.0
  9
$UCSORTHOREF
  2

  9
$UCSORTHOVIEW
 70
     0
  9
$UCSORGTOP
 10
0.0
 20
0.0
 30
0.0
  9
$UCSORGBOTTOM
 10
0.0
 20
0.0
 30
0.0
  9
$UCSORGLEFT
 10
0.0
 20
0.0
 30
0.0
  9
$UCSORGRIGHT
 10
0.0
 20
0.0
 30
0.0
  9
$UCSORGFRONT
 10
0.0
 20
0.0
 30
0.0
  9
$UCSORGBACK
 10
0.0
 20
0.0
 30
0.0
  9
$PUCSBASE
  2

  9
$PUCSNAME
  2

  9
$PUCSORG
 10
0.0
 20
0.0
 30
0.0
  9
$PUCSXDIR
 10
1.0
 20
0.0
 30
0.0
  9
$PUCSYDIR
 10
0.0
 20
1.0
 30
0.0
  9
$PUCSORTHOREF
  2

  9
$PUCSORTHOVIEW
 70
     0
  9
$PUCSORGTOP
 10
0.0
 20
0.0
 30
0.0
  9
$PUCSORGBOTTOM
 10
0.0
 20
0.0
 30
0.0
  9
$PUCSORGLEFT
 10
0.0
 20
0.0
 30
0.0
  9
$PUCSORGRIGHT
 10
0.0
 20
0.0
 30
0.0
  9
$PUCSORGFRONT
 10
0.0
 20
0.0
 30
0.0
  9
$PUCSORGBACK
 10
0.0
 20
0.0
 30
0.0
  9
$USERI1
 70
     0
  9
$USERI2
 70
     0
  9
$USERI3
 70
     0
  9
$USERI4
 70
     0
  9
$USERI5
 70
     0
  9
$USERR1
 40
0.0
  9
$USERR2
 40
0.0
  9
$USERR3
 40
0.0
  9
$USERR4
 40
0.0
  9
$USERR5
 40
0.0
  9
$WORLDVIEW
 70
     1
  9
$SHADEDGE
 70
     3
  9
$SHADEDIF
 70
    70
  9
$TILEMODE
 70
     1
  9
$MAXACTVP
 70
    64
  9
$PINSBASE
 10
0.0
 20
0.0
 30
0.0
  9
$PLIMCHECK
 70
     0
  9
$PEXTMIN
 10
1.0000000000E+20
 20
1.0000000000E+20
 30
1.0000000000E+20
  9
$PEXTMAX
 10
-1.0000000000E+20
 20
-1.0000000000E+20
 30
-1.0000000000E+20
  9
$PLIMMIN
 10
0.0
 20
0.0
  9
$PLIMMAX
 10
420.0
 20
297.0
  9
$UNITMODE
 70
     0
  9
$VISRETAIN
 70
     1
  9
$PLINEGEN
 70
     0
  9
$PSLTSCALE
 70
     1
  9
$TREEDEPTH
 70
  3020
  9
$CMLSTYLE
  2
Standard
  9
$CMLJUST
 70
     0
  9
$CMLSCALE
 40
20.0
  9
$PROXYGRAPHICS
 70
     1
  9
$MEASUREMENT
 70
     1
  9
$CELWEIGHT
370
    -1
  9
$ENDCAPS
280
     0
  9
$JOINSTYLE
280
     0
  9
$LWDISPLAY
290
     1
  9
$INSUNITS
 70
     4
  9
$HYPERLINKBASE
  1

  9
$STYLESHEET
  1

  9
$XEDIT
290
     1
  9
$CEPSNTYPE
380
     0
  9
$PSTYLEMODE
290
     1
  9
$FINGERPRINTGUID
  2
{b5ac17fa-d0d7-42d7-9c0c-6d1bee6afd52}
  9
$VERSIONGUID
  2
{FAEB1C32-E019-11D5-929B-00C0DF256EC4}
  9
$EXTNAMES
290
     1
  9
$PSVPSCALE
 40
0.0
  9
$OLESTARTUP
290
     0
  0
ENDSEC
  0
SECTION
  2
CLASSES
  0
CLASS
  1
ACDBDICTIONARYWDFLT
  2
AcDbDictionaryWithDefault
  3
ObjectDBX Classes
 90
        0
280
     0
281
     0
  0
CLASS
  1
VISUALSTYLE
  2
AcDbVisualStyle
  3
ObjectDBX Classes
 90
     4095
280
     0
281
     0
  0
CLASS
  1
MATERIAL
  2
AcDbMaterial
  3
ObjectDBX Classes
 90
     1153
280
     0
281
     0
  0
CLASS
  1
SCALE
  2
AcDbScale
  3
ObjectDBX Classes
 90
     1153
280
     0
281
     0
  0
CLASS
  1
TABLESTYLE
  2
AcDbTableStyle
  3
ObjectDBX Classes
 90
     4095
280
     0
281
     0
  0
CLASS
  1
MLEADERSTYLE
  2
AcDbMLeaderStyle
  3
ACDB_MLEADERSTYLE_CLASS
 90
     4095
280
     0
281
     0
  0
CLASS
  1
SUN
  2
AcDbSun
  3
SCENEOE
 90
     1153
280
     0
281
     0
  0
CLASS
  1
ACDBPLACEHOLDER
  2
AcDbPlaceHolder
  3
ObjectDBX Classes
 90
        0
280
     0
281
     0
  0
CLASS
  1
LAYOUT
  2
AcDbLayout
  3
ObjectDBX Classes
 90
        0
280
     0
281
     0
  0
ENDSEC
  0
SECTION
  2
TABLES
  0
TABLE
  2
VPORT
  5
8
330
0
100
AcDbSymbolTable
 70
     1
  0
VPORT
  5
29
330
8
100
AcDbSymbolTableRecord
100
AcDbViewportTableRecord
  2
*Active
 70
     0
 10
0.0
 20
0.0
 11
1.0
 21
1.0
 12
10000.0
 22
5000.0
 13
0.0
 23
0.0
 14
10.0
 24
10.0
 15
10.0
 25
10.0
 16
0.0
 26
0.0
 36
1.0
 17
0.0
 27
0.0
 37
0.0
 40
10000.0
 41
2.0
 42
50.0
 43
0.0
 44
0.0
 50
0.0
 51
0.0
 71
     0
 72
  2000
 73
     1
 74
     3
 75
     0
 76
     0
 77
     0
 78
     0
281
     0
 65
     1
110
0.0
120
0.0
130
0.0
111
1.0
121
0.0
131
0.0
112
0.0
122
1.0
132
0.0
 79
     0
146
0.0
  0
ENDTAB
  0
TABLE
  2
LTYPE
  5
5
330
0
100
AcDbSymbolTable
 70
     6
  0
LTYPE
  5
14
330
5
100
AcDbSymbolTableRecord
100
AcDbLinetypeTableRecord
  2
ByBlock
 70
     0
  3

 72
    65
 73
     0
 40
0.0
  0
LTYPE
  5
15
330
5
100
AcDbSymbolTableRecord
100
AcDbLinetypeTableRecord
  2
ByLayer
 70
     0
  3

 72
    65
 73
     0
 40
0.0
  0
LTYPE
  5
16
330
5
100
AcDbSymbolTableRecord
100
AcDbLinetypeTableRecord
  2
Continuous
 70
     0
  3
Solid line
 72
    65
 73
     0
 40
0.0
  0
LTYPE
  5
6E
330
5
100
AcDbSymbolTableRecord
100
AcDbLinetypeTableRecord
  2
HIDDEN
 70
     0
  3
Hidden __ __ __ __ __ __ __ __ __ __ __ __ __ __
 72
    65
 73
     2
 40
1.905
 49
1.27
 74
     0
 49
-0.635
 74
     0
  0
LTYPE
  5
6F
330
5
100
AcDbSymbolTableRecord
100
AcDbLinetypeTableRecord
  2
PHANTOM
 70
     0
  3
Phantom ______  __  __  ______  __  __  ______
 72
    65
 73
     6
 40
12.7
 49
6.35
 74
     0
 49
-1.27
 74
     0
 49
1.27
 74
     0
 49
-1.27
 74
     0
 49
1.27
 74
     0
 49
-1.27
 74
     0
  0
LTYPE
  5
70
330
5
100
AcDbSymbolTableRecord
100
AcDbLinetypeTableRecord
  2
CENTER
 70
     0
  3
Center ____ _ ____ _ ____ _ ____ _ ____ _ ____
 72
    65
 73
     4
 40
10.16
 49
6.35
 74
     0
 49
-1.27
 74
     0
 49
1.27
 74
     0
 49
-1.27
 74
     0
  0
LTYPE
  5
71
330
5
100
AcDbSymbolTableRecord
100
AcDbLinetypeTableRecord
  2
CENTERX2
 70
     0
  3
Center (2x) ________  __  ________  __  _____
 72
    65
 73
     4
 40
20.32
 49
12.7
 74
     0
 49
-2.54
 74
     0
 49
2.54
 74
     0
 49
-2.54
 74
     0
  0
LTYPE
  5
72
330
5
100
AcDbSymbolTableRecord
100
AcDbLinetypeTableRecord
  2
DOT2
 70
     0
  3
Dot (.5x) ........................................
 72
    65
 73
     2
 40
0.635
 49
0.0
 74
     0
 49
-0.635
 74
     0
  0
ENDTAB
  0
TABLE
  2
LAYER
  5
2
330
0
100
AcDbSymbolTable
 70
    13
  0
LAYER
  5
10
330
2
100
AcDbSymbolTableRecord
100
AcDbLayerTableRecord
  2
0
 70
     0
 62
     7
  6
Continuous
370
    -3
390
F
  0
LAYER
  5
73
330
2
100
AcDbSymbolTableRecord
100
AcDbLayerTableRecord
  2
FORMAT
 70
     0
 62
     7
  6
Continuous
370
    -3
390
F
  0
LAYER
  5
74
330
2
100
AcDbSymbolTableRecord
100
AcDbLayerTableRecord
  2
OSA
 70
     0
 62
     7
  6
CENTER
370
    -3
390
F
  0
LAYER
  5
75
330
2
100
AcDbSymbolTableRecord
100
AcDbLayerTableRecord
  2
0_35
 70
     0
 62
     7
  6
Continuous
370
    35
390
F
  0
LAYER
  5
76
330
2
100
AcDbSymbolTableRecord
100
AcDbLayerTableRecord
  2
0_5
 70
     0
 62
     7
  6
Continuous
370
    50
390
F
  0
LAYER
  5
77
330
2
100
AcDbSymbolTableRecord
100
AcDbLayerTableRecord
  2
0_25
 70
     0
 62
     7
  6
Continuous
370
    25
390
F
  0
LAYER
  5
78
330
2
100
AcDbSymbolTableRecord
100
AcDbLayerTableRecord
  2
0_18
 70
     0
 62
     7
  6
Continuous
370
    -3
390
F
  0
LAYER
  5
79
330
2
100
AcDbSymbolTableRecord
100
AcDbLayerTableRecord
  2
SLD-0
 70
     0
 62
   179
  6
Continuous
370
    -3
390
F
  0
LAYER
  5
7A
330
2
100
AcDbSymbolTableRecord
100
AcDbLayerTableRecord
  2
KOTY
 70
     0
 62
     7
  6
Continuous
370
    -3
390
F
  0
LAYER
  5
7B
330
2
100
AcDbSymbolTableRecord
100
AcDbLayerTableRecord
  2
SILNA
 70
     0
 62
   179
  6
Continuous
370
    -3
390
F
  0
LAYER
  5
7C
330
2
100
AcDbSymbolTableRecord
100
AcDbLayerTableRecord
  2
0_18_1
 70
     0
 62
   179
  6
Continuous
370
    -3
390
F
  0
LAYER
  5
7D
330
2
100
AcDbSymbolTableRecord
100
AcDbLayerTableRecord
  2
0_35_1
 70
     0
 62
   179
  6
Continuous
370
    35
390
F
  0
LAYER
  5
7E
330
2
100
AcDbSymbolTableRecord
100
AcDbLayerTableRecord
  2
0_5_1
 70
     0
 62
   179
  6
Continuous
370
    50
390
F
  0
ENDTAB
  0
TABLE
  2
STYLE
  5
3
330
0
100
AcDbSymbolTable
 70
     1
  0
STYLE
  5
11
330
3
100
AcDbSymbolTableRecord
100
AcDbTextStyleTableRecord
  2
Standard
 70
     0
 40
0.0
 41
1.0
 50
0.0
 71
     0
 42
2.0
  3
txt
  4

  0
ENDTAB
  0
TABLE
  2
VIEW
  5
6
330
0
100
AcDbSymbolTable
 70
     0
  0
ENDTAB
  0
TABLE
  2
UCS
  5
7
330
0
100
AcDbSymbolTable
 70
     0
  0
ENDTAB
  0
TABLE
  2
APPID
  5
9
330
0
100
AcDbSymbolTable
 70
     1
  0
APPID
  5
12
330
9
100
AcDbSymbolTableRecord
100
AcDbRegAppTableRecord
  2
ACAD
 70
     0
  0
ENDTAB
  0
TABLE
  2
DIMSTYLE
  5
A
330
0
100
AcDbSymbolTable
 70
     1
100
AcDbDimStyleTable
  0
DIMSTYLE
105
27
330
A
100
AcDbSymbolTableRecord
100
AcDbDimStyleTableRecord
  2
ISO-25
 70
     0
 41
2.5
 42
0.625
 43
3.75
 44
1.25
 73
     0
 74
     0
 77
     1
 78
     8
140
2.5
141
2.5
143
0.0393700787
147
0.625
171
     3
172
     1
178
     0
271
     2
272
     2
274
     3
278
    44
283
     0
284
     8
340
11
  0
ENDTAB
  0
TABLE
  2
BLOCK_RECORD
  5
1
330
0
100
AcDbSymbolTable
 70
     1
  0
BLOCK_RECORD
  5
1F
330
1
100
AcDbSymbolTableRecord
100
AcDbBlockTableRecord
  2
*Model_Space
340
22
  0
BLOCK_RECORD
  5
1B
330
1
100
AcDbSymbolTableRecord
100
AcDbBlockTableRecord
  2
*Paper_Space
340
1E
  0
BLOCK_RECORD
  5
23
330
1
100
AcDbSymbolTableRecord
100
AcDbBlockTableRecord
  2
*Paper_Space0
340
26
  0
ENDTAB
  0
ENDSEC
  0
SECTION
  2
BLOCKS
  0
BLOCK
  5
20
330
1F
100
AcDbEntity
  8
0
100
AcDbBlockBegin
  2
*Model_Space
 70
     0
 10
0.0
 20
0.0
 30
0.0
  3
*Model_Space
  1

  0
ENDBLK
  5
21
330
1F
100
AcDbEntity
  8
0
100
AcDbBlockEnd
  0
BLOCK
  5
1C
330
1B
100
AcDbEntity
 67
     1
  8
0
100
AcDbBlockBegin
  2
*Paper_Space
 70
     0
 10
0.0
 20
0.0
 30
0.0
  3
*Paper_Space
  1

  0
ENDBLK
  5
1D
330
1B
100
AcDbEntity
 67
     1
  8
0
100
AcDbBlockEnd
  0
BLOCK
  5
24
330
23
100
AcDbEntity
  8
0
100
AcDbBlockBegin
  2
*Paper_Space0
 70
     0
 10
0.0
 20
0.0
 30
0.0
  3
*Paper_Space0
  1

  0
ENDBLK
  5
25
330
23
100
AcDbEntity
  8
0
100
AcDbBlockEnd
  0
ENDSEC
  0
SECTION
  2
ENTITIES
  0
LINE
  5
7F
330
1F
100
AcDbEntity
  8
0
  6
Continuous
 62
     7
370
    25
100
AcDbLine
 10
6239.0187553361
 20
5192.6949866767
 30
0.0
 11
6239.0187553361
 21
5189.6949866767
 31
0.0
  0
LINE
  5
80
330
1F
100
AcDbEntity
  8
0
  6
Continuous
 62
     7
370
    25
100
AcDbLine
 10
6309.0187553361
 20
5189.6949866767
 30
0.0
 11
6309.0187553361
 21
5192.6949866767
 31
0.0
  0
LINE
  5
81
330
1F
100
AcDbEntity
  8
0
  6
Continuous
 62
     7
370
    25
100
AcDbLine
 10
6310.5187553361
 20
5183.6949866767
 30
0.0
 11
6310.5187553361
 21
5189.6949866767
 31
0.0
  0
LINE
  5
82
330
1F
100
AcDbEntity
  8
0
  6
Continuous
 62
     7
370
    25
100
AcDbLine
 10
6237.5187553361
 20
5189.6949866767
 30
0.0
 11
6237.5187553361
 21
5183.6949866767
 31
0.0
  0
LINE
  5
83
330
1F
100
AcDbEntity
  8
0
  6
Continuous
 62
     7
370
    25
100
AcDbLine
 10
6248.2687553361
 20
5171.8616533434
 30
0.0
 11
6250.2687553361
 21
5170.1949866767
 31
0.0
  0
LINE
  5
84
330
1F
100
AcDbEntity
  8
0
  6
Continuous
 62
     7
370
    25
100
AcDbLine
 10
6297.7687553361
 20
5170.1949866767
 30
0.0
 11
6299.7687553361
 21
5171.8616533434
 31
0.0
  0
LINE
  5
85
330
1F
100
AcDbEntity
  8
0
  6
Continuous
 62
     7
370
    25
100
AcDbLine
 10
6299.7687553361
 20
5171.8616533434
 30
0.0
 11
6299.7687553361
 21
5183.6949866767
 31
0.0
  0
LINE
  5
86
330
1F
100
AcDbEntity
  8
0
  6
Continuous
 62
     7
370
    25
100
AcDbLine
 10
6248.2687553361
 20
5183.6949866767
 30
0.0
 11
6248.2687553361
 21
5171.8616533434
 31
0.0
  0
LWPOLYLINE
  5
87
330
1F
100
AcDbEntity
  8
0
  6
Continuous
 62
     7
370
    25
100
AcDbPolyline
 90
        3
 70
   128
 43
0.0
 10
6296.9044417354
 20
5163.9570628247
 10
6297.3341882584
 20
5164.2052220213
 10
6297.7641073314
 20
5164.453473117
  0
LWPOLYLINE
  5
88
330
1F
100
AcDbEntity
  8
0
  6
Continuous
 62
     7
370
    25
100
AcDbPolyline
 90
        3
 70
   128
 43
0.0
 10
6296.9044417354
 20
5165.5445628247
 10
6297.3341668173
 20
5165.7927105315
 10
6297.7641073314
 20
5166.040973117
  0
LWPOLYLINE
  5
89
330
1F
100
AcDbEntity
  8
0
  6
Continuous
 62
     7
370
    25
100
AcDbPolyline
 90
        3
 70
   128
 43
0.0
 10
6296.9044417354
 20
5167.1320628247
 10
6297.3341453297
 20
5167.3801990416
 10
6297.7641073314
 20
5167.628473117
  0
LWPOLYLINE
  5
8A
330
1F
100
AcDbEntity
  8
0
  6
Continuous
 62
     7
370
    25
100
AcDbPolyline
 90
        3
 70
   128
 43
0.0
 10
6296.9044417354
 20
5168.7195628247
 10
6297.3341237956
 20
5168.9676875516
 10
6297.7641073314
 20
5169.215973117
  0
LWPOLYLINE
  5
8B
330
1F
100
AcDbEntity
  8
0
  6
Continuous
 62
     7
370
    25
100
AcDbPolyline
 90
        3
 70
   128
 43
0.0
 10
6250.27340351
 20
5165.2472230243
 10
6250.7033440677
 20
5164.9989604176
 10
6251.1280164621
 20
5164.7537304217
  0
LWPOLYLINE
  5
8C
330
1F
100
AcDbEntity
  8
0
  6
Continuous
 62
     7
370
    25
100
AcDbPolyline
 90
        3
 70
   128
 43
0.0
 10
6250.27340351
 20
5166.8347230243
 10
6250.7033655558
 20
5166.5864489277
 10
6251.128016469
 20
5166.3412304284
  0
LWPOLYLINE
  5
8D
330
1F
100
AcDbEntity
  8
0
  6
Continuous
 62
     7
370
    25
100
AcDbPolyline
 90
        3
 70
   128
 43
0.0
 10
6250.27340351
 20
5168.4222230243
 10
6250.7033870903
 20
5168.1739374377
 10
6251.1280164765
 20
5167.9287304352
  0
LINE
  5
8E
330
1F
100
AcDbEntity
  8
0
  6
Continuous
 62
     7
370
    25
100
AcDbLine
 10
6297.7687553361
 20
5169.2209057899
 30
0.0
 11
6297.7687553361
 21
5170.1949866767
 31
0.0
  0
LINE
  5
8F
330
1F
100
AcDbEntity
  8
0
  6
Continuous
 62
     7
370
    25
100
AcDbLine
 10
6297.7687553361
 20
5167.6334057899
 30
0.0
 11
6297.7687553361
 21
5167.8317473546
 31
0.0
  0
LINE
  5
90
330
1F
100
AcDbEntity
  8
0
  6
Continuous
 62
     7
370
    25
100
AcDbLine
 10
6297.7687553361
 20
5166.0459057899
 30
0.0
 11
6297.7687553361
 21
5166.2442473546
 31
0.0
  0
LINE
  5
91
330
1F
100
AcDbEntity
  8
0
  6
Continuous
 62
     7
370
    25
100
AcDbLine
 10
6297.7687553361
 20
5164.4584057899
 30
0.0
 11
6297.7687553361
 21
5164.6567473546
 31
0.0
  0
LINE
  5
92
330
1F
100
AcDbEntity
  8
0
  6
Continuous
 62
     7
370
    25
100
AcDbLine
 10
6250.2687553361
 20
5163.8630376104
 30
0.0
 11
6250.2687553361
 21
5163.6949866767
 31
0.0
  0
LINE
  5
93
330
1F
100
AcDbEntity
  8
0
  6
Continuous
 62
     7
370
    25
100
AcDbLine
 10
6250.2687553361
 20
5165.4505376104
 30
0.0
 11
6250.2687553361
 21
5165.2522159727
 31
0.0
  0
LINE
  5
94
330
1F
100
AcDbEntity
  8
0
  6
Continuous
 62
     7
370
    25
100
AcDbLine
 10
6250.2687553361
 20
5167.0380376104
 30
0.0
 11
6250.2687553361
 21
5166.8397159727
 31
0.0
  0
LINE
  5
95
330
1F
100
AcDbEntity
  8
0
  6
Continuous
 62
     7
370
    25
100
AcDbLine
 10
6250.2687553361
 20
5170.1949866767
 30
0.0
 11
6250.2687553361
 21
5168.4272159727
 31
0.0
  0
LWPOLYLINE
  5
96
330
1F
100
AcDbEntity
  8
0
  6
Continuous
 62
     7
370
    25
100
AcDbPolyline
 90
        3
 70
   128
 43
0.0
 10
6251.1301612921
 20
5167.5378525453
 10
6250.6978929958
 20
5167.2882352008
 10
6250.2656233886
 20
5167.0386178503
  0
LWPOLYLINE
  5
97
330
1F
100
AcDbEntity
  8
0
  6
Continuous
 62
     7
370
    25
100
AcDbPolyline
 90
        3
 70
   128
 43
0.0
 10
6251.1294330451
 20
5165.94969574
 10
6250.6971602838
 20
5165.7000682922
 10
6250.264887191
 20
5165.450440837
  0
LWPOLYLINE
  5
98
330
1F
100
AcDbEntity
  8
0
  6
Continuous
 62
     7
370
    25
100
AcDbPolyline
 90
        3
 70
   128
 43
0.0
 10
6251.1330909146
 20
5164.3647385265
 10
6250.7008007953
 20
5164.1151096008
 10
6250.2685072476
 20
5163.8654806666
  0
LWPOLYLINE
  5
99
330
1F
100
AcDbEntity
  8
0
  6
Continuous
 62
     7
370
    25
100
AcDbPolyline
 90
        3
 70
   128
 43
0.0
 10
6297.7657047303
 20
5164.6607549754
 10
6297.3334493073
 20
5164.9103718717
 10
6296.9094942039
 20
5165.1551983479
  0
LWPOLYLINE
  5
9A
330
1F
100
AcDbEntity
  8
0
  6
Continuous
 62
     7
370
    25
100
AcDbPolyline
 90
        3
 70
   128
 43
0.0
 10
6297.7631606968
 20
5166.2492262942
 10
6297.3308898125
 20
5166.4988551739
 10
6296.9094942045
 20
5166.7422074365
  0
LWPOLYLINE
  5
9B
330
1F
100
AcDbEntity
  8
0
  6
Continuous
 62
     7
370
    25
100
AcDbPolyline
 90
        3
 70
   128
 43
0.0
 10
6297.7695968833
 20
5167.8339059265
 10
6297.3373021695
 20
5168.0835355625
 10
6296.9094941825
 20
5168.3305760482
  0
LWPOLYLINE
  5
9C
330
1F
100
AcDbEntity
  8
0
  6
Continuous
 62
     7
370
    25
100
AcDbPolyline
 90
        3
 70
   128
 43
0.0
 10
6296.9094942309
 20
5163.5654965086
 10
6296.9094923754
 20
5163.7638882298
 10
6296.9094942085
 20
5163.9599803996
  0
LWPOLYLINE
  5
9D
330
1F
100
AcDbEntity
  8
0
  6
Continuous
 62
     7
370
    25
100
AcDbPolyline
 90
        3
 70
   128
 43
0.0
 10
6296.9094942309
 20
5165.1529965086
 10
6296.9094917978
 20
5165.3513767848
 10
6296.9094942016
 20
5165.5474804061
  0
LWPOLYLINE
  5
9E
330
1F
100
AcDbEntity
  8
0
  6
Continuous
 62
     7
370
    25
100
AcDbPolyline
 90
        3
 70
   128
 43
0.0
 10
6296.9094942309
 20
5166.7404965086
 10
6296.9094911747
 20
5166.9388653397
 10
6296.9094941941
 20
5167.1349804126
  0
LWPOLYLINE
  5
9F
330
1F
100
AcDbEntity
  8
0
  6
Continuous
 62
     7
370
    25
100
AcDbPolyline
 90
        3
 70
   128
 43
0.0
 10
6296.9094942309
 20
5168.3279965086
 10
6296.9094905061
 20
5168.5263538945
 10
6296.909494186
 20
5168.722480419
  0
LWPOLYLINE
  5
A0
330
1F
100
AcDbEntity
  8
0
  6
Continuous
 62
     7
370
    25
100
AcDbPolyline
 90
        3
 70
   128
 43
0.0
 10
6251.1280164397
 20
5164.7561215565
 10
6251.1280182945
 20
5164.5576382776
 10
6251.1280164637
 20
5164.3618082497
  0
LWPOLYLINE
  5
A1
330
1F
100
AcDbEntity
  8
0
  6
Continuous
 62
     7
370
    25
100
AcDbPolyline
 90
        3
 70
   128
 43
0.0
 10
6251.1280164397
 20
5166.3436215565
 10
6251.1280188719
 20
5166.1451268326
 10
6251.1280164659
 20
5165.9488776984
  0
LWPOLYLINE
  5
A2
330
1F
100
AcDbEntity
  8
0
  6
Continuous
 62
     7
370
    25
100
AcDbPolyline
 90
        3
 70
   128
 43
0.0
 10
6251.1280164397
 20
5167.9311215565
 10
6251.1280194948
 20
5167.7326153875
 10
6251.1280164762
 20
5167.5366140014
  0
LINE
  5
A3
330
1F
100
AcDbEntity
  8
0
  6
Continuous
 62
     7
370
    25
100
AcDbLine
 10
6246.5187553361
 20
5163.6949866767
 30
0.0
 11
6246.5187553361
 21
5160.6949866767
 31
0.0
  0
LINE
  5
A4
330
1F
100
AcDbEntity
  8
0
  6
Continuous
 62
     7
370
    25
100
AcDbLine
 10
6301.5187553361
 20
5160.6949866767
 30
0.0
 11
6301.5187553361
 21
5163.6949866767
 31
0.0
  0
ARC
  5
A5
330
1F
100
AcDbEntity
  8
0
  6
Continuous
 62
     7
370
    25
100
AcDbCircle
 10
6249.5187553361
 20
5147.1949866767
 30
0.0
 40
1.999999999999091
100
AcDbArc
 50
180.0
 51
270.0
  0
ARC
  5
A6
330
1F
100
AcDbEntity
  8
0
  6
Continuous
 62
     7
370
    25
100
AcDbCircle
 10
6298.5187553361
 20
5147.1949866767
 30
0.0
 40
2.0
100
AcDbArc
 50
270.0
 51
0.0
  0
LINE
  5
A7
330
1F
100
AcDbEntity
  8
0
  6
Continuous
 62
     7
370
    25
100
AcDbLine
 10
6247.5187553361
 20
5149.6971202737
 30
0.0
 11
6247.5187553361
 21
5147.1949866767
 31
0.0
  0
LINE
  5
A8
330
1F
100
AcDbEntity
  8
0
  6
Continuous
 62
     7
370
    25
100
AcDbLine
 10
6300.5187553361
 20
5147.1949866767
 30
0.0
 11
6300.5187553361
 21
5149.6949866767
 31
0.0
  0
LINE
  5
A9
330
1F
100
AcDbEntity
  8
0
  6
Continuous
 62
     7
370
    25
100
AcDbLine
 10
6254.9268722441
 20
5149.6949866767
 30
0.0
 11
6255.2805268769
 21
5149.6949866767
 31
0.0
  0
LINE
  5
AA
330
1F
100
AcDbEntity
  8
0
  6
Continuous
 62
     7
370
    25
100
AcDbLine
 10
6292.7569837953
 20
5149.6949866767
 30
0.0
 11
6293.1106384281
 21
5149.6949866767
 31
0.0
  0
LINE
  5
AB
330
1F
100
AcDbEntity
  8
0
  6
Continuous
 62
     7
370
    25
100
AcDbLine
 10
6247.0187553361
 20
5149.6949866767
 30
0.0
 11
6247.5188985143
 21
5149.6949866767
 31
0.0
  0
LINE
  5
AC
330
1F
100
AcDbEntity
  8
0
  6
Continuous
 62
     7
370
    25
100
AcDbLine
 10
6300.5187553361
 20
5149.6949866767
 30
0.0
 11
6301.0187553361
 21
5149.6949866767
 31
0.0
  0
LINE
  5
AD
330
1F
100
AcDbEntity
  8
0
  6
Continuous
 62
     7
370
    25
100
AcDbLine
 10
6301.5187553361
 20
5130.3273438655
 30
0.0
 11
6301.5187553361
 21
5133.3273438655
 31
0.0
  0
LINE
  5
AE
330
1F
100
AcDbEntity
  8
0
  6
Continuous
 62
     7
370
    25
100
AcDbLine
 10
6246.5187553361
 20
5133.3273438655
 30
0.0
 11
6246.5187553361
 21
5130.3273438655
 31
0.0
  0
LINE
  5
AF
330
1F
100
AcDbEntity
  8
0
  6
Continuous
 62
     7
370
    25
100
AcDbLine
 10
6300.5187553361
 20
5144.3273438655
 30
0.0
 11
6300.5187553361
 21
5146.8273438655
 31
0.0
  0
LINE
  5
B0
330
1F
100
AcDbEntity
  8
0
  6
Continuous
 62
     7
370
    25
100
AcDbLine
 10
6247.5187553361
 20
5146.8273438655
 30
0.0
 11
6247.5187553361
 21
5133.3273438655
 31
0.0
  0
LINE
  5
B1
330
1F
100
AcDbEntity
  8
0
  6
Continuous
 62
     7
370
    25
100
AcDbLine
 10
6300.5187553361
 20
5146.8273438655
 30
0.0
 11
6300.5102898427
 21
5147.0111652711
 31
0.0
  0
LINE
  5
B2
330
1F
100
AcDbEntity
  8
0
  6
Continuous
 62
     7
370
    25
100
AcDbLine
 10
6247.5272208296
 20
5147.0111652717
 30
0.0
 11
6247.5187553361
 21
5146.8273438655
 31
0.0
  0
LINE
  5
B3
330
1F
100
AcDbEntity
  8
0
  6
Continuous
 62
     7
370
    25
100
AcDbLine
 10
6252.8457813565
 20
5144.3273438655
 30
0.0
 11
6252.4461747258
 21
5144.3273438655
 31
0.0
  0
LINE
  5
B4
330
1F
100
AcDbEntity
  8
0
  6
Continuous
 62
     7
370
    25
100
AcDbLine
 10
6300.7538090018
 20
5144.3273438655
 30
0.0
 11
6300.2587154154
 21
5144.3273438655
 31
0.0
  0
LINE
  5
B5
330
1F
100
AcDbEntity
  8
0
  6
Continuous
 62
     7
370
    25
100
AcDbLine
 10
6247.5187553361
 20
5144.3273438655
 30
0.0
 11
6247.2837016704
 21
5144.3273438655
 31
0.0
  0
LINE
  5
B6
330
1F
100
AcDbEntity
  8
0
  6
Continuous
 62
     7
370
    25
100
AcDbLine
 10
6294.0187553361
 20
5127.0624836743
 30
0.0
 11
6294.0187553361
 21
5145.1949866767
 31
0.0
  0
LINE
  5
B7
330
1F
100
AcDbEntity
  8
0
  6
Continuous
 62
     7
370
    25
100
AcDbLine
 10
6254.0187553361
 20
5145.1949866767
 30
0.0
 11
6254.0187553361
 21
5127.0624836743
 31
0.0
  0
ARC
  5
B8
330
1F
100
AcDbEntity
  8
0
  6
Continuous
 62
     7
370
    25
100
AcDbCircle
 10
6249.1263572317
 20
5126.8612935042
 30
0.0
 40
4.767901907717816
100
AcDbArc
 50
290.8549921023
 51
315.9735861699
  0
LINE
  5
B9
330
1F
100
AcDbEntity
  8
0
  6
Continuous
 62
     7
370
    25
100
AcDbLine
 10
6298.0187553361
 20
5129.9794701162
 30
0.0
 11
6298.0187553361
 21
5130.1779621002
 31
0.0
  0
LINE
  5
BA
330
1F
100
AcDbEntity
  8
0
  6
Continuous
 62
     7
370
    25
100
AcDbLine
 10
6250.0187553361
 20
5129.3842134741
 30
0.0
 11
6250.0187553361
 21
5129.1857431814
 31
0.0
  0
LWPOLYLINE
  5
BB
330
1F
100
AcDbEntity
  8
0
  6
Continuous
 62
     7
370
    25
100
AcDbPolyline
 90
        3
 70
   128
 43
0.0
 10
6250.0225015861
 20
5129.1813640471
 10
6250.452092798
 20
5128.9333007025
 10
6250.8818999856
 20
5128.685112154
  0
LWPOLYLINE
  5
BC
330
1F
100
AcDbEntity
  8
0
  6
Continuous
 62
     7
370
    25
100
AcDbPolyline
 90
        3
 70
   128
 43
0.0
 10
6297.1556108042
 20
5129.478862221
 10
6297.5853998937
 20
5129.7270403385
 10
6298.0150092065
 20
5129.9751141156
  0
LWPOLYLINE
  5
BD
330
1F
100
AcDbEntity
  8
0
  6
Continuous
 62
     7
370
    25
100
AcDbPolyline
 90
        3
 70
   128
 43
0.0
 10
6250.8818256123
 20
5129.8845061741
 10
6250.452217984
 20
5129.6364318042
 10
6250.0224251876
 20
5129.388253122
  0
LINE
  5
BE
330
1F
100
AcDbEntity
  8
0
  6
Continuous
 62
     7
370
    25
100
AcDbLine
 10
6298.0150855418
 20
5130.1820030892
 30
0.0
 11
6297.7633861692
 21
5130.3273438655
 31
0.0
  0
LWPOLYLINE
  5
BF
330
1F
100
AcDbEntity
  8
0
  6
Continuous
 62
     7
370
    25
100
AcDbPolyline
 90
        3
 70
   128
 43
0.0
 10
6297.7970996851
 20
5128.7203763036
 10
6297.5852743435
 20
5128.8426922054
 10
6297.1590294781
 20
5129.0888249584
  0
LWPOLYLINE
  5
C0
330
1F
100
AcDbEntity
  8
0
  6
Continuous
 62
     7
370
    25
100
AcDbPolyline
 90
        3
 70
   128
 43
0.0
 10
6250.8780150011
 20
5130.2770388727
 10
6250.8780159742
 20
5130.0786529865
 10
6250.8780150116
 20
5129.8823057654
  0
LWPOLYLINE
  5
C1
330
1F
100
AcDbEntity
  8
0
  6
Continuous
 62
     7
370
    25
100
AcDbPolyline
 90
        3
 70
   128
 43
0.0
 10
6297.1590296559
 20
5129.0879152469
 10
6297.1589908595
 20
5129.2864149203
 10
6297.1590288825
 20
5129.4808359617
  0
LINE
  5
C2
330
1F
100
AcDbEntity
  8
0
  6
Continuous
 62
     7
370
    25
100
AcDbLine
 10
6295.5187553361
 20
5126.3552407145
 30
0.0
 11
6295.5187553361
 21
5128.6949866767
 31
0.0
  0
LINE
  5
C3
330
1F
100
AcDbEntity
  8
0
  6
Continuous
 62
     7
370
    25
100
AcDbLine
 10
6252.5187553361
 20
5128.6949866767
 30
0.0
 11
6252.5187553361
 21
5126.3552407145
 31
0.0
  0
ARC
  5
C4
330
1F
100
AcDbEntity
  8
0
  6
Continuous
 62
     7
370
    25
100
AcDbCircle
 10
6286.4172121775
 20
5388.3103124109
 30
0.0
 40
201.000000000001
100
AcDbArc
 50
208.0857192414
 51
255.4787774957
  0
ARC
  5
C5
330
1F
100
AcDbEntity
  8
0
  6
Continuous
 62
     7
370
    25
100
AcDbCircle
 10
6261.6202984947
 20
5388.3103124109
 30
0.0
 40
201.0000000000013
100
AcDbArc
 50
284.5212225043
 51
331.901939511
  0
LINE
  5
C6
330
1F
100
AcDbEntity
  8
0
  6
Continuous
 62
     7
370
    25
100
AcDbLine
 10
6236.0187553361
 20
5193.7312910648
 30
0.0
 11
6236.0187553361
 21
5193.6949866767
 31
0.0
  0
LINE
  5
C7
330
1F
100
AcDbEntity
  8
0
  6
Continuous
 62
     7
370
    25
100
AcDbLine
 10
6312.0187553361
 20
5193.6949866767
 30
0.0
 11
6312.0187553361
 21
5193.7312910648
 31
0.0
  0
LWPOLYLINE
  5
C8
330
1F
100
AcDbEntity
  8
0
  6
Continuous
 62
     7
370
    25
100
AcDbPolyline
 90
        6
 70
   128
 43
0.0
 10
6236.0187553361
 20
5193.6949866767
 10
6236.0308906103
 20
5193.6051322388
 10
6236.0688392309
 20
5193.5130236243
 10
6236.2293904329
 20
5193.3268919671
 10
6236.8974349925
 20
5192.9878798955
 10
6239.0187553361
 20
5192.6949866767
  0
LWPOLYLINE
  5
C9
330
1F
100
AcDbEntity
  8
0
  6
Continuous
 62
     7
370
    25
100
AcDbPolyline
 90
        6
 70
   128
 43
0.0
 10
6309.0187553361
 20
5192.6949866767
 10
6311.1400756797
 20
5192.9878798955
 10
6311.8081202393
 20
5193.3268919671
 10
6311.9686714414
 20
5193.5130236243
 10
6312.0066200619
 20
5193.6051322388
 10
6312.0187553361
 20
5193.6949866767
  0
LINE
  5
CA
330
1F
100
AcDbEntity
  8
0
  6
Continuous
 62
     7
370
    25
100
AcDbLine
 10
6309.0187553361
 20
5192.6949866767
 30
0.0
 11
6239.0187553361
 21
5192.6949866767
 31
0.0
  0
LINE
  5
CB
330
1F
100
AcDbEntity
  8
0
  6
Continuous
 62
     7
370
    25
100
AcDbLine
 10
6310.5187553361
 20
5189.6949866767
 30
0.0
 11
6237.5187553361
 21
5189.6949866767
 31
0.0
  0
LINE
  5
CC
330
1F
100
AcDbEntity
  8
0
  6
Continuous
 62
     7
370
    25
100
AcDbLine
 10
6310.5187553361
 20
5183.6949866767
 30
0.0
 11
6237.5187553361
 21
5183.6949866767
 31
0.0
  0
LINE
  5
CD
330
1F
100
AcDbEntity
  8
0
  6
Continuous
 62
     7
370
    25
100
AcDbLine
 10
6299.7687553361
 20
5171.8616533434
 30
0.0
 11
6248.2687553361
 21
5171.8616533434
 31
0.0
  0
LINE
  5
CE
330
1F
100
AcDbEntity
  8
0
  6
Continuous
 62
     7
370
    25
100
AcDbLine
 10
6297.7687553361
 20
5170.1949866767
 30
0.0
 11
6250.2687553361
 21
5170.1949866767
 31
0.0
  0
LWPOLYLINE
  5
CF
330
1F
100
AcDbEntity
  8
0
  6
Continuous
 62
     7
370
    25
100
AcDbPolyline
 90
       15
 70
   128
 43
0.0
 10
6250.5646946038
 20
5163.6949866767
 10
6251.1670119285
 20
5163.7334306656
 10
6253.1871526442
 20
5163.7897494521
 10
6256.3165039453
 20
5163.8489049309
 10
6260.325829576
 20
5163.9063815706
 10
6264.9494774691
 20
5163.9609035616
 10
6270.1391857201
 20
5164.0192609584
 10
6275.5438805237
 20
5164.0780952651
 10
6280.7564992957
 20
5164.133150262
 10
6285.6759333488
 20
5164.1897257272
 10
6290.0652398012
 20
5164.2489067435
 10
6293.5847273504
 20
5164.3061714532
 10
6296.0757717667
 20
5164.3607844423
 10
6297.4950957865
 20
5164.4192813382
 10
6297.6314122519
 20
5164.4584057899
  0
LWPOLYLINE
  5
D0
330
1F
100
AcDbEntity
  8
0
  6
Continuous
 62
     7
370
    25
100
AcDbPolyline
 90
       16
 70
   128
 43
0.0
 10
6250.3777177758
 20
5165.2522159727
 10
6250.3011606251
 20
5165.2656661455
 10
6251.1670119285
 20
5165.3209306656
 10
6253.1871526442
 20
5165.3772494521
 10
6256.3165039453
 20
5165.4364049309
 10
6260.325829576
 20
5165.4938815706
 10
6264.9494774691
 20
5165.5484035616
 10
6270.1391857201
 20
5165.6067609584
 10
6275.5438805237
 20
5165.6655952651
 10
6280.7564992957
 20
5165.720650262
 10
6285.6759333488
 20
5165.7772257272
 10
6290.0652398012
 20
5165.8364067435
 10
6293.5847273504
 20
5165.8936714532
 10
6296.0757717667
 20
5165.9482844423
 10
6297.4950957865
 20
5166.0067813382
 10
6297.6314122519
 20
5166.0459057899
  0
LWPOLYLINE
  5
D1
330
1F
100
AcDbEntity
  8
0
  6
Continuous
 62
     7
370
    25
100
AcDbPolyline
 90
       16
 70
   128
 43
0.0
 10
6250.3777177758
 20
5166.8397159727
 10
6250.3011606251
 20
5166.8531661455
 10
6251.1670119285
 20
5166.9084306656
 10
6253.1871526442
 20
5166.9647494521
 10
6256.3165039453
 20
5167.0239049309
 10
6260.325829576
 20
5167.0813815706
 10
6264.9494774691
 20
5167.1359035616
 10
6270.1391857201
 20
5167.1942609584
 10
6275.5438805237
 20
5167.2530952651
 10
6280.7564992957
 20
5167.308150262
 10
6285.6759333488
 20
5167.3647257272
 10
6290.0652398012
 20
5167.4239067435
 10
6293.5847273504
 20
5167.4811714532
 10
6296.0757717667
 20
5167.5357844423
 10
6297.4950957865
 20
5167.5942813382
 10
6297.6314122519
 20
5167.6334057899
  0
LWPOLYLINE
  5
D2
330
1F
100
AcDbEntity
  8
0
  6
Continuous
 62
     7
370
    25
100
AcDbPolyline
 90
       16
 70
   128
 43
0.0
 10
6250.3777177758
 20
5168.4272159727
 10
6250.3011606251
 20
5168.4406661455
 10
6251.1670119285
 20
5168.4959306656
 10
6253.1871526442
 20
5168.5522494521
 10
6256.3165039453
 20
5168.6114049309
 10
6260.325829576
 20
5168.6688815706
 10
6264.9494774691
 20
5168.7234035616
 10
6270.1391857201
 20
5168.7817609584
 10
6275.5438805237
 20
5168.8405952651
 10
6280.7564992957
 20
5168.895650262
 10
6285.6759333488
 20
5168.9522257272
 10
6290.0652398012
 20
5169.0114067435
 10
6293.5847273504
 20
5169.0686714532
 10
6296.0757717667
 20
5169.1232844423
 10
6297.4950957865
 20
5169.1817813382
 10
6297.6314122519
 20
5169.2209057899
  0
ARC
  5
D3
330
1F
100
AcDbEntity
  8
0
  6
Continuous
 62
     7
370
    25
100
AcDbCircle
 10
6286.8247498952
 20
5348.0774011537
 30
0.0
 40
184.3883039608525
100
AcDbArc
 50
269.542057743
 51
273.0883937465
  0
LWPOLYLINE
  5
D4
330
1F
100
AcDbEntity
  8
0
  6
Continuous
 62
     7
370
    25
100
AcDbPolyline
 90
       16
 70
   128
 43
0.0
 10
6251.2744066814
 20
5164.7559123845
 10
6251.2428639494
 20
5164.7817183322
 10
6252.3117995264
 20
5164.8363248367
 10
6254.495768071
 20
5164.8936029475
 10
6257.7151425761
 20
5164.9527827643
 10
6261.9407755134
 20
5165.0121260573
 10
6266.8101289249
 20
5165.0703998225
 10
6272.1919622393
 20
5165.1324866767
 10
6275.4887024988
 20
5165.1695015175
 10
6280.5127321086
 20
5165.2245565143
 10
6285.2541842321
 20
5165.2811319795
 10
6289.4846884259
 20
5165.3403129958
 10
6292.8768431986
 20
5165.3975777056
 10
6295.2777632427
 20
5165.4521906947
 10
6296.6457370375
 20
5165.5106875906
 10
6296.7589525889
 20
5165.5444015544
  0
LWPOLYLINE
  5
D5
330
1F
100
AcDbEntity
  8
0
  6
Continuous
 62
     7
370
    25
100
AcDbPolyline
 90
       16
 70
   128
 43
0.0
 10
6251.2744066884
 20
5166.3434123789
 10
6251.2428639494
 20
5166.3692183322
 10
6252.3117995264
 20
5166.4238248367
 10
6254.495768071
 20
5166.4811029475
 10
6257.7151425761
 20
5166.5402827643
 10
6261.9407755134
 20
5166.5996260573
 10
6266.8101289249
 20
5166.6578998225
 10
6272.1919622393
 20
5166.7199866767
 10
6275.4887024988
 20
5166.7570015175
 10
6280.5127321086
 20
5166.8120565143
 10
6285.2541842321
 20
5166.8686319795
 10
6289.4846884259
 20
5166.9278129958
 10
6292.8768431986
 20
5166.9850777056
 10
6295.2777632427
 20
5167.0396906947
 10
6296.6457370375
 20
5167.0981875906
 10
6296.7589512715
 20
5167.1319011621
  0
LWPOLYLINE
  5
D6
330
1F
100
AcDbEntity
  8
0
  6
Continuous
 62
     7
370
    25
100
AcDbPolyline
 90
       16
 70
   128
 43
0.0
 10
6251.2744066939
 20
5167.9309123743
 10
6251.2428639494
 20
5167.9567183322
 10
6252.3117995264
 20
5168.0113248367
 10
6254.495768071
 20
5168.0686029475
 10
6257.7151425761
 20
5168.1277827643
 10
6261.9407755134
 20
5168.1871260573
 10
6266.8101289249
 20
5168.2453998225
 10
6272.1919622393
 20
5168.3074866767
 10
6275.4887024988
 20
5168.3445015175
 10
6280.5127321086
 20
5168.3995565143
 10
6285.2541842321
 20
5168.4561319795
 10
6289.4846884259
 20
5168.5153129958
 10
6292.8768431986
 20
5168.5725777056
 10
6295.2777632427
 20
5168.6271906947
 10
6296.6457370375
 20
5168.6856875906
 10
6296.7589499543
 20
5168.7194007698
  0
LWPOLYLINE
  5
D7
330
1F
100
AcDbEntity
  8
0
  6
Continuous
 62
     7
370
    25
100
AcDbPolyline
 90
       16
 70
   128
 43
0.0
 10
6250.4139050466
 20
5163.8682561256
 10
6250.3879155099
 20
5163.8887495843
 10
6251.4969761802
 20
5163.9433560888
 10
6253.7629252906
 20
5164.0006341995
 10
6257.1031468409
 20
5164.0598140164
 10
6261.2564597657
 20
5164.116373979
 10
6266.0111128643
 20
5164.1714410271
 10
6271.280557895
 20
5164.2302812435
 10
6276.6771119527
 20
5164.2886296354
 10
6281.8234336828
 20
5164.3431470078
 10
6286.6632960439
 20
5164.4006363286
 10
6290.892883081
 20
5164.4597898094
 10
6294.1967958143
 20
5164.5160924135
 10
6296.4727035424
 20
5164.5713708257
 10
6297.6418626239
 20
5164.6303001487
 10
6297.6165247408
 20
5164.6567473546
  0
LWPOLYLINE
  5
D8
330
1F
100
AcDbEntity
  8
0
  6
Continuous
 62
     7
370
    25
100
AcDbPolyline
 90
       16
 70
   128
 43
0.0
 10
6250.4171240902
 20
5165.4532178219
 10
6250.3879155099
 20
5165.4762495843
 10
6251.4969761802
 20
5165.5308560888
 10
6253.7629252906
 20
5165.5881341995
 10
6257.1031468409
 20
5165.6473140164
 10
6261.2564597657
 20
5165.703873979
 10
6266.0111128643
 20
5165.7589410271
 10
6271.280557895
 20
5165.8177812435
 10
6276.6771119527
 20
5165.8761296354
 10
6281.8234336828
 20
5165.9306470078
 10
6286.6632960439
 20
5165.9881363286
 10
6290.892883081
 20
5166.0472898094
 10
6294.1967958143
 20
5166.1035924135
 10
6296.4727035424
 20
5166.1588708257
 10
6297.6418626239
 20
5166.2178001487
 10
6297.6165247408
 20
5166.2442473546
  0
LWPOLYLINE
  5
D9
330
1F
100
AcDbEntity
  8
0
  6
Continuous
 62
     7
370
    25
100
AcDbPolyline
 90
       16
 70
   128
 43
0.0
 10
6250.4162700251
 20
5167.0413912755
 10
6250.3879155099
 20
5167.0637495843
 10
6251.4969761802
 20
5167.1183560888
 10
6253.7629252906
 20
5167.1756341995
 10
6257.1031468409
 20
5167.2348140164
 10
6261.2564597657
 20
5167.291373979
 10
6266.0111128643
 20
5167.3464410271
 10
6271.280557895
 20
5167.4052812435
 10
6276.6771119527
 20
5167.4636296354
 10
6281.8234336828
 20
5167.5181470078
 10
6286.6632960439
 20
5167.5756363286
 10
6290.892883081
 20
5167.6347898094
 10
6294.1967958143
 20
5167.6910924135
 10
6296.4727035424
 20
5167.7463708257
 10
6297.6418626239
 20
5167.8053001487
 10
6297.6165247408
 20
5167.8317473546
  0
LWPOLYLINE
  5
DA
330
1F
100
AcDbEntity
  8
0
  6
Continuous
 62
     7
370
    25
100
AcDbPolyline
 90
       16
 70
   128
 43
0.0
 10
6251.2676708439
 20
5164.3645481548
 10
6251.242863958
 20
5164.3848433332
 10
6252.311799554
 20
5164.4394498376
 10
6254.4957681186
 20
5164.4967279485
 10
6257.7151426415
 20
5164.5559077654
 10
6261.7181914156
 20
5164.6124677279
 10
6266.3008242668
 20
5164.6675347761
 10
6271.379624207
 20
5164.7263749926
 10
6276.5809344441
 20
5164.7847233844
 10
6281.541065592
 20
5164.8392407568
 10
6286.2058248692
 20
5164.8967300777
 10
6290.2823881791
 20
5164.9558835585
 10
6293.4667674742
 20
5165.0121861626
 10
6295.7457356487
 20
5165.0704323783
 10
6296.836485813
 20
5165.1324866767
 10
6296.8075053455
 20
5165.1528052891
  0
LWPOLYLINE
  5
DB
330
1F
100
AcDbEntity
  8
0
  6
Continuous
 62
     7
370
    25
100
AcDbPolyline
 90
       16
 70
   128
 43
0.0
 10
6251.270791499
 20
5165.9494950632
 10
6251.242863958
 20
5165.9723433332
 10
6252.311799554
 20
5166.0269498376
 10
6254.4957681186
 20
5166.0842279485
 10
6257.7151426415
 20
5166.1434077654
 10
6261.7181914156
 20
5166.1999677279
 10
6266.3008242668
 20
5166.2550347761
 10
6271.379624207
 20
5166.3138749926
 10
6276.5809344441
 20
5166.3722233844
 10
6281.541065592
 20
5166.4267407568
 10
6286.2058248692
 20
5166.4842300777
 10
6290.2823881791
 20
5166.5433835585
 10
6293.4667674742
 20
5166.5996861626
 10
6295.7457356487
 20
5166.6579323783
 10
6296.836485813
 20
5166.7199866767
 10
6296.8075111758
 20
5166.7403012014
  0
LWPOLYLINE
  5
DC
330
1F
100
AcDbEntity
  8
0
  6
Continuous
 62
     7
370
    25
100
AcDbPolyline
 90
       16
 70
   128
 43
0.0
 10
6251.2699866806
 20
5167.5376535067
 10
6251.242863958
 20
5167.5598433332
 10
6252.311799554
 20
5167.6144498376
 10
6254.4957681186
 20
5167.6717279485
 10
6257.7151426415
 20
5167.7309077654
 10
6261.7181914156
 20
5167.7874677279
 10
6266.3008242668
 20
5167.8425347761
 10
6271.379624207
 20
5167.9013749926
 10
6276.5809344441
 20
5167.9597233844
 10
6281.541065592
 20
5168.0142407568
 10
6286.2058248692
 20
5168.0717300777
 10
6290.2823881791
 20
5168.1308835585
 10
6293.4667674742
 20
5168.1871861626
 10
6295.7457356487
 20
5168.2454323783
 10
6296.836485813
 20
5168.3074866767
 10
6296.8075170069
 20
5168.3277971132
  0
ARC
  5
DD
330
1F
100
AcDbEntity
  8
0
  6
Continuous
 62
     7
370
    25
100
AcDbCircle
 10
6274.0187553361
 20
5168.2273438655
 30
0.0
 40
27.00000000000003
100
AcDbArc
 50
0.0
 51
17.5025238846
  0
ARC
  5
DE
330
1F
100
AcDbEntity
  8
0
  6
Continuous
 62
     7
370
    25
100
AcDbCircle
 10
6274.0187553361
 20
5168.2273438655
 30
0.0
 40
27.0000000000003
100
AcDbArc
 50
162.4974761154
 51
189.6637134934
  0
LWPOLYLINE
  5
DF
330
1F
100
AcDbEntity
  8
0
  6
Continuous
 62
     7
370
    25
100
AcDbPolyline
 90
        3
 70
   128
 43
0.0
 10
6300.6356247672
 20
5163.6949866767
 10
6300.8427621905
 20
5165.1495757985
 10
6301.0187553361
 20
5168.2273438655
  0
LINE
  5
E0
330
1F
100
AcDbEntity
  8
0
  6
Continuous
 62
     7
370
    25
100
AcDbLine
 10
6246.5187553361
 20
5163.6949866767
 30
0.0
 11
6301.5187553361
 21
5163.6949866767
 31
0.0
  0
LINE
  5
E1
330
1F
100
AcDbEntity
  8
0
  6
Continuous
 62
     7
370
    25
100
AcDbLine
 10
6246.5187553361
 20
5160.6949866767
 30
0.0
 11
6301.5187553361
 21
5160.6949866767
 31
0.0
  0
LINE
  5
E2
330
1F
100
AcDbEntity
  8
0
  6
Continuous
 62
     7
370
    25
100
AcDbLine
 10
6275.8937553361
 20
5151.5699866767
 30
0.0
 11
6275.8937553361
 21
5160.6949866767
 31
0.0
  0
ARC
  5
E3
330
1F
100
AcDbEntity
  8
0
  6
Continuous
 62
     7
370
    25
100
AcDbCircle
 10
6274.0187553361
 20
5151.5699866767
 30
0.0
 40
1.875
100
AcDbArc
 50
180.0
 51
360.0
  0
LINE
  5
E4
330
1F
100
AcDbEntity
  8
0
  6
Continuous
 62
     7
370
    25
100
AcDbLine
 10
6272.1437553361
 20
5160.6949866767
 30
0.0
 11
6272.1437553361
 21
5151.5699866767
 31
0.0
  0
LINE
  5
E5
330
1F
100
AcDbEntity
  8
0
  6
Continuous
 62
     7
370
    25
100
AcDbLine
 10
6298.5187553361
 20
5145.1949866767
 30
0.0
 11
6249.5187553361
 21
5145.1949866767
 31
0.0
  0
LINE
  5
E6
330
1F
100
AcDbEntity
  8
0
  6
Continuous
 62
     7
370
    25
100
AcDbLine
 10
6300.4523395615
 20
5160.6949866767
 30
0.0
 11
6300.4523395615
 21
5151.5699866767
 31
0.0
  0
ARC
  5
E7
330
1F
100
AcDbEntity
  8
0
  6
Continuous
 62
     7
370
    25
100
AcDbCircle
 10
6327.0180040188
 20
5151.5723126264
 30
0.0
 40
26.56566455915132
100
AcDbArc
 50
180.0050165169
 51
184.0523202879
  0
LWPOLYLINE
  5
E8
330
1F
100
AcDbEntity
  8
0
  6
Continuous
 62
     7
370
    25
100
AcDbPolyline
 90
        7
 70
   128
 43
0.0
 10
6247.518902312
 20
5149.6971202737
 10
6247.5187584269
 20
5149.695030361
 10
6247.5262798202
 20
5149.8045167795
 10
6247.5449967677
 20
5150.1120711304
 10
6247.5667989929
 20
5150.5842791223
 10
6247.582119601
 20
5151.1683226507
 10
6247.5851711107
 20
5151.5699866767
  0
LINE
  5
E9
330
1F
100
AcDbEntity
  8
0
  6
Continuous
 62
     7
370
    25
100
AcDbLine
 10
6247.5851711107
 20
5151.5699866767
 30
0.0
 11
6247.5851711107
 21
5160.6949866767
 31
0.0
  0
LWPOLYLINE
  5
EA
330
1F
100
AcDbEntity
  8
0
  6
Continuous
 62
     7
370
    25
100
AcDbPolyline
 90
        7
 70
   128
 43
0.0
 10
6255.2807668872
 20
5149.6970651125
 10
6255.289478078
 20
5149.695030361
 10
6255.7322555103
 20
5149.8045167795
 10
6256.1326798934
 20
5150.1120711304
 10
6256.4422286497
 20
5150.5842791223
 10
6256.6202774623
 20
5151.1683226507
 10
6256.653213894
 20
5151.5699866767
  0
LINE
  5
EB
330
1F
100
AcDbEntity
  8
0
  6
Continuous
 62
     7
370
    25
100
AcDbLine
 10
6256.653213894
 20
5151.5699866767
 30
0.0
 11
6256.653213894
 21
5160.6949866767
 31
0.0
  0
LINE
  5
EC
330
1F
100
AcDbEntity
  8
0
  6
Continuous
 62
     7
370
    25
100
AcDbLine
 10
6291.3842967782
 20
5160.6949866767
 30
0.0
 11
6291.3842967782
 21
5151.5699866767
 31
0.0
  0
ARC
  5
ED
330
1F
100
AcDbEntity
  8
0
  6
Continuous
 62
     7
370
    25
100
AcDbCircle
 10
6293.0600353948
 20
5151.358704435
 30
0.0
 40
1.689005653249192
100
AcDbArc
 50
172.8138921047
 51
259.6719458432
  0
LWPOLYLINE
  5
EE
330
1F
100
AcDbEntity
  8
0
  6
Continuous
 62
     7
370
    25
100
AcDbPolyline
 90
        9
 70
   128
 43
0.0
 10
6253.6010470293
 20
5151.5699866767
 10
6253.7019694645
 20
5150.852455241
 10
6253.9893722441
 20
5150.244161462
 10
6254.4195009002
 20
5149.8377125532
 10
6254.9268722441
 20
5149.6949866767
 10
6255.434243588
 20
5149.8377125532
 10
6255.8643722441
 20
5150.244161462
 10
6256.1517750236
 20
5150.852455241
 10
6256.2526974588
 20
5151.5699866767
  0
LINE
  5
EF
330
1F
100
AcDbEntity
  8
0
  6
Continuous
 62
     7
370
    25
100
AcDbLine
 10
6256.653213894
 20
5151.5699866767
 30
0.0
 11
6256.2526974588
 21
5151.5699866767
 31
0.0
  0
LINE
  5
F0
330
1F
100
AcDbEntity
  8
0
  6
Continuous
 62
     7
370
    25
100
AcDbLine
 10
6253.6010470293
 20
5160.6949866767
 30
0.0
 11
6253.6010470293
 21
5151.5699866767
 31
0.0
  0
LINE
  5
F1
330
1F
100
AcDbEntity
  8
0
  6
Continuous
 62
     7
370
    25
100
AcDbLine
 10
6256.2526974588
 20
5151.5699866767
 30
0.0
 11
6256.2526974588
 21
5160.6949866767
 31
0.0
  0
LINE
  5
F2
330
1F
100
AcDbEntity
  8
0
  6
Continuous
 62
     7
370
    25
100
AcDbLine
 10
6291.7848132134
 20
5160.6949866767
 30
0.0
 11
6291.7848132134
 21
5151.5699866767
 31
0.0
  0
LINE
  5
F3
330
1F
100
AcDbEntity
  8
0
  6
Continuous
 62
     7
370
    25
100
AcDbLine
 10
6291.3842967782
 20
5151.5699866767
 30
0.0
 11
6291.7848132134
 21
5151.5699866767
 31
0.0
  0
LWPOLYLINE
  5
F4
330
1F
100
AcDbEntity
  8
0
  6
Continuous
 62
     7
370
    25
100
AcDbPolyline
 90
        9
 70
   128
 43
0.0
 10
6291.7848132134
 20
5151.5699866767
 10
6291.8857356486
 20
5150.852455241
 10
6292.1731384281
 20
5150.244161462
 10
6292.6032670842
 20
5149.8377125532
 10
6293.1106384281
 20
5149.6949866767
 10
6293.618009772
 20
5149.8377125532
 10
6294.0481384281
 20
5150.244161462
 10
6294.3355412077
 20
5150.852455241
 10
6294.4364636429
 20
5151.5699866767
  0
LINE
  5
F5
330
1F
100
AcDbEntity
  8
0
  6
Continuous
 62
     7
370
    25
100
AcDbLine
 10
6294.4364636429
 20
5151.5699866767
 30
0.0
 11
6294.4364636429
 21
5160.6949866767
 31
0.0
  0
LINE
  5
F6
330
1F
100
AcDbEntity
  8
0
  6
Continuous
 62
     7
370
    25
100
AcDbLine
 10
6247.0187553361
 20
5151.5699866767
 30
0.0
 11
6247.0187553361
 21
5160.6949866767
 31
0.0
  0
LINE
  5
F7
330
1F
100
AcDbEntity
  8
0
  6
Continuous
 62
     7
370
    25
100
AcDbLine
 10
6247.5851711107
 20
5151.5699866767
 30
0.0
 11
6247.0187553361
 21
5151.5699866767
 31
0.0
  0
LINE
  5
F8
330
1F
100
AcDbEntity
  8
0
  6
Continuous
 62
     7
370
    25
100
AcDbLine
 10
6247.0187553361
 20
5149.6949866767
 30
0.0
 11
6247.0187553361
 21
5151.5699866767
 31
0.0
  0
LINE
  5
F9
330
1F
100
AcDbEntity
  8
0
  6
Continuous
 62
     7
370
    25
100
AcDbLine
 10
6300.4523395615
 20
5151.5699866767
 30
0.0
 11
6301.0187553361
 21
5151.5699866767
 31
0.0
  0
LINE
  5
FA
330
1F
100
AcDbEntity
  8
0
  6
Continuous
 62
     7
370
    25
100
AcDbLine
 10
6301.0187553361
 20
5160.6949866767
 30
0.0
 11
6301.0187553361
 21
5151.5699866767
 31
0.0
  0
LINE
  5
FB
330
1F
100
AcDbEntity
  8
0
  6
Continuous
 62
     7
370
    25
100
AcDbLine
 10
6301.0187553361
 20
5151.5699866767
 30
0.0
 11
6301.0187553361
 21
5149.6949866767
 31
0.0
  0
LINE
  5
FC
330
1F
100
AcDbEntity
  8
0
  6
Continuous
 62
     7
370
    25
100
AcDbLine
 10
6301.2489025883
 20
5130.3273438655
 30
0.0
 11
6294.0187553361
 21
5130.3273438655
 31
0.0
  0
LINE
  5
FD
330
1F
100
AcDbEntity
  8
0
  6
Continuous
 62
     7
370
    25
100
AcDbLine
 10
6254.0187553361
 20
5130.3273438655
 30
0.0
 11
6246.5187553361
 21
5130.3273438655
 31
0.0
  0
LINE
  5
FE
330
1F
100
AcDbEntity
  8
0
  6
Continuous
 62
     7
370
    25
100
AcDbLine
 10
6301.5187553361
 20
5130.3273438655
 30
0.0
 11
6301.2489025883
 21
5130.3273438655
 31
0.0
  0
LINE
  5
FF
330
1F
100
AcDbEntity
  8
0
  6
Continuous
 62
     7
370
    25
100
AcDbLine
 10
6301.2489025883
 20
5133.3273438655
 30
0.0
 11
6294.0187553361
 21
5133.3273438655
 31
0.0
  0
LINE
  5
100
330
1F
100
AcDbEntity
  8
0
  6
Continuous
 62
     7
370
    25
100
AcDbLine
 10
6254.0262664979
 20
5133.3273438655
 30
0.0
 11
6246.5187553361
 21
5133.3273438655
 31
0.0
  0
LINE
  5
101
330
1F
100
AcDbEntity
  8
0
  6
Continuous
 62
     7
370
    25
100
AcDbLine
 10
6301.5187553361
 20
5133.3273438655
 30
0.0
 11
6301.2489025883
 21
5133.3273438655
 31
0.0
  0
ARC
  5
102
330
1F
100
AcDbEntity
  8
0
  6
Continuous
 62
     7
370
    25
100
AcDbCircle
 10
6303.4579091007
 20
5142.8019030808
 30
0.0
 40
3.544264355757742
100
AcDbArc
 50
154.5072419098
 51
185.6600971612
  0
LINE
  5
103
330
1F
100
AcDbEntity
  8
0
  6
Continuous
 62
     7
370
    25
100
AcDbLine
 10
6299.9309248112
 20
5142.4523438655
 30
0.0
 11
6299.9309248112
 21
5133.3273438655
 31
0.0
  0
LWPOLYLINE
  5
104
330
1F
100
AcDbEntity
  8
0
  6
Continuous
 62
     7
370
    25
100
AcDbPolyline
 90
        6
 70
   128
 43
0.0
 10
6254.0262664979
 20
5142.4523438655
 10
6253.9940385253
 20
5142.8783330918
 10
6253.8353813981
 20
5143.4572867691
 10
6253.5646054828
 20
5143.9241116968
 10
6253.2172451769
 20
5144.22581764
 10
6252.8455772422
 20
5144.3252654297
  0
LWPOLYLINE
  5
105
330
1F
100
AcDbEntity
  8
0
  6
Continuous
 62
     7
370
    25
100
AcDbPolyline
 90
        9
 70
   128
 43
0.0
 10
6253.5737090921
 20
5142.4523438655
 10
6253.487880649
 20
5143.1698753012
 10
6253.2434619222
 20
5143.7781690802
 10
6252.8776634472
 20
5144.184617989
 10
6252.4461747258
 20
5144.3273438655
 10
6252.0146860044
 20
5144.184617989
 10
6251.6488875294
 20
5143.7781690802
 10
6251.4044688026
 20
5143.1698753012
 10
6251.3186403595
 20
5142.4523438655
  0
LINE
  5
106
330
1F
100
AcDbEntity
  8
0
  6
Continuous
 62
     7
370
    25
100
AcDbLine
 10
6253.5737090921
 20
5133.3273438655
 30
0.0
 11
6253.5737090921
 21
5142.4523438655
 31
0.0
  0
LINE
  5
107
330
1F
100
AcDbEntity
  8
0
  6
Continuous
 62
     7
370
    25
100
AcDbLine
 10
6251.3186403595
 20
5142.4523438655
 30
0.0
 11
6251.3186403595
 21
5133.3273438655
 31
0.0
  0
LWPOLYLINE
  5
108
330
1F
100
AcDbEntity
  8
0
  6
Continuous
 62
     7
370
    25
100
AcDbPolyline
 90
        9
 70
   128
 43
0.0
 10
6301.015835558
 20
5142.4523438655
 10
6300.9958899741
 20
5143.1698753012
 10
6300.9390897566
 20
5143.7781690802
 10
6300.8540822237
 20
5144.184617989
 10
6300.7538090018
 20
5144.3273438655
 10
6300.65353578
 20
5144.184617989
 10
6300.5685282471
 20
5143.7781690802
 10
6300.5117280296
 20
5143.1698753012
 10
6300.4917824457
 20
5142.4523438655
  0
LINE
  5
109
330
1F
100
AcDbEntity
  8
0
  6
Continuous
 62
     7
370
    25
100
AcDbLine
 10
6301.015835558
 20
5133.3273438655
 30
0.0
 11
6301.015835558
 21
5142.4523438655
 31
0.0
  0
LINE
  5
10A
330
1F
100
AcDbEntity
  8
0
  6
Continuous
 62
     7
370
    25
100
AcDbLine
 10
6300.4917824457
 20
5142.4523438655
 30
0.0
 11
6300.4917824457
 21
5133.3273438655
 31
0.0
  0
LINE
  5
10B
330
1F
100
AcDbEntity
  8
0
  6
Continuous
 62
     7
370
    25
100
AcDbLine
 10
6299.9309248112
 20
5142.4523438655
 30
0.0
 11
6300.4917824457
 21
5142.4523438655
 31
0.0
  0
ARC
  5
10C
330
1F
100
AcDbEntity
  8
0
  6
Continuous
 62
     7
370
    25
100
AcDbCircle
 10
6250.5724590527
 20
5142.9119394767
 30
0.0
 40
3.580404265458673
100
AcDbArc
 50
156.7140847304
 51
187.3750740011
  0
LINE
  5
10D
330
1F
100
AcDbEntity
  8
0
  6
Continuous
 62
     7
370
    25
100
AcDbLine
 10
6247.0216751142
 20
5133.3273438655
 30
0.0
 11
6247.0216751142
 21
5142.4523438655
 31
0.0
  0
LINE
  5
10E
330
1F
100
AcDbEntity
  8
0
  6
Continuous
 62
     7
370
    25
100
AcDbLine
 10
6244.0187553361
 20
5098.6949866767
 30
0.0
 11
6244.0187553361
 21
5093.6949866767
 31
0.0
  0
LINE
  5
10F
330
1F
100
AcDbEntity
  8
0
  6
Continuous
 62
     7
370
    25
100
AcDbLine
 10
6304.0187553361
 20
5098.6949866767
 30
0.0
 11
6304.0187553361
 21
5093.6949866767
 31
0.0
  0
LINE
  5
110
330
1F
100
AcDbEntity
  8
0
  6
Continuous
 62
     7
370
    25
100
AcDbLine
 10
6244.0187553361
 20
5093.6949866767
 30
0.0
 11
6304.0187553361
 21
5093.6949866767
 31
0.0
  0
LINE
  5
111
330
1F
100
AcDbEntity
  8
0
  6
Continuous
 62
     7
370
    25
100
AcDbLine
 10
6244.0187553361
 20
5098.6949866767
 30
0.0
 11
6304.0187553361
 21
5098.6949866767
 31
0.0
  0
LINE
  5
112
330
1F
100
AcDbEntity
  8
0
  6
Continuous
 62
     7
370
    25
100
AcDbLine
 10
6300.5187553361
 20
5117.6949866767
 30
0.0
 11
6247.5187553361
 21
5117.6949866767
 31
0.0
  0
ARC
  5
113
330
1F
100
AcDbEntity
  8
0
  6
Continuous
 62
     7
370
    25
100
AcDbCircle
 10
6252.5187553361
 20
5117.6949866767
 30
0.0
 40
4.999999999999968
100
AcDbArc
 50
110.4873151147
 51
180.0
  0
LINE
  5
114
330
1F
100
AcDbEntity
  8
0
  6
Continuous
 62
     7
370
    25
100
AcDbLine
 10
6297.2687553361
 20
5122.3787351755
 30
0.0
 11
6250.7687553361
 21
5122.3787351755
 31
0.0
  0
ARC
  5
115
330
1F
100
AcDbEntity
  8
0
  6
Continuous
 62
     7
370
    25
100
AcDbCircle
 10
6295.5187553361
 20
5117.6949866767
 30
0.0
 40
5.000000000000287
100
AcDbArc
 50
0.0
 51
69.5126848853
  0
LINE
  5
116
330
1F
100
AcDbEntity
  8
0
  6
Continuous
 62
     7
370
    25
100
AcDbLine
 10
6247.5187553361
 20
5117.6949866767
 30
0.0
 11
6247.5187553361
 21
5098.6949866767
 31
0.0
  0
LINE
  5
117
330
1F
100
AcDbEntity
  8
0
  6
Continuous
 62
     7
370
    25
100
AcDbLine
 10
6300.5187553361
 20
5117.6949866767
 30
0.0
 11
6300.5187553361
 21
5098.6949866767
 31
0.0
  0
ARC
  5
118
330
1F
100
AcDbEntity
  8
0
  6
Continuous
 62
     7
370
    25
100
AcDbCircle
 10
6249.0187553361
 20
5127.0624836743
 30
0.0
 40
5.0
100
AcDbArc
 50
290.4873151147
 51
0.0
  0
LINE
  5
119
330
1F
100
AcDbEntity
  8
0
  6
Continuous
 62
     7
370
    25
100
AcDbLine
 10
6254.0187553361
 20
5127.0624836743
 30
0.0
 11
6294.0187553361
 21
5127.0624836743
 31
0.0
  0
ARC
  5
11A
330
1F
100
AcDbEntity
  8
0
  6
Continuous
 62
     7
370
    25
100
AcDbCircle
 10
6299.0187553361
 20
5127.0624836743
 30
0.0
 40
4.999999999999116
100
AcDbArc
 50
180.0
 51
249.5126848853
  0
LINE
  5
11B
330
1F
100
AcDbEntity
  8
0
  6
Continuous
 62
     7
370
    25
100
AcDbLine
 10
6250.7687553361
 20
5122.3787351755
 30
0.0
 11
6250.8265821025
 21
5122.3982946235
 31
0.0
  0
LWPOLYLINE
  5
11C
330
1F
100
AcDbEntity
  8
0
  6
Continuous
 62
     7
370
    25
100
AcDbPolyline
 90
        5
 70
   128
 43
0.0
 10
6297.8925069448
 20
5129.9751709903
 10
6297.9374577962
 20
5129.9593263456
 10
6296.8825984787
 20
5129.9018370247
 10
6294.6322602043
 20
5129.842683544
 10
6294.0187553361
 20
5129.8320960216
  0
ARC
  5
11D
330
1F
100
AcDbEntity
  8
0
  6
Continuous
 62
     7
370
    25
100
AcDbCircle
 10
6253.88276456
 20
5081.8401768424
 30
0.0
 40
47.49404395956037
100
AcDbArc
 50
89.8359434675
 51
94.5317063698
  0
LWPOLYLINE
  5
11E
330
1F
100
AcDbEntity
  8
0
  6
Continuous
 62
     7
370
    25
100
AcDbPolyline
 90
        5
 70
   128
 43
0.0
 10
6297.9397349547
 20
5130.1779621002
 10
6298.003941453
 20
5130.1693230914
 10
6297.2088235606
 20
5130.1127476262
 10
6295.2023422885
 20
5130.0535666099
 10
6294.0187553361
 20
5130.0314980499
  0
ARC
  5
11F
330
1F
100
AcDbEntity
  8
0
  6
Continuous
 62
     7
370
    25
100
AcDbCircle
 10
6253.3289464938
 20
5096.3872932451
 30
0.0
 40
33.15122318143752
100
AcDbArc
 50
88.8077064989
 51
95.5302347417
  0
LWPOLYLINE
  5
120
330
1F
100
AcDbEntity
  8
0
  6
Continuous
 62
     7
370
    25
100
AcDbPolyline
 90
        3
 70
   128
 43
0.0
 10
6251.4318820949
 20
5130.3273438655
 10
6251.1895043587
 20
5130.3175232519
 10
6250.9894165371
 20
5130.2772140252
  0
LWPOLYLINE
  5
121
330
1F
100
AcDbEntity
  8
0
  6
Continuous
 62
     7
370
    25
100
AcDbPolyline
 90
        4
 70
   128
 43
0.0
 10
6297.0383047425
 20
5129.4788807911
 10
6297.0811088645
 20
5129.4632325966
 10
6296.0640161036
 20
5129.4057432757
 10
6294.0187553361
 20
5129.3499842506
  0
ARC
  5
122
330
1F
100
AcDbEntity
  8
0
  6
Continuous
 62
     7
370
    25
100
AcDbCircle
 10
6253.8607133372
 20
5093.5228809215
 30
0.0
 40
35.29784559520625
100
AcDbArc
 50
89.743463953
 51
94.8375892332
  0
ARC
  5
123
330
1F
100
AcDbEntity
  8
0
  6
Continuous
 62
     7
370
    25
100
AcDbCircle
 10
6253.5998995673
 20
5104.1038383846
 30
0.0
 40
25.91054504145312
100
AcDbArc
 50
89.0737472682
 51
95.7336225415
  0
LWPOLYLINE
  5
124
330
1F
100
AcDbEntity
  8
0
  6
Continuous
 62
     7
370
    25
100
AcDbPolyline
 90
        5
 70
   128
 43
0.0
 10
6297.0721018477
 20
5129.0881191393
 10
6297.1452122497
 20
5129.0779168391
 10
6296.3785615482
 20
5129.0213413738
 10
6294.4439172828
 20
5128.9621603576
 10
6294.0187553361
 20
5128.9539386466
  0
LINE
  5
125
330
1F
100
AcDbEntity
  8
0
  6
Continuous
 62
     7
370
    25
100
AcDbLine
 10
6294.0187553361
 20
5128.6949866767
 30
0.0
 11
6297.7824938477
 21
5128.6949866767
 31
0.0
  0
LINE
  5
126
330
1F
100
AcDbEntity
  8
0
  6
Continuous
 62
     7
370
    25
100
AcDbLine
 10
6250.8839902377
 20
5128.6949866767
 30
0.0
 11
6254.0187553361
 21
5128.6949866767
 31
0.0
  0
ARC
  5
127
330
1F
100
AcDbEntity
  8
0
  6
Continuous
 62
     7
370
    25
100
AcDbCircle
 10
6247.5187553361
 20
5126.3552407145
 30
0.0
 40
5.000000000000016
100
AcDbArc
 50
300.0
 51
0.0
  0
ARC
  5
128
330
1F
100
AcDbEntity
  8
0
  6
Continuous
 62
     7
370
    25
100
AcDbCircle
 10
6300.5187553361
 20
5126.3552407145
 30
0.0
 40
4.999999999999561
100
AcDbArc
 50
180.0
 51
240.0
  0
LINE
  5
129
330
1F
100
AcDbEntity
  8
0
  6
Continuous
 62
     7
370
    25
100
AcDbLine
 10
6024.0187553361
 20
5333.6949866767
 30
0.0
 11
6024.0187553361
 21
5293.6949866767
 31
0.0
  0
LINE
  5
12A
330
1F
100
AcDbEntity
  8
0
  6
Continuous
 62
     7
370
    25
100
AcDbLine
 10
6024.0187553361
 20
5333.6949866767
 30
0.0
 11
6524.0187553361
 21
5333.6949866767
 31
0.0
  0
LINE
  5
12B
330
1F
100
AcDbEntity
  8
0
  6
Continuous
 62
     7
370
    25
100
AcDbLine
 10
6524.0187553361
 20
5293.6967738431
 30
0.0
 11
6524.0187553361
 21
5333.6949866767
 31
0.0
  0
LINE
  5
12C
330
1F
100
AcDbEntity
  8
0
  6
Continuous
 62
     7
370
    25
100
AcDbLine
 10
6524.0187553361
 20
5293.6949866767
 30
0.0
 11
6524.0187553361
 21
5183.6949866767
 31
0.0
  0
LINE
  5
12D
330
1F
100
AcDbEntity
  8
0
  6
Continuous
 62
     7
370
    25
100
AcDbLine
 10
6024.0187553361
 20
5293.6949866767
 30
0.0
 11
6524.0187553361
 21
5293.6949866767
 31
0.0
  0
LINE
  5
12E
330
1F
100
AcDbEntity
  8
0
  6
Continuous
 62
     7
370
    25
100
AcDbLine
 10
6523.0187553361
 20
5293.6949866767
 30
0.0
 11
6523.0187553361
 21
5184.1439662685
 31
0.0
  0
LINE
  5
12F
330
1F
100
AcDbEntity
  8
0
  6
Continuous
 62
     7
370
    25
100
AcDbLine
 10
6274.0187553361
 20
5193.7312910648
 30
0.0
 11
6312.0187553361
 21
5193.7312910648
 31
0.0
  0
LINE
  5
130
330
1F
100
AcDbEntity
  8
0
  6
Continuous
 62
     7
370
    25
100
AcDbLine
 10
6236.0187553361
 20
5193.7312910648
 30
0.0
 11
6274.0187553361
 21
5193.7312910648
 31
0.0
  0
LINE
  5
131
330
1F
100
AcDbEntity
  8
0
  6
Continuous
 62
     7
370
    25
100
AcDbLine
 10
6274.0187553361
 20
5192.6949866767
 30
0.0
 11
6239.0187553361
 21
5192.6949866767
 31
0.0
  0
LINE
  5
132
330
1F
100
AcDbEntity
  8
0
  6
Continuous
 62
     7
370
    25
100
AcDbLine
 10
6309.0187553361
 20
5192.6949866767
 30
0.0
 11
6274.0187553361
 21
5192.6949866767
 31
0.0
  0
LINE
  5
133
330
1F
100
AcDbEntity
  8
0
  6
Continuous
 62
     7
370
    25
100
AcDbLine
 10
6523.0187553361
 20
5183.6949866767
 30
0.0
 11
6524.0187553361
 21
5183.6949866767
 31
0.0
  0
LINE
  5
134
330
1F
100
AcDbEntity
  8
0
  6
Continuous
 62
     7
370
    25
100
AcDbLine
 10
6025.0187553361
 20
5183.6949866767
 30
0.0
 11
6024.0187553361
 21
5183.6949866767
 31
0.0
  0
LINE
  5
135
330
1F
100
AcDbEntity
  8
0
  6
Continuous
 62
     7
370
    25
100
AcDbLine
 10
6024.0187553361
 20
5293.6949866767
 30
0.0
 11
6024.0187553361
 21
5183.6949866767
 31
0.0
  0
LINE
  5
136
330
1F
100
AcDbEntity
  8
0
  6
Continuous
 62
     7
370
    25
100
AcDbLine
 10
6025.0187553361
 20
5293.6949866767
 30
0.0
 11
6025.0187553361
 21
5184.1439662685
 31
0.0
  0
LINE
  5
137
330
1F
100
AcDbEntity
  8
0
  6
Continuous
 62
     7
370
    25
100
AcDbLine
 10
6523.0187553361
 20
5183.6949866767
 30
0.0
 11
6488.0187553361
 21
5183.6949866767
 31
0.0
  0
LINE
  5
138
330
1F
100
AcDbEntity
  8
0
  6
Continuous
 62
     7
370
    25
100
AcDbLine
 10
6488.0187553361
 20
5183.6949866767
 30
0.0
 11
6488.0187553361
 21
5293.6949866767
 31
0.0
  0
LINE
  5
139
330
1F
100
AcDbEntity
  8
0
  6
Continuous
 62
     7
370
    25
100
AcDbLine
 10
6060.0187553361
 20
5293.6949866767
 30
0.0
 11
6060.0187553361
 21
5183.6949866767
 31
0.0
  0
LINE
  5
13A
330
1F
100
AcDbEntity
  8
0
  6
Continuous
 62
     7
370
    25
100
AcDbLine
 10
6060.0187553361
 20
5183.6949866767
 30
0.0
 11
6025.0187553361
 21
5183.6949866767
 31
0.0
  0
LINE
  5
13B
330
1F
100
AcDbEntity
  8
0
  6
Continuous
 62
     7
370
    25
100
AcDbLine
 10
6025.0187553361
 20
5183.6949866767
 30
0.0
 11
6025.0187553361
 21
5184.1439662685
 31
0.0
  0
CIRCLE
  5
13C
330
1F
100
AcDbEntity
  8
0
  6
Continuous
 62
     7
370
    25
100
AcDbCircle
 10
6502.0187553361
 20
5203.6949866767
 30
0.0
 40
3.25
  0
CIRCLE
  5
13D
330
1F
100
AcDbEntity
  8
0
  6
Continuous
 62
     7
370
    25
100
AcDbCircle
 10
6502.0187553361
 20
5250.4449866767
 30
0.0
 40
3.25
  0
ARC
  5
13E
330
1F
100
AcDbEntity
  8
0
  6
Continuous
 62
     7
370
    25
100
AcDbCircle
 10
6502.0187553361
 20
5276.1949866767
 30
0.0
 40
7.499999999999281
100
AcDbArc
 50
115.6792886195
 51
64.3207113805
  0
LINE
  5
13F
330
1F
100
AcDbEntity
  8
0
  6
Continuous
 62
     7
370
    25
100
AcDbLine
 10
6505.2687553361
 20
5292.9449866767
 30
0.0
 11
6505.2687553361
 21
5282.954239594
 31
0.0
  0
LINE
  5
140
330
1F
100
AcDbEntity
  8
0
  6
Continuous
 62
     7
370
    25
100
AcDbLine
 10
6498.7687553361
 20
5292.9449866767
 30
0.0
 11
6498.8596503333
 21
5293.7082399643
 31
0.0
  0
LINE
  5
141
330
1F
100
AcDbEntity
  8
0
  6
Continuous
 62
     7
370
    25
100
AcDbLine
 10
6505.1792805986
 20
5293.7023373652
 30
0.0
 11
6505.2687553361
 21
5292.9449866767
 31
0.0
  0
LINE
  5
142
330
1F
100
AcDbEntity
  8
0
  6
Continuous
 62
     7
370
    25
100
AcDbLine
 10
6498.7687553361
 20
5282.954239594
 30
0.0
 11
6498.7687553361
 21
5292.9449866767
 31
0.0
  0
LINE
  5
143
330
1F
100
AcDbEntity
  8
0
  6
Continuous
 62
     7
370
    25
100
AcDbLine
 10
6042.7687553361
 20
5292.9449866767
 30
0.0
 11
6042.8596503333
 21
5293.7082399643
 31
0.0
  0
LINE
  5
144
330
1F
100
AcDbEntity
  8
0
  6
Continuous
 62
     7
370
    25
100
AcDbLine
 10
6049.1792805986
 20
5293.7023373652
 30
0.0
 11
6049.2687553361
 21
5292.9449866767
 31
0.0
  0
LINE
  5
145
330
1F
100
AcDbEntity
  8
0
  6
Continuous
 62
     7
370
    25
100
AcDbLine
 10
6042.7687553361
 20
5282.954239594
 30
0.0
 11
6042.7687553361
 21
5292.9449866767
 31
0.0
  0
ARC
  5
146
330
1F
100
AcDbEntity
  8
0
  6
Continuous
 62
     7
370
    25
100
AcDbCircle
 10
6046.0187553361
 20
5276.1949866767
 30
0.0
 40
7.499999999999281
100
AcDbArc
 50
115.6792886195
 51
64.3207113805
  0
LINE
  5
147
330
1F
100
AcDbEntity
  8
0
  6
Continuous
 62
     7
370
    25
100
AcDbLine
 10
6049.2687553361
 20
5292.9449866767
 30
0.0
 11
6049.2687553361
 21
5282.954239594
 31
0.0
  0
CIRCLE
  5
148
330
1F
100
AcDbEntity
  8
0
  6
Continuous
 62
     7
370
    25
100
AcDbCircle
 10
6046.0187553361
 20
5250.4449866767
 30
0.0
 40
3.25
  0
CIRCLE
  5
149
330
1F
100
AcDbEntity
  8
0
  6
Continuous
 62
     7
370
    25
100
AcDbCircle
 10
6046.0187553361
 20
5203.6949866767
 30
0.0
 40
3.25
  0
LINE
  5
14A
330
1F
100
AcDbEntity
  8
0
  6
Continuous
 62
     7
370
    25
100
AcDbLine
 10
6523.0187553361
 20
5184.1439662685
 30
0.0
 11
6523.0187553361
 21
5183.6949866767
 31
0.0
  0
LINE
  5
14B
330
1F
100
AcDbEntity
  8
0
  6
Continuous
 62
     8
370
    25
100
AcDbLine
 10
6247.5187553361
 20
5147.1949866767
 30
0.0
 11
6300.5187553361
 21
5147.1949866767
 31
0.0
  0
LINE
  5
14C
330
1F
100
AcDbEntity
  8
0
  6
Continuous
 62
     8
370
    25
100
AcDbLine
 10
6247.5528360185
 20
5146.8273438655
 30
0.0
 11
6247.5187553361
 21
5146.8273438655
 31
0.0
  0
LINE
  5
14D
330
1F
100
AcDbEntity
  8
0
  6
Continuous
 62
     8
370
    25
100
AcDbLine
 10
6300.5187553361
 20
5146.8273438655
 30
0.0
 11
6300.4846746537
 21
5146.8273438655
 31
0.0
  0
LINE
  5
14E
330
1F
100
AcDbEntity
  8
0
  6
Continuous
 62
     8
370
    25
100
AcDbLine
 10
6254.0187553361
 20
5142.4523438655
 30
0.0
 11
6253.5737090921
 21
5142.4523438655
 31
0.0
  0
LINE
  5
14F
330
1F
100
AcDbEntity
  8
0
  6
Continuous
 62
     8
370
    25
100
AcDbLine
 10
6247.5187553361
 20
5142.4523438655
 30
0.0
 11
6247.0216751142
 21
5142.4523438655
 31
0.0
  0
ARC
  5
150
330
1F
100
AcDbEntity
  8
0
  6
Continuous
 62
     8
370
    25
100
AcDbCircle
 10
6255.8865812397
 20
5121.8186245695
 30
0.0
 40
5.650056403614165
100
AcDbArc
 50
109.3043080159
 51
126.5889069883
  0
ARC
  5
151
330
1F
100
AcDbEntity
  8
0
  6
Continuous
 62
     8
370
    25
100
AcDbCircle
 10
6292.1970519005
 20
5121.9643281483
 30
0.0
 40
5.505799385986061
100
AcDbArc
 50
52.8926765389
 51
70.084766156
  0
LINE
  5
152
330
1F
100
AcDbEntity
  8
0
  6
Continuous
 62
     8
370
    25
100
AcDbLine
 10
6274.0187553361
 20
5193.6949866767
 30
0.0
 11
6312.0187553361
 21
5193.6949866767
 31
0.0
  0
LINE
  5
153
330
1F
100
AcDbEntity
  8
0
  6
Continuous
 62
     8
370
    25
100
AcDbLine
 10
6236.0187553361
 20
5193.6949866767
 30
0.0
 11
6274.0187553361
 21
5193.6949866767
 31
0.0
  0
LINE
  5
154
330
1F
100
AcDbEntity
  8
0
  6
Continuous
 62
     7
370
    25
100
AcDbLine
 10
6972.261595298
 20
5192.6949866767
 30
0.0
 11
6972.261595298
 21
5189.6949866767
 31
0.0
  0
LINE
  5
155
330
1F
100
AcDbEntity
  8
0
  6
Continuous
 62
     7
370
    25
100
AcDbLine
 10
7042.261595298
 20
5189.6949866767
 30
0.0
 11
7042.261595298
 21
5192.6949866767
 31
0.0
  0
LINE
  5
156
330
1F
100
AcDbEntity
  8
0
  6
Continuous
 62
     7
370
    25
100
AcDbLine
 10
7043.761595298
 20
5183.6949866767
 30
0.0
 11
7043.761595298
 21
5189.6949866767
 31
0.0
  0
LINE
  5
157
330
1F
100
AcDbEntity
  8
0
  6
Continuous
 62
     7
370
    25
100
AcDbLine
 10
6970.761595298
 20
5189.6949866767
 30
0.0
 11
6970.761595298
 21
5183.6949866767
 31
0.0
  0
LINE
  5
158
330
1F
100
AcDbEntity
  8
0
  6
Continuous
 62
     7
370
    25
100
AcDbLine
 10
7033.011595298
 20
5171.8616533434
 30
0.0
 11
7033.011595298
 21
5183.6949866767
 31
0.0
  0
LINE
  5
159
330
1F
100
AcDbEntity
  8
0
  6
Continuous
 62
     7
370
    25
100
AcDbLine
 10
6981.511595298
 20
5183.6949866767
 30
0.0
 11
6981.511595298
 21
5171.8616533434
 31
0.0
  0
LINE
  5
15A
330
1F
100
AcDbEntity
  8
0
  6
Continuous
 62
     7
370
    25
100
AcDbLine
 10
6981.511595298
 20
5171.8616533434
 30
0.0
 11
6983.511595298
 21
5170.1949866767
 31
0.0
  0
LINE
  5
15B
330
1F
100
AcDbEntity
  8
0
  6
Continuous
 62
     7
370
    25
100
AcDbLine
 10
7031.011595298
 20
5170.1949866767
 30
0.0
 11
7033.011595298
 21
5171.8616533434
 31
0.0
  0
LWPOLYLINE
  5
15C
330
1F
100
AcDbEntity
  8
0
  6
Continuous
 62
     7
370
    25
100
AcDbPolyline
 90
        3
 70
   128
 43
0.0
 10
6984.3799035676
 20
5167.1446688553
 10
6983.9476552612
 20
5166.8950507371
 10
6983.5154016082
 20
5166.645432612
  0
LWPOLYLINE
  5
15D
330
1F
100
AcDbEntity
  8
0
  6
Continuous
 62
     7
370
    25
100
AcDbPolyline
 90
        3
 70
   128
 43
0.0
 10
6984.3727013916
 20
5165.5532232202
 10
6983.9404343934
 20
5165.3036054503
 10
6983.5081663669
 20
5165.0539876743
  0
LWPOLYLINE
  5
15E
330
1F
100
AcDbEntity
  8
0
  6
Continuous
 62
     7
370
    25
100
AcDbPolyline
 90
        3
 70
   128
 43
0.0
 10
6984.3724422974
 20
5163.9654862257
 10
6983.9401663336
 20
5163.7158578465
 10
6983.9040241475
 20
5163.6949866767
  0
LWPOLYLINE
  5
15F
330
1F
100
AcDbEntity
  8
0
  6
Continuous
 62
     7
370
    25
100
AcDbPolyline
 90
        3
 70
   128
 43
0.0
 10
7031.0056923377
 20
5164.2649607606
 10
7030.5734257313
 20
5164.5145888062
 10
7030.141165754
 20
5164.7642168429
  0
LWPOLYLINE
  5
160
330
1F
100
AcDbEntity
  8
0
  6
Continuous
 62
     7
370
    25
100
AcDbPolyline
 90
        3
 70
   128
 43
0.0
 10
7031.0121299943
 20
5165.8497014516
 10
7030.5798356304
 20
5166.0993308042
 10
7030.1510089196
 20
5166.3469595995
  0
LWPOLYLINE
  5
161
330
1F
100
AcDbEntity
  8
0
  6
Continuous
 62
     7
370
    25
100
AcDbPolyline
 90
        3
 70
   128
 43
0.0
 10
7031.0155891641
 20
5167.4346821778
 10
7030.5833191049
 20
5167.6843086296
 10
7030.1510492442
 20
5167.9339350739
  0
LWPOLYLINE
  5
162
330
1F
100
AcDbEntity
  8
0
  6
Continuous
 62
     7
370
    25
100
AcDbPolyline
 90
        3
 70
   128
 43
0.0
 10
7030.3807178813
 20
5163.6949866767
 10
7030.5770281141
 20
5163.8083469643
 10
7031.0069472087
 20
5164.0565980707
  0
LWPOLYLINE
  5
163
330
1F
100
AcDbEntity
  8
0
  6
Continuous
 62
     7
370
    25
100
AcDbPolyline
 90
        3
 70
   128
 43
0.0
 10
7030.147281571
 20
5165.1476877571
 10
7030.5770066728
 20
5165.3958354745
 10
7031.0069472087
 20
5165.6440980707
  0
LWPOLYLINE
  5
164
330
1F
100
AcDbEntity
  8
0
  6
Continuous
 62
     7
370
    25
100
AcDbPolyline
 90
        3
 70
   128
 43
0.0
 10
7030.147281571
 20
5166.7351877571
 10
7030.5769851849
 20
5166.9833239846
 10
7031.0069472087
 20
5167.2315980707
  0
LWPOLYLINE
  5
165
330
1F
100
AcDbEntity
  8
0
  6
Continuous
 62
     7
370
    25
100
AcDbPolyline
 90
        3
 70
   128
 43
0.0
 10
7030.147281571
 20
5168.3226877571
 10
7030.5769636506
 20
5168.5708124946
 10
7031.0069472087
 20
5168.8190980707
  0
LWPOLYLINE
  5
166
330
1F
100
AcDbEntity
  8
0
  6
Continuous
 62
     7
370
    25
100
AcDbPolyline
 90
        3
 70
   128
 43
0.0
 10
6983.5162432181
 20
5164.8503481634
 10
6983.944241339
 20
5164.6032535746
 10
6984.3708564215
 20
5164.3572040546
  0
LWPOLYLINE
  5
167
330
1F
100
AcDbEntity
  8
0
  6
Continuous
 62
     7
370
    25
100
AcDbPolyline
 90
        3
 70
   128
 43
0.0
 10
6983.5162432181
 20
5166.4378481634
 10
6983.9442580984
 20
5166.1907420942
 10
6984.3708564275
 20
5165.9447040441
  0
LWPOLYLINE
  5
168
330
1F
100
AcDbEntity
  8
0
  6
Continuous
 62
     7
370
    25
100
AcDbPolyline
 90
        3
 70
   128
 43
0.0
 10
6983.5162432181
 20
5168.0253481634
 10
6983.9442749042
 20
5167.7782306138
 10
6984.3708564339
 20
5167.5322040335
  0
LINE
  5
169
330
1F
100
AcDbEntity
  8
0
  6
Continuous
 62
     7
370
    25
100
AcDbLine
 10
7031.011595298
 20
5168.8240610075
 30
0.0
 11
7031.011595298
 21
5170.1949866767
 31
0.0
  0
LINE
  5
16A
330
1F
100
AcDbEntity
  8
0
  6
Continuous
 62
     7
370
    25
100
AcDbLine
 10
7031.011595298
 20
5167.2365610075
 30
0.0
 11
7031.011595298
 21
5167.4348898775
 31
0.0
  0
LINE
  5
16B
330
1F
100
AcDbEntity
  8
0
  6
Continuous
 62
     7
370
    25
100
AcDbLine
 10
7031.011595298
 20
5165.6490610075
 30
0.0
 11
7031.011595298
 21
5165.8473898775
 31
0.0
  0
LINE
  5
16C
330
1F
100
AcDbEntity
  8
0
  6
Continuous
 62
     7
370
    25
100
AcDbLine
 10
7031.011595298
 20
5164.0615610075
 30
0.0
 11
7031.011595298
 21
5164.2598898775
 31
0.0
  0
LINE
  5
16D
330
1F
100
AcDbEntity
  8
0
  6
Continuous
 62
     7
370
    25
100
AcDbLine
 10
6983.511595298
 20
5165.0536634457
 30
0.0
 11
6983.511595298
 21
5164.8552516989
 31
0.0
  0
LINE
  5
16E
330
1F
100
AcDbEntity
  8
0
  6
Continuous
 62
     7
370
    25
100
AcDbLine
 10
6983.511595298
 20
5166.6411634457
 30
0.0
 11
6983.511595298
 21
5166.4427516989
 31
0.0
  0
LINE
  5
16F
330
1F
100
AcDbEntity
  8
0
  6
Continuous
 62
     7
370
    25
100
AcDbLine
 10
6983.511595298
 20
5170.1949866767
 30
0.0
 11
6983.511595298
 21
5168.0302516989
 31
0.0
  0
LWPOLYLINE
  5
170
330
1F
100
AcDbEntity
  8
0
  6
Continuous
 62
     7
370
    25
100
AcDbPolyline
 90
        3
 70
   128
 43
0.0
 10
7030.1510087615
 20
5164.7589775012
 10
7030.1510630837
 20
5164.9573579167
 10
7030.1510104067
 20
5165.1498409989
  0
LWPOLYLINE
  5
171
330
1F
100
AcDbEntity
  8
0
  6
Continuous
 62
     7
370
    25
100
AcDbPolyline
 90
        3
 70
   128
 43
0.0
 10
7030.1510087615
 20
5166.3464775012
 10
7030.151073812
 20
5166.5448464995
 10
7030.1510107314
 20
5166.7373411944
  0
LWPOLYLINE
  5
172
330
1F
100
AcDbEntity
  8
0
  6
Continuous
 62
     7
370
    25
100
AcDbPolyline
 90
        3
 70
   128
 43
0.0
 10
7030.1510087615
 20
5167.9339775012
 10
7030.1510844949
 20
5168.1323350821
 10
7030.1510110547
 20
5168.3248413893
  0
LWPOLYLINE
  5
173
330
1F
100
AcDbEntity
  8
0
  6
Continuous
 62
     7
370
    25
100
AcDbPolyline
 90
        3
 70
   128
 43
0.0
 10
6984.3708564024
 20
5164.3592465326
 10
6984.3708582576
 20
5164.1607632537
 10
6984.370856423
 20
5163.9645704236
  0
LWPOLYLINE
  5
174
330
1F
100
AcDbEntity
  8
0
  6
Continuous
 62
     7
370
    25
100
AcDbPolyline
 90
        3
 70
   128
 43
0.0
 10
6984.3708564024
 20
5165.9467465326
 10
6984.3708588351
 20
5165.7482518087
 10
6984.3708564305
 20
5165.5521578253
  0
LWPOLYLINE
  5
175
330
1F
100
AcDbEntity
  8
0
  6
Continuous
 62
     7
370
    25
100
AcDbPolyline
 90
        3
 70
   128
 43
0.0
 10
6984.3708564024
 20
5167.5342465326
 10
6984.3708594581
 20
5167.3357403636
 10
6984.3708564344
 20
5167.1394442464
  0
LINE
  5
176
330
1F
100
AcDbEntity
  8
0
  6
Continuous
 62
     7
370
    25
100
AcDbLine
 10
6822.961595298
 20
5195.2273438655
 30
0.0
 11
6821.261595298
 21
5195.2273438655
 31
0.0
  0
LINE
  5
177
330
1F
100
AcDbEntity
  8
0
  6
Continuous
 62
     7
370
    25
100
AcDbLine
 10
6821.261595298
 20
5141.2273438655
 30
0.0
 11
6822.961595298
 21
5141.2273438655
 31
0.0
  0
LINE
  5
178
330
1F
100
AcDbEntity
  8
0
  6
Continuous
 62
     7
370
    25
100
AcDbLine
 10
6822.961595298
 20
5141.2273438655
 30
0.0
 11
6826.461595298
 21
5148.2273438655
 31
0.0
  0
LINE
  5
179
330
1F
100
AcDbEntity
  8
0
  6
Continuous
 62
     7
370
    25
100
AcDbLine
 10
6826.461595298
 20
5188.2273438655
 30
0.0
 11
6822.961595298
 21
5195.2273438655
 31
0.0
  0
LINE
  5
17A
330
1F
100
AcDbEntity
  8
0
  6
Continuous
 62
     7
370
    25
100
AcDbLine
 10
6774.261595298
 20
5193.2273438655
 30
0.0
 11
6771.261595298
 21
5191.7273438655
 31
0.0
  0
LINE
  5
17B
330
1F
100
AcDbEntity
  8
0
  6
Continuous
 62
     7
370
    25
100
AcDbLine
 10
6771.261595298
 20
5144.7273438655
 30
0.0
 11
6774.261595298
 21
5143.2273438655
 31
0.0
  0
LINE
  5
17C
330
1F
100
AcDbEntity
  8
0
  6
Continuous
 62
     7
370
    25
100
AcDbLine
 10
6821.261595298
 20
5193.2273438655
 30
0.0
 11
6774.261595298
 21
5193.2273438655
 31
0.0
  0
LINE
  5
17D
330
1F
100
AcDbEntity
  8
0
  6
Continuous
 62
     7
370
    25
100
AcDbLine
 10
6774.261595298
 20
5143.2273438655
 30
0.0
 11
6821.261595298
 21
5143.2273438655
 31
0.0
  0
LINE
  5
17E
330
1F
100
AcDbEntity
  8
0
  6
Continuous
 62
     7
370
    25
100
AcDbLine
 10
6917.261595298
 20
5188.2273438655
 30
0.0
 11
6826.461595298
 21
5188.2273438655
 31
0.0
  0
LINE
  5
17F
330
1F
100
AcDbEntity
  8
0
  6
Continuous
 62
     7
370
    25
100
AcDbLine
 10
6826.461595298
 20
5148.2273438655
 30
0.0
 11
6876.9533867606
 21
5148.2273438655
 31
0.0
  0
LINE
  5
180
330
1F
100
AcDbEntity
  8
0
  6
Continuous
 62
     7
370
    25
100
AcDbLine
 10
6897.261595298
 20
5159.2273438655
 30
0.0
 11
6897.261595298
 21
5148.8273438655
 31
0.0
  0
LINE
  5
181
330
1F
100
AcDbEntity
  8
0
  6
Continuous
 62
     7
370
    25
100
AcDbLine
 10
6937.261595298
 20
5148.8273438655
 30
0.0
 11
6937.261595298
 21
5168.2273438655
 31
0.0
  0
ARC
  5
182
330
1F
100
AcDbEntity
  8
0
  6
Continuous
 62
     7
370
    25
100
AcDbCircle
 10
6917.261595298
 20
5168.2273438655
 30
0.0
 40
20.00000000000091
100
AcDbArc
 50
0.0
 51
90.0
  0
ARC
  5
183
330
1F
100
AcDbEntity
  8
0
  6
Continuous
 62
     7
370
    25
100
AcDbCircle
 10
6876.9533867606
 20
5151.2273438655
 30
0.0
 40
3.000000000000729
100
AcDbArc
 50
272.6021504902
 51
317.1210963967
  0
ARC
  5
184
330
1F
100
AcDbEntity
  8
0
  6
Continuous
 62
     7
370
    25
100
AcDbCircle
 10
6894.261595298
 20
5159.2273438655
 30
0.0
 40
3.0
100
AcDbArc
 50
0.0
 51
90.0
  0
LINE
  5
185
330
1F
100
AcDbEntity
  8
0
  6
Continuous
 62
     7
370
    25
100
AcDbLine
 10
6979.761595298
 20
5163.6949866767
 30
0.0
 11
6979.761595298
 21
5160.6949866767
 31
0.0
  0
LINE
  5
186
330
1F
100
AcDbEntity
  8
0
  6
Continuous
 62
     7
370
    25
100
AcDbLine
 10
7034.761595298
 20
5160.6949866767
 30
0.0
 11
7034.761595298
 21
5163.6949866767
 31
0.0
  0
LINE
  5
187
330
1F
100
AcDbEntity
  8
0
  6
Continuous
 62
     7
370
    25
100
AcDbLine
 10
6980.761595298
 20
5149.6971202737
 30
0.0
 11
6980.761595298
 21
5147.1949866767
 31
0.0
  0
LINE
  5
188
330
1F
100
AcDbEntity
  8
0
  6
Continuous
 62
     7
370
    25
100
AcDbLine
 10
7033.761595298
 20
5147.1949866767
 30
0.0
 11
7033.761595298
 21
5149.6971202737
 31
0.0
  0
ARC
  5
189
330
1F
100
AcDbEntity
  8
0
  6
Continuous
 62
     7
370
    25
100
AcDbCircle
 10
6982.761595298
 20
5147.1949866767
 30
0.0
 40
2.0
100
AcDbArc
 50
180.0
 51
270.0
  0
ARC
  5
18A
330
1F
100
AcDbEntity
  8
0
  6
Continuous
 62
     7
370
    25
100
AcDbCircle
 10
7031.761595298
 20
5147.1949866767
 30
0.0
 40
2.0
100
AcDbArc
 50
270.0
 51
0.0
  0
LINE
  5
18B
330
1F
100
AcDbEntity
  8
0
  6
Continuous
 62
     7
370
    25
100
AcDbLine
 10
6988.169712206
 20
5149.6949866767
 30
0.0
 11
6988.5233668388
 21
5149.6949866767
 31
0.0
  0
LINE
  5
18C
330
1F
100
AcDbEntity
  8
0
  6
Continuous
 62
     7
370
    25
100
AcDbLine
 10
7025.9998237572
 20
5149.6949866767
 30
0.0
 11
7026.35347839
 21
5149.6949866767
 31
0.0
  0
LINE
  5
18D
330
1F
100
AcDbEntity
  8
0
  6
Continuous
 62
     7
370
    25
100
AcDbLine
 10
6980.261595298
 20
5149.6949866767
 30
0.0
 11
6980.7617384762
 21
5149.6949866767
 31
0.0
  0
LINE
  5
18E
330
1F
100
AcDbEntity
  8
0
  6
Continuous
 62
     7
370
    25
100
AcDbLine
 10
7033.7614521198
 20
5149.6949866767
 30
0.0
 11
7034.261595298
 21
5149.6949866767
 31
0.0
  0
LINE
  5
18F
330
1F
100
AcDbEntity
  8
0
  6
Continuous
 62
     7
370
    25
100
AcDbLine
 10
6944.761595298
 20
5130.3273438655
 30
0.0
 11
6944.761595298
 21
5133.3273438655
 31
0.0
  0
LINE
  5
190
330
1F
100
AcDbEntity
  8
0
  6
Continuous
 62
     7
370
    25
100
AcDbLine
 10
6889.761595298
 20
5133.3273438655
 30
0.0
 11
6889.761595298
 21
5130.3273438655
 31
0.0
  0
LINE
  5
191
330
1F
100
AcDbEntity
  8
0
  6
Continuous
 62
     7
370
    25
100
AcDbLine
 10
6943.761595298
 20
5144.3273438655
 30
0.0
 11
6943.761595298
 21
5146.8273438655
 31
0.0
  0
LINE
  5
192
330
1F
100
AcDbEntity
  8
0
  6
Continuous
 62
     7
370
    25
100
AcDbLine
 10
6890.761595298
 20
5146.8273438655
 30
0.0
 11
6890.761595298
 21
5133.3273438655
 31
0.0
  0
ARC
  5
193
330
1F
100
AcDbEntity
  8
0
  6
Continuous
 62
     7
370
    25
100
AcDbCircle
 10
6941.761595298
 20
5146.8273438655
 30
0.0
 40
2.0
100
AcDbArc
 50
0.0
 51
90.0
  0
ARC
  5
194
330
1F
100
AcDbEntity
  8
0
  6
Continuous
 62
     7
370
    25
100
AcDbCircle
 10
6892.761595298
 20
5146.8273438655
 30
0.0
 40
2.0
100
AcDbArc
 50
90.0
 51
180.0
  0
LINE
  5
195
330
1F
100
AcDbEntity
  8
0
  6
Continuous
 62
     7
370
    25
100
AcDbLine
 10
6913.5583066464
 20
5144.3273438655
 30
0.0
 11
6913.4884128893
 21
5144.3273438655
 31
0.0
  0
LINE
  5
196
330
1F
100
AcDbEntity
  8
0
  6
Continuous
 62
     7
370
    25
100
AcDbLine
 10
6933.4980901726
 20
5144.3273438655
 30
0.0
 11
6933.1973282411
 21
5144.3273438655
 31
0.0
  0
LINE
  5
197
330
1F
100
AcDbEntity
  8
0
  6
Continuous
 62
     7
370
    25
100
AcDbLine
 10
6896.0886213183
 20
5144.3273438655
 30
0.0
 11
6895.6890146877
 21
5144.3273438655
 31
0.0
  0
LINE
  5
198
330
1F
100
AcDbEntity
  8
0
  6
Continuous
 62
     7
370
    25
100
AcDbLine
 10
6943.9966489637
 20
5144.3273438655
 30
0.0
 11
6943.5014136042
 21
5144.3273438655
 31
0.0
  0
LINE
  5
199
330
1F
100
AcDbEntity
  8
0
  6
Continuous
 62
     7
370
    25
100
AcDbLine
 10
6890.761595298
 20
5144.3273438655
 30
0.0
 11
6890.5265416322
 21
5144.3273438655
 31
0.0
  0
LINE
  5
19A
330
1F
100
AcDbEntity
  8
0
  6
Continuous
 62
     7
370
    25
100
AcDbLine
 10
6887.261595298
 20
5098.6949866767
 30
0.0
 11
6887.261595298
 21
5093.6949866767
 31
0.0
  0
LINE
  5
19B
330
1F
100
AcDbEntity
  8
0
  6
Continuous
 62
     7
370
    25
100
AcDbLine
 10
7037.261595298
 20
5093.6949866767
 30
0.0
 11
7037.261595298
 21
5098.6949866767
 31
0.0
  0
LINE
  5
19C
330
1F
100
AcDbEntity
  8
0
  6
Continuous
 62
     7
370
    25
100
AcDbLine
 10
6890.761595298
 20
5117.6949866767
 30
0.0
 11
6890.761595298
 21
5098.6949866767
 31
0.0
  0
ARC
  5
19D
330
1F
100
AcDbEntity
  8
0
  6
Continuous
 62
     7
370
    25
100
AcDbCircle
 10
6895.761595298
 20
5117.6949866767
 30
0.0
 40
5.0
100
AcDbArc
 50
120.0
 51
180.0
  0
ARC
  5
19E
330
1F
100
AcDbEntity
  8
0
  6
Continuous
 62
     7
370
    25
100
AcDbCircle
 10
7028.761595298
 20
5117.6949866767
 30
0.0
 40
5.000000000000605
100
AcDbArc
 50
0.0
 51
69.5126848853
  0
LINE
  5
19F
330
1F
100
AcDbEntity
  8
0
  6
Continuous
 62
     7
370
    25
100
AcDbLine
 10
7033.761595298
 20
5098.6949866767
 30
0.0
 11
7033.761595298
 21
5117.6949866767
 31
0.0
  0
LINE
  5
1A0
330
1F
100
AcDbEntity
  8
0
  6
Continuous
 62
     7
370
    25
100
AcDbLine
 10
6941.261595298
 20
5129.5825536769
 30
0.0
 11
6941.261595298
 21
5129.7810965051
 31
0.0
  0
LINE
  5
1A1
330
1F
100
AcDbEntity
  8
0
  6
Continuous
 62
     7
370
    25
100
AcDbLine
 10
6893.261595298
 20
5128.9873072106
 30
0.0
 11
6893.261595298
 21
5128.6949866767
 31
0.0
  0
LWPOLYLINE
  5
1A2
330
1F
100
AcDbEntity
  8
0
  6
Continuous
 62
     7
370
    25
100
AcDbPolyline
 90
        3
 70
   128
 43
0.0
 10
6894.1246654913
 20
5129.4876311265
 10
6893.6950762621
 20
5129.2395671893
 10
6893.2652650638
 20
5128.9913780728
  0
LWPOLYLINE
  5
1A3
330
1F
100
AcDbEntity
  8
0
  6
Continuous
 62
     7
370
    25
100
AcDbPolyline
 90
        3
 70
   128
 43
0.0
 10
6941.2579254751
 20
5129.7851281056
 10
6940.8281326785
 20
5130.033306788
 10
6940.4023356223
 20
5130.2791807656
  0
LWPOLYLINE
  5
1A4
330
1F
100
AcDbEntity
  8
0
  6
Continuous
 62
     7
370
    25
100
AcDbPolyline
 90
        3
 70
   128
 43
0.0
 10
6893.2653414878
 20
5130.3719890814
 10
6893.6949507992
 20
5130.1239153046
 10
6894.1208549735
 20
5129.8779804993
  0
LINE
  5
1A5
330
1F
100
AcDbEntity
  8
0
  6
Continuous
 62
     7
370
    25
100
AcDbLine
 10
6893.2653414878
 20
5128.7844890814
 30
0.0
 11
6893.4839483516
 21
5128.6582566349
 31
0.0
  0
LWPOLYLINE
  5
1A6
330
1F
100
AcDbEntity
  8
0
  6
Continuous
 62
     7
370
    25
100
AcDbPolyline
 90
        3
 70
   128
 43
0.0
 10
6940.3984505897
 20
5129.0819871206
 10
6940.8282577774
 20
5129.3301756686
 10
6941.2578489877
 20
5129.5782390129
  0
ARC
  5
1A7
330
1F
100
AcDbEntity
  8
0
  6
Continuous
 62
     7
370
    25
100
AcDbCircle
 10
6890.761595298
 20
5126.3552407145
 30
0.0
 40
5.000000000000805
100
AcDbArc
 50
300.0
 51
0.0
  0
ARC
  5
1A8
330
1F
100
AcDbEntity
  8
0
  6
Continuous
 62
     7
370
    25
100
AcDbCircle
 10
7032.261595298
 20
5127.0624836743
 30
0.0
 40
5.0
100
AcDbArc
 50
180.0
 51
249.5126848853
  0
LWPOLYLINE
  5
1A9
330
1F
100
AcDbEntity
  8
0
  6
Continuous
 62
     7
370
    25
100
AcDbPolyline
 90
        3
 70
   128
 43
0.0
 10
6894.1208549628
 20
5129.8801638459
 10
6894.1208559353
 20
5129.6817779598
 10
6894.1208549733
 20
5129.4854307638
  0
LWPOLYLINE
  5
1AA
330
1F
100
AcDbEntity
  8
0
  6
Continuous
 62
     7
370
    25
100
AcDbPolyline
 90
        3
 70
   128
 43
0.0
 10
6940.4023356328
 20
5128.6895388994
 10
6940.4023343355
 20
5128.8880383368
 10
6940.4023356185
 20
5129.0842304978
  0
LINE
  5
1AB
330
1F
100
AcDbEntity
  8
0
  6
Continuous
 62
     7
370
    25
100
AcDbLine
 10
6938.761595298
 20
5127.6949866767
 30
0.0
 11
6938.761595298
 21
5128.6949866767
 31
0.0
  0
LINE
  5
1AC
330
1F
100
AcDbEntity
  8
0
  6
Continuous
 62
     7
370
    25
100
AcDbLine
 10
6895.761595298
 20
5128.6949866767
 30
0.0
 11
6895.761595298
 21
5126.3552407145
 31
0.0
  0
ARC
  5
1AD
330
1F
100
AcDbEntity
  8
0
  6
Continuous
 62
     7
370
    25
100
AcDbCircle
 10
6943.761595298
 20
5127.6949866767
 30
0.0
 40
5.0
100
AcDbArc
 50
180.0
 51
270.0
  0
ARC
  5
1AE
330
1F
100
AcDbEntity
  8
0
  6
Continuous
 62
     7
370
    25
100
AcDbCircle
 10
6982.261595298
 20
5127.6949866767
 30
0.0
 40
5.0
100
AcDbArc
 50
270.0
 51
0.0
  0
LINE
  5
1AF
330
1F
100
AcDbEntity
  8
0
  6
Continuous
 62
     7
370
    25
100
AcDbLine
 10
7027.261595298
 20
5127.0624836743
 30
0.0
 11
7027.261595298
 21
5145.1949866767
 31
0.0
  0
LINE
  5
1B0
330
1F
100
AcDbEntity
  8
0
  6
Continuous
 62
     7
370
    25
100
AcDbLine
 10
6987.261595298
 20
5145.1949866767
 30
0.0
 11
6987.261595298
 21
5127.6949866767
 31
0.0
  0
LINE
  5
1B1
330
1F
100
AcDbEntity
  8
0
  6
Continuous
 62
     7
370
    25
100
AcDbLine
 10
7227.2615942309
 20
5293.6949866767
 30
0.0
 11
7227.2615942309
 21
5333.6949866767
 31
0.0
  0
ARC
  5
1B2
330
1F
100
AcDbEntity
  8
0
  6
Continuous
 62
     7
370
    25
100
AcDbCircle
 10
7019.6600521394
 20
5388.3103124109
 30
0.0
 40
201.000000000001
100
AcDbArc
 50
224.2571830327
 51
255.4787774957
  0
ARC
  5
1B3
330
1F
100
AcDbEntity
  8
0
  6
Continuous
 62
     7
370
    25
100
AcDbCircle
 10
6994.8631384566
 20
5388.3103124109
 30
0.0
 40
201.000000000001
100
AcDbArc
 50
284.5212225043
 51
331.901939511
  0
LINE
  5
1B4
330
1F
100
AcDbEntity
  8
0
  6
Continuous
 62
     7
370
    25
100
AcDbLine
 10
6969.261595298
 20
5193.7312910648
 30
0.0
 11
6969.261595298
 21
5193.6949866767
 31
0.0
  0
LINE
  5
1B5
330
1F
100
AcDbEntity
  8
0
  6
Continuous
 62
     7
370
    25
100
AcDbLine
 10
7045.261595298
 20
5193.6949866767
 30
0.0
 11
7045.261595298
 21
5193.7312910648
 31
0.0
  0
LWPOLYLINE
  5
1B6
330
1F
100
AcDbEntity
  8
0
  6
Continuous
 62
     7
370
    25
100
AcDbPolyline
 90
        6
 70
   128
 43
0.0
 10
6969.261595298
 20
5193.6949866767
 10
6969.2737305722
 20
5193.6051322388
 10
6969.3116791927
 20
5193.5130236243
 10
6969.4722303948
 20
5193.3268919671
 10
6970.1402749544
 20
5192.9878798955
 10
6972.261595298
 20
5192.6949866767
  0
LWPOLYLINE
  5
1B7
330
1F
100
AcDbEntity
  8
0
  6
Continuous
 62
     7
370
    25
100
AcDbPolyline
 90
        6
 70
   128
 43
0.0
 10
7042.261595298
 20
5192.6949866767
 10
7044.3829156416
 20
5192.9878798955
 10
7045.0509602012
 20
5193.3268919671
 10
7045.2115114032
 20
5193.5130236243
 10
7045.2494600238
 20
5193.6051322388
 10
7045.261595298
 20
5193.6949866767
  0
LINE
  5
1B8
330
1F
100
AcDbEntity
  8
0
  6
Continuous
 62
     7
370
    25
100
AcDbLine
 10
7042.261595298
 20
5192.6949866767
 30
0.0
 11
6972.261595298
 21
5192.6949866767
 31
0.0
  0
LINE
  5
1B9
330
1F
100
AcDbEntity
  8
0
  6
Continuous
 62
     7
370
    25
100
AcDbLine
 10
6971.9190471237
 20
5189.6949866767
 30
0.0
 11
6970.761595298
 21
5189.6949866767
 31
0.0
  0
LINE
  5
1BA
330
1F
100
AcDbEntity
  8
0
  6
Continuous
 62
     7
370
    25
100
AcDbLine
 10
7043.761595298
 20
5189.6949866767
 30
0.0
 11
6971.9190471237
 21
5189.6949866767
 31
0.0
  0
LINE
  5
1BB
330
1F
100
AcDbEntity
  8
0
  6
Continuous
 62
     7
370
    25
100
AcDbLine
 10
6971.9190471237
 20
5183.6949866767
 30
0.0
 11
6970.761595298
 21
5183.6949866767
 31
0.0
  0
LINE
  5
1BC
330
1F
100
AcDbEntity
  8
0
  6
Continuous
 62
     7
370
    25
100
AcDbLine
 10
7043.761595298
 20
5183.6949866767
 30
0.0
 11
6971.9190471237
 21
5183.6949866767
 31
0.0
  0
LINE
  5
1BD
330
1F
100
AcDbEntity
  8
0
  6
Continuous
 62
     7
370
    25
100
AcDbLine
 10
6982.3281537778
 20
5171.8616533434
 30
0.0
 11
6981.511595298
 21
5171.8616533434
 31
0.0
  0
LINE
  5
1BE
330
1F
100
AcDbEntity
  8
0
  6
Continuous
 62
     7
370
    25
100
AcDbLine
 10
7033.011595298
 20
5171.8616533434
 30
0.0
 11
6982.3281537778
 21
5171.8616533434
 31
0.0
  0
LINE
  5
1BF
330
1F
100
AcDbEntity
  8
0
  6
Continuous
 62
     7
370
    25
100
AcDbLine
 10
6984.2647317599
 20
5170.1949866767
 30
0.0
 11
6983.511595298
 21
5170.1949866767
 31
0.0
  0
LINE
  5
1C0
330
1F
100
AcDbEntity
  8
0
  6
Continuous
 62
     7
370
    25
100
AcDbLine
 10
7031.011595298
 20
5170.1949866767
 30
0.0
 11
6984.2647317599
 21
5170.1949866767
 31
0.0
  0
LWPOLYLINE
  5
1C1
330
1F
100
AcDbEntity
  8
0
  6
Continuous
 62
     7
370
    25
100
AcDbPolyline
 90
       16
 70
   128
 43
0.0
 10
6984.5049105265
 20
5163.9653175402
 10
6984.4599259146
 20
5163.9849501015
 10
6985.4703378804
 20
5164.0396759785
 10
6987.5953909973
 20
5164.0967312719
 10
6990.7649838102
 20
5164.1559244617
 10
6994.7348275425
 20
5164.2127306734
 10
6999.2855856747
 20
5164.2676162841
 10
7004.3467714645
 20
5164.3263546767
 10
7009.551741378
 20
5164.3848433332
 10
7014.5275479408
 20
5164.4394498376
 10
7019.2131210264
 20
5164.4967279485
 10
7023.329520187
 20
5164.5559077654
 10
7026.5665719717
 20
5164.6124677279
 10
7028.8119905877
 20
5164.6675347761
 10
7029.9996907331
 20
5164.7263749926
 10
7030.0045718824
 20
5164.7587407892
  0
LWPOLYLINE
  5
1C2
330
1F
100
AcDbEntity
  8
0
  6
Continuous
 62
     7
370
    25
100
AcDbPolyline
 90
       16
 70
   128
 43
0.0
 10
6984.504363305
 20
5165.5530563632
 10
6984.4599259146
 20
5165.5724501015
 10
6985.4703378804
 20
5165.6271759785
 10
6987.5953909973
 20
5165.6842312719
 10
6990.7649838102
 20
5165.7434244617
 10
6994.7348275425
 20
5165.8002306734
 10
6999.2855856747
 20
5165.8551162841
 10
7004.3467714645
 20
5165.9138546767
 10
7009.551741378
 20
5165.9723433332
 10
7014.5275479408
 20
5166.0269498376
 10
7019.2131210264
 20
5166.0842279485
 10
7023.329520187
 20
5166.1434077654
 10
7026.5665719717
 20
5166.1999677279
 10
7028.8119905877
 20
5166.2550347761
 10
7029.9996907331
 20
5166.3138749926
 10
7030.0045714672
 20
5166.3462380357
  0
LWPOLYLINE
  5
1C3
330
1F
100
AcDbEntity
  8
0
  6
Continuous
 62
     7
370
    25
100
AcDbPolyline
 90
       16
 70
   128
 43
0.0
 10
6984.4952603218
 20
5167.1445291634
 10
6984.4599259146
 20
5167.1599501015
 10
6985.4703378804
 20
5167.2146759785
 10
6987.5953909973
 20
5167.2717312719
 10
6990.7649838102
 20
5167.3309244617
 10
6994.7348275425
 20
5167.3877306734
 10
6999.2855856747
 20
5167.4426162841
 10
7004.3467714645
 20
5167.5013546767
 10
7009.551741378
 20
5167.5598433332
 10
7014.5275479408
 20
5167.6144498376
 10
7019.2131210264
 20
5167.6717279485
 10
7023.329520187
 20
5167.7309077654
 10
7026.5665719717
 20
5167.7874677279
 10
7028.8119905877
 20
5167.8425347761
 10
7029.9996907331
 20
5167.9013749926
 10
7030.0045663271
 20
5167.9337039529
  0
LWPOLYLINE
  5
1C4
330
1F
100
AcDbEntity
  8
0
  6
Continuous
 62
     7
370
    25
100
AcDbPolyline
 90
       12
 70
   128
 43
0.0
 10
6992.6948051362
 20
5163.6949866767
 10
6994.2646047959
 20
5163.7166369247
 10
6998.9861866824
 20
5163.7715225353
 10
7004.2373563733
 20
5163.8302609278
 10
7009.6377074818
 20
5163.8887495843
 10
7014.8002930406
 20
5163.9433560888
 10
7019.6617505054
 20
5164.0006341995
 10
7023.9326687259
 20
5164.0598140164
 10
7027.2912311353
 20
5164.116373979
 10
7029.6209370156
 20
5164.1714410271
 10
7030.8532203962
 20
5164.2302812435
 10
7030.8578533625
 20
5164.2598898775
  0
LWPOLYLINE
  5
1C5
330
1F
100
AcDbEntity
  8
0
  6
Continuous
 62
     7
370
    25
100
AcDbPolyline
 90
       16
 70
   128
 43
0.0
 10
6983.6471978259
 20
5165.0567731198
 10
6983.6500653747
 20
5165.0813424925
 10
6984.6943766388
 20
5165.1324866767
 10
6986.8571721775
 20
5165.1881375231
 10
6990.1457433431
 20
5165.2473307129
 10
6994.2646047959
 20
5165.3041369247
 10
6998.9861866824
 20
5165.3590225353
 10
7004.2373563733
 20
5165.4177609278
 10
7009.6377074818
 20
5165.4762495843
 10
7014.8002930406
 20
5165.5308560888
 10
7019.6617505054
 20
5165.5881341995
 10
7023.9326687259
 20
5165.6473140164
 10
7027.2912311353
 20
5165.703873979
 10
7029.6209370156
 20
5165.7589410271
 10
7030.8532203962
 20
5165.8177812435
 10
7030.8578533625
 20
5165.8473898775
  0
LWPOLYLINE
  5
1C6
330
1F
100
AcDbEntity
  8
0
  6
Continuous
 62
     7
370
    25
100
AcDbPolyline
 90
       16
 70
   128
 43
0.0
 10
6983.6476575464
 20
5166.648212039
 10
6983.6500653747
 20
5166.6688424925
 10
6984.6943766388
 20
5166.7199866767
 10
6986.8571721775
 20
5166.7756375231
 10
6990.1457433431
 20
5166.8348307129
 10
6994.2646047959
 20
5166.8916369247
 10
6998.9861866824
 20
5166.9465225353
 10
7004.2373563733
 20
5167.0052609278
 10
7009.6377074818
 20
5167.0637495843
 10
7014.8002930406
 20
5167.1183560888
 10
7019.6617505054
 20
5167.1756341995
 10
7023.9326687259
 20
5167.2348140164
 10
7027.2912311353
 20
5167.291373979
 10
7029.6209370156
 20
5167.3464410271
 10
7030.8532203962
 20
5167.4052812435
 10
7030.8578533625
 20
5167.4348898775
  0
ARC
  5
1C7
330
1F
100
AcDbEntity
  8
0
  6
Continuous
 62
     7
370
    25
100
AcDbCircle
 10
7012.1827644314
 20
5635.0958520215
 30
0.0
 40
471.4054948385235
100
AcDbArc
 50
269.7460738573
 51
272.2739192258
  0
LWPOLYLINE
  5
1C8
330
1F
100
AcDbEntity
  8
0
  6
Continuous
 62
     7
370
    25
100
AcDbPolyline
 90
       17
 70
   128
 43
0.0
 10
6983.6578972936
 20
5164.8552516989
 10
6983.6040098273
 20
5164.8779188483
 10
6984.65235004
 20
5164.9326447253
 10
6986.8571721671
 20
5164.9897000186
 10
6989.5292539761
 20
5165.0390384027
 10
6992.8155597148
 20
5165.0872309763
 10
6996.5342694275
 20
5165.1324451144
 10
6999.7137862057
 20
5165.1688422564
 10
7003.0980563982
 20
5165.2067419462
 10
7008.5018376641
 20
5165.2656661455
 10
7013.7315507255
 20
5165.3209306656
 10
7018.6680333611
 20
5165.3772494521
 10
7023.0948765655
 20
5165.4364049309
 10
7026.6669111709
 20
5165.4938815706
 10
7029.2117820619
 20
5165.5484035616
 10
7030.6925884395
 20
5165.6067609584
 10
7030.8867012604
 20
5165.6490610075
  0
LWPOLYLINE
  5
1C9
330
1F
100
AcDbEntity
  8
0
  6
Continuous
 62
     7
370
    25
100
AcDbPolyline
 90
       17
 70
   128
 43
0.0
 10
6983.6578972936
 20
5166.4427516989
 10
6983.6040098273
 20
5166.4654188483
 10
6984.65235004
 20
5166.5201447253
 10
6986.8571721671
 20
5166.5772000186
 10
6989.5292539761
 20
5166.6265384027
 10
6992.8155597148
 20
5166.6747309763
 10
6996.5342694275
 20
5166.7199451144
 10
6999.7137862057
 20
5166.7563422564
 10
7003.0980563982
 20
5166.7942419462
 10
7008.5018376641
 20
5166.8531661455
 10
7013.7315507255
 20
5166.9084306656
 10
7018.6680333611
 20
5166.9647494521
 10
7023.0948765655
 20
5167.0239049309
 10
7026.6669111709
 20
5167.0813815706
 10
7029.2117820619
 20
5167.1359035616
 10
7030.6925884395
 20
5167.1942609584
 10
7030.8867012604
 20
5167.2365610075
  0
LWPOLYLINE
  5
1CA
330
1F
100
AcDbEntity
  8
0
  6
Continuous
 62
     7
370
    25
100
AcDbPolyline
 90
       17
 70
   128
 43
0.0
 10
6983.6578972936
 20
5168.0302516989
 10
6983.6040098273
 20
5168.0529188483
 10
6984.65235004
 20
5168.1076447253
 10
6986.8571721671
 20
5168.1647000186
 10
6989.5292539761
 20
5168.2140384027
 10
6992.8155597148
 20
5168.2622309763
 10
6996.5342694275
 20
5168.3074451144
 10
6999.7137862057
 20
5168.3438422564
 10
7003.0980563982
 20
5168.3817419462
 10
7008.5018376641
 20
5168.4406661455
 10
7013.7315507255
 20
5168.4959306656
 10
7018.6680333611
 20
5168.5522494521
 10
7023.0948765655
 20
5168.6114049309
 10
7026.6669111709
 20
5168.6688815706
 10
7029.2117820619
 20
5168.7234035616
 10
7030.6925884395
 20
5168.7817609584
 10
7030.8867012604
 20
5168.8240610075
  0
LWPOLYLINE
  5
1CB
330
1F
100
AcDbEntity
  8
0
  6
Continuous
 62
     7
370
    25
100
AcDbPolyline
 90
       16
 70
   128
 43
0.0
 10
6984.5120793609
 20
5164.3590638566
 10
6984.4599259083
 20
5164.3818251008
 10
6985.4703378582
 20
5164.4365509777
 10
6987.5953909582
 20
5164.493606271
 10
6990.7649837559
 20
5164.5527994608
 10
6994.7348274769
 20
5164.6096056726
 10
6999.2855855979
 20
5164.6644912832
 10
7004.3467713801
 20
5164.7232296758
 10
7009.5517412926
 20
5164.7817183322
 10
7014.5275478583
 20
5164.8363248367
 10
7019.2131209487
 20
5164.8936029475
 10
7023.3295201206
 20
5164.9527827643
 10
7026.7066049544
 20
5165.0121260573
 10
7028.9876557416
 20
5165.0703998225
 10
7030.0793257749
 20
5165.1324866767
 10
7030.0898528182
 20
5165.1476105968
  0
LWPOLYLINE
  5
1CC
330
1F
100
AcDbEntity
  8
0
  6
Continuous
 62
     7
370
    25
100
AcDbPolyline
 90
       16
 70
   128
 43
0.0
 10
6984.5120793579
 20
5165.9465638579
 10
6984.4599259083
 20
5165.9693251008
 10
6985.4703378582
 20
5166.0240509777
 10
6987.5953909582
 20
5166.081106271
 10
6990.7649837559
 20
5166.1402994608
 10
6994.7348274769
 20
5166.1971056726
 10
6999.2855855979
 20
5166.2519912832
 10
7004.3467713801
 20
5166.3107296758
 10
7009.5517412926
 20
5166.3692183322
 10
7014.5275478583
 20
5166.4238248367
 10
7019.2131209487
 20
5166.4811029475
 10
7023.3295201206
 20
5166.5402827643
 10
7026.7066049544
 20
5166.5996260573
 10
7028.9876557416
 20
5166.6578998225
 10
7030.0793257749
 20
5166.7199866767
 10
7030.0898518103
 20
5166.7351091487
  0
LWPOLYLINE
  5
1CD
330
1F
100
AcDbEntity
  8
0
  6
Continuous
 62
     7
370
    25
100
AcDbPolyline
 90
       16
 70
   128
 43
0.0
 10
6984.5120793501
 20
5167.5340638613
 10
6984.4599259083
 20
5167.5568251008
 10
6985.4703378582
 20
5167.6115509777
 10
6987.5953909582
 20
5167.668606271
 10
6990.7649837559
 20
5167.7277994608
 10
6994.7348274769
 20
5167.7846056726
 10
6999.2855855979
 20
5167.8394912832
 10
7004.3467713801
 20
5167.8982296758
 10
7009.5517412926
 20
5167.9567183322
 10
7014.5275478583
 20
5168.0113248367
 10
7019.2131209487
 20
5168.0686029475
 10
7023.3295201206
 20
5168.1277827643
 10
7026.7066049544
 20
5168.1871260573
 10
7028.9876557416
 20
5168.2453998225
 10
7030.0793257749
 20
5168.3074866767
 10
7030.0898508023
 20
5168.3226077006
  0
LINE
  5
1CE
330
1F
100
AcDbEntity
  8
0
  6
Continuous
 62
     7
370
    25
100
AcDbLine
 10
6822.961595298
 20
5195.2273438655
 30
0.0
 11
6822.961595298
 21
5141.2273438655
 31
0.0
  0
LINE
  5
1CF
330
1F
100
AcDbEntity
  8
0
  6
Continuous
 62
     7
370
    25
100
AcDbLine
 10
6821.261595298
 20
5195.2273438655
 30
0.0
 11
6821.261595298
 21
5141.2273438655
 31
0.0
  0
LINE
  5
1D0
330
1F
100
AcDbEntity
  8
0
  6
Continuous
 62
     7
370
    25
100
AcDbLine
 10
6826.461595298
 20
5188.2273438655
 30
0.0
 11
6826.461595298
 21
5148.2273438655
 31
0.0
  0
LINE
  5
1D1
330
1F
100
AcDbEntity
  8
0
  6
Continuous
 62
     7
370
    25
100
AcDbLine
 10
6771.261595298
 20
5191.7273438655
 30
0.0
 11
6771.261595298
 21
5144.7273438655
 31
0.0
  0
LINE
  5
1D2
330
1F
100
AcDbEntity
  8
0
  6
Continuous
 62
     7
370
    25
100
AcDbLine
 10
6774.261595298
 20
5193.2273438655
 30
0.0
 11
6774.261595298
 21
5143.2273438655
 31
0.0
  0
LINE
  5
1D3
330
1F
100
AcDbEntity
  8
0
  6
Continuous
 62
     7
370
    25
100
AcDbLine
 10
6913.2027717686
 20
5164.6979321008
 30
0.0
 11
6917.261595298
 21
5168.2273438655
 31
0.0
  0
LINE
  5
1D4
330
1F
100
AcDbEntity
  8
0
  6
Continuous
 62
     7
370
    25
100
AcDbLine
 10
6892.5698038354
 20
5164.6979321008
 30
0.0
 11
6913.2027717686
 21
5164.6979321008
 31
0.0
  0
ARC
  5
1D5
330
1F
100
AcDbEntity
  8
0
  6
Continuous
 62
     7
370
    25
100
AcDbCircle
 10
6892.6581144379
 20
5159.1128244271
 30
0.0
 40
5.585805804845288
100
AcDbArc
 50
90.9058738867
 51
143.4118558053
  0
ARC
  5
1D6
330
1F
100
AcDbEntity
  8
0
  6
Continuous
 62
     7
370
    25
100
AcDbCircle
 10
6892.5698038354
 20
5159.2273438655
 30
0.0
 40
3.000000000005184
100
AcDbArc
 50
90.0
 51
137.1210963967
  0
ARC
  5
1D7
330
1F
100
AcDbEntity
  8
0
  6
Continuous
 62
     7
370
    25
100
AcDbCircle
 10
6890.6201205417
 20
5164.3803589871
 30
0.0
 40
3.121584468179388
100
AcDbArc
 50
218.378945949
 51
265.4303923513
  0
LINE
  5
1D8
330
1F
100
AcDbEntity
  8
0
  6
Continuous
 62
     7
370
    25
100
AcDbLine
 10
6892.5698038354
 20
5164.6979321008
 30
0.0
 11
6892.5698038354
 21
5162.2273438655
 31
0.0
  0
LWPOLYLINE
  5
1D9
330
1F
100
AcDbEntity
  8
0
  6
Continuous
 62
     7
370
    25
100
AcDbPolyline
 90
        8
 70
   128
 43
0.0
 10
6913.7321835333
 20
5164.1685203361
 10
6912.7345312987
 20
5163.2510737861
 10
6911.6269959303
 20
5162.4821448812
 10
6909.2114827286
 20
5161.0576130706
 10
6906.798921561
 20
5159.9574918668
 10
6905.2212780088
 20
5159.4530474243
 10
6903.7167506598
 20
5159.2303302581
 10
6903.5400876127
 20
5159.2273438655
  0
LINE
  5
1DA
330
1F
100
AcDbEntity
  8
0
  6
Continuous
 62
     7
370
    25
100
AcDbLine
 10
6917.261595298
 20
5168.2273438655
 30
0.0
 11
6913.7321835333
 21
5164.1685203361
 31
0.0
  0
ARC
  5
1DB
330
1F
100
AcDbEntity
  8
0
  6
Continuous
 62
     7
370
    25
100
AcDbCircle
 10
6900.903243666
 20
5159.6243192908
 30
0.0
 40
2.666558735115665
100
AcDbArc
 50
351.4384480356
 51
77.4676708093
  0
ARC
  5
1DC
330
1F
100
AcDbEntity
  8
0
  6
Continuous
 62
     7
370
    25
100
AcDbCircle
 10
6899.7595621518
 20
5199.4365747476
 30
0.0
 40
37.24906948833356
100
AcDbArc
 50
272.650151482
 51
291.1555121001
  0
ARC
  5
1DD
330
1F
100
AcDbEntity
  8
0
  6
Continuous
 62
     7
370
    25
100
AcDbCircle
 10
6896.6781322706
 20
5147.6438808381
 30
0.0
 40
23.74667081951151
100
AcDbArc
 50
44.0967323004
 51
45.9032676996
  0
LINE
  5
1DE
330
1F
100
AcDbEntity
  8
0
  6
Continuous
 62
     7
370
    25
100
AcDbLine
 10
6901.4818614599
 20
5162.2273438655
 30
0.0
 11
6892.5698038354
 21
5162.2273438655
 31
0.0
  0
LINE
  5
1DF
330
1F
100
AcDbEntity
  8
0
  6
Continuous
 62
     7
370
    25
100
AcDbLine
 10
6890.3714233605
 20
5161.2686971636
 30
0.0
 11
6879.1517686496
 21
5149.1859920903
 31
0.0
  0
LINE
  5
1E0
330
1F
100
AcDbEntity
  8
0
  6
Continuous
 62
     7
370
    25
100
AcDbLine
 10
6979.761595298
 20
5163.6949866767
 30
0.0
 11
7034.761595298
 21
5163.6949866767
 31
0.0
  0
LINE
  5
1E1
330
1F
100
AcDbEntity
  8
0
  6
Continuous
 62
     7
370
    25
100
AcDbLine
 10
6979.761595298
 20
5160.6949866767
 30
0.0
 11
7034.761595298
 21
5160.6949866767
 31
0.0
  0
ARC
  5
1E2
330
1F
100
AcDbEntity
  8
0
  6
Continuous
 62
     7
370
    25
100
AcDbCircle
 10
7007.261595298
 20
5151.5699866767
 30
0.0
 40
1.875000000000909
100
AcDbArc
 50
180.0
 51
0.0
  0
LINE
  5
1E3
330
1F
100
AcDbEntity
  8
0
  6
Continuous
 62
     7
370
    25
100
AcDbLine
 10
7005.386595298
 20
5160.6949866767
 30
0.0
 11
7005.386595298
 21
5151.5699866767
 31
0.0
  0
LINE
  5
1E4
330
1F
100
AcDbEntity
  8
0
  6
Continuous
 62
     7
370
    25
100
AcDbLine
 10
7009.136595298
 20
5151.5699866767
 30
0.0
 11
7009.136595298
 21
5160.6949866767
 31
0.0
  0
LWPOLYLINE
  5
1E5
330
1F
100
AcDbEntity
  8
0
  6
Continuous
 62
     7
370
    25
100
AcDbPolyline
 90
        7
 70
   128
 43
0.0
 10
6980.7617422739
 20
5149.6971202737
 10
6980.7615983888
 20
5149.695030361
 10
6980.7691197821
 20
5149.8045167795
 10
6980.7878367296
 20
5150.1120711304
 10
6980.8096389548
 20
5150.5842791223
 10
6980.8249595629
 20
5151.1683226507
 10
6980.8280110726
 20
5151.5699866767
  0
LINE
  5
1E6
330
1F
100
AcDbEntity
  8
0
  6
Continuous
 62
     7
370
    25
100
AcDbLine
 10
6980.8280110726
 20
5151.5699866767
 30
0.0
 11
6980.8280110726
 21
5160.6949866767
 31
0.0
  0
LWPOLYLINE
  5
1E7
330
1F
100
AcDbEntity
  8
0
  6
Continuous
 62
     7
370
    25
100
AcDbPolyline
 90
        7
 70
   128
 43
0.0
 10
6988.5236068491
 20
5149.6970651125
 10
6988.5323180399
 20
5149.695030361
 10
6988.9750954722
 20
5149.8045167795
 10
6989.3755198553
 20
5150.1120711304
 10
6989.6850686116
 20
5150.5842791223
 10
6989.8631174242
 20
5151.1683226507
 10
6989.8960538559
 20
5151.5699866767
  0
LINE
  5
1E8
330
1F
100
AcDbEntity
  8
0
  6
Continuous
 62
     7
370
    25
100
AcDbLine
 10
6989.8960538559
 20
5151.5699866767
 30
0.0
 11
6989.8960538559
 21
5160.6949866767
 31
0.0
  0
LINE
  5
1E9
330
1F
100
AcDbEntity
  8
0
  6
Continuous
 62
     7
370
    25
100
AcDbLine
 10
7024.6271367401
 20
5160.6949866767
 30
0.0
 11
7024.6271367401
 21
5151.5699866767
 31
0.0
  0
ARC
  5
1EA
330
1F
100
AcDbEntity
  8
0
  6
Continuous
 62
     7
370
    25
100
AcDbCircle
 10
7026.3028753567
 20
5151.358704435
 30
0.0
 40
1.689005653251558
100
AcDbArc
 50
172.8138921048
 51
259.6719458431
  0
LINE
  5
1EB
330
1F
100
AcDbEntity
  8
0
  6
Continuous
 62
     7
370
    25
100
AcDbLine
 10
7033.6951795234
 20
5160.6949866767
 30
0.0
 11
7033.6951795234
 21
5151.5699866767
 31
0.0
  0
ARC
  5
1EC
330
1F
100
AcDbEntity
  8
0
  6
Continuous
 62
     7
370
    25
100
AcDbCircle
 10
7060.2600873429
 20
5151.5723437438
 30
0.0
 40
26.56490792406433
100
AcDbArc
 50
180.0050837743
 51
184.0478898732
  0
LINE
  5
1ED
330
1F
100
AcDbEntity
  8
0
  6
Continuous
 62
     7
370
    25
100
AcDbLine
 10
6982.761595298
 20
5145.1949866767
 30
0.0
 11
7031.761595298
 21
5145.1949866767
 31
0.0
  0
LWPOLYLINE
  5
1EE
330
1F
100
AcDbEntity
  8
0
  6
Continuous
 62
     7
370
    25
100
AcDbPolyline
 90
        9
 70
   128
 43
0.0
 10
6986.8438869912
 20
5151.5699866767
 10
6986.9448094264
 20
5150.852455241
 10
6987.232212206
 20
5150.244161462
 10
6987.6623408621
 20
5149.8377125532
 10
6988.169712206
 20
5149.6949866767
 10
6988.6770835498
 20
5149.8377125532
 10
6989.107212206
 20
5150.244161462
 10
6989.3946149855
 20
5150.852455241
 10
6989.4955374207
 20
5151.5699866767
  0
LINE
  5
1EF
330
1F
100
AcDbEntity
  8
0
  6
Continuous
 62
     7
370
    25
100
AcDbLine
 10
6986.8438869912
 20
5160.6949866767
 30
0.0
 11
6986.8438869912
 21
5151.5699866767
 31
0.0
  0
LINE
  5
1F0
330
1F
100
AcDbEntity
  8
0
  6
Continuous
 62
     7
370
    25
100
AcDbLine
 10
6989.4955374207
 20
5151.5699866767
 30
0.0
 11
6989.4955374207
 21
5160.6949866767
 31
0.0
  0
LINE
  5
1F1
330
1F
100
AcDbEntity
  8
0
  6
Continuous
 62
     7
370
    25
100
AcDbLine
 10
6989.8960538559
 20
5151.5699866767
 30
0.0
 11
6989.4955374207
 21
5151.5699866767
 31
0.0
  0
LINE
  5
1F2
330
1F
100
AcDbEntity
  8
0
  6
Continuous
 62
     7
370
    25
100
AcDbLine
 10
7025.0276531753
 20
5160.6949866767
 30
0.0
 11
7025.0276531753
 21
5151.5699866767
 31
0.0
  0
LINE
  5
1F3
330
1F
100
AcDbEntity
  8
0
  6
Continuous
 62
     7
370
    25
100
AcDbLine
 10
7024.6271367401
 20
5151.5699866767
 30
0.0
 11
7025.0276531753
 21
5151.5699866767
 31
0.0
  0
LWPOLYLINE
  5
1F4
330
1F
100
AcDbEntity
  8
0
  6
Continuous
 62
     7
370
    25
100
AcDbPolyline
 90
        9
 70
   128
 43
0.0
 10
7025.0276531753
 20
5151.5699866767
 10
7025.1285756105
 20
5150.852455241
 10
7025.41597839
 20
5150.244161462
 10
7025.8461070461
 20
5149.8377125532
 10
7026.35347839
 20
5149.6949866767
 10
7026.8608497339
 20
5149.8377125532
 10
7027.29097839
 20
5150.244161462
 10
7027.5783811696
 20
5150.852455241
 10
7027.6793036048
 20
5151.5699866767
  0
LINE
  5
1F5
330
1F
100
AcDbEntity
  8
0
  6
Continuous
 62
     7
370
    25
100
AcDbLine
 10
7027.6793036048
 20
5151.5699866767
 30
0.0
 11
7027.6793036048
 21
5160.6949866767
 31
0.0
  0
LINE
  5
1F6
330
1F
100
AcDbEntity
  8
0
  6
Continuous
 62
     7
370
    25
100
AcDbLine
 10
6980.261595298
 20
5149.6949866767
 30
0.0
 11
6980.261595298
 21
5151.5699866767
 31
0.0
  0
LINE
  5
1F7
330
1F
100
AcDbEntity
  8
0
  6
Continuous
 62
     7
370
    25
100
AcDbLine
 10
6980.8280110726
 20
5151.5699866767
 30
0.0
 11
6980.261595298
 21
5151.5699866767
 31
0.0
  0
LINE
  5
1F8
330
1F
100
AcDbEntity
  8
0
  6
Continuous
 62
     7
370
    25
100
AcDbLine
 10
6980.261595298
 20
5151.5699866767
 30
0.0
 11
6980.261595298
 21
5160.6949866767
 31
0.0
  0
LINE
  5
1F9
330
1F
100
AcDbEntity
  8
0
  6
Continuous
 62
     7
370
    25
100
AcDbLine
 10
7034.261595298
 20
5151.5699866767
 30
0.0
 11
7034.261595298
 21
5149.6949866767
 31
0.0
  0
LINE
  5
1FA
330
1F
100
AcDbEntity
  8
0
  6
Continuous
 62
     7
370
    25
100
AcDbLine
 10
7033.6951795234
 20
5151.5699866767
 30
0.0
 11
7034.261595298
 21
5151.5699866767
 31
0.0
  0
LINE
  5
1FB
330
1F
100
AcDbEntity
  8
0
  6
Continuous
 62
     7
370
    25
100
AcDbLine
 10
7034.261595298
 20
5160.6949866767
 30
0.0
 11
7034.261595298
 21
5151.5699866767
 31
0.0
  0
LINE
  5
1FC
330
1F
100
AcDbEntity
  8
0
  6
Continuous
 62
     7
370
    25
100
AcDbLine
 10
6944.761595298
 20
5130.3273438655
 30
0.0
 11
6889.761595298
 21
5130.3273438655
 31
0.0
  0
LINE
  5
1FD
330
1F
100
AcDbEntity
  8
0
  6
Continuous
 62
     7
370
    25
100
AcDbLine
 10
6944.761595298
 20
5133.3273438655
 30
0.0
 11
6889.761595298
 21
5133.3273438655
 31
0.0
  0
LWPOLYLINE
  5
1FE
330
1F
100
AcDbEntity
  8
0
  6
Continuous
 62
     7
370
    25
100
AcDbPolyline
 90
        7
 70
   128
 43
0.0
 10
6943.5013661703
 20
5144.3252654297
 10
6943.499763689
 20
5144.3273001812
 10
6943.4058598518
 20
5144.2178137627
 10
6943.310805223
 20
5143.9102594118
 10
6943.2310867567
 20
5143.4380514199
 10
6943.1828692174
 20
5142.8540078915
 10
6943.1737647731
 20
5142.4523438655
  0
LINE
  5
1FF
330
1F
100
AcDbEntity
  8
0
  6
Continuous
 62
     7
370
    25
100
AcDbLine
 10
6943.1737647731
 20
5142.4523438655
 30
0.0
 11
6943.1737647731
 21
5133.3273438655
 31
0.0
  0
LWPOLYLINE
  5
200
330
1F
100
AcDbEntity
  8
0
  6
Continuous
 62
     7
370
    25
100
AcDbPolyline
 90
        7
 70
   128
 43
0.0
 10
6933.1970570452
 20
5144.3252654297
 10
6933.1871862829
 20
5144.3273001812
 10
6932.6883631853
 20
5144.2178137627
 10
6932.2396088752
 20
5143.9102594118
 10
6931.8941478385
 20
5143.4380514199
 10
6931.695992167
 20
5142.8540078915
 10
6931.6593792294
 20
5142.4523438655
  0
LINE
  5
201
330
1F
100
AcDbEntity
  8
0
  6
Continuous
 62
     7
370
    25
100
AcDbLine
 10
6931.6593792294
 20
5142.4523438655
 30
0.0
 11
6931.6593792294
 21
5133.3273438655
 31
0.0
  0
LINE
  5
202
330
1F
100
AcDbEntity
  8
0
  6
Continuous
 62
     7
370
    25
100
AcDbLine
 10
6915.4241690248
 20
5133.3273438655
 30
0.0
 11
6915.4241690248
 21
5142.4523438655
 31
0.0
  0
ARC
  5
203
330
1F
100
AcDbEntity
  8
0
  6
Continuous
 62
     7
370
    25
100
AcDbCircle
 10
6913.5560184138
 20
5142.4571097594
 30
0.0
 40
1.868156690262068
100
AcDbArc
 50
359.8538313709
 51
89.9401285441
  0
LINE
  5
204
330
1F
100
AcDbEntity
  8
0
  6
Continuous
 62
     7
370
    25
100
AcDbLine
 10
6897.2691064598
 20
5133.3273438655
 30
0.0
 11
6897.2691064598
 21
5142.4523438655
 31
0.0
  0
LWPOLYLINE
  5
205
330
1F
100
AcDbEntity
  8
0
  6
Continuous
 62
     7
370
    25
100
AcDbPolyline
 90
        6
 70
   128
 43
0.0
 10
6897.2691064598
 20
5142.4523438655
 10
6897.2368784872
 20
5142.8783330918
 10
6897.07822136
 20
5143.4572867691
 10
6896.8074454447
 20
5143.9241116968
 10
6896.4600851388
 20
5144.22581764
 10
6896.0884172041
 20
5144.3252654297
  0
LINE
  5
206
330
1F
100
AcDbEntity
  8
0
  6
Continuous
 62
     7
370
    25
100
AcDbLine
 10
6941.761595298
 20
5148.8273438655
 30
0.0
 11
6892.761595298
 21
5148.8273438655
 31
0.0
  0
ARC
  5
207
330
1F
100
AcDbEntity
  8
0
  6
Continuous
 62
     7
370
    25
100
AcDbCircle
 10
6913.4884128893
 20
5142.4670776319
 30
0.0
 40
1.856659410808341
100
AcDbArc
 50
359.545316988
 51
180.454683012
  0
LINE
  5
208
330
1F
100
AcDbEntity
  8
0
  6
Continuous
 62
     7
370
    25
100
AcDbLine
 10
6915.3450138383
 20
5133.3273438655
 30
0.0
 11
6915.3450138383
 21
5142.4523438655
 31
0.0
  0
LINE
  5
209
330
1F
100
AcDbEntity
  8
0
  6
Continuous
 62
     7
370
    25
100
AcDbLine
 10
6911.6318119403
 20
5142.4523438655
 30
0.0
 11
6911.6318119403
 21
5133.3273438655
 31
0.0
  0
LINE
  5
20A
330
1F
100
AcDbEntity
  8
0
  6
Continuous
 62
     7
370
    25
100
AcDbLine
 10
6915.4241690248
 20
5142.4523438655
 30
0.0
 11
6915.3450138383
 21
5142.4523438655
 31
0.0
  0
LWPOLYLINE
  5
20B
330
1F
100
AcDbEntity
  8
0
  6
Continuous
 62
     7
370
    25
100
AcDbPolyline
 90
        9
 70
   128
 43
0.0
 10
6934.9961860483
 20
5142.4523438655
 10
6934.8821502899
 20
5143.1698753012
 10
6934.5574039252
 20
5143.7781690802
 10
6934.0713866443
 20
5144.184617989
 10
6933.4980901726
 20
5144.3273438655
 10
6932.9247937008
 20
5144.184617989
 10
6932.43877642
 20
5143.7781690802
 10
6932.1140300553
 20
5143.1698753012
 10
6931.9999942969
 20
5142.4523438655
  0
LINE
  5
20C
330
1F
100
AcDbEntity
  8
0
  6
Continuous
 62
     7
370
    25
100
AcDbLine
 10
6934.9961860483
 20
5133.3273438655
 30
0.0
 11
6934.9961860483
 21
5142.4523438655
 31
0.0
  0
LINE
  5
20D
330
1F
100
AcDbEntity
  8
0
  6
Continuous
 62
     7
370
    25
100
AcDbLine
 10
6931.9999942969
 20
5142.4523438655
 30
0.0
 11
6931.9999942969
 21
5133.3273438655
 31
0.0
  0
LINE
  5
20E
330
1F
100
AcDbEntity
  8
0
  6
Continuous
 62
     7
370
    25
100
AcDbLine
 10
6931.6593792294
 20
5142.4523438655
 30
0.0
 11
6931.9999942969
 21
5142.4523438655
 31
0.0
  0
LWPOLYLINE
  5
20F
330
1F
100
AcDbEntity
  8
0
  6
Continuous
 62
     7
370
    25
100
AcDbPolyline
 90
        9
 70
   128
 43
0.0
 10
6896.816549054
 20
5142.4523438655
 10
6896.7307206109
 20
5143.1698753012
 10
6896.4863018841
 20
5143.7781690802
 10
6896.1205034091
 20
5144.184617989
 10
6895.6890146877
 20
5144.3273438655
 10
6895.2575259663
 20
5144.184617989
 10
6894.8917274913
 20
5143.7781690802
 10
6894.6473087645
 20
5143.1698753012
 10
6894.5614803214
 20
5142.4523438655
  0
LINE
  5
210
330
1F
100
AcDbEntity
  8
0
  6
Continuous
 62
     7
370
    25
100
AcDbLine
 10
6897.2691064598
 20
5142.4523438655
 30
0.0
 11
6896.816549054
 21
5142.4523438655
 31
0.0
  0
LINE
  5
211
330
1F
100
AcDbEntity
  8
0
  6
Continuous
 62
     7
370
    25
100
AcDbLine
 10
6896.816549054
 20
5133.3273438655
 30
0.0
 11
6896.816549054
 21
5142.4523438655
 31
0.0
  0
LINE
  5
212
330
1F
100
AcDbEntity
  8
0
  6
Continuous
 62
     7
370
    25
100
AcDbLine
 10
6894.5614803214
 20
5142.4523438655
 30
0.0
 11
6894.5614803214
 21
5133.3273438655
 31
0.0
  0
LWPOLYLINE
  5
213
330
1F
100
AcDbEntity
  8
0
  6
Continuous
 62
     7
370
    25
100
AcDbPolyline
 90
        9
 70
   128
 43
0.0
 10
6944.2586755199
 20
5142.4523438655
 10
6944.238729936
 20
5143.1698753012
 10
6944.1819297185
 20
5143.7781690802
 10
6944.0969221856
 20
5144.184617989
 10
6943.9966489637
 20
5144.3273438655
 10
6943.8963757419
 20
5144.184617989
 10
6943.811368209
 20
5143.7781690802
 10
6943.7545679915
 20
5143.1698753012
 10
6943.7346224076
 20
5142.4523438655
  0
LINE
  5
214
330
1F
100
AcDbEntity
  8
0
  6
Continuous
 62
     7
370
    25
100
AcDbLine
 10
6943.1737647731
 20
5142.4523438655
 30
0.0
 11
6943.7346224076
 21
5142.4523438655
 31
0.0
  0
LINE
  5
215
330
1F
100
AcDbEntity
  8
0
  6
Continuous
 62
     7
370
    25
100
AcDbLine
 10
6944.2586755199
 20
5133.3273438655
 30
0.0
 11
6944.2586755199
 21
5142.4523438655
 31
0.0
  0
LINE
  5
216
330
1F
100
AcDbEntity
  8
0
  6
Continuous
 62
     7
370
    25
100
AcDbLine
 10
6943.7346224076
 20
5142.4523438655
 30
0.0
 11
6943.7346224076
 21
5133.3273438655
 31
0.0
  0
ARC
  5
217
330
1F
100
AcDbEntity
  8
0
  6
Continuous
 62
     7
370
    25
100
AcDbCircle
 10
6893.8152990147
 20
5142.9119394767
 30
0.0
 40
3.580404265498301
100
AcDbArc
 50
156.7140847306
 51
187.3750740009
  0
LINE
  5
218
330
1F
100
AcDbEntity
  8
0
  6
Continuous
 62
     7
370
    25
100
AcDbLine
 10
6890.2645150761
 20
5133.3273438655
 30
0.0
 11
6890.2645150761
 21
5142.4523438655
 31
0.0
  0
LINE
  5
219
330
1F
100
AcDbEntity
  8
0
  6
Continuous
 62
     7
370
    25
100
AcDbLine
 10
6887.261595298
 20
5098.6949866767
 30
0.0
 11
6917.261595298
 21
5098.6949866767
 31
0.0
  0
LINE
  5
21A
330
1F
100
AcDbEntity
  8
0
  6
Continuous
 62
     7
370
    25
100
AcDbLine
 10
6917.261595298
 20
5098.6949866767
 30
0.0
 11
6917.261595298
 21
5093.6949866767
 31
0.0
  0
LINE
  5
21B
330
1F
100
AcDbEntity
  8
0
  6
Continuous
 62
     7
370
    25
100
AcDbLine
 10
6887.261595298
 20
5093.6949866767
 30
0.0
 11
6917.261595298
 21
5093.6949866767
 31
0.0
  0
LINE
  5
21C
330
1F
100
AcDbEntity
  8
0
  6
Continuous
 62
     7
370
    25
100
AcDbLine
 10
7007.261595298
 20
5098.6949866767
 30
0.0
 11
7007.261595298
 21
5093.6949866767
 31
0.0
  0
LINE
  5
21D
330
1F
100
AcDbEntity
  8
0
  6
Continuous
 62
     7
370
    25
100
AcDbLine
 10
6917.261595298
 20
5093.6949866767
 30
0.0
 11
7007.261595298
 21
5093.6949866767
 31
0.0
  0
LINE
  5
21E
330
1F
100
AcDbEntity
  8
0
  6
Continuous
 62
     7
370
    25
100
AcDbLine
 10
6917.261595298
 20
5098.6949866767
 30
0.0
 11
7007.261595298
 21
5098.6949866767
 31
0.0
  0
LINE
  5
21F
330
1F
100
AcDbEntity
  8
0
  6
Continuous
 62
     7
370
    25
100
AcDbLine
 10
7007.261595298
 20
5093.6949866767
 30
0.0
 11
7037.261595298
 21
5093.6949866767
 31
0.0
  0
LINE
  5
220
330
1F
100
AcDbEntity
  8
0
  6
Continuous
 62
     7
370
    25
100
AcDbLine
 10
7007.261595298
 20
5098.6949866767
 30
0.0
 11
7037.261595298
 21
5098.6949866767
 31
0.0
  0
LINE
  5
221
330
1F
100
AcDbEntity
  8
0
  6
Continuous
 62
     7
370
    25
100
AcDbLine
 10
6917.261595298
 20
5117.6949866767
 30
0.0
 11
6917.261595298
 21
5098.6949866767
 31
0.0
  0
LINE
  5
222
330
1F
100
AcDbEntity
  8
0
  6
Continuous
 62
     7
370
    25
100
AcDbLine
 10
6917.261595298
 20
5117.6949866767
 30
0.0
 11
6917.261595298
 21
5122.0251136956
 31
0.0
  0
LINE
  5
223
330
1F
100
AcDbEntity
  8
0
  6
Continuous
 62
     7
370
    25
100
AcDbLine
 10
7007.261595298
 20
5117.6949866767
 30
0.0
 11
6917.261595298
 21
5117.6949866767
 31
0.0
  0
LINE
  5
224
330
1F
100
AcDbEntity
  8
0
  6
Continuous
 62
     7
370
    25
100
AcDbLine
 10
7007.261595298
 20
5117.6949866767
 30
0.0
 11
7007.261595298
 21
5098.6949866767
 31
0.0
  0
LWPOLYLINE
  5
225
330
1F
100
AcDbEntity
  8
0
  6
Continuous
 62
     7
370
    25
100
AcDbPolyline
 90
        4
 70
   128
 43
0.0
 10
6932.7535286828
 20
5122.6949866767
 10
6928.9991507951
 20
5122.5657642669
 10
6925.1171158737
 20
5122.3180869355
 10
6917.261595298
 20
5122.0251136956
  0
LINE
  5
226
330
1F
100
AcDbEntity
  8
0
  6
Continuous
 62
     7
370
    25
100
AcDbLine
 10
6932.7535286828
 20
5122.6949866767
 30
0.0
 11
6994.5042444758
 21
5122.6949866767
 31
0.0
  0
LWPOLYLINE
  5
227
330
1F
100
AcDbEntity
  8
0
  6
Continuous
 62
     7
370
    25
100
AcDbPolyline
 90
        4
 70
   128
 43
0.0
 10
7007.261595298
 20
5122.3787351755
 10
7001.8399378569
 20
5122.4793566426
 10
6998.1547126675
 20
5122.6149325173
 10
6994.5042444758
 20
5122.6949866767
  0
LINE
  5
228
330
1F
100
AcDbEntity
  8
0
  6
Continuous
 62
     7
370
    25
100
AcDbLine
 10
7007.261595298
 20
5117.6949866767
 30
0.0
 11
7007.261595298
 21
5122.3787351755
 31
0.0
  0
LWPOLYLINE
  5
229
330
1F
100
AcDbEntity
  8
0
  6
Continuous
 62
     7
370
    25
100
AcDbPolyline
 90
        5
 70
   128
 43
0.0
 10
6917.261595298
 20
5126.3552407145
 10
6920.4482687391
 20
5126.5177585829
 10
6923.6349421802
 20
5126.9411871943
 10
6926.8004862798
 20
5127.4387937096
 10
6929.8305223838
 20
5127.6949866767
  0
LWPOLYLINE
  5
22A
330
1F
100
AcDbEntity
  8
0
  6
Continuous
 62
     7
370
    25
100
AcDbPolyline
 90
        9
 70
   128
 43
0.0
 10
6929.8305223838
 20
5127.6949866767
 10
6929.8866871302
 20
5126.7195350666
 10
6930.0530229898
 20
5125.7815695149
 10
6930.3231377686
 20
5124.9171355116
 10
6930.6866511073
 20
5124.1594527708
 10
6931.1295933922
 20
5123.5376386152
 10
6931.6349425995
 20
5123.0755890141
 10
6932.1832784427
 20
5122.7910602747
 10
6932.7535286828
 20
5122.6949866767
  0
LINE
  5
22B
330
1F
100
AcDbEntity
  8
0
  6
Continuous
 62
     7
370
    25
100
AcDbLine
 10
6917.261595298
 20
5122.0251136956
 30
0.0
 11
6917.261595298
 21
5126.3552407145
 31
0.0
  0
LWPOLYLINE
  5
22C
330
1F
100
AcDbEntity
  8
0
  6
Continuous
 62
     7
370
    25
100
AcDbPolyline
 90
       16
 70
   128
 43
0.0
 10
6941.1238451027
 20
5129.5782492534
 10
6941.1552174599
 20
5129.5595188996
 10
6940.0353511421
 20
5129.5018301239
 10
6937.7252986253
 20
5129.4427159234
 10
6934.4172175779
 20
5129.3866816102
 10
6930.2604870632
 20
5129.3311620512
 10
6925.6717264653
 20
5129.2758414058
 10
6920.7168411149
 20
5129.2211308609
 10
6915.7166815163
 20
5129.1699866767
 10
6910.5203926087
 20
5129.1143358302
 10
6905.4715975312
 20
5129.0551426405
 10
6901.0924501367
 20
5128.9983364287
 10
6897.5682346683
 20
5128.943450818
 10
6894.9753412537
 20
5128.8847124255
 10
6893.5393760248
 20
5128.826223769
 10
6893.3901742493
 20
5128.7888786181
  0
LWPOLYLINE
  5
22D
330
1F
100
AcDbEntity
  8
0
  6
Continuous
 62
     7
370
    25
100
AcDbPolyline
 90
       17
 70
   128
 43
0.0
 10
6941.1627473017
 20
5129.7810965051
 10
6941.2352044054
 20
5129.7695849055
 10
6940.3752498918
 20
5129.7127638815
 10
6938.3071071886
 20
5129.6535702919
 10
6935.1867324657
 20
5129.59652911
 10
6931.214214094
 20
5129.5417948868
 10
6926.4377041417
 20
5129.4831709619
 10
6921.1861725393
 20
5129.4245545051
 10
6915.8538959218
 20
5129.3698286281
 10
6910.5203926281
 20
5129.3127733348
 10
6906.2775211312
 20
5129.2634199898
 10
6902.4608004409
 20
5129.2152139371
 10
6899.2338100318
 20
5129.1699866767
 10
6897.1318492267
 20
5129.1336091031
 10
6895.4336794659
 20
5129.0957314072
 10
6893.7412526476
 20
5129.0368072079
 10
6893.3175118055
 20
5128.9873072106
  0
LWPOLYLINE
  5
22E
330
1F
100
AcDbEntity
  8
0
  6
Continuous
 62
     7
370
    25
100
AcDbPolyline
 90
       16
 70
   128
 43
0.0
 10
6940.3068961508
 20
5130.2772117686
 10
6940.3768896874
 20
5130.2656786531
 10
6939.5477236755
 20
5130.2088576291
 10
6937.5536256104
 20
5130.1496640395
 10
6934.5449680445
 20
5130.0926228576
 10
6930.7146756877
 20
5130.0378886344
 10
6926.1091766453
 20
5129.9792647095
 10
6921.0456629087
 20
5129.9206482526
 10
6915.90429503
 20
5129.8659223757
 10
6910.7617443936
 20
5129.8088670823
 10
6905.8937087131
 20
5129.7496738926
 10
6901.6713456667
 20
5129.6928676808
 10
6898.2733058613
 20
5129.6379820701
 10
6895.7732444686
 20
5129.5792436776
 10
6894.3886903608
 20
5129.5207550211
 10
6894.2619673716
 20
5129.487858526
  0
LWPOLYLINE
  5
22F
330
1F
100
AcDbEntity
  8
0
  6
Continuous
 62
     7
370
    25
100
AcDbPolyline
 90
       10
 70
   128
 43
0.0
 10
6921.8940050082
 20
5130.3273438655
 10
6921.045662839
 20
5130.3175232519
 10
6915.9042949585
 20
5130.2627973749
 10
6910.7617443211
 20
5130.2057420815
 10
6905.8937086455
 20
5130.1465488917
 10
6901.6713456093
 20
5130.08974268
 10
6898.2733058149
 20
5130.0348570693
 10
6895.7732444373
 20
5129.9761186767
 10
6894.3886903479
 20
5129.9176300202
 10
6894.2449493376
 20
5129.8803157499
  0
LWPOLYLINE
  5
230
330
1F
100
AcDbEntity
  8
0
  6
Continuous
 62
     7
370
    25
100
AcDbPolyline
 90
        9
 70
   128
 43
0.0
 10
6940.3460567801
 20
5129.0820191128
 10
6940.3768896847
 20
5129.0750536525
 10
6939.5477236591
 20
5129.0182326285
 10
6937.5536255801
 20
5128.9590390388
 10
6934.5449680023
 20
5128.901997857
 10
6930.7146756336
 20
5128.8472636337
 10
6926.1091765812
 20
5128.7886397087
 10
6921.045662839
 20
5128.7300232519
 10
6917.7874386081
 20
5128.6949866767
  0
LINE
  5
231
330
1F
100
AcDbEntity
  8
0
  6
Continuous
 62
     7
370
    25
100
AcDbLine
 10
6917.7874386081
 20
5128.6949866767
 30
0.0
 11
6893.4837663925
 21
5128.6949866767
 31
0.0
  0
LWPOLYLINE
  5
232
330
1F
100
AcDbEntity
  8
0
  6
Continuous
 62
     7
370
    25
100
AcDbPolyline
 90
        4
 70
   128
 43
0.0
 10
6997.0557146403
 20
5127.6949866767
 10
6999.8605228254
 20
5127.5450363359
 10
7002.9242693451
 20
5127.2637266084
 10
7007.261595298
 20
5127.0624836743
  0
LINE
  5
233
330
1F
100
AcDbEntity
  8
0
  6
Continuous
 62
     7
370
    25
100
AcDbLine
 10
7007.261595298
 20
5122.3787351755
 30
0.0
 11
7007.261595298
 21
5127.0624836743
 31
0.0
  0
LWPOLYLINE
  5
234
330
1F
100
AcDbEntity
  8
0
  6
Continuous
 62
     7
370
    25
100
AcDbPolyline
 90
        9
 70
   128
 43
0.0
 10
6997.0557146403
 20
5127.6949866767
 10
6997.0066888565
 20
5126.7195350666
 10
6996.8614955386
 20
5125.7815695149
 10
6996.6257143842
 20
5124.9171355116
 10
6996.3084063311
 20
5124.1594527708
 10
6995.9217653496
 20
5123.5376386152
 10
6995.4806498359
 20
5123.0755890141
 10
6995.0020116118
 20
5122.7910602747
 10
6994.5042444758
 20
5122.6949866767
  0
LINE
  5
235
330
1F
100
AcDbEntity
  8
0
  6
Continuous
 62
     7
370
    25
100
AcDbLine
 10
6917.7874386081
 20
5128.6949866767
 30
0.0
 11
6940.3797990656
 21
5128.6949866767
 31
0.0
  0
LINE
  5
236
330
1F
100
AcDbEntity
  8
0
  6
Continuous
 62
     7
370
    25
100
AcDbLine
 10
6977.2610741828
 20
5333.6949866767
 30
0.0
 11
6977.2610741828
 21
5293.6949866767
 31
0.0
  0
LINE
  5
237
330
1F
100
AcDbEntity
  8
0
  6
Continuous
 62
     7
370
    25
100
AcDbLine
 10
6977.2610741828
 20
5333.6949866767
 30
0.0
 11
7227.2610741828
 21
5333.6949866767
 31
0.0
  0
LINE
  5
238
330
1F
100
AcDbEntity
  8
0
  6
Continuous
 62
     7
370
    25
100
AcDbLine
 10
6977.2610741828
 20
5293.6949866767
 30
0.0
 11
7227.2468012283
 21
5293.6949866767
 31
0.0
  0
LINE
  5
239
330
1F
100
AcDbEntity
  8
0
  6
Continuous
 62
     7
370
    25
100
AcDbLine
 10
6732.2610741828
 20
5183.6949866767
 30
0.0
 11
6732.2610741828
 21
5333.6949866767
 31
0.0
  0
LINE
  5
23A
330
1F
100
AcDbEntity
  8
0
  6
Continuous
 62
     7
370
    25
100
AcDbLine
 10
6732.2610741828
 20
5333.6949866767
 30
0.0
 11
6977.2610741828
 21
5333.6949866767
 31
0.0
  0
LINE
  5
23B
330
1F
100
AcDbEntity
  8
0
  6
Continuous
 62
     7
370
    25
100
AcDbLine
 10
6977.2610741828
 20
5293.6949866767
 30
0.0
 11
6732.2610741828
 21
5183.6949866767
 31
0.0
  0
LINE
  5
23C
330
1F
100
AcDbEntity
  8
0
  6
Continuous
 62
     7
370
    25
100
AcDbLine
 10
6733.2610741828
 20
5183.6949866767
 30
0.0
 11
6733.2610741828
 21
5184.1439662685
 31
0.0
  0
LINE
  5
23D
330
1F
100
AcDbEntity
  8
0
  6
Continuous
 62
     7
370
    25
100
AcDbLine
 10
6733.2610741828
 20
5183.6949866767
 30
0.0
 11
6732.2610741828
 21
5183.6949866767
 31
0.0
  0
LINE
  5
23E
330
1F
100
AcDbEntity
  8
0
  6
Continuous
 62
     7
370
    25
100
AcDbLine
 10
6969.261595298
 20
5193.7312910648
 30
0.0
 11
7045.261595298
 21
5193.7312910648
 31
0.0
  0
LINE
  5
23F
330
1F
100
AcDbEntity
  8
0
  6
Continuous
 62
     7
370
    25
100
AcDbLine
 10
7042.261595298
 20
5192.6949866767
 30
0.0
 11
6972.261595298
 21
5192.6949866767
 31
0.0
  0
LINE
  5
240
330
1F
100
AcDbEntity
  8
0
  6
Continuous
 62
     8
370
    25
100
AcDbLine
 10
6876.9533867606
 20
5148.2273438655
 30
0.0
 11
6888.1730428856
 21
5162.4422928022
 31
0.0
  0
LINE
  5
241
330
1F
100
AcDbEntity
  8
0
  6
Continuous
 62
     8
370
    25
100
AcDbLine
 10
6917.261595298
 20
5188.2273438655
 30
0.0
 11
6917.261595298
 21
5168.2273438655
 31
0.0
  0
LINE
  5
242
330
1F
100
AcDbEntity
  8
0
  6
Continuous
 62
     8
370
    25
100
AcDbLine
 10
6917.261595298
 20
5168.2273438655
 30
0.0
 11
6937.261595298
 21
5168.2273438655
 31
0.0
  0
LINE
  5
243
330
1F
100
AcDbEntity
  8
0
  6
Continuous
 62
     8
370
    25
100
AcDbLine
 10
6903.5400876127
 20
5159.2273438655
 30
0.0
 11
6897.261595298
 21
5159.2273438655
 31
0.0
  0
LINE
  5
244
330
1F
100
AcDbEntity
  8
0
  6
Continuous
 62
     8
370
    25
100
AcDbLine
 10
6980.761595298
 20
5147.1949866767
 30
0.0
 11
7033.761595298
 21
5147.1949866767
 31
0.0
  0
LINE
  5
245
330
1F
100
AcDbEntity
  8
0
  6
Continuous
 62
     8
370
    25
100
AcDbLine
 10
6943.761595298
 20
5146.8273438655
 30
0.0
 11
6890.761595298
 21
5146.8273438655
 31
0.0
  0
LINE
  5
246
330
1F
100
AcDbEntity
  8
0
  6
Continuous
 62
     8
370
    25
100
AcDbLine
 10
6890.761595298
 20
5142.4523438655
 30
0.0
 11
6890.2645150761
 21
5142.4523438655
 31
0.0
  0
LINE
  5
247
330
1F
100
AcDbEntity
  8
0
  6
Continuous
 62
     8
370
    25
100
AcDbLine
 10
6917.261595298
 20
5117.6949866767
 30
0.0
 11
6890.761595298
 21
5117.6949866767
 31
0.0
  0
LINE
  5
248
330
1F
100
AcDbEntity
  8
0
  6
Continuous
 62
     8
370
    25
100
AcDbLine
 10
6917.261595298
 20
5122.0251136956
 30
0.0
 11
6893.261595298
 21
5122.0251136956
 31
0.0
  0
LINE
  5
249
330
1F
100
AcDbEntity
  8
0
  6
Continuous
 62
     8
370
    25
100
AcDbLine
 10
7033.761595298
 20
5117.6949866767
 30
0.0
 11
7007.261595298
 21
5117.6949866767
 31
0.0
  0
LINE
  5
24A
330
1F
100
AcDbEntity
  8
0
  6
Continuous
 62
     8
370
    25
100
AcDbLine
 10
7030.511595298
 20
5122.3787351755
 30
0.0
 11
7007.261595298
 21
5122.3787351755
 31
0.0
  0
LINE
  5
24B
330
1F
100
AcDbEntity
  8
0
  6
Continuous
 62
     8
370
    25
100
AcDbLine
 10
6895.761595298
 20
5126.3552407145
 30
0.0
 11
6917.261595298
 21
5126.3552407145
 31
0.0
  0
LINE
  5
24C
330
1F
100
AcDbEntity
  8
0
  6
Continuous
 62
     8
370
    25
100
AcDbLine
 10
7007.261595298
 20
5127.0624836743
 30
0.0
 11
7027.261595298
 21
5127.0624836743
 31
0.0
  0
LINE
  5
24D
330
1F
100
AcDbEntity
  8
0
  6
Continuous
 62
     8
370
    25
100
AcDbLine
 10
6929.8305223838
 20
5127.6949866767
 30
0.0
 11
6938.761595298
 21
5127.6949866767
 31
0.0
  0
LINE
  5
24E
330
1F
100
AcDbEntity
  8
0
  6
Continuous
 62
     8
370
    25
100
AcDbLine
 10
6987.261595298
 20
5127.6949866767
 30
0.0
 11
6997.0557146403
 21
5127.6949866767
 31
0.0
  0
LINE
  5
24F
330
1F
100
AcDbEntity
  8
0
  6
Continuous
 62
     8
370
    25
100
AcDbLine
 10
6969.261595298
 20
5193.6949866767
 30
0.0
 11
7045.261595298
 21
5193.6949866767
 31
0.0
  0
ARC
  5
250
330
1F
100
AcDbEntity
  8
0
  6
Continuous
 62
     7
370
    25
100
AcDbCircle
 10
6274.0187553361
 20
4622.871290283
 30
0.0
 40
23.00000000000005
100
AcDbArc
 50
85.39235432
 51
100.1489622932
  0
LWPOLYLINE
  5
251
330
1F
100
AcDbEntity
  8
0
  6
Continuous
 62
     7
370
    25
100
AcDbPolyline
 90
        3
 70
   128
 43
0.0
 10
6288.1425946126
 20
4641.0238979218
 10
6289.7435408038
 20
4639.6561382714
 10
6290.7226850303
 20
4638.6820060407
  0
ARC
  5
252
330
1F
100
AcDbEntity
  8
0
  6
Continuous
 62
     7
370
    25
100
AcDbCircle
 10
6274.0187553361
 20
4622.871290283
 30
0.0
 40
23.00000000000018
100
AcDbArc
 50
355.3923543179
 51
10.1489622917
  0
LWPOLYLINE
  5
253
330
1F
100
AcDbEntity
  8
0
  6
Continuous
 62
     7
370
    25
100
AcDbPolyline
 90
        3
 70
   128
 43
0.0
 10
6292.1713629742
 20
4608.7474510054
 10
6291.7578497102
 20
4608.2314634128
 10
6289.8294710948
 20
4606.1673605897
  0
ARC
  5
254
330
1F
100
AcDbEntity
  8
0
  6
Continuous
 62
     7
370
    25
100
AcDbCircle
 10
6274.0187553361
 20
4622.871290283
 30
0.0
 40
23.0000000000006
100
AcDbArc
 50
265.39235432
 51
280.1489622933
  0
LWPOLYLINE
  5
255
330
1F
100
AcDbEntity
  8
0
  6
Continuous
 62
     7
370
    25
100
AcDbPolyline
 90
        3
 70
   128
 43
0.0
 10
6259.8949160595
 20
4604.7186826441
 10
6258.2939698684
 20
4606.0864422945
 10
6257.3148256419
 20
4607.0605745252
  0
ARC
  5
256
330
1F
100
AcDbEntity
  8
0
  6
Continuous
 62
     7
370
    25
100
AcDbCircle
 10
6274.0187553361
 20
4622.871290283
 30
0.0
 40
23.00000000000004
100
AcDbArc
 50
175.3923543215
 51
190.1489622954
  0
LWPOLYLINE
  5
257
330
1F
100
AcDbEntity
  8
0
  6
Continuous
 62
     7
370
    25
100
AcDbPolyline
 90
        3
 70
   128
 43
0.0
 10
6255.8661476971
 20
4636.9951295594
 10
6256.279660962
 20
4637.5111171531
 10
6258.2080395785
 20
4639.5752199773
  0
LINE
  5
258
330
1F
100
AcDbEntity
  8
0
  6
Continuous
 62
     7
370
    25
100
AcDbLine
 10
6257.5409029553
 20
4608.7987266092
 30
0.0
 11
6265.2861945267
 21
4616.4014036908
 31
0.0
  0
LINE
  5
259
330
1F
100
AcDbEntity
  8
0
  6
Continuous
 62
     7
370
    25
100
AcDbLine
 10
6284.0511193717
 20
4621.6398201442
 30
0.0
 11
6288.0338981246
 21
4620.5328734306
 31
0.0
  0
LINE
  5
25A
330
1F
100
AcDbEntity
  8
0
  6
Continuous
 62
     7
370
    25
100
AcDbLine
 10
6268.2320303902
 20
4615.0892355461
 30
0.0
 11
6258.6905895867
 21
4605.7234818295
 31
0.0
  0
LINE
  5
25B
330
1F
100
AcDbEntity
  8
0
  6
Continuous
 62
     7
370
    25
100
AcDbLine
 10
6269.7894276647
 20
4645.2671139818
 30
0.0
 11
6273.1370532405
 21
4632.292560823
 31
0.0
  0
ARC
  5
25C
330
1F
100
AcDbEntity
  8
0
  6
Continuous
 62
     7
370
    25
100
AcDbCircle
 10
6274.0187553361
 20
4622.871290283
 30
0.0
 40
20.00000000000016
100
AcDbArc
 50
83.1924535737
 51
100.1663962844
  0
ARC
  5
25D
330
1F
100
AcDbEntity
  8
0
  6
Continuous
 62
     7
370
    25
100
AcDbCircle
 10
6274.0187553361
 20
4622.871290283
 30
0.0
 40
20.00000000000012
100
AcDbArc
 50
38.0096072162
 51
57.531709397
  0
ARC
  5
25E
330
1F
100
AcDbEntity
  8
0
  6
Continuous
 62
     7
370
    25
100
AcDbCircle
 10
6274.0187553361
 20
4622.871290283
 30
0.0
 40
20.00000000000006
100
AcDbArc
 50
353.1924535737
 51
12.3488630396
  0
LINE
  5
25F
330
1F
100
AcDbEntity
  8
0
  6
Continuous
 62
     7
370
    25
100
AcDbLine
 10
6258.7352662308
 20
4609.9710980065
 30
0.0
 11
6258.2606051377
 21
4610.5554183152
 31
0.0
  0
ARC
  5
260
330
1F
100
AcDbEntity
  8
0
  6
Continuous
 62
     7
370
    25
100
AcDbCircle
 10
6274.0187553361
 20
4622.871290283
 30
0.0
 40
19.99999999999995
100
AcDbArc
 50
173.1924535737
 51
192.3488630396
  0
ARC
  5
261
330
1F
100
AcDbEntity
  8
0
  6
Continuous
 62
     7
370
    25
100
AcDbCircle
 10
6274.0187553361
 20
4622.871290283
 30
0.0
 40
20.00000000000041
100
AcDbArc
 50
128.009607217
 51
147.5317093962
  0
ARC
  5
262
330
1F
100
AcDbEntity
  8
0
  6
Continuous
 62
     7
370
    25
100
AcDbCircle
 10
6274.0187553361
 20
4622.871290283
 30
0.0
 40
19.99999999999997
100
AcDbArc
 50
308.0096072167
 51
327.5317093966
  0
ARC
  5
263
330
1F
100
AcDbEntity
  8
0
  6
Continuous
 62
     7
370
    25
100
AcDbCircle
 10
6274.0187553361
 20
4622.871290283
 30
0.0
 40
20.00000000000016
100
AcDbArc
 50
263.1924535737
 51
282.3488630396
  0
LWPOLYLINE
  5
264
330
1F
100
AcDbEntity
  8
0
  6
Continuous
 62
     7
370
    25
100
AcDbPolyline
 90
        3
 70
   128
 43
0.0
 10
6263.282100034
 20
4605.9975167594
 10
6263.045829952
 20
4606.1501985568
 10
6260.8367843813
 20
4607.8301586185
  0
LWPOLYLINE
  5
265
330
1F
100
AcDbEntity
  8
0
  6
Continuous
 62
     7
370
    25
100
AcDbPolyline
 90
        3
 70
   128
 43
0.0
 10
6293.0187553361
 20
4622.871290283
 10
6292.8417883108
 20
4625.4584566158
 10
6292.5610686825
 20
4627.0164821682
  0
ARC
  5
266
330
1F
100
AcDbEntity
  8
0
  6
Continuous
 62
     7
370
    25
100
AcDbCircle
 10
6274.0187553361
 20
4622.871290283
 30
0.0
 40
18.99999999999945
100
AcDbArc
 50
36.8238521964
 51
58.7174644169
  0
ARC
  5
267
330
1F
100
AcDbEntity
  8
0
  6
Continuous
 62
     7
370
    25
100
AcDbCircle
 10
6274.0187553361
 20
4622.871290283
 30
0.0
 40
18.99999999999966
100
AcDbArc
 50
82.9398633938
 51
99.9395555753
  0
ARC
  5
268
330
1F
100
AcDbEntity
  8
0
  6
Continuous
 62
     7
370
    25
100
AcDbCircle
 10
6274.0187553361
 20
4622.871290283
 30
0.0
 40
19.00000000000038
100
AcDbArc
 50
126.8238521966
 51
148.7174644167
  0
ARC
  5
269
330
1F
100
AcDbEntity
  8
0
  6
Continuous
 62
     7
370
    25
100
AcDbCircle
 10
6274.0187553361
 20
4622.871290283
 30
0.0
 40
19.00000000000049
100
AcDbArc
 50
172.9398633938
 51
192.6014532195
  0
LWPOLYLINE
  5
26A
330
1F
100
AcDbEntity
  8
0
  6
Continuous
 62
     7
370
    25
100
AcDbPolyline
 90
        3
 70
   128
 43
0.0
 10
6258.8095986959
 20
4611.4835093624
 10
6259.2802408127
 20
4610.8806193408
 10
6259.4510348999
 20
4610.6736871868
  0
LWPOLYLINE
  5
26B
330
1F
100
AcDbEntity
  8
0
  6
Continuous
 62
     7
370
    25
100
AcDbPolyline
 90
        3
 70
   128
 43
0.0
 10
6261.5525530504
 20
4608.5327477988
 10
6263.0618292159
 20
4607.3488623158
 10
6264.1528411988
 20
4606.6335645113
  0
ARC
  5
26C
330
1F
100
AcDbEntity
  8
0
  6
Continuous
 62
     7
370
    25
100
AcDbCircle
 10
6274.0187553361
 20
4622.871290283
 30
0.0
 40
19.0000000000006
100
AcDbArc
 50
262.9398633938
 51
282.6014532195
  0
ARC
  5
26D
330
1F
100
AcDbEntity
  8
0
  6
Continuous
 62
     7
370
    25
100
AcDbCircle
 10
6274.0187553361
 20
4622.871290283
 30
0.0
 40
19.00000000000014
100
AcDbArc
 50
306.8238521994
 51
328.717464414
  0
LINE
  5
26E
330
1F
100
AcDbEntity
  8
0
  6
Continuous
 62
     7
370
    25
100
AcDbLine
 10
6292.8746915053
 20
4620.5359806285
 30
0.0
 11
6293.0187553361
 21
4622.871290283
 31
0.0
  0
LWPOLYLINE
  5
26F
330
1F
100
AcDbEntity
  8
0
  6
Continuous
 62
     7
370
    25
100
AcDbPolyline
 90
        3
 70
   128
 43
0.0
 10
6292.5187553361
 20
4622.871290283
 10
6292.3387146078
 20
4625.4459926507
 10
6292.0624112349
 20
4626.9549751147
  0
ARC
  5
270
330
1F
100
AcDbEntity
  8
0
  6
Continuous
 62
     7
370
    25
100
AcDbCircle
 10
6274.0187553361
 20
4622.871290283
 30
0.0
 40
18.4999999999999
100
AcDbArc
 50
36.2966215037
 51
59.2446951095
  0
ARC
  5
271
330
1F
100
AcDbEntity
  8
0
  6
Continuous
 62
     7
370
    25
100
AcDbCircle
 10
6274.0187553361
 20
4622.871290283
 30
0.0
 40
18.49999999999947
100
AcDbArc
 50
82.7888325633
 51
99.8169095842
  0
ARC
  5
272
330
1F
100
AcDbEntity
  8
0
  6
Continuous
 62
     7
370
    25
100
AcDbCircle
 10
6274.0187553361
 20
4622.871290283
 30
0.0
 40
18.50000000000034
100
AcDbArc
 50
126.2966215013
 51
149.244695112
  0
ARC
  5
273
330
1F
100
AcDbEntity
  8
0
  6
Continuous
 62
     7
370
    25
100
AcDbCircle
 10
6274.0187553361
 20
4622.871290283
 30
0.0
 40
18.50000000000006
100
AcDbArc
 50
172.7888325633
 51
192.7524840499
  0
LINE
  5
274
330
1F
100
AcDbEntity
  8
0
  6
Continuous
 62
     7
370
    25
100
AcDbLine
 10
6259.1084363317
 20
4611.9199256563
 30
0.0
 11
6259.8090056821
 21
4611.0250666328
 31
0.0
  0
LWPOLYLINE
  5
275
330
1F
100
AcDbEntity
  8
0
  6
Continuous
 62
     7
370
    25
100
AcDbPolyline
 90
        3
 70
   128
 43
0.0
 10
6261.9105238326
 20
4608.8841272448
 10
6262.6290180426
 20
4608.2930913412
 10
6264.558361229
 20
4606.9731475192
  0
ARC
  5
276
330
1F
100
AcDbEntity
  8
0
  6
Continuous
 62
     7
370
    25
100
AcDbCircle
 10
6274.0187553361
 20
4622.871290283
 30
0.0
 40
18.50000000000119
100
AcDbArc
 50
262.7888325633
 51
282.7524840499
  0
ARC
  5
277
330
1F
100
AcDbEntity
  8
0
  6
Continuous
 62
     7
370
    25
100
AcDbCircle
 10
6274.0187553361
 20
4622.871290283
 30
0.0
 40
18.50000000000044
100
AcDbArc
 50
306.2966215027
 51
329.2446951105
  0
LINE
  5
278
330
1F
100
AcDbEntity
  8
0
  6
Continuous
 62
     7
370
    25
100
AcDbLine
 10
6292.3724250342
 20
4620.549048131
 30
0.0
 11
6292.5187553361
 21
4622.871290283
 31
0.0
  0
LINE
  5
279
330
1F
100
AcDbEntity
  8
0
  6
Continuous
 62
     7
370
    25
100
AcDbLine
 10
6274.7687553361
 20
4619.2530648017
 30
0.0
 11
6274.7687553361
 21
4626.4895157642
 31
0.0
  0
LINE
  5
27A
330
1F
100
AcDbEntity
  8
0
  6
Continuous
 62
     7
370
    25
100
AcDbLine
 10
6273.2687553361
 20
4626.4895157642
 30
0.0
 11
6273.2687553361
 21
4619.2530648017
 31
0.0
  0
CIRCLE
  5
27B
330
1F
100
AcDbEntity
  8
0
  6
Continuous
 62
     7
370
    25
100
AcDbCircle
 10
6274.0187553361
 20
4622.871290283
 30
0.0
 40
35.00000000000034
  0
CIRCLE
  5
27C
330
1F
100
AcDbEntity
  8
0
  6
Continuous
 62
     7
370
    25
100
AcDbCircle
 10
6274.0187553361
 20
4622.871290283
 30
0.0
 40
32.99999999999992
  0
CIRCLE
  5
27D
330
1F
100
AcDbEntity
  8
0
  6
Continuous
 62
     7
370
    25
100
AcDbCircle
 10
6274.0187553361
 20
4622.871290283
 30
0.0
 40
28.73205080756809
  0
CIRCLE
  5
27E
330
1F
100
AcDbEntity
  8
0
  6
Continuous
 62
     7
370
    25
100
AcDbCircle
 10
6274.0187553361
 20
4622.871290283
 30
0.0
 40
26.99999999999971
  0
CIRCLE
  5
27F
330
1F
100
AcDbEntity
  8
0
  6
Continuous
 62
     7
370
    25
100
AcDbCircle
 10
6274.0187553361
 20
4622.871290283
 30
0.0
 40
25.26794919243038
  0
CIRCLE
  5
280
330
1F
100
AcDbEntity
  8
0
  6
Continuous
 62
     7
370
    25
100
AcDbCircle
 10
6274.0187553361
 20
4622.871290283
 30
0.0
 40
7.000000000000396
  0
ARC
  5
281
330
1F
100
AcDbEntity
  8
0
  6
Continuous
 62
     7
370
    25
100
AcDbCircle
 10
6295.5126158394
 20
4622.4200538717
 30
0.0
 40
1.999999999999899
100
AcDbArc
 50
266.5587053852
 51
2.7706583067
  0
LINE
  5
282
330
1F
100
AcDbEntity
  8
0
  6
Continuous
 62
     7
370
    25
100
AcDbLine
 10
6297.510277885
 20
4622.516730403
 30
0.0
 11
6297.3662603196
 21
4625.4926173175
 31
0.0
  0
ARC
  5
283
330
1F
100
AcDbEntity
  8
0
  6
Continuous
 62
     7
370
    25
100
AcDbCircle
 10
6295.368598274
 20
4625.3959407862
 30
0.0
 40
2.000000000000937
100
AcDbArc
 50
2.7706583067
 51
98.982611228
  0
ARC
  5
284
330
1F
100
AcDbEntity
  8
0
  6
Continuous
 62
     7
370
    25
100
AcDbCircle
 10
6282.3471128326
 20
4707.7721628748
 30
0.0
 40
81.39904704908335
100
AcDbArc
 50
272.7706583066
 51
278.982611228
  0
ARC
  5
285
330
1F
100
AcDbEntity
  8
0
  6
Continuous
 62
     7
370
    25
100
AcDbCircle
 10
6286.4268163889
 20
4623.4717763888
 30
0.0
 40
2.999999999999651
100
AcDbArc
 50
92.7706583066
 51
272.7706583066
  0
ARC
  5
286
330
1F
100
AcDbEntity
  8
0
  6
Continuous
 62
     7
370
    25
100
AcDbCircle
 10
6290.5065199452
 20
4539.1713899028
 30
0.0
 40
81.39904704908547
100
AcDbArc
 50
86.5587053852
 51
92.7706583066
  0
ARC
  5
287
330
1F
100
AcDbEntity
  8
0
  6
Continuous
 62
     7
370
    25
100
AcDbCircle
 10
6261.6106942833
 20
4622.2708041771
 30
0.0
 40
2.999999999999694
100
AcDbArc
 50
272.7706583066
 51
92.7706583066
  0
ARC
  5
288
330
1F
100
AcDbEntity
  8
0
  6
Continuous
 62
     7
370
    25
100
AcDbCircle
 10
6257.530990727
 20
4706.5711906631
 30
0.0
 40
81.39904704908491
100
AcDbArc
 50
266.5587053853
 51
272.7706583066
  0
ARC
  5
289
330
1F
100
AcDbEntity
  8
0
  6
Continuous
 62
     7
370
    25
100
AcDbCircle
 10
6252.5248948328
 20
4623.3225266943
 30
0.0
 40
2.000000000000806
100
AcDbArc
 50
86.5587053852
 51
182.7706583066
  0
LINE
  5
28A
330
1F
100
AcDbEntity
  8
0
  6
Continuous
 62
     7
370
    25
100
AcDbLine
 10
6250.5272327872
 20
4623.225850163
 30
0.0
 11
6250.6712503526
 21
4620.2499632485
 31
0.0
  0
ARC
  5
28B
330
1F
100
AcDbEntity
  8
0
  6
Continuous
 62
     7
370
    25
100
AcDbCircle
 10
6252.6689123982
 20
4620.3466397798
 30
0.0
 40
2.000000000000373
100
AcDbArc
 50
182.7706583066
 51
278.982611228
  0
ARC
  5
28C
330
1F
100
AcDbEntity
  8
0
  6
Continuous
 62
     7
370
    25
100
AcDbCircle
 10
6265.6903978396
 20
4537.9704176911
 30
0.0
 40
81.3990470490846
100
AcDbArc
 50
92.7706583066
 51
98.982611228
  0
ELLIPSE
  5
28D
330
1F
100
AcDbEntity
  8
0
  6
Continuous
 62
     7
370
    25
100
AcDbEllipse
 10
6261.7391466416
 20
4634.0172236613
 30
0.0
 11
5.302558299896192
 21
-4.81301668609649
 31
0.0
210
0.0
220
0.0
230
1.0
 40
0.5263157895
 41
0.0
 42
6.283185307179586
  0
ARC
  5
28E
330
1F
100
AcDbEntity
  8
0
  6
Continuous
 62
     7
370
    25
100
AcDbCircle
 10
6274.4699917474
 20
4644.3651507863
 30
0.0
 40
2.000000000000373
100
AcDbArc
 50
356.5587053853
 51
92.7706583066
  0
LINE
  5
28F
330
1F
100
AcDbEntity
  8
0
  6
Continuous
 62
     7
370
    25
100
AcDbLine
 10
6274.3733152161
 20
4646.3628128319
 30
0.0
 11
6271.3974283016
 21
4646.2187952664
 31
0.0
  0
ARC
  5
290
330
1F
100
AcDbEntity
  8
0
  6
Continuous
 62
     7
370
    25
100
AcDbCircle
 10
6271.4941048329
 20
4644.2211332209
 30
0.0
 40
2.000000000001079
100
AcDbArc
 50
92.7706583067
 51
188.982611228
  0
ARC
  5
291
330
1F
100
AcDbEntity
  8
0
  6
Continuous
 62
     7
370
    25
100
AcDbCircle
 10
6189.1178827443
 20
4631.1996477795
 30
0.0
 40
81.3990470490837
100
AcDbArc
 50
2.7706583066
 51
8.982611228
  0
ARC
  5
292
330
1F
100
AcDbEntity
  8
0
  6
Continuous
 62
     7
370
    25
100
AcDbCircle
 10
6273.4182692302
 20
4635.2793513358
 30
0.0
 40
2.999999999999694
100
AcDbArc
 50
182.7706583066
 51
2.7706583066
  0
ARC
  5
293
330
1F
100
AcDbEntity
  8
0
  6
Continuous
 62
     7
370
    25
100
AcDbCircle
 10
6357.7186557162
 20
4639.3590548921
 30
0.0
 40
81.39904704908456
100
AcDbArc
 50
176.5587053853
 51
182.7706583066
  0
ARC
  5
294
330
1F
100
AcDbEntity
  8
0
  6
Continuous
 62
     7
370
    25
100
AcDbCircle
 10
6274.619241442
 20
4610.4632292301
 30
0.0
 40
2.999999999999694
100
AcDbArc
 50
2.7706583066
 51
182.7706583066
  0
ARC
  5
295
330
1F
100
AcDbEntity
  8
0
  6
Continuous
 62
     7
370
    25
100
AcDbCircle
 10
6190.318854956
 20
4606.3835256739
 30
0.0
 40
81.39904704908456
100
AcDbArc
 50
356.5587053853
 51
2.7706583066
  0
ARC
  5
296
330
1F
100
AcDbEntity
  8
0
  6
Continuous
 62
     7
370
    25
100
AcDbCircle
 10
6273.5675189248
 20
4601.3774297796
 30
0.0
 40
2.000000000000806
100
AcDbArc
 50
176.5587053852
 51
272.7706583066
  0
LINE
  5
297
330
1F
100
AcDbEntity
  8
0
  6
Continuous
 62
     7
370
    25
100
AcDbLine
 10
6273.6641954561
 20
4599.3797677341
 30
0.0
 11
6276.6400823706
 21
4599.5237852995
 31
0.0
  0
ARC
  5
298
330
1F
100
AcDbEntity
  8
0
  6
Continuous
 62
     7
370
    25
100
AcDbCircle
 10
6276.5434058393
 20
4601.5214473451
 30
0.0
 40
2.000000000000329
100
AcDbArc
 50
272.7706583066
 51
8.982611228
  0
ARC
  5
299
330
1F
100
AcDbEntity
  8
0
  6
Continuous
 62
     7
370
    25
100
AcDbCircle
 10
6358.9196279279
 20
4614.5429327864
 30
0.0
 40
81.3990470490837
100
AcDbArc
 50
182.7706583066
 51
188.982611228
  0
ELLIPSE
  5
29A
330
1F
100
AcDbEntity
  8
0
  6
Continuous
 62
     7
370
    25
100
AcDbEllipse
 10
6285.1646887144
 20
4635.1508989775
 30
0.0
 11
-4.813016686097399
 21
-5.302558299896192
 31
0.0
210
0.0
220
0.0
230
1.0
 40
0.5263157895
 41
0.0
 42
6.283185307179586
  0
ELLIPSE
  5
29B
330
1F
100
AcDbEntity
  8
0
  6
Continuous
 62
     7
370
    25
100
AcDbEllipse
 10
6286.2983640306
 20
4611.7253569046
 30
0.0
 11
-5.302558299896192
 21
4.81301668609649
 31
0.0
210
0.0
220
0.0
230
1.0
 40
0.5263157895
 41
0.0
 42
6.283185307179586
  0
ELLIPSE
  5
29C
330
1F
100
AcDbEntity
  8
0
  6
Continuous
 62
     7
370
    25
100
AcDbEllipse
 10
6262.8728219578
 20
4610.5916815885
 30
0.0
 11
4.813016686096489
 21
5.302558299895281
 31
0.0
210
0.0
220
0.0
230
1.0
 40
0.5263157895
 41
0.0
 42
6.283185307179586
  0
LINE
  5
29D
330
1F
100
AcDbEntity
  8
0
  6
Continuous
 62
     7
370
    25
100
AcDbLine
 10
6044.0187553361
 20
4864.8718113981
 30
0.0
 11
6237.5187553361
 21
4864.8718113981
 31
0.0
  0
ARC
  5
29E
330
1F
100
AcDbEntity
  8
0
  6
Continuous
 62
     7
370
    25
100
AcDbCircle
 10
6044.0187553361
 20
4854.8718113981
 30
0.0
 40
10.00000000000091
100
AcDbArc
 50
90.0
 51
180.0
  0
LINE
  5
29F
330
1F
100
AcDbEntity
  8
0
  6
Continuous
 62
     7
370
    25
100
AcDbLine
 10
6034.0187553361
 20
4652.8718113981
 30
0.0
 11
6034.0187553361
 21
4854.8718113981
 31
0.0
  0
ARC
  5
2A0
330
1F
100
AcDbEntity
  8
0
  6
Continuous
 62
     7
370
    25
100
AcDbCircle
 10
6274.0187553361
 20
4652.8718113981
 30
0.0
 40
240.0
100
AcDbArc
 50
180.0
 51
0.0
  0
LINE
  5
2A1
330
1F
100
AcDbEntity
  8
0
  6
Continuous
 62
     7
370
    25
100
AcDbLine
 10
6514.0187553361
 20
4854.8718113981
 30
0.0
 11
6514.0187553361
 21
4652.8718113981
 31
0.0
  0
ARC
  5
2A2
330
1F
100
AcDbEntity
  8
0
  6
Continuous
 62
     7
370
    25
100
AcDbCircle
 10
6504.0187553361
 20
4854.8718113981
 30
0.0
 40
10.0
100
AcDbArc
 50
0.0
 51
90.0
  0
LINE
  5
2A3
330
1F
100
AcDbEntity
  8
0
  6
Continuous
 62
     7
370
    25
100
AcDbLine
 10
6310.5187553361
 20
4864.8718113981
 30
0.0
 11
6504.0187553361
 21
4864.8718113981
 31
0.0
  0
ARC
  5
2A4
330
1F
100
AcDbEntity
  8
0
  6
Continuous
 62
     7
370
    25
100
AcDbCircle
 10
6274.0187553361
 20
4843.6515733029
 30
0.0
 40
42.22023809523785
100
AcDbArc
 50
30.1727080169
 51
149.8272919831
  0
LINE
  5
2A5
330
1F
100
AcDbEntity
  8
0
  6
Continuous
 62
     7
370
    25
100
AcDbLine
 10
6524.0187553361
 20
4897.8718113981
 30
0.0
 11
6024.0187553361
 21
4897.8718113981
 31
0.0
  0
ARC
  5
2A6
330
1F
100
AcDbEntity
  8
0
  6
Continuous
 62
     7
370
    25
100
AcDbCircle
 10
6274.0187553361
 20
4652.8718113981
 30
0.0
 40
250.0
100
AcDbArc
 50
180.0
 51
0.0
  0
LINE
  5
2A7
330
1F
100
AcDbEntity
  8
0
  6
Continuous
 62
     7
370
    25
100
AcDbLine
 10
6524.0187553361
 20
4652.8718113981
 30
0.0
 11
6524.0187553361
 21
4897.8718113981
 31
0.0
  0
LINE
  5
2A8
330
1F
100
AcDbEntity
  8
0
  6
Continuous
 62
     7
370
    25
100
AcDbLine
 10
6024.0187553361
 20
4897.8718113981
 30
0.0
 11
6024.0187553361
 21
4652.8718113981
 31
0.0
  0
LINE
  5
2A9
330
1F
100
AcDbEntity
  8
0
  6
Continuous
 62
     7
370
    25
100
AcDbLine
 10
6310.5187553361
 20
4864.8718113981
 30
0.0
 11
6307.4929552515
 21
4863.1126826797
 31
0.0
  0
ARC
  5
2AA
330
1F
100
AcDbEntity
  8
0
  6
Continuous
 62
     7
370
    25
100
AcDbCircle
 10
6274.0187553361
 20
4843.6515733029
 30
0.0
 40
38.72023809523805
100
AcDbArc
 50
30.1727080169
 51
149.8272919831
  0
LINE
  5
2AB
330
1F
100
AcDbEntity
  8
0
  6
Continuous
 62
     7
370
    25
100
AcDbLine
 10
6237.5187553361
 20
4864.8718113981
 30
0.0
 11
6240.5445554207
 21
4863.1126826797
 31
0.0
  0
ARC
  5
2AC
330
1F
100
AcDbEntity
  8
0
  6
Continuous
 62
     7
370
    25
100
AcDbCircle
 10
6237.5187553361
 20
4864.8718113981
 30
0.0
 40
3.5
100
AcDbArc
 50
270.0
 51
329.8272919831
  0
LINE
  5
2AD
330
1F
100
AcDbEntity
  8
0
  6
Continuous
 62
     7
370
    25
100
AcDbLine
 10
6237.5187553361
 20
4864.8718113981
 30
0.0
 11
6237.5187553361
 21
4861.3718113981
 31
0.0
  0
LINE
  5
2AE
330
1F
100
AcDbEntity
  8
0
  6
Continuous
 62
     7
370
    25
100
AcDbLine
 10
6310.5187553361
 20
4864.8718113981
 30
0.0
 11
6310.5187553361
 21
4861.3718113981
 31
0.0
  0
ARC
  5
2AF
330
1F
100
AcDbEntity
  8
0
  6
Continuous
 62
     7
370
    25
100
AcDbCircle
 10
6310.5187553361
 20
4864.8718113981
 30
0.0
 40
3.5
100
AcDbArc
 50
210.1727080169
 51
270.0
  0
LINE
  5
2B0
330
1F
100
AcDbEntity
  8
0
  6
Continuous
 62
     7
370
    25
100
AcDbLine
 10
6504.0187553361
 20
4861.3718113981
 30
0.0
 11
6310.5187553361
 21
4861.3718113981
 31
0.0
  0
LINE
  5
2B1
330
1F
100
AcDbEntity
  8
0
  6
Continuous
 62
     7
370
    25
100
AcDbLine
 10
6504.0187553361
 20
4861.3718113981
 30
0.0
 11
6504.0187553361
 21
4864.8718113981
 31
0.0
  0
ARC
  5
2B2
330
1F
100
AcDbEntity
  8
0
  6
Continuous
 62
     7
370
    25
100
AcDbCircle
 10
6044.0187553361
 20
4854.8718113981
 30
0.0
 40
6.500000000000909
100
AcDbArc
 50
90.0
 51
180.0
  0
LINE
  5
2B3
330
1F
100
AcDbEntity
  8
0
  6
Continuous
 62
     7
370
    25
100
AcDbLine
 10
6037.5187553361
 20
4854.8718113981
 30
0.0
 11
6034.0187553361
 21
4854.8718113981
 31
0.0
  0
LINE
  5
2B4
330
1F
100
AcDbEntity
  8
0
  6
Continuous
 62
     7
370
    25
100
AcDbLine
 10
6044.0187553361
 20
4864.8718113981
 30
0.0
 11
6044.0187553361
 21
4861.3718113981
 31
0.0
  0
ARC
  5
2B5
330
1F
100
AcDbEntity
  8
0
  6
Continuous
 62
     7
370
    25
100
AcDbCircle
 10
6504.0187553361
 20
4854.8718113981
 30
0.0
 40
6.5
100
AcDbArc
 50
0.0
 51
90.0
  0
LINE
  5
2B6
330
1F
100
AcDbEntity
  8
0
  6
Continuous
 62
     7
370
    25
100
AcDbLine
 10
6510.5187553361
 20
4854.8718113981
 30
0.0
 11
6514.0187553361
 21
4854.8718113981
 31
0.0
  0
LINE
  5
2B7
330
1F
100
AcDbEntity
  8
0
  6
Continuous
 62
     7
370
    25
100
AcDbLine
 10
6237.5187553361
 20
4861.3718113981
 30
0.0
 11
6044.0187553361
 21
4861.3718113981
 31
0.0
  0
LINE
  5
2B8
330
1F
100
AcDbEntity
  8
0
  6
Continuous
 62
     7
370
    25
100
AcDbLine
 10
6510.5187553361
 20
4652.8718113981
 30
0.0
 11
6510.5187553361
 21
4854.8718113981
 31
0.0
  0
LINE
  5
2B9
330
1F
100
AcDbEntity
  8
0
  6
Continuous
 62
     7
370
    25
100
AcDbLine
 10
6510.5187553361
 20
4652.8718113981
 30
0.0
 11
6514.0187553361
 21
4652.8718113981
 31
0.0
  0
LINE
  5
2BA
330
1F
100
AcDbEntity
  8
0
  6
Continuous
 62
     7
370
    25
100
AcDbLine
 10
6037.5187553361
 20
4854.8718113981
 30
0.0
 11
6037.5187553361
 21
4652.8718113981
 31
0.0
  0
LINE
  5
2BB
330
1F
100
AcDbEntity
  8
0
  6
Continuous
 62
     7
370
    25
100
AcDbLine
 10
6037.5187553361
 20
4652.8718113981
 30
0.0
 11
6034.0187553361
 21
4652.8718113981
 31
0.0
  0
ARC
  5
2BC
330
1F
100
AcDbEntity
  8
0
  6
Continuous
 62
     7
370
    25
100
AcDbCircle
 10
6274.0187553361
 20
4652.8718113981
 30
0.0
 40
236.5
100
AcDbArc
 50
180.0
 51
0.0
  0
CIRCLE
  5
2BD
330
1F
100
AcDbEntity
  8
0
  6
Continuous
 62
     7
370
    25
100
AcDbCircle
 10
6274.0187553361
 20
4622.871290283
 30
0.0
 40
182.643732588147
  0
CIRCLE
  5
2BE
330
1F
100
AcDbEntity
  8
0
  6
Continuous
 62
     7
370
    25
100
AcDbCircle
 10
6274.0187553361
 20
4622.871290283
 30
0.0
 40
177.8866060166956
  0
CIRCLE
  5
2BF
330
1F
100
AcDbEntity
  8
0
  6
Continuous
 62
     7
370
    25
100
AcDbCircle
 10
6274.0187553361
 20
4622.871290283
 30
0.0
 40
37.73242825808484
  0
CIRCLE
  5
2C0
330
1F
100
AcDbEntity
  8
0
  6
Continuous
 62
     7
370
    25
100
AcDbCircle
 10
6274.0215261905
 20
4622.8711692127
 30
0.0
 40
37.49987903208209
  0
LINE
  5
2C1
330
1F
100
AcDbEntity
  8
0
  6
Continuous
 62
     8
370
    25
100
AcDbLine
 10
6257.6048866946
 20
4606.7596511292
 30
0.0
 11
6267.2287364546
 21
4616.2062964015
 31
0.0
  0
LINE
  5
2C2
330
1F
100
AcDbEntity
  8
0
  6
Continuous
 62
     8
370
    25
100
AcDbLine
 10
6270.2847447164
 20
4637.3433745064
 30
0.0
 11
6271.3868852404
 21
4633.0717555653
 31
0.0
  0
ENDSEC
  0
SECTION
  2
OBJECTS
  0
DICTIONARY
  5
C
330
0
100
AcDbDictionary
281
     1
  3
ACAD_GROUP
350
D
  3
ACAD_LAYOUT
350
1A
  3
ACAD_MLINESTYLE
350
17
  3
ACAD_PLOTSETTINGS
350
19
  3
ACAD_PLOTSTYLENAME
350
E
  3
ACAD_SCALELIST
350
47
  3
DWGPROPS
350
2C3
  0
DICTIONARY
  5
D
102
{ACAD_REACTORS
330
C
102
}
330
C
100
AcDbDictionary
281
     1
  0
DICTIONARY
  5
1A
102
{ACAD_REACTORS
330
C
102
}
330
C
100
AcDbDictionary
281
     1
  3
Layout1
350
1E
  3
Layout2
350
26
  3
Model
350
22
  0
DICTIONARY
  5
17
102
{ACAD_REACTORS
330
C
102
}
330
C
100
AcDbDictionary
281
     1
  3
Standard
350
18
  0
DICTIONARY
  5
19
102
{ACAD_REACTORS
330
C
102
}
330
C
100
AcDbDictionary
281
     1
  0
ACDBDICTIONARYWDFLT
  5
E
102
{ACAD_REACTORS
330
C
102
}
330
C
100
AcDbDictionary
281
     1
  3
Normal
350
F
100
AcDbDictionaryWithDefault
340
F
  0
DICTIONARY
  5
47
102
{ACAD_REACTORS
330
C
102
}
330
C
100
AcDbDictionary
281
     1
  3
A0
350
48
  3
A1
350
49
  3
A2
350
4A
  3
A3
350
4B
  3
A4
350
4C
  3
A5
350
4D
  3
A6
350
4E
  3
A7
350
4F
  3
A8
350
50
  3
A9
350
51
  3
B0
350
52
  3
B1
350
53
  3
B2
350
54
  3
B3
350
55
  3
B4
350
56
  3
B5
350
57
  3
B6
350
58
  3
B7
350
59
  3
B8
350
5A
  3
B9
350
5B
  3
C0
350
5C
  3
C1
350
5D
  3
C2
350
5E
  3
C3
350
5F
  3
C4
350
60
  3
C5
350
61
  3
C6
350
62
  3
C7
350
63
  3
C8
350
64
  3
C9
350
65
  3
D0
350
66
  3
D1
350
67
  3
D2
350
68
  0
XRECORD
  5
2C3
102
{ACAD_REACTORS
330
C
102
}
330
C
100
AcDbXrecord
280
     1
  1
DWGPROPS COOKIE
  2

  3

  4

  6

  7

  8
radek.stransky
  9

300
=
301
=
302
=
303
=
304
=
305
=
306
=
307
=
308
=
309
=
 40
0.0
 41
2460034.382898623
 42
2460034.382899178
  1

 90
        0
  0
LAYOUT
  5
1E
102
{ACAD_REACTORS
330
1A
102
}
330
1A
100
AcDbPlotSettings
  1

  2
none_device
  4

  6

 40
0.0
 41
0.0
 42
0.0
 43
0.0
 44
0.0
 45
0.0
 46
0.0
 47
0.0
 48
0.0
 49
0.0
140
0.0
141
0.0
142
1.0
143
1.0
 70
   688
 72
     1
 73
     0
 74
     5
  7

 75
    16
147
1.0
148
0.0
149
0.0
100
AcDbLayout
  1
Layout1
 70
     1
 71
     1
 10
0.0
 20
0.0
 11
420.0
 21
297.0
 12
0.0
 22
0.0
 32
0.0
 14
1.0000000000E+20
 24
1.0000000000E+20
 34
1.0000000000E+20
 15
-1.0000000000E+20
 25
-1.0000000000E+20
 35
-1.0000000000E+20
146
0.0
 13
0.0
 23
0.0
 33
0.0
 16
1.0
 26
0.0
 36
0.0
 17
0.0
 27
1.0
 37
0.0
 76
     0
330
1B
  0
LAYOUT
  5
26
102
{ACAD_REACTORS
330
1A
102
}
330
1A
100
AcDbPlotSettings
  1

  2
none_device
  4

  6

 40
0.0
 41
0.0
 42
0.0
 43
0.0
 44
0.0
 45
0.0
 46
0.0
 47
0.0
 48
0.0
 49
0.0
140
0.0
141
0.0
142
1.0
143
1.0
 70
   688
 72
     1
 73
     0
 74
     5
  7

 75
    16
147
1.0
148
0.0
149
0.0
100
AcDbLayout
  1
Layout2
 70
     1
 71
     2
 10
0.0
 20
0.0
 11
0.0
 21
0.0
 12
0.0
 22
0.0
 32
0.0
 14
0.0
 24
0.0
 34
0.0
 15
0.0
 25
0.0
 35
0.0
146
0.0
 13
0.0
 23
0.0
 33
0.0
 16
1.0
 26
0.0
 36
0.0
 17
0.0
 27
1.0
 37
0.0
 76
     0
330
23
  0
LAYOUT
  5
22
102
{ACAD_REACTORS
330
1A
102
}
330
1A
100
AcDbPlotSettings
  1

  2
none_device
  4
Letter_(8.50_x_11.00_Inches)
  6

 40
6.35
 41
6.35
 42
6.35000508
 43
6.35000508
 44
215.9
 45
279.4
 46
0.0
 47
0.0
 48
0.0
 49
0.0
140
0.0
141
0.0
142
1.0
143
1.0
 70
  1712
 72
     1
 73
     0
 74
     0
  7

 75
     0
147
1.0
148
0.0
149
0.0
100
AcDbLayout
  1
Model
 70
     1
 71
     0
 10
0.0
 20
0.0
 11
20000.0
 21
10000.0
 12
0.0
 22
0.0
 32
0.0
 14
0.0
 24
0.0
 34
0.0
 15
20000.0
 25
10000.0
 35
0.0
146
0.0
 13
0.0
 23
0.0
 33
0.0
 16
1.0
 26
0.0
 36
0.0
 17
0.0
 27
1.0
 37
0.0
 76
     0
330
1F
331
29
  0
MLINESTYLE
  5
18
102
{ACAD_REACTORS
330
17
102
}
330
17
100
AcDbMlineStyle
  2
Standard
 70
     0
  3

 62
   256
 51
90.0
 52
90.0
 71
     2
 49
0.5
 62
   256
  6
BYLAYER
 49
-0.5
 62
   256
  6
BYLAYER
  0
ACDBPLACEHOLDER
  5
F
102
{ACAD_REACTORS
330
E
102
}
330
E
  0
SCALE
  5
48
102
{ACAD_REACTORS
330
47
102
}
330
47
100
AcDbScale
 70
     0
300
1:1
140
1.0
141
1.0
290
     1
  0
SCALE
  5
49
102
{ACAD_REACTORS
330
47
102
}
330
47
100
AcDbScale
 70
     0
300
1:2
140
1.0
141
2.0
290
     0
  0
SCALE
  5
4A
102
{ACAD_REACTORS
330
47
102
}
330
47
100
AcDbScale
 70
     0
300
1:4
140
1.0
141
4.0
290
     0
  0
SCALE
  5
4B
102
{ACAD_REACTORS
330
47
102
}
330
47
100
AcDbScale
 70
     0
300
1:5
140
1.0
141
5.0
290
     0
  0
SCALE
  5
4C
102
{ACAD_REACTORS
330
47
102
}
330
47
100
AcDbScale
 70
     0
300
1:8
140
1.0
141
8.0
290
     0
  0
SCALE
  5
4D
102
{ACAD_REACTORS
330
47
102
}
330
47
100
AcDbScale
 70
     0
300
1:10
140
1.0
141
10.0
290
     0
  0
SCALE
  5
4E
102
{ACAD_REACTORS
330
47
102
}
330
47
100
AcDbScale
 70
     0
300
1:16
140
1.0
141
16.0
290
     0
  0
SCALE
  5
4F
102
{ACAD_REACTORS
330
47
102
}
330
47
100
AcDbScale
 70
     0
300
1:20
140
1.0
141
20.0
290
     0
  0
SCALE
  5
50
102
{ACAD_REACTORS
330
47
102
}
330
47
100
AcDbScale
 70
     0
300
1:30
140
1.0
141
30.0
290
     0
  0
SCALE
  5
51
102
{ACAD_REACTORS
330
47
102
}
330
47
100
AcDbScale
 70
     0
300
1:40
140
1.0
141
40.0
290
     0
  0
SCALE
  5
52
102
{ACAD_REACTORS
330
47
102
}
330
47
100
AcDbScale
 70
     0
300
1:50
140
1.0
141
50.0
290
     0
  0
SCALE
  5
53
102
{ACAD_REACTORS
330
47
102
}
330
47
100
AcDbScale
 70
     0
300
1:100
140
1.0
141
100.0
290
     0
  0
SCALE
  5
54
102
{ACAD_REACTORS
330
47
102
}
330
47
100
AcDbScale
 70
     0
300
2:1
140
2.0
141
1.0
290
     0
  0
SCALE
  5
55
102
{ACAD_REACTORS
330
47
102
}
330
47
100
AcDbScale
 70
     0
300
4:1
140
4.0
141
1.0
290
     0
  0
SCALE
  5
56
102
{ACAD_REACTORS
330
47
102
}
330
47
100
AcDbScale
 70
     0
300
8:1
140
8.0
141
1.0
290
     0
  0
SCALE
  5
57
102
{ACAD_REACTORS
330
47
102
}
330
47
100
AcDbScale
 70
     0
300
10:1
140
10.0
141
1.0
290
     0
  0
SCALE
  5
58
102
{ACAD_REACTORS
330
47
102
}
330
47
100
AcDbScale
 70
     0
300
100:1
140
100.0
141
1.0
290
     0
  0
SCALE
  5
59
102
{ACAD_REACTORS
330
47
102
}
330
47
100
AcDbScale
 70
     0
300
1/128" = 1'-0"
140
0.0078125
141
12.0
290
     0
  0
SCALE
  5
5A
102
{ACAD_REACTORS
330
47
102
}
330
47
100
AcDbScale
 70
     0
300
1/64" = 1'-0"
140
0.015625
141
12.0
290
     0
  0
SCALE
  5
5B
102
{ACAD_REACTORS
330
47
102
}
330
47
100
AcDbScale
 70
     0
300
1/32" = 1'-0"
140
0.03125
141
12.0
290
     0
  0
SCALE
  5
5C
102
{ACAD_REACTORS
330
47
102
}
330
47
100
AcDbScale
 70
     0
300
1/16" = 1'-0"
140
0.0625
141
12.0
290
     0
  0
SCALE
  5
5D
102
{ACAD_REACTORS
330
47
102
}
330
47
100
AcDbScale
 70
     0
300
3/32" = 1'-0"
140
0.09375
141
12.0
290
     0
  0
SCALE
  5
5E
102
{ACAD_REACTORS
330
47
102
}
330
47
100
AcDbScale
 70
     0
300
1/8" = 1'-0"
140
0.125
141
12.0
290
     0
  0
SCALE
  5
5F
102
{ACAD_REACTORS
330
47
102
}
330
47
100
AcDbScale
 70
     0
300
3/16" = 1'-0"
140
0.1875
141
12.0
290
     0
  0
SCALE
  5
60
102
{ACAD_REACTORS
330
47
102
}
330
47
100
AcDbScale
 70
     0
300
1/4" = 1'-0"
140
0.25
141
12.0
290
     0
  0
SCALE
  5
61
102
{ACAD_REACTORS
330
47
102
}
330
47
100
AcDbScale
 70
     0
300
3/8" = 1'-0"
140
0.375
141
12.0
290
     0
  0
SCALE
  5
62
102
{ACAD_REACTORS
330
47
102
}
330
47
100
AcDbScale
 70
     0
300
1/2" = 1'-0"
140
0.5
141
12.0
290
     0
  0
SCALE
  5
63
102
{ACAD_REACTORS
330
47
102
}
330
47
100
AcDbScale
 70
     0
300
3/4" = 1'-0"
140
0.75
141
12.0
290
     0
  0
SCALE
  5
64
102
{ACAD_REACTORS
330
47
102
}
330
47
100
AcDbScale
 70
     0
300
1" = 1'-0"
140
1.0
141
12.0
290
     0
  0
SCALE
  5
65
102
{ACAD_REACTORS
330
47
102
}
330
47
100
AcDbScale
 70
     0
300
1-1/2" = 1'-0"
140
1.5
141
12.0
290
     0
  0
SCALE
  5
66
102
{ACAD_REACTORS
330
47
102
}
330
47
100
AcDbScale
 70
     0
300
3" = 1'-0"
140
3.0
141
12.0
290
     0
  0
SCALE
  5
67
102
{ACAD_REACTORS
330
47
102
}
330
47
100
AcDbScale
 70
     0
300
6" = 1'-0"
140
6.0
141
12.0
290
     0
  0
SCALE
  5
68
102
{ACAD_REACTORS
330
47
102
}
330
47
100
AcDbScale
 70
     0
300
1'-0" = 1'-0"
140
12.0
141
12.0
290
     0
  0
ENDSEC
  0
EOF
