  0
SECTION
  2
HEADER
  9
$ACADVER
  1
AC1015
  9
$ACADMAINTVER
 70
     6
  9
$DWGCODEPAGE
  3
ANSI_1250
  9
$INSBASE
 10
0.0
 20
0.0
 30
0.0
  9
$EXTMIN
 10
0.0
 20
0.0
 30
0.0
  9
$EXTMAX
 10
20000.0
 20
10000.0
 30
0.0
  9
$LIMMIN
 10
0.0
 20
0.0
  9
$LIMMAX
 10
20000.0
 20
10000.0
  9
$ORTHOMODE
 70
     0
  9
$REGENMODE
 70
     1
  9
$FILLMODE
 70
     1
  9
$QTEXTMODE
 70
     0
  9
$MIRRTEXT
 70
     1
  9
$LTSCALE
 40
1.0
  9
$ATTMODE
 70
     1
  9
$TEXTSIZE
 40
2.0
  9
$TRACEWID
 40
1.0
  9
$TEXTSTYLE
  7
Standard
  9
$CLAYER
  8
0
  9
$CELTYPE
  6
ByLayer
  9
$CECOLOR
 62
   256
  9
$CELTSCALE
 40
1.0
  9
$DISPSILH
 70
     0
  9
$DIMSCALE
 40
1.0
  9
$DIMASZ
 40
2.0
  9
$DIMEXO
 40
1.0
  9
$DIMDLI
 40
3.75
  9
$DIMRND
 40
0.0
  9
$DIMDLE
 40
0.0
  9
$DIMEXE
 40
1.0
  9
$DIMTP
 40
0.0
  9
$DIMTM
 40
0.0
  9
$DIMTXT
 40
2.0
  9
$DIMCEN
 40
2.5
  9
$DIMTSZ
 40
0.0
  9
$DIMTOL
 70
     0
  9
$DIMLIM
 70
     0
  9
$DIMTIH
 70
     1
  9
$DIMTOH
 70
     1
  9
$DIMSE1
 70
     0
  9
$DIMSE2
 70
     0
  9
$DIMTAD
 70
     1
  9
$DIMZIN
 70
     0
  9
$DIMBLK
  1

  9
$DIMASO
 70
     1
  9
$DIMSHO
 70
     1
  9
$DIMPOST
  1

  9
$DIMAPOST
  1

  9
$DIMALT
 70
     0
  9
$DIMALTD
 70
     3
  9
$DIMALTF
 40
0.0393700787
  9
$DIMLFAC
 40
1.0
  9
$DIMTOFL
 70
     1
  9
$DIMTVP
 40
0.0
  9
$DIMTIX
 70
     0
  9
$DIMSOXD
 70
     0
  9
$DIMSAH
 70
     0
  9
$DIMBLK1
  1

  9
$DIMBLK2
  1

  9
$DIMSTYLE
  2
ISO-25
  9
$DIMCLRD
 70
     0
  9
$DIMCLRE
 70
     0
  9
$DIMCLRT
 70
     0
  9
$DIMTFAC
 40
1.0
  9
$DIMGAP
 40
1.524
  9
$DIMJUST
 70
     0
  9
$DIMSD1
 70
     0
  9
$DIMSD2
 70
     0
  9
$DIMTOLJ
 70
     0
  9
$DIMTZIN
 70
     0
  9
$DIMALTZ
 70
     0
  9
$DIMALTTZ
 70
     0
  9
$DIMUPT
 70
     0
  9
$DIMDEC
 70
     2
  9
$DIMTDEC
 70
     0
  9
$DIMALTU
 70
     2
  9
$DIMALTTD
 70
     3
  9
$DIMTXSTY
  7
Standard
  9
$DIMAUNIT
 70
     0
  9
$DIMADEC
 70
     2
  9
$DIMALTRND
 40
0.0
  9
$DIMAZIN
 70
     0
  9
$DIMDSEP
 70
    44
  9
$DIMATFIT
 70
     3
  9
$DIMFRAC
 70
     0
  9
$DIMLDRBLK
  1

  9
$DIMLUNIT
 70
     2
  9
$DIMLWD
 70
    -2
  9
$DIMLWE
 70
    -2
  9
$DIMTMOVE
 70
     0
  9
$LUNITS
 70
     2
  9
$LUPREC
 70
     3
  9
$SKETCHINC
 40
1.0
  9
$FILLETRAD
 40
10.0
  9
$AUNITS
 70
     0
  9
$AUPREC
 70
     2
  9
$MENU
  1
.
  9
$ELEVATION
 40
0.0
  9
$PELEVATION
 40
0.0
  9
$THICKNESS
 40
0.0
  9
$LIMCHECK
 70
     0
  9
$CHAMFERA
 40
0.0
  9
$CHAMFERB
 40
0.0
  9
$CHAMFERC
 40
0.0
  9
$CHAMFERD
 40
0.0
  9
$SKPOLY
 70
     0
  9
$TDCREATE
 40
2459293.334542604
  9
$TDUCREATE
 40
2459293.292875938
  9
$TDUPDATE
 40
2459293.33454272
  9
$TDUUPDATE
 40
2459293.292876053
  9
$TDINDWG
 40
0.0000000116
  9
$TDUSRTIMER
 40
0.0000000116
  9
$USRTIMER
 70
     1
  9
$ANGBASE
 50
0.0
  9
$ANGDIR
 70
     0
  9
$PDMODE
 70
     0
  9
$PDSIZE
 40
-1.0
  9
$PLINEWID
 40
0.0
  9
$SPLFRAME
 70
     0
  9
$SPLINETYPE
 70
     6
  9
$SPLINESEGS
 70
     8
  9
$HANDSEED
  5
214
  9
$SURFTAB1
 70
     6
  9
$SURFTAB2
 70
     6
  9
$SURFTYPE
 70
     6
  9
$SURFU
 70
     6
  9
$SURFV
 70
     6
  9
$UCSBASE
  2

  9
$UCSNAME
  2

  9
$UCSORG
 10
0.0
 20
0.0
 30
0.0
  9
$UCSXDIR
 10
1.0
 20
0.0
 30
0.0
  9
$UCSYDIR
 10
0.0
 20
1.0
 30
0.0
  9
$UCSORTHOREF
  2

  9
$UCSORTHOVIEW
 70
     0
  9
$UCSORGTOP
 10
0.0
 20
0.0
 30
0.0
  9
$UCSORGBOTTOM
 10
0.0
 20
0.0
 30
0.0
  9
$UCSORGLEFT
 10
0.0
 20
0.0
 30
0.0
  9
$UCSORGRIGHT
 10
0.0
 20
0.0
 30
0.0
  9
$UCSORGFRONT
 10
0.0
 20
0.0
 30
0.0
  9
$UCSORGBACK
 10
0.0
 20
0.0
 30
0.0
  9
$PUCSBASE
  2

  9
$PUCSNAME
  2

  9
$PUCSORG
 10
0.0
 20
0.0
 30
0.0
  9
$PUCSXDIR
 10
1.0
 20
0.0
 30
0.0
  9
$PUCSYDIR
 10
0.0
 20
1.0
 30
0.0
  9
$PUCSORTHOREF
  2

  9
$PUCSORTHOVIEW
 70
     0
  9
$PUCSORGTOP
 10
0.0
 20
0.0
 30
0.0
  9
$PUCSORGBOTTOM
 10
0.0
 20
0.0
 30
0.0
  9
$PUCSORGLEFT
 10
0.0
 20
0.0
 30
0.0
  9
$PUCSORGRIGHT
 10
0.0
 20
0.0
 30
0.0
  9
$PUCSORGFRONT
 10
0.0
 20
0.0
 30
0.0
  9
$PUCSORGBACK
 10
0.0
 20
0.0
 30
0.0
  9
$USERI1
 70
     0
  9
$USERI2
 70
     0
  9
$USERI3
 70
     0
  9
$USERI4
 70
     0
  9
$USERI5
 70
     0
  9
$USERR1
 40
0.0
  9
$USERR2
 40
0.0
  9
$USERR3
 40
0.0
  9
$USERR4
 40
0.0
  9
$USERR5
 40
0.0
  9
$WORLDVIEW
 70
     1
  9
$SHADEDGE
 70
     3
  9
$SHADEDIF
 70
    70
  9
$TILEMODE
 70
     1
  9
$MAXACTVP
 70
    64
  9
$PINSBASE
 10
0.0
 20
0.0
 30
0.0
  9
$PLIMCHECK
 70
     0
  9
$PEXTMIN
 10
1.0000000000E+20
 20
1.0000000000E+20
 30
1.0000000000E+20
  9
$PEXTMAX
 10
-1.0000000000E+20
 20
-1.0000000000E+20
 30
-1.0000000000E+20
  9
$PLIMMIN
 10
0.0
 20
0.0
  9
$PLIMMAX
 10
420.0
 20
297.0
  9
$UNITMODE
 70
     0
  9
$VISRETAIN
 70
     1
  9
$PLINEGEN
 70
     0
  9
$PSLTSCALE
 70
     1
  9
$TREEDEPTH
 70
  3020
  9
$CMLSTYLE
  2
Standard
  9
$CMLJUST
 70
     0
  9
$CMLSCALE
 40
20.0
  9
$PROXYGRAPHICS
 70
     1
  9
$MEASUREMENT
 70
     1
  9
$CELWEIGHT
370
    -1
  9
$ENDCAPS
280
     0
  9
$JOINSTYLE
280
     0
  9
$LWDISPLAY
290
     1
  9
$INSUNITS
 70
     4
  9
$HYPERLINKBASE
  1

  9
$STYLESHEET
  1

  9
$XEDIT
290
     1
  9
$CEPSNTYPE
380
     0
  9
$PSTYLEMODE
290
     1
  9
$FINGERPRINTGUID
  2
{f99be2d7-c850-428b-b1e0-2bc2ae31fddb}
  9
$VERSIONGUID
  2
{FAEB1C32-E019-11D5-929B-00C0DF256EC4}
  9
$EXTNAMES
290
     1
  9
$PSVPSCALE
 40
0.0
  9
$OLESTARTUP
290
     0
  0
ENDSEC
  0
SECTION
  2
CLASSES
  0
CLASS
  1
ACDBDICTIONARYWDFLT
  2
AcDbDictionaryWithDefault
  3
ObjectDBX Classes
 90
        0
280
     0
281
     0
  0
CLASS
  1
VISUALSTYLE
  2
AcDbVisualStyle
  3
ObjectDBX Classes
 90
     4095
280
     0
281
     0
  0
CLASS
  1
MATERIAL
  2
AcDbMaterial
  3
ObjectDBX Classes
 90
     1153
280
     0
281
     0
  0
CLASS
  1
SCALE
  2
AcDbScale
  3
ObjectDBX Classes
 90
     1153
280
     0
281
     0
  0
CLASS
  1
TABLESTYLE
  2
AcDbTableStyle
  3
ObjectDBX Classes
 90
     4095
280
     0
281
     0
  0
CLASS
  1
MLEADERSTYLE
  2
AcDbMLeaderStyle
  3
ACDB_MLEADERSTYLE_CLASS
 90
     4095
280
     0
281
     0
  0
CLASS
  1
SUN
  2
AcDbSun
  3
SCENEOE
 90
     1153
280
     0
281
     0
  0
CLASS
  1
ACDBPLACEHOLDER
  2
AcDbPlaceHolder
  3
ObjectDBX Classes
 90
        0
280
     0
281
     0
  0
CLASS
  1
LAYOUT
  2
AcDbLayout
  3
ObjectDBX Classes
 90
        0
280
     0
281
     0
  0
ENDSEC
  0
SECTION
  2
TABLES
  0
TABLE
  2
VPORT
  5
8
330
0
100
AcDbSymbolTable
 70
     1
  0
VPORT
  5
29
330
8
100
AcDbSymbolTableRecord
100
AcDbViewportTableRecord
  2
*Active
 70
     0
 10
0.0
 20
0.0
 11
1.0
 21
1.0
 12
10000.0
 22
5000.0
 13
0.0
 23
0.0
 14
10.0
 24
10.0
 15
10.0
 25
10.0
 16
0.0
 26
0.0
 36
1.0
 17
0.0
 27
0.0
 37
0.0
 40
10000.0
 41
2.0
 42
50.0
 43
0.0
 44
0.0
 50
0.0
 51
0.0
 71
     0
 72
  2000
 73
     1
 74
     3
 75
     0
 76
     0
 77
     0
 78
     0
281
     0
 65
     1
110
0.0
120
0.0
130
0.0
111
1.0
121
0.0
131
0.0
112
0.0
122
1.0
132
0.0
 79
     0
146
0.0
  0
ENDTAB
  0
TABLE
  2
LTYPE
  5
5
330
0
100
AcDbSymbolTable
 70
     6
  0
LTYPE
  5
14
330
5
100
AcDbSymbolTableRecord
100
AcDbLinetypeTableRecord
  2
ByBlock
 70
     0
  3

 72
    65
 73
     0
 40
0.0
  0
LTYPE
  5
15
330
5
100
AcDbSymbolTableRecord
100
AcDbLinetypeTableRecord
  2
ByLayer
 70
     0
  3

 72
    65
 73
     0
 40
0.0
  0
LTYPE
  5
16
330
5
100
AcDbSymbolTableRecord
100
AcDbLinetypeTableRecord
  2
Continuous
 70
     0
  3
Solid line
 72
    65
 73
     0
 40
0.0
  0
LTYPE
  5
6E
330
5
100
AcDbSymbolTableRecord
100
AcDbLinetypeTableRecord
  2
HIDDEN
 70
     0
  3
Hidden __ __ __ __ __ __ __ __ __ __ __ __ __ __
 72
    65
 73
     2
 40
1.905
 49
1.27
 74
     0
 49
-0.635
 74
     0
  0
LTYPE
  5
6F
330
5
100
AcDbSymbolTableRecord
100
AcDbLinetypeTableRecord
  2
PHANTOM
 70
     0
  3
Phantom ______  __  __  ______  __  __  ______
 72
    65
 73
     6
 40
12.7
 49
6.35
 74
     0
 49
-1.27
 74
     0
 49
1.27
 74
     0
 49
-1.27
 74
     0
 49
1.27
 74
     0
 49
-1.27
 74
     0
  0
LTYPE
  5
70
330
5
100
AcDbSymbolTableRecord
100
AcDbLinetypeTableRecord
  2
CENTER
 70
     0
  3
Center ____ _ ____ _ ____ _ ____ _ ____ _ ____
 72
    65
 73
     4
 40
10.16
 49
6.35
 74
     0
 49
-1.27
 74
     0
 49
1.27
 74
     0
 49
-1.27
 74
     0
  0
LTYPE
  5
71
330
5
100
AcDbSymbolTableRecord
100
AcDbLinetypeTableRecord
  2
CENTERX2
 70
     0
  3
Center (2x) ________  __  ________  __  _____
 72
    65
 73
     4
 40
20.32
 49
12.7
 74
     0
 49
-2.54
 74
     0
 49
2.54
 74
     0
 49
-2.54
 74
     0
  0
LTYPE
  5
72
330
5
100
AcDbSymbolTableRecord
100
AcDbLinetypeTableRecord
  2
DOT2
 70
     0
  3
Dot (.5x) ........................................
 72
    65
 73
     2
 40
0.635
 49
0.0
 74
     0
 49
-0.635
 74
     0
  0
ENDTAB
  0
TABLE
  2
LAYER
  5
2
330
0
100
AcDbSymbolTable
 70
    13
  0
LAYER
  5
10
330
2
100
AcDbSymbolTableRecord
100
AcDbLayerTableRecord
  2
0
 70
     0
 62
     7
  6
Continuous
370
    -3
390
F
  0
LAYER
  5
73
330
2
100
AcDbSymbolTableRecord
100
AcDbLayerTableRecord
  2
FORMAT
 70
     0
 62
     7
  6
Continuous
370
    -3
390
F
  0
LAYER
  5
74
330
2
100
AcDbSymbolTableRecord
100
AcDbLayerTableRecord
  2
OSA
 70
     0
 62
     7
  6
CENTER
370
    -3
390
F
  0
LAYER
  5
75
330
2
100
AcDbSymbolTableRecord
100
AcDbLayerTableRecord
  2
0_35
 70
     0
 62
     7
  6
Continuous
370
    35
390
F
  0
LAYER
  5
76
330
2
100
AcDbSymbolTableRecord
100
AcDbLayerTableRecord
  2
0_5
 70
     0
 62
     7
  6
Continuous
370
    50
390
F
  0
LAYER
  5
77
330
2
100
AcDbSymbolTableRecord
100
AcDbLayerTableRecord
  2
0_25
 70
     0
 62
     7
  6
Continuous
370
    25
390
F
  0
LAYER
  5
78
330
2
100
AcDbSymbolTableRecord
100
AcDbLayerTableRecord
  2
0_18
 70
     0
 62
     7
  6
Continuous
370
    -3
390
F
  0
LAYER
  5
79
330
2
100
AcDbSymbolTableRecord
100
AcDbLayerTableRecord
  2
SLD-0
 70
     0
 62
   179
  6
Continuous
370
    -3
390
F
  0
LAYER
  5
7A
330
2
100
AcDbSymbolTableRecord
100
AcDbLayerTableRecord
  2
KOTY
 70
     0
 62
     7
  6
Continuous
370
    -3
390
F
  0
LAYER
  5
7B
330
2
100
AcDbSymbolTableRecord
100
AcDbLayerTableRecord
  2
SILNA
 70
     0
 62
   179
  6
Continuous
370
    -3
390
F
  0
LAYER
  5
7C
330
2
100
AcDbSymbolTableRecord
100
AcDbLayerTableRecord
  2
0_18_1
 70
     0
 62
   179
  6
Continuous
370
    -3
390
F
  0
LAYER
  5
7D
330
2
100
AcDbSymbolTableRecord
100
AcDbLayerTableRecord
  2
0_35_1
 70
     0
 62
   179
  6
Continuous
370
    35
390
F
  0
LAYER
  5
7E
330
2
100
AcDbSymbolTableRecord
100
AcDbLayerTableRecord
  2
0_5_1
 70
     0
 62
   179
  6
Continuous
370
    50
390
F
  0
ENDTAB
  0
TABLE
  2
STYLE
  5
3
330
0
100
AcDbSymbolTable
 70
     1
  0
STYLE
  5
11
330
3
100
AcDbSymbolTableRecord
100
AcDbTextStyleTableRecord
  2
Standard
 70
     0
 40
0.0
 41
1.0
 50
0.0
 71
     0
 42
2.0
  3
txt
  4

  0
ENDTAB
  0
TABLE
  2
VIEW
  5
6
330
0
100
AcDbSymbolTable
 70
     0
  0
ENDTAB
  0
TABLE
  2
UCS
  5
7
330
0
100
AcDbSymbolTable
 70
     0
  0
ENDTAB
  0
TABLE
  2
APPID
  5
9
330
0
100
AcDbSymbolTable
 70
     1
  0
APPID
  5
12
330
9
100
AcDbSymbolTableRecord
100
AcDbRegAppTableRecord
  2
ACAD
 70
     0
  0
ENDTAB
  0
TABLE
  2
DIMSTYLE
  5
A
330
0
100
AcDbSymbolTable
 70
     1
100
AcDbDimStyleTable
  0
DIMSTYLE
105
27
330
A
100
AcDbSymbolTableRecord
100
AcDbDimStyleTableRecord
  2
ISO-25
 70
     0
 41
2.5
 42
0.625
 43
3.75
 44
1.25
 73
     0
 74
     0
 77
     1
 78
     8
140
2.5
141
2.5
143
0.0393700787
147
0.625
171
     3
172
     1
178
     0
271
     2
272
     2
274
     3
278
    44
283
     0
284
     8
340
11
  0
ENDTAB
  0
TABLE
  2
BLOCK_RECORD
  5
1
330
0
100
AcDbSymbolTable
 70
     1
  0
BLOCK_RECORD
  5
1F
330
1
100
AcDbSymbolTableRecord
100
AcDbBlockTableRecord
  2
*Model_Space
340
22
  0
BLOCK_RECORD
  5
1B
330
1
100
AcDbSymbolTableRecord
100
AcDbBlockTableRecord
  2
*Paper_Space
340
1E
  0
BLOCK_RECORD
  5
23
330
1
100
AcDbSymbolTableRecord
100
AcDbBlockTableRecord
  2
*Paper_Space0
340
26
  0
ENDTAB
  0
ENDSEC
  0
SECTION
  2
BLOCKS
  0
BLOCK
  5
20
330
1F
100
AcDbEntity
  8
0
100
AcDbBlockBegin
  2
*Model_Space
 70
     0
 10
0.0
 20
0.0
 30
0.0
  3
*Model_Space
  1

  0
ENDBLK
  5
21
330
1F
100
AcDbEntity
  8
0
100
AcDbBlockEnd
  0
BLOCK
  5
1C
330
1B
100
AcDbEntity
 67
     1
  8
0
100
AcDbBlockBegin
  2
*Paper_Space
 70
     0
 10
0.0
 20
0.0
 30
0.0
  3
*Paper_Space
  1

  0
ENDBLK
  5
1D
330
1B
100
AcDbEntity
 67
     1
  8
0
100
AcDbBlockEnd
  0
BLOCK
  5
24
330
23
100
AcDbEntity
  8
0
100
AcDbBlockBegin
  2
*Paper_Space0
 70
     0
 10
0.0
 20
0.0
 30
0.0
  3
*Paper_Space0
  1

  0
ENDBLK
  5
25
330
23
100
AcDbEntity
  8
0
100
AcDbBlockEnd
  0
ENDSEC
  0
SECTION
  2
ENTITIES
  0
LINE
  5
7F
330
1F
100
AcDbEntity
  8
0
  6
Continuous
 62
     7
370
    25
100
AcDbLine
 10
6222.1346455528
 20
5238.1115893737
 30
0.0
 11
6222.1346455528
 21
5234.0712328815
 31
0.0
  0
LINE
  5
80
330
1F
100
AcDbEntity
  8
0
  6
Continuous
 62
     7
370
    25
100
AcDbLine
 10
6246.1346455528
 20
5234.0712328815
 30
0.0
 11
6246.1346455528
 21
5238.1115893737
 31
0.0
  0
LINE
  5
81
330
1F
100
AcDbEntity
  8
0
  6
Continuous
 62
     7
370
    25
100
AcDbLine
 10
6224.6567554922
 20
5228.567165068
 30
0.0
 11
6225.4465796639
 21
5228.2689611376
 31
0.0
  0
LINE
  5
82
330
1F
100
AcDbEntity
  8
0
  6
Continuous
 62
     7
370
    25
100
AcDbLine
 10
6242.8227114416
 20
5228.2689611376
 30
0.0
 11
6243.6125356133
 21
5228.567165068
 31
0.0
  0
LINE
  5
83
330
1F
100
AcDbEntity
  8
0
  6
Continuous
 62
     7
370
    25
100
AcDbLine
 10
6213.4141455528
 20
5131.9494545927
 30
0.0
 11
6213.4141455528
 21
5131.9491644813
 31
0.0
  0
LINE
  5
84
330
1F
100
AcDbEntity
  8
0
  6
Continuous
 62
     7
370
    25
100
AcDbLine
 10
6239.8551455528
 20
5131.9491644813
 30
0.0
 11
6239.8551455528
 21
5131.9494545927
 31
0.0
  0
ARC
  5
85
330
1F
100
AcDbEntity
  8
0
  6
Continuous
 62
     7
370
    25
100
AcDbCircle
 10
6213.3846455528
 20
5130.4494545927
 30
0.0
 40
1.500000000001541
100
AcDbArc
 50
271.1268896477
 51
88.8731103523
  0
ARC
  5
86
330
1F
100
AcDbEntity
  8
0
  6
Continuous
 62
     7
370
    25
100
AcDbCircle
 10
6239.8846455528
 20
5130.4494545927
 30
0.0
 40
1.500000000000631
100
AcDbArc
 50
91.1268896477
 51
268.8731103523
  0
LINE
  5
87
330
1F
100
AcDbEntity
  8
0
  6
Continuous
 62
     7
370
    25
100
AcDbLine
 10
6213.4141455528
 20
5128.9497447041
 30
0.0
 11
6213.4141455528
 21
5123.9494545927
 31
0.0
  0
LINE
  5
88
330
1F
100
AcDbEntity
  8
0
  6
Continuous
 62
     7
370
    25
100
AcDbLine
 10
6239.8551455528
 20
5123.9494545927
 30
0.0
 11
6239.8551455528
 21
5128.9497447041
 31
0.0
  0
LINE
  5
89
330
1F
100
AcDbEntity
  8
0
  6
Continuous
 62
     7
370
    25
100
AcDbLine
 10
6213.4141455528
 20
5123.9494545927
 30
0.0
 11
6214.4141455528
 21
5122.9494545927
 31
0.0
  0
LINE
  5
8A
330
1F
100
AcDbEntity
  8
0
  6
Continuous
 62
     7
370
    25
100
AcDbLine
 10
6238.8551455528
 20
5122.9494545927
 30
0.0
 11
6239.8551455528
 21
5123.9494545927
 31
0.0
  0
LINE
  5
8B
330
1F
100
AcDbEntity
  8
0
  6
Continuous
 62
     7
370
    25
100
AcDbLine
 10
6240.3846455528
 20
5131.9494545927
 30
0.0
 11
6241.3846455528
 21
5132.5268048619
 31
0.0
  0
LINE
  5
8C
330
1F
100
AcDbEntity
  8
0
  6
Continuous
 62
     7
370
    25
100
AcDbLine
 10
6211.8846455528
 20
5132.5268048619
 30
0.0
 11
6212.8846455528
 21
5131.9494545927
 31
0.0
  0
LINE
  5
8D
330
1F
100
AcDbEntity
  8
0
  6
Continuous
 62
     7
370
    25
100
AcDbLine
 10
6241.3846455528
 20
5132.5268048619
 30
0.0
 11
6241.3846455528
 21
5133.9494545927
 31
0.0
  0
LINE
  5
8E
330
1F
100
AcDbEntity
  8
0
  6
Continuous
 62
     7
370
    25
100
AcDbLine
 10
6211.8846455528
 20
5133.9494545927
 30
0.0
 11
6211.8846455528
 21
5132.5268048619
 31
0.0
  0
ARC
  5
8F
330
1F
100
AcDbEntity
  8
0
  6
Continuous
 62
     7
370
    25
100
AcDbCircle
 10
6234.1346455528
 20
5242.4494545927
 30
0.0
 40
13.8000000000007
100
AcDbArc
 50
0.6139062371
 51
179.3860937629
  0
LINE
  5
90
330
1F
100
AcDbEntity
  8
0
  6
Continuous
 62
     7
370
    25
100
AcDbLine
 10
6220.3354376961
 20
5242.5973144183
 30
0.0
 11
6247.9338534094
 21
5242.5973144183
 31
0.0
  0
ARC
  5
91
330
1F
100
AcDbEntity
  8
0
  6
Continuous
 62
     7
370
    25
100
AcDbCircle
 10
6234.1346455528
 20
5242.4494545927
 30
0.0
 40
14.00000000000057
100
AcDbArc
 50
0.6139062371
 51
179.3860937629
  0
LINE
  5
92
330
1F
100
AcDbEntity
  8
0
  6
Continuous
 62
     7
370
    25
100
AcDbLine
 10
6248.1338419291
 20
5242.5994573144
 30
0.0
 11
6247.9338534094
 21
5242.5973144183
 31
0.0
  0
LINE
  5
93
330
1F
100
AcDbEntity
  8
0
  6
Continuous
 62
     7
370
    25
100
AcDbLine
 10
6220.3354376961
 20
5242.5973144183
 30
0.0
 11
6220.1354491764
 21
5242.5994573144
 31
0.0
  0
LINE
  5
94
330
1F
100
AcDbEntity
  8
0
  6
Continuous
 62
     7
370
    25
100
AcDbLine
 10
6247.9338534094
 20
5242.4061035767
 30
0.0
 11
6220.3354376961
 21
5242.4061035767
 31
0.0
  0
LINE
  5
95
330
1F
100
AcDbEntity
  8
0
  6
Continuous
 62
     7
370
    25
100
AcDbLine
 10
6220.3354376961
 20
5242.4061035767
 30
0.0
 11
6220.3354376961
 21
5242.5973144183
 31
0.0
  0
LINE
  5
96
330
1F
100
AcDbEntity
  8
0
  6
Continuous
 62
     7
370
    25
100
AcDbLine
 10
6247.9338534094
 20
5242.5973144183
 30
0.0
 11
6247.9338534094
 21
5242.4061035767
 31
0.0
  0
ARC
  5
97
330
1F
100
AcDbEntity
  8
0
  6
Continuous
 62
     7
370
    25
100
AcDbCircle
 10
6220.3312911025
 20
5242.6019170493
 30
0.0
 40
0.1958573723476284
100
AcDbArc
 50
180.7195855623
 51
271.2131280104
  0
ARC
  5
98
330
1F
100
AcDbEntity
  8
0
  6
Continuous
 62
     7
370
    25
100
AcDbCircle
 10
6247.938000003
 20
5242.6019170493
 30
0.0
 40
0.1958573723450331
100
AcDbArc
 50
268.7868719888
 51
359.2804144383
  0
ARC
  5
99
330
1F
100
AcDbEntity
  8
0
  6
Continuous
 62
     7
370
    25
100
AcDbCircle
 10
6234.1346455528
 20
5242.4494545927
 30
0.0
 40
13.99999999999966
100
AcDbArc
 50
328.9972808661
 51
0.6139062371
  0
ARC
  5
9A
330
1F
100
AcDbEntity
  8
0
  6
Continuous
 62
     7
370
    25
100
AcDbCircle
 10
6234.1346455528
 20
5242.258243751
 30
0.0
 40
13.7999999999998
100
AcDbArc
 50
330.408154206
 51
0.6139062371
  0
ARC
  5
9B
330
1F
100
AcDbEntity
  8
0
  6
Continuous
 62
     7
370
    25
100
AcDbCircle
 10
6234.1346455528
 20
5242.258243751
 30
0.0
 40
13.80000000000084
100
AcDbArc
 50
179.3860937629
 51
209.591845794
  0
ARC
  5
9C
330
1F
100
AcDbEntity
  8
0
  6
Continuous
 62
     7
370
    25
100
AcDbCircle
 10
6234.1346455528
 20
5242.4494545927
 30
0.0
 40
14.00000000000057
100
AcDbArc
 50
179.3860937629
 51
211.0027191339
  0
LWPOLYLINE
  5
9D
330
1F
100
AcDbEntity
  8
0
  6
Continuous
 62
     7
370
    25
100
AcDbPolyline
 90
       25
 70
   128
 43
0.0
 10
6222.1346455528
 20
5236.6736124362
 10
6221.9860789634
 20
5236.9010856471
 10
6221.8346455528
 20
5237.4652253206
 10
6221.9860789634
 20
5238.0293649941
 10
6222.4366504023
 20
5238.5796136766
 10
6223.1752653052
 20
5239.1024224193
 10
6224.1837365219
 20
5239.5849179359
 10
6225.4372321442
 20
5240.0152195854
 10
6226.9048869496
 20
5240.3827319132
 10
6228.550562406
 20
5240.6784055461
 10
6230.3337365219
 20
5240.8949600178
 10
6232.2105016328
 20
5241.0270630387
 10
6234.1346455528
 20
5241.0714617939
 10
6236.0587894728
 20
5241.0270630387
 10
6237.9355545836
 20
5240.8949600178
 10
6239.7187286996
 20
5240.6784055461
 10
6241.364404156
 20
5240.3827319132
 10
6242.8320589614
 20
5240.0152195854
 10
6244.0855545836
 20
5239.5849179359
 10
6245.0940258003
 20
5239.1024224193
 10
6245.8326407032
 20
5238.5796136766
 10
6246.2832121421
 20
5238.0293649941
 10
6246.4346455528
 20
5237.4652253206
 10
6246.2832121421
 20
5236.9010856471
 10
6246.1346455528
 20
5236.6736124362
  0
ARC
  5
9E
330
1F
100
AcDbEntity
  8
0
  6
Continuous
 62
     7
370
    25
100
AcDbCircle
 10
6244.949762343
 20
5237.6658961676
 30
0.0
 40
1.272719003584273
100
AcDbArc
 50
338.5889946984
 51
52.4938952088
  0
ARC
  5
9F
330
1F
100
AcDbEntity
  8
0
  6
Continuous
 62
     7
370
    25
100
AcDbCircle
 10
6223.3120067691
 20
5237.6653999461
 30
0.0
 40
1.265537047704163
100
AcDbArc
 50
128.3592322779
 51
201.5144095871
  0
LWPOLYLINE
  5
A0
330
1F
100
AcDbEntity
  8
0
  6
Continuous
 62
     7
370
    25
100
AcDbPolyline
 90
       20
 70
   128
 43
0.0
 10
6223.2441308824
 20
5230.7009106753
 10
6223.6474762652
 20
5231.2202689476
 10
6224.3368842882
 20
5231.713079418
 10
6225.2935496976
 20
5232.1658995013
 10
6226.491377155
 20
5232.5663774463
 10
6227.8976930497
 20
5232.9035892584
 10
6229.4741367502
 20
5233.1683366786
 10
6231.1777069818
 20
5233.3533980872
 10
6232.9619347894
 20
5233.4537254916
 10
6234.7781510896
 20
5233.4665822217
 10
6236.5768142363
 20
5233.3916175794
 10
6238.3088613875
 20
5233.2308764046
 10
6239.9270468122
 20
5232.9887432977
 10
6241.3872306301
 20
5232.6718230186
 10
6242.6495828332
 20
5232.2887603264
 10
6243.6796697441
 20
5231.8500041727
 10
6244.4493932771
 20
5231.3675226816
 10
6244.9377573807
 20
5230.8544766905
 10
6245.1314407552
 20
5230.3248607567
 10
6245.0251602232
 20
5229.7931214222
  0
LWPOLYLINE
  5
A1
330
1F
100
AcDbEntity
  8
0
  6
Continuous
 62
     7
370
    25
100
AcDbPolyline
 90
        3
 70
   128
 43
0.0
 10
6223.2441308824
 20
5230.7009106753
 10
6223.8725042749
 20
5232.4135676495
 10
6223.9190895583
 20
5232.5710323104
  0
LWPOLYLINE
  5
A2
330
1F
100
AcDbEntity
  8
0
  6
Continuous
 62
     7
370
    25
100
AcDbPolyline
 90
       15
 70
   128
 43
0.0
 10
6223.9190895583
 20
5232.5710323104
 10
6225.0972546558
 20
5233.0396764952
 10
6226.5228847029
 20
5233.4449405929
 10
6228.1569426066
 20
5233.7757275223
 10
6229.9546840308
 20
5234.0229795618
 10
6231.8668826007
 20
5234.1799263709
 10
6233.8411778366
 20
5234.242270378
 10
6235.8235089067
 20
5234.2083044581
 10
6237.7595949388
 20
5234.0789586778
 10
6239.5964213586
 20
5233.8577748276
 10
6241.2836915525
 20
5233.55080944
 10
6242.7752041071
 20
5233.1664679468
 10
6244.0301179121
 20
5232.7152745193
 10
6245.0140704855
 20
5232.2095838911
 10
6245.7001188991
 20
5231.6632430573
  0
LWPOLYLINE
  5
A3
330
1F
100
AcDbEntity
  8
0
  6
Continuous
 62
     7
370
    25
100
AcDbPolyline
 90
        3
 70
   128
 43
0.0
 10
6245.7001188991
 20
5231.6632430573
 10
6245.6535336157
 20
5231.5057783964
 10
6245.0251602232
 20
5229.7931214222
  0
LINE
  5
A4
330
1F
100
AcDbEntity
  8
0
  6
Continuous
 62
     7
370
    25
100
AcDbLine
 10
6223.9190895583
 20
5232.5710323104
 30
0.0
 11
6223.9190895583
 21
5235.9172220391
 31
0.0
  0
LWPOLYLINE
  5
A5
330
1F
100
AcDbEntity
  8
0
  6
Continuous
 62
     7
370
    25
100
AcDbPolyline
 90
        9
 70
   128
 43
0.0
 10
6223.9190895583
 20
5235.9172220391
 10
6223.326988978
 20
5235.6001716859
 10
6222.848966981
 20
5235.2669828507
 10
6222.4900692561
 20
5234.9211724576
 10
6222.2540840941
 20
5234.5663906559
 10
6222.1435024006
 20
5234.2063822913
 10
6222.1594914039
 20
5233.8449473775
 10
6222.3018823345
 20
5233.4859009862
 10
6222.5691722064
 20
5233.1330329771
  0
LINE
  5
A6
330
1F
100
AcDbEntity
  8
0
  6
Continuous
 62
     7
370
    25
100
AcDbLine
 10
6222.5691722064
 20
5233.1330329771
 30
0.0
 11
6222.5691722064
 21
5229.7868432484
 31
0.0
  0
LINE
  5
A7
330
1F
100
AcDbEntity
  8
0
  6
Continuous
 62
     7
370
    25
100
AcDbLine
 10
6244.3502015472
 20
5228.8790539953
 30
0.0
 11
6243.6125356133
 21
5228.567165068
 31
0.0
  0
ARC
  5
A8
330
1F
100
AcDbEntity
  8
0
  6
Continuous
 62
     7
370
    25
100
AcDbCircle
 10
6226.6193859127
 20
5234.3227520696
 30
0.0
 40
6.081011420888239
100
AcDbArc
 50
228.2376261382
 51
251.1708444177
  0
ARC
  5
A9
330
1F
100
AcDbEntity
  8
0
  6
Continuous
 62
     7
370
    25
100
AcDbCircle
 10
6244.8235627265
 20
5234.0712328815
 30
0.0
 40
1.283966426548201
100
AcDbArc
 50
313.0545219059
 51
46.9454780941
  0
LINE
  5
AA
330
1F
100
AcDbEntity
  8
0
  6
Continuous
 62
     7
370
    25
100
AcDbLine
 10
6245.7001188991
 20
5235.009432786
 30
0.0
 11
6245.7001188991
 21
5231.6632430573
 31
0.0
  0
LWPOLYLINE
  5
AB
330
1F
100
AcDbEntity
  8
0
  6
Continuous
 62
     7
370
    25
100
AcDbPolyline
 90
       20
 70
   128
 43
0.0
 10
6245.0251602232
 20
5229.7931214222
 10
6244.6218148403
 20
5229.2737631498
 10
6243.9324068173
 20
5228.7809526795
 10
6242.9757414079
 20
5228.3281325961
 10
6241.7779139505
 20
5227.9276546512
 10
6240.3715980558
 20
5227.590442839
 10
6238.7951543553
 20
5227.3256954189
 10
6237.0915841238
 20
5227.1406340102
 10
6235.3073563161
 20
5227.0403066058
 10
6233.4911400159
 20
5227.0274498757
 10
6231.6924768692
 20
5227.1024145181
 10
6229.960429718
 20
5227.2631556928
 10
6228.3422442933
 20
5227.5052887997
 10
6226.8820604754
 20
5227.8222090788
 10
6225.6197082723
 20
5228.2052717711
 10
6224.5896213614
 20
5228.6440279248
 10
6223.8198978284
 20
5229.1265094158
 10
6223.3315337248
 20
5229.6395554069
 10
6223.1378503503
 20
5230.1691713407
 10
6223.2441308824
 20
5230.7009106753
  0
LWPOLYLINE
  5
AC
330
1F
100
AcDbEntity
  8
0
  6
Continuous
 62
     7
370
    25
100
AcDbPolyline
 90
       37
 70
   128
 43
0.0
 10
6244.0351134349
 20
5229.83438457
 10
6243.6403130451
 20
5229.336601721
 10
6242.9566877587
 20
5228.8664813507
 10
6242.0050091839
 20
5228.4383078286
 10
6240.8141935929
 20
5228.0650909905
 10
6239.4204233146
 20
5227.7581708411
 10
6237.8660473538
 20
5227.526872994
 10
6236.1982946375
 20
5227.3782253172
 10
6234.467838988
 20
5227.316744395
 10
6232.7272594245
 20
5227.3442982943
 10
6231.0294425764
 20
5227.4600498037
 10
6229.4259757494
 20
5227.6604818721
 10
6227.9655794717
 20
5227.9395044727
 10
6226.6926271451
 20
5228.2886396449
 10
6225.6457967821
 20
5228.6972790931
 10
6224.8568957933
 20
5229.1530065144
 10
6224.3498945362
 20
5229.6419748619
 10
6224.1401979875
 20
5230.1493270797
 10
6224.2341776706
 20
5230.6596475274
 10
6224.6289780604
 20
5231.1574303764
 10
6225.3126033468
 20
5231.6275507467
 10
6226.2642819216
 20
5232.0557242689
 10
6227.4550975126
 20
5232.428941107
 10
6228.8488677909
 20
5232.7358612563
 10
6230.4032437517
 20
5232.9671591034
 10
6232.070996468
 20
5233.1158067803
 10
6233.8014521176
 20
5233.1772877024
 10
6235.542031681
 20
5233.1497338032
 10
6237.2398485291
 20
5233.0339822938
 10
6238.8433153561
 20
5232.8335502253
 10
6240.3037116338
 20
5232.5545276247
 10
6241.5766639604
 20
5232.2053924526
 10
6242.6234943235
 20
5231.7967530044
 10
6243.4123953122
 20
5231.341025583
 10
6243.9193965693
 20
5230.8520572355
 10
6244.129093118
 20
5230.3447050177
 10
6244.0351134349
 20
5229.83438457
  0
LINE
  5
AD
330
1F
100
AcDbEntity
  8
0
  6
Continuous
 62
     7
370
    25
100
AcDbLine
 10
6223.9190895583
 20
5235.9172220391
 30
0.0
 11
6222.5691722064
 21
5233.1330329771
 31
0.0
  0
LWPOLYLINE
  5
AE
330
1F
100
AcDbEntity
  8
0
  6
Continuous
 62
     7
370
    25
100
AcDbPolyline
 90
        3
 70
   128
 43
0.0
 10
6222.5691722064
 20
5229.7868432484
 10
6222.7566819496
 20
5229.9500465793
 10
6223.2441308824
 20
5230.7009106753
  0
LWPOLYLINE
  5
AF
330
1F
100
AcDbEntity
  8
0
  6
Continuous
 62
     7
370
    25
100
AcDbPolyline
 90
        3
 70
   128
 43
0.0
 10
6245.0251602232
 20
5229.7931214222
 10
6244.5377112904
 20
5229.0422573262
 10
6244.3502015472
 20
5228.8790539953
  0
CIRCLE
  5
B0
330
1F
100
AcDbEntity
  8
0
  6
Continuous
 62
     7
370
    25
100
AcDbCircle
 10
6314.1346455528
 20
5242.4494545927
 30
0.0
 40
12.50000000000054
  0
LINE
  5
B1
330
1F
100
AcDbEntity
  8
0
  6
Continuous
 62
     7
370
    25
100
AcDbLine
 10
6313.6995685891
 20
5247.6422630009
 30
0.0
 11
6313.6687502842
 21
5251.1878487113
 31
0.0
  0
ARC
  5
B2
330
1F
100
AcDbEntity
  8
0
  6
Continuous
 62
     7
370
    25
100
AcDbCircle
 10
6312.0517684703
 20
5251.1737938717
 30
0.0
 40
1.617042895245433
100
AcDbArc
 50
0.4980035681
 51
180.4980035681
  0
LINE
  5
B3
330
1F
100
AcDbEntity
  8
0
  6
Continuous
 62
     7
370
    25
100
AcDbLine
 10
6310.4347866563
 20
5251.159739032
 30
0.0
 11
6310.5003085595
 21
5243.6215721999
 31
0.0
  0
ARC
  5
B4
330
1F
100
AcDbEntity
  8
0
  6
Continuous
 62
     7
370
    25
100
AcDbCircle
 10
6308.6708655102
 20
5241.8179743132
 30
0.0
 40
2.569012885871527
100
AcDbArc
 50
44.5924092827
 51
105.9921510106
  0
LINE
  5
B5
330
1F
100
AcDbEntity
  8
0
  6
Continuous
 62
     7
370
    25
100
AcDbLine
 10
6307.9630878956
 20
5244.2875649789
 30
0.0
 11
6308.0102065564
 21
5238.8666551878
 31
0.0
  0
ARC
  5
B6
330
1F
100
AcDbEntity
  8
0
  6
Continuous
 62
     7
370
    25
100
AcDbCircle
 10
6314.3324980603
 20
5238.9216086773
 30
0.0
 40
6.322530327733959
100
AcDbArc
 50
180.4980035681
 51
270.4980035681
  0
LINE
  5
B7
330
1F
100
AcDbEntity
  8
0
  6
Continuous
 62
     7
370
    25
100
AcDbLine
 10
6314.3874515497
 20
5232.5993171734
 30
0.0
 11
6316.7545865384
 21
5232.6198923601
 31
0.0
  0
ARC
  5
B8
330
1F
100
AcDbEntity
  8
0
  6
Continuous
 62
     7
370
    25
100
AcDbCircle
 10
6316.7149906593
 20
5237.1753208299
 30
0.0
 40
4.555600550638837
100
AcDbArc
 50
270.4980035681
 51
0.4980035681
  0
LINE
  5
B9
330
1F
100
AcDbEntity
  8
0
  6
Continuous
 62
     7
370
    25
100
AcDbLine
 10
6321.270419129
 20
5237.2149167091
 30
0.0
 11
6321.2023043293
 21
5245.0513912153
 31
0.0
  0
ARC
  5
BA
330
1F
100
AcDbEntity
  8
0
  6
Continuous
 62
     7
370
    25
100
AcDbCircle
 10
6319.8487442137
 20
5245.0396260426
 30
0.0
 40
1.353611246209349
100
AcDbArc
 50
0.4980035682
 51
90.4980035681
  0
LINE
  5
BB
330
1F
100
AcDbEntity
  8
0
  6
Continuous
 62
     7
370
    25
100
AcDbLine
 10
6319.836979041
 20
5246.3931861582
 30
0.0
 11
6319.3427722449
 21
5246.3888905024
 31
0.0
  0
ARC
  5
BC
330
1F
100
AcDbEntity
  8
0
  6
Continuous
 62
     7
370
    25
100
AcDbCircle
 10
6319.3545374176
 20
5245.0353303868
 30
0.0
 40
1.353611246209641
100
AcDbArc
 50
90.4980035681
 51
119.2345613039
  0
ARC
  5
BD
330
1F
100
AcDbEntity
  8
0
  6
Continuous
 62
     7
370
    25
100
AcDbCircle
 10
6317.3631076975
 20
5245.9666365942
 30
0.0
 40
1.353611246208608
100
AcDbArc
 50
10.638490333
 51
90.4980035681
  0
LINE
  5
BE
330
1F
100
AcDbEntity
  8
0
  6
Continuous
 62
     7
370
    25
100
AcDbLine
 10
6317.3513425248
 20
5247.3201967098
 30
0.0
 11
6316.7720471255
 21
5247.3151614621
 31
0.0
  0
ARC
  5
BF
330
1F
100
AcDbEntity
  8
0
  6
Continuous
 62
     7
370
    25
100
AcDbCircle
 10
6316.7838122983
 20
5245.9616013465
 30
0.0
 40
1.353611246208432
100
AcDbArc
 50
90.4980035681
 51
125.2420057952
  0
ARC
  5
C0
330
1F
100
AcDbEntity
  8
0
  6
Continuous
 62
     7
370
    25
100
AcDbCircle
 10
6314.7962019311
 20
5246.4534984642
 30
0.0
 40
1.35361124620844
100
AcDbArc
 50
26.9572727274
 51
90.4980035682
  0
LINE
  5
C1
330
1F
100
AcDbEntity
  8
0
  6
Continuous
 62
     7
370
    25
100
AcDbLine
 10
6314.7844367584
 20
5247.8070585798
 30
0.0
 11
6314.3278430871
 21
5247.8030898581
 31
0.0
  0
ARC
  5
C2
330
1F
100
AcDbEntity
  8
0
  6
Continuous
 62
     7
370
    25
100
AcDbCircle
 10
6314.3396082598
 20
5246.4495297425
 30
0.0
 40
1.353611246208512
100
AcDbArc
 50
90.4980035681
 51
118.2187156943
  0
CIRCLE
  5
C3
330
1F
100
AcDbEntity
  8
0
  6
Continuous
 62
     7
370
    25
100
AcDbCircle
 10
6314.1346455528
 20
5242.4494545927
 30
0.0
 40
13.99999999999943
  0
ARC
  5
C4
330
1F
100
AcDbEntity
  8
0
  6
Continuous
 62
     7
370
    25
100
AcDbCircle
 10
6313.3734552311
 20
5243.5141519612
 30
0.0
 40
0.6676186886571386
100
AcDbArc
 50
180.4980035682
 51
0.4980035682
  0
LINE
  5
C5
330
1F
100
AcDbEntity
  8
0
  6
Continuous
 62
     7
370
    25
100
AcDbLine
 10
6314.0154861597
 20
5246.4608751391
 30
0.0
 11
6314.0410487015
 21
5243.5199546975
 31
0.0
  0
ARC
  5
C6
330
1F
100
AcDbEntity
  8
0
  6
Continuous
 62
     7
370
    25
100
AcDbCircle
 10
6314.2555872062
 20
5246.4629621024
 30
0.0
 40
0.2401101162884454
100
AcDbArc
 50
90.498003568
 51
180.498003568
  0
LINE
  5
C7
330
1F
100
AcDbEntity
  8
0
  6
Continuous
 62
     7
370
    25
100
AcDbLine
 10
6314.8778898355
 20
5246.7084903563
 30
0.0
 11
6314.2535002429
 21
5246.7030631489
 31
0.0
  0
ARC
  5
C8
330
1F
100
AcDbEntity
  8
0
  6
Continuous
 62
     7
370
    25
100
AcDbCircle
 10
6314.8799767988
 20
5246.4683893098
 30
0.0
 40
0.240110116287536
100
AcDbArc
 50
0.498003568
 51
90.498003568
  0
LINE
  5
C9
330
1F
100
AcDbEntity
  8
0
  6
Continuous
 62
     7
370
    25
100
AcDbLine
 10
6315.1456403871
 20
5243.5295558315
 30
0.0
 11
6315.1200778453
 21
5246.4704762731
 31
0.0
  0
ARC
  5
CA
330
1F
100
AcDbEntity
  8
0
  6
Continuous
 62
     7
370
    25
100
AcDbCircle
 10
6315.8132338575
 20
5243.5353585678
 30
0.0
 40
0.6676186886571227
100
AcDbArc
 50
180.498003568
 51
0.4980035682
  0
LINE
  5
CB
330
1F
100
AcDbEntity
  8
0
  6
Continuous
 62
     7
370
    25
100
AcDbLine
 10
6316.4596901981
 20
5245.9729467431
 30
0.0
 11
6316.4808273279
 21
5243.5411613042
 31
0.0
  0
ARC
  5
CC
330
1F
100
AcDbEntity
  8
0
  6
Continuous
 62
     7
370
    25
100
AcDbCircle
 10
6316.6997912446
 20
5245.9750337064
 30
0.0
 40
0.2401101162875439
100
AcDbArc
 50
90.498003568
 51
180.4980035683
  0
LINE
  5
CD
330
1F
100
AcDbEntity
  8
0
  6
Continuous
 62
     7
370
    25
100
AcDbLine
 10
6317.4447956019
 20
5246.2216284863
 30
0.0
 11
6316.6977042813
 21
5246.2151347529
 31
0.0
  0
ARC
  5
CE
330
1F
100
AcDbEntity
  8
0
  6
Continuous
 62
     7
370
    25
100
AcDbCircle
 10
6317.4468825652
 20
5245.9815274398
 30
0.0
 40
0.2401101162884454
100
AcDbArc
 50
0.4980035683
 51
90.498003568
  0
LINE
  5
CF
330
1F
100
AcDbEntity
  8
0
  6
Continuous
 62
     7
370
    25
100
AcDbLine
 10
6317.7081207414
 20
5243.5518289641
 30
0.0
 11
6317.6869836117
 21
5245.9836144031
 31
0.0
  0
ARC
  5
D0
330
1F
100
AcDbEntity
  8
0
  6
Continuous
 62
     7
370
    25
100
AcDbCircle
 10
6318.3757142118
 20
5243.5576317005
 30
0.0
 40
0.6676186886571386
100
AcDbArc
 50
180.4980035682
 51
0.4980035681
  0
LINE
  5
D1
330
1F
100
AcDbEntity
  8
0
  6
Continuous
 62
     7
370
    25
100
AcDbLine
 10
6319.0301351876
 20
5245.0789041809
 30
0.0
 11
6319.0433076822
 21
5243.5634344368
 31
0.0
  0
ARC
  5
D2
330
1F
100
AcDbEntity
  8
0
  6
Continuous
 62
     7
370
    25
100
AcDbCircle
 10
6319.2702362341
 20
5245.0809911442
 30
0.0
 40
0.2401101162875439
100
AcDbArc
 50
90.4980035682
 51
180.4980035683
  0
LINE
  5
D3
330
1F
100
AcDbEntity
  8
0
  6
Continuous
 62
     7
370
    25
100
AcDbLine
 10
6319.9301519883
 20
5245.3268463321
 30
0.0
 11
6319.2681492708
 21
5245.3210921907
 31
0.0
  0
ARC
  5
D4
330
1F
100
AcDbEntity
  8
0
  6
Continuous
 62
     7
370
    25
100
AcDbCircle
 10
6319.9322389516
 20
5245.0867452856
 30
0.0
 40
0.2401101162875439
100
AcDbArc
 50
0.498003568
 51
90.4980035682
  0
LINE
  5
D5
330
1F
100
AcDbEntity
  8
0
  6
Continuous
 62
     7
370
    25
100
AcDbLine
 10
6320.2408580206
 20
5237.2059677425
 30
0.0
 11
6320.1723399981
 21
5245.0888322489
 31
0.0
  0
ARC
  5
D6
330
1F
100
AcDbEntity
  8
0
  6
Continuous
 62
     7
370
    25
100
AcDbCircle
 10
6316.7149906593
 20
5237.1753208299
 30
0.0
 40
3.526000550638312
100
AcDbArc
 50
270.4980035681
 51
0.4980035681
  0
LINE
  5
D7
330
1F
100
AcDbEntity
  8
0
  6
Continuous
 62
     7
370
    25
100
AcDbLine
 10
6314.3785025831
 20
5233.6288782819
 30
0.0
 11
6316.7456375718
 21
5233.6494534685
 31
0.0
  0
ARC
  5
D8
330
1F
100
AcDbEntity
  8
0
  6
Continuous
 62
     7
370
    25
100
AcDbCircle
 10
6314.3324980603
 20
5238.9216086773
 30
0.0
 40
5.292930327734336
100
AcDbArc
 50
180.4980035681
 51
270.4980035681
  0
LINE
  5
D9
330
1F
100
AcDbEntity
  8
0
  6
Continuous
 62
     7
370
    25
100
AcDbLine
 10
6309.0011234633
 20
5243.3215439715
 30
0.0
 11
6309.0397676649
 21
5238.8756041544
 31
0.0
  0
ARC
  5
DA
330
1F
100
AcDbEntity
  8
0
  6
Continuous
 62
     7
370
    25
100
AcDbCircle
 10
6308.6708655102
 20
5241.8179743132
 30
0.0
 40
1.539412885870481
100
AcDbArc
 50
0.4980035681
 51
77.611751415
  0
LINE
  5
DB
330
1F
100
AcDbEntity
  8
0
  6
Continuous
 62
     7
370
    25
100
AcDbLine
 10
6310.2272074724
 20
5239.8770073599
 30
0.0
 11
6310.2102202471
 21
5241.8313544166
 31
0.0
  0
ARC
  5
DC
330
1F
100
AcDbEntity
  8
0
  6
Continuous
 62
     7
370
    25
100
AcDbCircle
 10
6310.8948009428
 20
5239.8828100962
 30
0.0
 40
0.6676186886571386
100
AcDbArc
 50
180.4980035681
 51
0.4980035682
  0
LINE
  5
DD
330
1F
100
AcDbEntity
  8
0
  6
Continuous
 62
     7
370
    25
100
AcDbLine
 10
6312.7058617607
 20
5243.5083492248
 30
0.0
 11
6312.6391891757
 21
5251.1788997447
 31
0.0
  0
LINE
  5
DE
330
1F
100
AcDbEntity
  8
0
  6
Continuous
 62
     7
370
    25
100
AcDbLine
 10
6311.4643477648
 20
5251.1686879986
 30
0.0
 11
6311.5623944132
 21
5239.8886128326
 31
0.0
  0
ARC
  5
DF
330
1F
100
AcDbEntity
  8
0
  6
Continuous
 62
     7
370
    25
100
AcDbCircle
 10
6312.0517684703
 20
5251.1737938717
 30
0.0
 40
0.5874428952449006
100
AcDbArc
 50
0.4980035682
 51
180.4980035681
  0
LINE
  5
E0
330
1F
100
AcDbEntity
  8
0
  6
Continuous
 62
     7
370
    25
100
AcDbLine
 10
6349.1346455528
 20
5144.4494545927
 30
0.0
 11
6359.1346455528
 21
5144.4494545927
 31
0.0
  0
ARC
  5
E1
330
1F
100
AcDbEntity
  8
0
  6
Continuous
 62
     7
370
    25
100
AcDbCircle
 10
6349.1346455528
 20
5144.4494545927
 30
0.0
 40
10.0
100
AcDbArc
 50
333.5503929663
 51
0.0
  0
LINE
  5
E2
330
1F
100
AcDbEntity
  8
0
  6
Continuous
 62
     7
370
    25
100
AcDbLine
 10
6199.1346455528
 20
5144.4494545927
 30
0.0
 11
6349.1346455528
 21
5144.4494545927
 31
0.0
  0
LINE
  5
E3
330
1F
100
AcDbEntity
  8
0
  6
Continuous
 62
     7
370
    25
100
AcDbLine
 10
6199.1346455528
 20
5294.4494545927
 30
0.0
 11
6199.1346455528
 21
5144.4494545927
 31
0.0
  0
LINE
  5
E4
330
1F
100
AcDbEntity
  8
0
  6
Continuous
 62
     7
370
    25
100
AcDbLine
 10
6349.1346455528
 20
5144.4494545927
 30
0.0
 11
6349.1346455528
 21
5294.4494545927
 31
0.0
  0
LINE
  5
E5
330
1F
100
AcDbEntity
  8
0
  6
Continuous
 62
     7
370
    25
100
AcDbLine
 10
6349.1346455528
 20
5294.4494545927
 30
0.0
 11
6359.1346455528
 21
5294.4494545927
 31
0.0
  0
LINE
  5
E6
330
1F
100
AcDbEntity
  8
0
  6
Continuous
 62
     7
370
    25
100
AcDbLine
 10
6359.1346455528
 20
5144.4494545927
 30
0.0
 11
6359.1346455528
 21
5294.4494545927
 31
0.0
  0
LINE
  5
E7
330
1F
100
AcDbEntity
  8
0
  6
Continuous
 62
     7
370
    25
100
AcDbLine
 10
6349.1346455528
 20
5294.4494545927
 30
0.0
 11
6199.1346455528
 21
5294.4494545927
 31
0.0
  0
LINE
  5
E8
330
1F
100
AcDbEntity
  8
0
  6
Continuous
 62
     7
370
    25
100
AcDbLine
 10
6199.1346455528
 20
5304.4494545927
 30
0.0
 11
6199.1346455528
 21
5294.4494545927
 31
0.0
  0
ARC
  5
E9
330
1F
100
AcDbEntity
  8
0
  6
Continuous
 62
     7
370
    25
100
AcDbCircle
 10
6199.1346455528
 20
5294.4494545927
 30
0.0
 40
10.00000000000041
100
AcDbArc
 50
90.0
 51
156.7084166532
  0
LINE
  5
EA
330
1F
100
AcDbEntity
  8
0
  6
Continuous
 62
     7
370
    25
100
AcDbLine
 10
6349.1346455528
 20
5304.4494545927
 30
0.0
 11
6349.1346455528
 21
5294.4494545927
 31
0.0
  0
ARC
  5
EB
330
1F
100
AcDbEntity
  8
0
  6
Continuous
 62
     7
370
    25
100
AcDbCircle
 10
6349.1346455528
 20
5294.4494545927
 30
0.0
 40
10.0
100
AcDbArc
 50
0.0
 51
90.0
  0
LINE
  5
EC
330
1F
100
AcDbEntity
  8
0
  6
Continuous
 62
     7
370
    25
100
AcDbLine
 10
6349.1346455528
 20
5304.4494545927
 30
0.0
 11
6199.1346455528
 21
5304.4494545927
 31
0.0
  0
LINE
  5
ED
330
1F
100
AcDbEntity
  8
0
  6
Continuous
 62
     7
370
    25
100
AcDbLine
 10
6348.9028651194
 20
5143.9494545927
 30
0.0
 11
6348.9028651194
 21
5293.9494545927
 31
0.0
  0
LINE
  5
EE
330
1F
100
AcDbEntity
  8
0
  6
Continuous
 62
     7
370
    25
100
AcDbLine
 10
6348.9028651194
 20
5293.9494545927
 30
0.0
 11
6198.9028651194
 21
5293.9494545927
 31
0.0
  0
LINE
  5
EF
330
1F
100
AcDbEntity
  8
0
  6
Continuous
 62
     7
370
    25
100
AcDbLine
 10
6198.9028651194
 20
5293.9494545927
 30
0.0
 11
6198.9028651194
 21
5143.9494545927
 31
0.0
  0
LINE
  5
F0
330
1F
100
AcDbEntity
  8
0
  6
Continuous
 62
     7
370
    25
100
AcDbLine
 10
6198.9028651194
 20
5143.9494545927
 30
0.0
 11
6348.9028651194
 21
5143.9494545927
 31
0.0
  0
ARC
  5
F1
330
1F
100
AcDbEntity
  8
0
  6
Continuous
 62
     7
370
    25
100
AcDbCircle
 10
6348.9028651194
 20
5143.9494545927
 30
0.0
 40
10.0
100
AcDbArc
 50
270.0
 51
336.7084200816
  0
LINE
  5
F2
330
1F
100
AcDbEntity
  8
0
  6
Continuous
 62
     7
370
    25
100
AcDbLine
 10
6348.9028651194
 20
5143.9494545927
 30
0.0
 11
6348.9028651194
 21
5133.9494545927
 31
0.0
  0
LINE
  5
F3
330
1F
100
AcDbEntity
  8
0
  6
Continuous
 62
     7
370
    25
100
AcDbLine
 10
6198.9028651194
 20
5133.9494545927
 30
0.0
 11
6348.9028651194
 21
5133.9494545927
 31
0.0
  0
LINE
  5
F4
330
1F
100
AcDbEntity
  8
0
  6
Continuous
 62
     7
370
    25
100
AcDbLine
 10
6198.9028651194
 20
5143.9494545927
 30
0.0
 11
6198.9028651194
 21
5133.9494545927
 31
0.0
  0
LWPOLYLINE
  5
F5
330
1F
100
AcDbEntity
  8
0
  6
Continuous
 62
     7
370
    25
100
AcDbPolyline
 90
       20
 70
   128
 43
0.0
 10
6229.9028651194
 20
5136.1835032666
 10
6229.33843668
 20
5136.1182519293
 10
6228.8415363303
 20
5135.9458299229
 10
6228.4057863585
 20
5135.6822851249
 10
6228.0510324297
 20
5135.3214564602
 10
6227.9028852697
 20
5134.9254471474
 10
6228.0505415041
 20
5134.5991777786
 10
6228.4437093833
 20
5134.3890060265
 10
6228.9876775298
 20
5134.2726191768
 10
6229.6170705773
 20
5134.2224219535
 10
6230.271712597
 20
5134.2257200283
 10
6230.8836222808
 20
5134.2818877636
 10
6231.3871629937
 20
5134.3974295625
 10
6231.7334754583
 20
5134.5798962296
 10
6231.8941150381
 20
5134.8345088627
 10
6231.8456912208
 20
5135.1630236661
 10
6231.5539832643
 20
5135.5512428214
 10
6230.9975418339
 20
5135.9298884755
 10
6230.4642702334
 20
5136.1189562053
 10
6229.9028651194
 20
5136.1835032666
  0
LWPOLYLINE
  5
F6
330
1F
100
AcDbEntity
  8
0
  6
Continuous
 62
     7
370
    25
100
AcDbPolyline
 90
       20
 70
   128
 43
0.0
 10
6317.9028651194
 20
5136.1835032666
 10
6317.33843668
 20
5136.1182519293
 10
6316.8415363303
 20
5135.9458299229
 10
6316.4057863585
 20
5135.6822851249
 10
6316.0510324297
 20
5135.3214564602
 10
6315.9028852697
 20
5134.9254471474
 10
6316.0505415041
 20
5134.5991777786
 10
6316.4437093833
 20
5134.3890060265
 10
6316.9876775298
 20
5134.2726191768
 10
6317.6170705773
 20
5134.2224219535
 10
6318.271712597
 20
5134.2257200283
 10
6318.8836222808
 20
5134.2818877636
 10
6319.3871629937
 20
5134.3974295625
 10
6319.7334754583
 20
5134.5798962296
 10
6319.8941150381
 20
5134.8345088627
 10
6319.8456912208
 20
5135.1630236661
 10
6319.5539832643
 20
5135.5512428214
 10
6318.9975418339
 20
5135.9298884755
 10
6318.4642702334
 20
5136.1189562053
 10
6317.9028651194
 20
5136.1835032666
  0
LINE
  5
F7
330
1F
100
AcDbEntity
  8
0
  6
Continuous
 62
     7
370
    25
100
AcDbLine
 10
6188.9028651194
 20
5293.9494545927
 30
0.0
 11
6198.9028651194
 21
5293.9494545927
 31
0.0
  0
ARC
  5
F8
330
1F
100
AcDbEntity
  8
0
  6
Continuous
 62
     7
370
    25
100
AcDbCircle
 10
6198.9028651194
 20
5293.9494545927
 30
0.0
 40
10.0
100
AcDbArc
 50
153.5503895378
 51
180.0
  0
ARC
  5
F9
330
1F
100
AcDbEntity
  8
0
  6
Continuous
 62
     7
370
    25
100
AcDbCircle
 10
6198.9028651194
 20
5143.9494545927
 30
0.0
 40
10.0
100
AcDbArc
 50
180.0
 51
270.0
  0
LINE
  5
FA
330
1F
100
AcDbEntity
  8
0
  6
Continuous
 62
     7
370
    25
100
AcDbLine
 10
6188.9028651194
 20
5143.9494545927
 30
0.0
 11
6198.9028651194
 21
5143.9494545927
 31
0.0
  0
LINE
  5
FB
330
1F
100
AcDbEntity
  8
0
  6
Continuous
 62
     7
370
    25
100
AcDbLine
 10
6188.9028651194
 20
5293.9494545927
 30
0.0
 11
6188.9028651194
 21
5143.9494545927
 31
0.0
  0
LINE
  5
FC
330
1F
100
AcDbEntity
  8
0
  6
Continuous
 62
     7
370
    25
100
AcDbLine
 10
6232.5770777148
 20
5132.5268048619
 30
0.0
 11
6232.5770777148
 21
5133.9494545927
 31
0.0
  0
LWPOLYLINE
  5
FD
330
1F
100
AcDbEntity
  8
0
  6
Continuous
 62
     7
370
    25
100
AcDbPolyline
 90
        3
 70
   128
 43
0.0
 10
6229.24472218
 20
5131.9494545927
 10
6230.7243020755
 20
5132.1549105441
 10
6232.5770777148
 20
5132.5268048619
  0
LINE
  5
FE
330
1F
100
AcDbEntity
  8
0
  6
Continuous
 62
     7
370
    25
100
AcDbLine
 10
6229.24472218
 20
5131.9494545927
 30
0.0
 11
6224.0245689255
 21
5131.9494545927
 31
0.0
  0
LWPOLYLINE
  5
FF
330
1F
100
AcDbEntity
  8
0
  6
Continuous
 62
     7
370
    25
100
AcDbPolyline
 90
        3
 70
   128
 43
0.0
 10
6220.6922133908
 20
5132.5268048619
 10
6221.5798958347
 20
5132.3335581295
 10
6224.0245689255
 20
5131.9494545927
  0
LINE
  5
100
330
1F
100
AcDbEntity
  8
0
  6
Continuous
 62
     7
370
    25
100
AcDbLine
 10
6220.6922133908
 20
5133.9494545927
 30
0.0
 11
6220.6922133908
 21
5132.5268048619
 31
0.0
  0
LINE
  5
101
330
1F
100
AcDbEntity
  8
0
  6
Continuous
 62
     7
370
    25
100
AcDbLine
 10
6235.3547724228
 20
5133.9494545927
 30
0.0
 11
6235.3547724228
 21
5132.5268048619
 31
0.0
  0
LINE
  5
102
330
1F
100
AcDbEntity
  8
0
  6
Continuous
 62
     7
370
    25
100
AcDbLine
 10
6232.5770777148
 20
5132.5268048619
 30
0.0
 11
6235.3547724228
 21
5132.5268048619
 31
0.0
  0
LINE
  5
103
330
1F
100
AcDbEntity
  8
0
  6
Continuous
 62
     7
370
    25
100
AcDbLine
 10
6217.9145186827
 20
5132.5268048619
 30
0.0
 11
6220.6922133908
 21
5132.5268048619
 31
0.0
  0
LINE
  5
104
330
1F
100
AcDbEntity
  8
0
  6
Continuous
 62
     7
370
    25
100
AcDbLine
 10
6217.9145186827
 20
5132.5268048619
 30
0.0
 11
6217.9145186827
 21
5133.9494545927
 31
0.0
  0
LINE
  5
105
330
1F
100
AcDbEntity
  8
0
  6
Continuous
 62
     7
370
    25
100
AcDbLine
 10
6235.3547724228
 20
5132.5268048619
 30
0.0
 11
6237.0209501902
 21
5131.9494545927
 31
0.0
  0
LINE
  5
106
330
1F
100
AcDbEntity
  8
0
  6
Continuous
 62
     7
370
    25
100
AcDbLine
 10
6229.24472218
 20
5131.9494545927
 30
0.0
 11
6237.0209501902
 21
5131.9494545927
 31
0.0
  0
LWPOLYLINE
  5
107
330
1F
100
AcDbEntity
  8
0
  6
Continuous
 62
     7
370
    25
100
AcDbPolyline
 90
        3
 70
   128
 43
0.0
 10
6216.2483409153
 20
5131.9494545927
 10
6216.4346436087
 20
5131.9930850815
 10
6217.9145186827
 20
5132.5268048619
  0
LINE
  5
108
330
1F
100
AcDbEntity
  8
0
  6
Continuous
 62
     7
370
    25
100
AcDbLine
 10
6216.2483409153
 20
5131.9494545927
 30
0.0
 11
6224.0245689255
 21
5131.9494545927
 31
0.0
  0
LINE
  5
109
330
1F
100
AcDbEntity
  8
0
  6
Continuous
 62
     7
370
    25
100
AcDbLine
 10
6226.6346455528
 20
5131.9491644813
 30
0.0
 11
6239.8551455528
 21
5131.9491644813
 31
0.0
  0
LINE
  5
10A
330
1F
100
AcDbEntity
  8
0
  6
Continuous
 62
     7
370
    25
100
AcDbLine
 10
6213.4141455528
 20
5131.9491644813
 30
0.0
 11
6226.6346455528
 21
5131.9491644813
 31
0.0
  0
LINE
  5
10B
330
1F
100
AcDbEntity
  8
0
  6
Continuous
 62
     7
370
    25
100
AcDbLine
 10
6239.8551455528
 20
5128.9497447041
 30
0.0
 11
6213.4141455528
 21
5128.9497447041
 31
0.0
  0
LINE
  5
10C
330
1F
100
AcDbEntity
  8
0
  6
Continuous
 62
     7
370
    25
100
AcDbLine
 10
6226.6346455528
 20
5123.9494545927
 30
0.0
 11
6239.8551455528
 21
5123.9494545927
 31
0.0
  0
LINE
  5
10D
330
1F
100
AcDbEntity
  8
0
  6
Continuous
 62
     7
370
    25
100
AcDbLine
 10
6213.4141455528
 20
5123.9494545927
 30
0.0
 11
6226.6346455528
 21
5123.9494545927
 31
0.0
  0
LINE
  5
10E
330
1F
100
AcDbEntity
  8
0
  6
Continuous
 62
     7
370
    25
100
AcDbLine
 10
6226.6346455528
 20
5122.9494545927
 30
0.0
 11
6214.4141455528
 21
5122.9494545927
 31
0.0
  0
LINE
  5
10F
330
1F
100
AcDbEntity
  8
0
  6
Continuous
 62
     7
370
    25
100
AcDbLine
 10
6238.8551455528
 20
5122.9494545927
 30
0.0
 11
6226.6346455528
 21
5122.9494545927
 31
0.0
  0
LINE
  5
110
330
1F
100
AcDbEntity
  8
0
  6
Continuous
 62
     7
370
    25
100
AcDbLine
 10
6241.2972045848
 20
5132.5268048619
 30
0.0
 11
6241.2972045848
 21
5133.9494545927
 31
0.0
  0
LWPOLYLINE
  5
111
330
1F
100
AcDbEntity
  8
0
  6
Continuous
 62
     7
370
    25
100
AcDbPolyline
 90
        3
 70
   128
 43
0.0
 10
6239.6310268175
 20
5131.9494545927
 10
6239.8173295109
 20
5131.9930850815
 10
6241.2972045848
 20
5132.5268048619
  0
LINE
  5
112
330
1F
100
AcDbEntity
  8
0
  6
Continuous
 62
     7
370
    25
100
AcDbLine
 10
6239.6310268175
 20
5131.9494545927
 30
0.0
 11
6237.0209501902
 21
5131.9494545927
 31
0.0
  0
LINE
  5
113
330
1F
100
AcDbEntity
  8
0
  6
Continuous
 62
     7
370
    25
100
AcDbLine
 10
6211.9720865207
 20
5132.5268048619
 30
0.0
 11
6213.6382642881
 21
5131.9494545927
 31
0.0
  0
LINE
  5
114
330
1F
100
AcDbEntity
  8
0
  6
Continuous
 62
     7
370
    25
100
AcDbLine
 10
6211.9720865207
 20
5133.9494545927
 30
0.0
 11
6211.9720865207
 21
5132.5268048619
 31
0.0
  0
LINE
  5
115
330
1F
100
AcDbEntity
  8
0
  6
Continuous
 62
     7
370
    25
100
AcDbLine
 10
6216.2483409153
 20
5131.9494545927
 30
0.0
 11
6213.6382642881
 21
5131.9494545927
 31
0.0
  0
LINE
  5
116
330
1F
100
AcDbEntity
  8
0
  6
Continuous
 62
     7
370
    25
100
AcDbLine
 10
6241.2972045848
 20
5132.5268048619
 30
0.0
 11
6241.3846455528
 21
5132.5268048619
 31
0.0
  0
LINE
  5
117
330
1F
100
AcDbEntity
  8
0
  6
Continuous
 62
     7
370
    25
100
AcDbLine
 10
6239.6310268175
 20
5131.9494545927
 30
0.0
 11
6240.3846455528
 21
5131.9494545927
 31
0.0
  0
LINE
  5
118
330
1F
100
AcDbEntity
  8
0
  6
Continuous
 62
     7
370
    25
100
AcDbLine
 10
6211.8846455528
 20
5132.5268048619
 30
0.0
 11
6211.9720865207
 21
5132.5268048619
 31
0.0
  0
LINE
  5
119
330
1F
100
AcDbEntity
  8
0
  6
Continuous
 62
     7
370
    25
100
AcDbLine
 10
6212.8846455528
 20
5131.9494545927
 30
0.0
 11
6213.6382642881
 21
5131.9494545927
 31
0.0
  0
LINE
  5
11A
330
1F
100
AcDbEntity
  8
0
  6
Continuous
 62
     8
370
    25
100
AcDbLine
 10
6349.1346455528
 20
5144.4494545927
 30
0.0
 11
6349.1346455528
 21
5144.2176741594
 31
0.0
  0
LINE
  5
11B
330
1F
100
AcDbEntity
  8
0
  6
Continuous
 62
     8
370
    25
100
AcDbLine
 10
6198.4794518315
 20
5294.4494545927
 30
0.0
 11
6199.1346455528
 21
5294.4494545927
 31
0.0
  0
LINE
  5
11C
330
1F
100
AcDbEntity
  8
0
  6
Continuous
 62
     8
370
    25
100
AcDbLine
 10
6348.9028651194
 20
5143.9494545927
 30
0.0
 11
6349.5580588408
 21
5143.9494545927
 31
0.0
  0
LINE
  5
11D
330
1F
100
AcDbEntity
  8
0
  6
Continuous
 62
     8
370
    25
100
AcDbLine
 10
6198.9028651194
 20
5294.1812350261
 30
0.0
 11
6198.9028651194
 21
5293.9494545927
 31
0.0
  0
ARC
  5
11E
330
1F
100
AcDbEntity
  8
0
  6
Continuous
 62
     7
370
    25
100
AcDbCircle
 10
6556.7010916007
 20
5228.6494545927
 30
0.0
 40
0.2000000000007276
100
AcDbArc
 50
180.0
 51
270.0
  0
ARC
  5
11F
330
1F
100
AcDbEntity
  8
0
  6
Continuous
 62
     7
370
    25
100
AcDbCircle
 10
6556.7010916007
 20
5256.2494545927
 30
0.0
 40
0.2000000000007276
100
AcDbArc
 50
90.0
 51
180.0
  0
LINE
  5
120
330
1F
100
AcDbEntity
  8
0
  6
Continuous
 62
     7
370
    25
100
AcDbLine
 10
6816.3010916007
 20
5256.4494545927
 30
0.0
 11
6556.7010916007
 21
5256.4494545927
 31
0.0
  0
LINE
  5
121
330
1F
100
AcDbEntity
  8
0
  6
Continuous
 62
     7
370
    25
100
AcDbLine
 10
6567.4622299334
 20
5228.4494545927
 30
0.0
 11
6779.4498453661
 21
5228.4494545927
 31
0.0
  0
LINE
  5
122
330
1F
100
AcDbEntity
  8
0
  6
Continuous
 62
     7
370
    25
100
AcDbLine
 10
6556.7010916007
 20
5228.4494545927
 30
0.0
 11
6562.8910916007
 21
5228.4494545927
 31
0.0
  0
ARC
  5
123
330
1F
100
AcDbEntity
  8
0
  6
Continuous
 62
     7
370
    25
100
AcDbCircle
 10
6816.3010916007
 20
5256.2494545927
 30
0.0
 40
0.2000000000007276
100
AcDbArc
 50
0.0
 51
90.0
  0
ARC
  5
124
330
1F
100
AcDbEntity
  8
0
  6
Continuous
 62
     7
370
    25
100
AcDbCircle
 10
6788.4300653092
 20
5234.0501996889
 30
0.0
 40
0.2000000000008638
100
AcDbArc
 50
287.049030972
 51
341.7489308892
  0
ARC
  5
125
330
1F
100
AcDbEntity
  8
0
  6
Continuous
 62
     7
370
    25
100
AcDbCircle
 10
6811.9489988308
 20
5241.2626726356
 30
0.0
 40
0.2000000000001146
100
AcDbArc
 50
201.9917272341
 51
287.0490309723
  0
ARC
  5
126
330
1F
100
AcDbEntity
  8
0
  6
Continuous
 62
     7
370
    25
100
AcDbCircle
 10
6564.8534234893
 20
5211.6362452625
 30
0.0
 40
17.01650836553943
100
AcDbArc
 50
81.1801838858
 51
85.8707764073
  0
LWPOLYLINE
  5
127
330
1F
100
AcDbEntity
  8
0
  6
Continuous
 62
     7
370
    25
100
AcDbPolyline
 90
       16
 70
   128
 43
0.0
 10
6562.8724733383
 20
5228.4508954632
 10
6562.8865651818
 20
5228.4495625718
 10
6562.9063929212
 20
5228.4500807895
 10
6562.9142559766
 20
5228.4508337651
 10
6562.9173716972
 20
5228.4512190479
 10
6562.9190086405
 20
5228.4514413196
 10
6562.9204079856
 20
5228.4516421352
 10
6562.9217790815
 20
5228.4518483823
 10
6562.9234023731
 20
5228.4521034673
 10
6562.9330794655
 20
5228.4536913562
 10
6563.1477513188
 20
5228.4876795098
 10
6563.5945766676
 20
5228.5477562713
 10
6564.2275139487
 20
5228.6078840121
 10
6564.9706342756
 20
5228.6406498494
 10
6565.7338579753
 20
5228.6314805256
 10
6566.0787172128
 20
5228.6085819386
  0
LINE
  5
128
330
1F
100
AcDbEntity
  8
0
  6
Continuous
 62
     7
370
    25
100
AcDbLine
 10
6788.7755195631
 20
5233.9469458344
 30
0.0
 11
6790.8425087612
 21
5227.2067636667
 31
0.0
  0
LINE
  5
129
330
1F
100
AcDbEntity
  8
0
  6
Continuous
 62
     7
370
    25
100
AcDbLine
 10
6813.7878097579
 20
5234.243322639
 30
0.0
 11
6811.7208205598
 21
5240.9835048068
 31
0.0
  0
LINE
  5
12A
330
1F
100
AcDbEntity
  8
0
  6
Continuous
 62
     7
370
    25
100
AcDbLine
 10
6790.8425087612
 20
5227.2067636667
 30
0.0
 11
6791.945157948
 21
5227.0219265197
 31
0.0
  0
LINE
  5
12B
330
1F
100
AcDbEntity
  8
0
  6
Continuous
 62
     7
370
    25
100
AcDbLine
 10
6812.9783505283
 20
5233.4721055777
 30
0.0
 11
6813.7878097579
 21
5234.243322639
 31
0.0
  0
LINE
  5
12C
330
1F
100
AcDbEntity
  8
0
  6
Continuous
 62
     7
370
    25
100
AcDbLine
 10
6556.5010916007
 20
5228.4494545927
 30
0.0
 11
6556.7010916007
 21
5228.4494545927
 31
0.0
  0
LINE
  5
12D
330
1F
100
AcDbEntity
  8
0
  6
Continuous
 62
     7
370
    25
100
AcDbLine
 10
6556.7010916007
 20
5256.4494545927
 30
0.0
 11
6556.5010916007
 21
5256.4494545927
 31
0.0
  0
LINE
  5
12E
330
1F
100
AcDbEntity
  8
0
  6
Continuous
 62
     7
370
    25
100
AcDbLine
 10
6545.7465559349
 20
5253.3949189269
 30
0.0
 11
6545.5010916007
 21
5253.1494545927
 31
0.0
  0
LWPOLYLINE
  5
12F
330
1F
100
AcDbEntity
  8
0
  6
Continuous
 62
     7
370
    25
100
AcDbPolyline
 90
        3
 70
   128
 43
0.0
 10
6546.1014174319
 20
5252.8302225179
 10
6545.8656225423
 20
5253.2381953242
 10
6545.7731423201
 20
5253.3983313045
  0
LINE
  5
130
330
1F
100
AcDbEntity
  8
0
  6
Continuous
 62
     7
370
    25
100
AcDbLine
 10
6546.4007965904
 20
5231.3243106638
 30
0.0
 11
6546.5010916007
 21
5231.4956296441
 31
0.0
  0
LINE
  5
131
330
1F
100
AcDbEntity
  8
0
  6
Continuous
 62
     7
370
    25
100
AcDbLine
 10
6546.5010916007
 20
5253.2270453702
 30
0.0
 11
6546.2717599935
 21
5252.8302006552
 31
0.0
  0
LWPOLYLINE
  5
132
330
1F
100
AcDbEntity
  8
0
  6
Continuous
 62
     7
370
    25
100
AcDbPolyline
 90
        3
 70
   128
 43
0.0
 10
6545.5054689153
 20
5232.1213274494
 10
6545.7386362462
 20
5231.7237930912
 10
6545.974507271
 20
5231.3126536988
  0
LINE
  5
133
330
1F
100
AcDbEntity
  8
0
  6
Continuous
 62
     7
370
    25
100
AcDbLine
 10
6546.0010916007
 20
5231.2494545927
 30
0.0
 11
6546.374051292
 21
5231.2494545927
 31
0.0
  0
LINE
  5
134
330
1F
100
AcDbEntity
  8
0
  6
Continuous
 62
     7
370
    25
100
AcDbLine
 10
6545.5010916007
 20
5252.8494545927
 30
0.0
 11
6544.2010916007
 21
5252.8494545927
 31
0.0
  0
LINE
  5
135
330
1F
100
AcDbEntity
  8
0
  6
Continuous
 62
     7
370
    25
100
AcDbLine
 10
6544.2010916007
 20
5232.0494545927
 30
0.0
 11
6545.3359977424
 21
5232.0494545927
 31
0.0
  0
LWPOLYLINE
  5
136
330
1F
100
AcDbEntity
  8
0
  6
Continuous
 62
     7
370
    25
100
AcDbPolyline
 90
        3
 70
   128
 43
0.0
 10
6546.2804054206
 20
5252.8375556523
 10
6546.1855580454
 20
5252.8374422695
 10
6546.0971821458
 20
5252.8375504187
  0
LWPOLYLINE
  5
137
330
1F
100
AcDbEntity
  8
0
  6
Continuous
 62
     7
370
    25
100
AcDbPolyline
 90
        3
 70
   128
 43
0.0
 10
6545.2984917598
 20
5232.246912369
 10
6545.390849804
 20
5232.2583970383
 10
6545.4859917598
 20
5232.246912369
  0
LINE
  5
138
330
1F
100
AcDbEntity
  8
0
  6
Continuous
 62
     7
370
    25
100
AcDbLine
 10
6464.9805916007
 20
5128.9497447041
 30
0.0
 11
6464.9805916007
 21
5123.9494545927
 31
0.0
  0
LINE
  5
139
330
1F
100
AcDbEntity
  8
0
  6
Continuous
 62
     7
370
    25
100
AcDbLine
 10
6491.4215916007
 20
5123.9494545927
 30
0.0
 11
6491.4215916007
 21
5128.9497447041
 31
0.0
  0
LINE
  5
13A
330
1F
100
AcDbEntity
  8
0
  6
Continuous
 62
     7
370
    25
100
AcDbLine
 10
6464.9805916007
 20
5123.9494545927
 30
0.0
 11
6465.9805916007
 21
5122.9494545927
 31
0.0
  0
LINE
  5
13B
330
1F
100
AcDbEntity
  8
0
  6
Continuous
 62
     7
370
    25
100
AcDbLine
 10
6490.4215916007
 20
5122.9494545927
 30
0.0
 11
6491.4215916007
 21
5123.9494545927
 31
0.0
  0
LINE
  5
13C
330
1F
100
AcDbEntity
  8
0
  6
Continuous
 62
     7
370
    25
100
AcDbLine
 10
6464.9805916007
 20
5131.9494545927
 30
0.0
 11
6464.9805916007
 21
5131.9491644813
 31
0.0
  0
LINE
  5
13D
330
1F
100
AcDbEntity
  8
0
  6
Continuous
 62
     7
370
    25
100
AcDbLine
 10
6491.4215916007
 20
5131.9491644813
 30
0.0
 11
6491.4215916007
 21
5131.9494545927
 31
0.0
  0
ARC
  5
13E
330
1F
100
AcDbEntity
  8
0
  6
Continuous
 62
     7
370
    25
100
AcDbCircle
 10
6464.9510916007
 20
5130.4494545927
 30
0.0
 40
1.500000000000631
100
AcDbArc
 50
271.1268896477
 51
88.8731103523
  0
ARC
  5
13F
330
1F
100
AcDbEntity
  8
0
  6
Continuous
 62
     7
370
    25
100
AcDbCircle
 10
6491.4510916007
 20
5130.4494545927
 30
0.0
 40
1.500000000000614
100
AcDbArc
 50
91.1268896477
 51
268.8731103523
  0
LINE
  5
140
330
1F
100
AcDbEntity
  8
0
  6
Continuous
 62
     7
370
    25
100
AcDbLine
 10
6784.9148286706
 20
5232.8348421805
 30
0.0
 11
6816.3010916007
 21
5242.5994573144
 31
0.0
  0
LWPOLYLINE
  5
141
330
1F
100
AcDbEntity
  8
0
  6
Continuous
 62
     7
370
    25
100
AcDbPolyline
 90
        3
 70
   128
 43
0.0
 10
6784.9148286706
 20
5232.8348421805
 10
6784.8736602316
 20
5232.8201407928
 10
6784.7164730913
 20
5232.7266048824
  0
LWPOLYLINE
  5
142
330
1F
100
AcDbEntity
  8
0
  6
Continuous
 62
     7
370
    25
100
AcDbPolyline
 90
        8
 70
   128
 43
0.0
 10
6779.4498453661
 20
5228.4734752394
 10
6779.4490631963
 20
5228.4728451367
 10
6779.694546946
 20
5228.6706219599
 10
6780.1470428837
 20
5229.0352842695
 10
6780.7972477106
 20
5229.5595231563
 10
6781.9399442241
 20
5230.4815893721
 10
6783.327893708
 20
5231.6029666915
 10
6784.7164730913
 20
5232.7266048824
  0
LINE
  5
143
330
1F
100
AcDbEntity
  8
0
  6
Continuous
 62
     7
370
    25
100
AcDbLine
 10
6816.3597295922
 20
5242.4061035767
 30
0.0
 11
6784.973466662
 21
5232.7809829448
 31
0.0
  0
LWPOLYLINE
  5
144
330
1F
100
AcDbEntity
  8
0
  6
Continuous
 62
     7
370
    25
100
AcDbPolyline
 90
        9
 70
   128
 43
0.0
 10
6784.973466662
 20
5232.7809829448
 10
6784.9676905303
 20
5232.7804038624
 10
6784.9613118424
 20
5232.7820109352
 10
6784.9544033069
 20
5232.7857858447
 10
6784.947043672
 20
5232.7916855617
 10
6784.9393168282
 20
5232.7996428372
 10
6784.9313108513
 20
5232.8095669687
 10
6784.923116999
 20
5232.8213448339
 10
6784.9148286706
 20
5232.8348421805
  0
ARC
  5
145
330
1F
100
AcDbEntity
  8
0
  6
Continuous
 62
     7
370
    25
100
AcDbCircle
 10
6800.8898629775
 20
5237.820157239
 30
0.0
 40
16.13529289749382
100
AcDbArc
 50
16.5121313311
 51
17.2296064252
  0
ARC
  5
146
330
1F
100
AcDbEntity
  8
0
  6
Continuous
 62
     7
370
    25
100
AcDbCircle
 10
6816.3510858608
 20
5237.9312681529
 30
0.0
 40
4.668456862065844
100
AcDbArc
 50
88.1586687685
 51
90.6135892303
  0
ARC
  5
147
330
1F
100
AcDbEntity
  8
0
  6
Continuous
 62
     7
370
    25
100
AcDbCircle
 10
6816.3010916007
 20
5242.5973144183
 30
0.0
 40
0.2000000000007276
100
AcDbArc
 50
287.049030972
 51
0.0
  0
LINE
  5
148
330
1F
100
AcDbEntity
  8
0
  6
Continuous
 62
     7
370
    25
100
AcDbLine
 10
6816.5010916007
 20
5256.2494545927
 30
0.0
 11
6816.5010916007
 21
5242.5973144183
 31
0.0
  0
LWPOLYLINE
  5
149
330
1F
100
AcDbEntity
  8
0
  6
Continuous
 62
     7
370
    25
100
AcDbPolyline
 90
        3
 70
   128
 43
0.0
 10
6784.8520746585
 20
5232.7208250603
 10
6784.9493004413
 20
5232.7726387804
 10
6784.973466662
 20
5232.7809829448
  0
LWPOLYLINE
  5
14A
330
1F
100
AcDbEntity
  8
0
  6
Continuous
 62
     7
370
    25
100
AcDbPolyline
 90
        9
 70
   128
 43
0.0
 10
6784.8520746585
 20
5232.7208250603
 10
6784.8419818286
 20
5232.7097942997
 10
6784.8293001675
 20
5232.7019752904
 10
6784.8142912561
 20
5232.6975293129
 10
6784.7972646785
 20
5232.6965480729
 10
6784.7785716371
 20
5232.6990518103
 10
6784.7585977075
 20
5232.7049888812
 10
6784.737754886
 20
5232.7142368234
 10
6784.7164730913
 20
5232.7266048824
  0
LWPOLYLINE
  5
14B
330
1F
100
AcDbEntity
  8
0
  6
Continuous
 62
     7
370
    25
100
AcDbPolyline
 90
        8
 70
   128
 43
0.0
 10
6784.8520746585
 20
5232.7208250603
 10
6783.4645391557
 20
5231.613558967
 10
6782.0952088269
 20
5230.5225506466
 10
6780.9356318455
 20
5229.5998406797
 10
6780.2937747921
 20
5229.0895220674
 10
6779.8336297077
 20
5228.7238523173
 10
6779.5921917775
 20
5228.5320366034
 10
6779.5908849645
 20
5228.5310010466
  0
LINE
  5
14C
330
1F
100
AcDbEntity
  8
0
  6
Continuous
 62
     7
370
    25
100
AcDbLine
 10
6808.3346891211
 20
5232.5710323104
 30
0.0
 11
6813.7878097579
 21
5234.243322639
 31
0.0
  0
LINE
  5
14D
330
1F
100
AcDbEntity
  8
0
  6
Continuous
 62
     7
370
    25
100
AcDbLine
 10
6808.3346891211
 20
5232.5710323104
 30
0.0
 11
6807.308524271
 21
5235.9172220391
 31
0.0
  0
LINE
  5
14E
330
1F
100
AcDbEntity
  8
0
  6
Continuous
 62
     7
370
    25
100
AcDbLine
 10
6807.308524271
 20
5235.9172220391
 30
0.0
 11
6798.2296468949
 21
5233.1330329771
 31
0.0
  0
LINE
  5
14F
330
1F
100
AcDbEntity
  8
0
  6
Continuous
 62
     7
370
    25
100
AcDbLine
 10
6798.2296468949
 20
5233.1330329771
 30
0.0
 11
6799.255811745
 21
5229.7868432484
 31
0.0
  0
LINE
  5
150
330
1F
100
AcDbEntity
  8
0
  6
Continuous
 62
     7
370
    25
100
AcDbLine
 10
6790.8425087612
 20
5227.2067636667
 30
0.0
 11
6799.255811745
 21
5229.7868432484
 31
0.0
  0
LWPOLYLINE
  5
151
330
1F
100
AcDbEntity
  8
0
  6
Continuous
 62
     7
370
    25
100
AcDbPolyline
 90
        3
 70
   128
 43
0.0
 10
6799.255811745
 20
5229.7868432484
 10
6800.5854598974
 20
5229.9500465793
 10
6803.9418454116
 20
5230.7009106753
  0
LINE
  5
152
330
1F
100
AcDbEntity
  8
0
  6
Continuous
 62
     7
370
    25
100
AcDbLine
 10
6791.945157948
 20
5227.0219265197
 30
0.0
 11
6803.9418454116
 21
5230.7009106753
 31
0.0
  0
LWPOLYLINE
  5
153
330
1F
100
AcDbEntity
  8
0
  6
Continuous
 62
     7
370
    25
100
AcDbPolyline
 90
        3
 70
   128
 43
0.0
 10
6803.9418454116
 20
5230.7009106753
 10
6808.0402036487
 20
5232.4135676495
 10
6808.3346891211
 20
5232.5710323104
  0
LINE
  5
154
330
1F
100
AcDbEntity
  8
0
  6
Continuous
 62
     7
370
    25
100
AcDbLine
 10
6803.9418454116
 20
5230.7009106753
 30
0.0
 11
6812.9783505283
 21
5233.4721055777
 31
0.0
  0
ARC
  5
155
330
1F
100
AcDbEntity
  8
0
  6
Continuous
 62
     7
370
    25
100
AcDbCircle
 10
6564.4465556264
 20
5235.5740842279
 30
0.0
 40
18.94555107677551
100
AcDbArc
 50
179.8263114083
 51
193.1937051495
  0
LINE
  5
156
330
1F
100
AcDbEntity
  8
0
  6
Continuous
 62
     7
370
    25
100
AcDbLine
 10
6545.5010916007
 20
5235.6315163996
 30
0.0
 11
6545.5010916007
 21
5253.1494545927
 31
0.0
  0
LWPOLYLINE
  5
157
330
1F
100
AcDbEntity
  8
0
  6
Continuous
 62
     7
370
    25
100
AcDbPolyline
 90
       11
 70
   128
 43
0.0
 10
6546.0010916007
 20
5242.3521074108
 10
6545.9745949797
 20
5244.3431626685
 10
6545.9490701004
 20
5246.1277787881
 10
6545.922536135
 20
5247.853728816
 10
6545.8972221438
 20
5249.3761148372
 10
6545.8721237056
 20
5250.7386123776
 10
6545.8469360607
 20
5251.8226413486
 10
6545.8202441722
 20
5252.6618944517
 10
6545.794545077
 20
5253.1814339698
 10
6545.7688624875
 20
5253.4052116252
 10
6545.761996388
 20
5253.3794784737
  0
LINE
  5
158
330
1F
100
AcDbEntity
  8
0
  6
Continuous
 62
     7
370
    25
100
AcDbLine
 10
6546.0010916007
 20
5242.3521074108
 30
0.0
 11
6546.0010916007
 21
5231.2498776556
 31
0.0
  0
ARC
  5
159
330
1F
100
AcDbEntity
  8
0
  6
Continuous
 62
     7
370
    25
100
AcDbCircle
 10
6579.3046421776
 20
5235.9530264446
 30
0.0
 40
34.19214177833582
100
AcDbArc
 50
179.4795582554
 51
186.5546198368
  0
ARC
  5
15A
330
1F
100
AcDbEntity
  8
0
  6
Continuous
 62
     7
370
    25
100
AcDbCircle
 10
6360.9148528538
 20
5240.6018203906
 30
0.0
 40
185.5866663384022
100
AcDbArc
 50
0.1229925562
 51
3.7627258256
  0
ARC
  5
15B
330
1F
100
AcDbEntity
  8
0
  6
Continuous
 62
     7
370
    25
100
AcDbCircle
 10
6725.7687796862
 20
5242.8459910135
 30
0.0
 40
179.7683665181387
100
AcDbArc
 50
180.1574107956
 51
183.6947225868
  0
ARC
  5
15C
330
1F
100
AcDbEntity
  8
0
  6
Continuous
 62
     7
370
    25
100
AcDbCircle
 10
6508.4077534216
 20
5248.7315408282
 30
0.0
 40
38.09345912856281
100
AcDbArc
 50
359.8556175517
 51
6.1714339825
  0
ARC
  5
15D
330
1F
100
AcDbEntity
  8
0
  6
Continuous
 62
     7
370
    25
100
AcDbCircle
 10
6590.0863921228
 20
5236.4020772058
 30
0.0
 40
44.77830421867001
100
AcDbArc
 50
180.1681240705
 51
185.3734116688
  0
ARC
  5
15E
330
1F
100
AcDbEntity
  8
0
  6
Continuous
 62
     7
370
    25
100
AcDbCircle
 10
6597.1152495511
 20
5236.5697805745
 30
0.0
 40
51.80100392738296
100
AcDbArc
 50
180.3386536459
 51
184.8678932472
  0
LINE
  5
15F
330
1F
100
AcDbEntity
  8
0
  6
Continuous
 62
     7
370
    25
100
AcDbLine
 10
6545.5010916007
 20
5232.1740204627
 30
0.0
 11
6545.5010916007
 21
5235.6315163996
 31
0.0
  0
LINE
  5
160
330
1F
100
AcDbEntity
  8
0
  6
Continuous
 62
     7
370
    25
100
AcDbLine
 10
6545.3151504666
 20
5236.2636062481
 30
0.0
 11
6545.1139109617
 21
5236.2636062481
 31
0.0
  0
ARC
  5
161
330
1F
100
AcDbEntity
  8
0
  6
Continuous
 62
     7
370
    25
100
AcDbCircle
 10
6546.5010916007
 20
5294.4494545927
 30
0.0
 40
10.0
100
AcDbArc
 50
0.0
 51
90.0
  0
LINE
  5
162
330
1F
100
AcDbEntity
  8
0
  6
Continuous
 62
     7
370
    25
100
AcDbLine
 10
6546.5010916007
 20
5294.4494545927
 30
0.0
 11
6556.5010916007
 21
5294.4494545927
 31
0.0
  0
LINE
  5
163
330
1F
100
AcDbEntity
  8
0
  6
Continuous
 62
     7
370
    25
100
AcDbLine
 10
6546.5010916007
 20
5304.4494545927
 30
0.0
 11
6546.5010916007
 21
5298.4035598439
 31
0.0
  0
LINE
  5
164
330
1F
100
AcDbEntity
  8
0
  6
Continuous
 62
     7
370
    25
100
AcDbLine
 10
6556.5010916007
 20
5294.4494545927
 30
0.0
 11
6556.5010916007
 21
5293.9494545927
 31
0.0
  0
LINE
  5
165
330
1F
100
AcDbEntity
  8
0
  6
Continuous
 62
     7
370
    25
100
AcDbLine
 10
6546.5010916007
 20
5144.4494545927
 30
0.0
 11
6556.5010916007
 21
5144.4494545927
 31
0.0
  0
ARC
  5
166
330
1F
100
AcDbEntity
  8
0
  6
Continuous
 62
     7
370
    25
100
AcDbCircle
 10
6546.5010916007
 20
5143.9494545927
 30
0.0
 40
10.00000000000091
100
AcDbArc
 50
270.0
 51
0.0
  0
LINE
  5
167
330
1F
100
AcDbEntity
  8
0
  6
Continuous
 62
     7
370
    25
100
AcDbLine
 10
6546.5010916007
 20
5143.9494545927
 30
0.0
 11
6556.5010916007
 21
5143.9494545927
 31
0.0
  0
LINE
  5
168
330
1F
100
AcDbEntity
  8
0
  6
Continuous
 62
     7
370
    25
100
AcDbLine
 10
6546.5010916007
 20
5143.9494545927
 30
0.0
 11
6546.5010916007
 21
5133.9494545927
 31
0.0
  0
LINE
  5
169
330
1F
100
AcDbEntity
  8
0
  6
Continuous
 62
     7
370
    25
100
AcDbLine
 10
6546.5010916007
 20
5293.9494545927
 30
0.0
 11
6556.5010916007
 21
5293.9494545927
 31
0.0
  0
LINE
  5
16A
330
1F
100
AcDbEntity
  8
0
  6
Continuous
 62
     7
370
    25
100
AcDbLine
 10
6556.5010916007
 20
5293.9494545927
 30
0.0
 11
6556.5010916007
 21
5143.9494545927
 31
0.0
  0
LINE
  5
16B
330
1F
100
AcDbEntity
  8
0
  6
Continuous
 62
     7
370
    25
100
AcDbLine
 10
6546.5010916007
 20
5293.9494545927
 30
0.0
 11
6546.5010916007
 21
5143.9494545927
 31
0.0
  0
LINE
  5
16C
330
1F
100
AcDbEntity
  8
0
  6
Continuous
 62
     7
370
    25
100
AcDbLine
 10
6556.4984051314
 20
5294.1812350261
 30
0.0
 11
6556.5010916007
 21
5293.9494545927
 31
0.0
  0
LINE
  5
16D
330
1F
100
AcDbEntity
  8
0
  6
Continuous
 62
     7
370
    25
100
AcDbLine
 10
6546.5010916007
 20
5298.4035598439
 30
0.0
 11
6546.5010916007
 21
5293.9494545927
 31
0.0
  0
LINE
  5
16E
330
1F
100
AcDbEntity
  8
0
  6
Continuous
 62
     7
370
    25
100
AcDbLine
 10
6479.8047943882
 20
5132.5268048619
 30
0.0
 11
6482.6906989357
 21
5131.9494545927
 31
0.0
  0
LINE
  5
16F
330
1F
100
AcDbEntity
  8
0
  6
Continuous
 62
     7
370
    25
100
AcDbLine
 10
6473.7114842657
 20
5131.9494545927
 30
0.0
 11
6482.6906989357
 21
5131.9494545927
 31
0.0
  0
LWPOLYLINE
  5
170
330
1F
100
AcDbEntity
  8
0
  6
Continuous
 62
     7
370
    25
100
AcDbPolyline
 90
        3
 70
   128
 43
0.0
 10
6473.7114842657
 20
5131.9494545927
 10
6474.0341699964
 20
5131.9930850815
 10
6476.5973888133
 20
5132.5268048619
  0
LINE
  5
171
330
1F
100
AcDbEntity
  8
0
  6
Continuous
 62
     7
370
    25
100
AcDbLine
 10
6476.5973888133
 20
5132.5268048619
 30
0.0
 11
6479.8047943882
 21
5132.5268048619
 31
0.0
  0
LINE
  5
172
330
1F
100
AcDbEntity
  8
0
  6
Continuous
 62
     7
370
    25
100
AcDbLine
 10
6479.8047943882
 20
5140.9494545927
 30
0.0
 11
6479.8047943882
 21
5132.5268048619
 31
0.0
  0
LINE
  5
173
330
1F
100
AcDbEntity
  8
0
  6
Continuous
 62
     7
370
    25
100
AcDbLine
 10
6476.5973888133
 20
5132.5268048619
 30
0.0
 11
6476.5973888133
 21
5140.9494545927
 31
0.0
  0
LINE
  5
174
330
1F
100
AcDbEntity
  8
0
  6
Continuous
 62
     7
370
    25
100
AcDbLine
 10
6476.5973888133
 20
5140.9494545927
 30
0.0
 11
6479.8047943882
 21
5140.9494545927
 31
0.0
  0
LINE
  5
175
330
1F
100
AcDbEntity
  8
0
  6
Continuous
 62
     7
370
    25
100
AcDbLine
 10
6482.6906989357
 20
5141.9494545927
 30
0.0
 11
6479.8047943882
 21
5140.9494545927
 31
0.0
  0
LWPOLYLINE
  5
176
330
1F
100
AcDbEntity
  8
0
  6
Continuous
 62
     7
370
    25
100
AcDbPolyline
 90
        3
 70
   128
 43
0.0
 10
6476.5973888133
 20
5140.9494545927
 10
6474.3452680277
 20
5141.7919622623
 10
6473.7114842657
 20
5141.9494545927
  0
LINE
  5
177
330
1F
100
AcDbEntity
  8
0
  6
Continuous
 62
     7
370
    25
100
AcDbLine
 10
6473.7114842657
 20
5131.9494545927
 30
0.0
 11
6469.1906989357
 21
5131.9494545927
 31
0.0
  0
LINE
  5
178
330
1F
100
AcDbEntity
  8
0
  6
Continuous
 62
     7
370
    25
100
AcDbLine
 10
6466.3047943882
 20
5132.5268048619
 30
0.0
 11
6469.1906989357
 21
5131.9494545927
 31
0.0
  0
LINE
  5
179
330
1F
100
AcDbEntity
  8
0
  6
Continuous
 62
     7
370
    25
100
AcDbLine
 10
6466.3047943882
 20
5140.9494545927
 30
0.0
 11
6466.3047943882
 21
5132.5268048619
 31
0.0
  0
LINE
  5
17A
330
1F
100
AcDbEntity
  8
0
  6
Continuous
 62
     7
370
    25
100
AcDbLine
 10
6469.1906989357
 20
5141.9494545927
 30
0.0
 11
6466.3047943882
 21
5140.9494545927
 31
0.0
  0
LWPOLYLINE
  5
17B
330
1F
100
AcDbEntity
  8
0
  6
Continuous
 62
     7
370
    25
100
AcDbPolyline
 90
        3
 70
   128
 43
0.0
 10
6490.0973888133
 20
5140.9494545927
 10
6487.8452680277
 20
5141.7919622623
 10
6487.2114842657
 20
5141.9494545927
  0
LINE
  5
17C
330
1F
100
AcDbEntity
  8
0
  6
Continuous
 62
     7
370
    25
100
AcDbLine
 10
6490.0973888133
 20
5132.5268048619
 30
0.0
 11
6490.0973888133
 21
5140.9494545927
 31
0.0
  0
LWPOLYLINE
  5
17D
330
1F
100
AcDbEntity
  8
0
  6
Continuous
 62
     7
370
    25
100
AcDbPolyline
 90
        3
 70
   128
 43
0.0
 10
6487.2114842657
 20
5131.9494545927
 10
6487.5341699964
 20
5131.9930850815
 10
6490.0973888133
 20
5132.5268048619
  0
LINE
  5
17E
330
1F
100
AcDbEntity
  8
0
  6
Continuous
 62
     7
370
    25
100
AcDbLine
 10
6487.2114842657
 20
5131.9494545927
 30
0.0
 11
6482.6906989357
 21
5131.9494545927
 31
0.0
  0
LINE
  5
17F
330
1F
100
AcDbEntity
  8
0
  6
Continuous
 62
     7
370
    25
100
AcDbLine
 10
6464.9805916007
 20
5123.9494545927
 30
0.0
 11
6491.4215916007
 21
5123.9494545927
 31
0.0
  0
LINE
  5
180
330
1F
100
AcDbEntity
  8
0
  6
Continuous
 62
     7
370
    25
100
AcDbLine
 10
6491.4215916007
 20
5128.9497447041
 30
0.0
 11
6464.9805916007
 21
5128.9497447041
 31
0.0
  0
LINE
  5
181
330
1F
100
AcDbEntity
  8
0
  6
Continuous
 62
     7
370
    25
100
AcDbLine
 10
6490.4215916007
 20
5122.9494545927
 30
0.0
 11
6465.9805916007
 21
5122.9494545927
 31
0.0
  0
LINE
  5
182
330
1F
100
AcDbEntity
  8
0
  6
Continuous
 62
     7
370
    25
100
AcDbLine
 10
6464.9805916007
 20
5131.9491644813
 30
0.0
 11
6491.4215916007
 21
5131.9491644813
 31
0.0
  0
LINE
  5
183
330
1F
100
AcDbEntity
  8
0
  6
Continuous
 62
     7
370
    25
100
AcDbLine
 10
6464.7010916007
 20
5140.9494545927
 30
0.0
 11
6464.7010916007
 21
5141.9494545927
 31
0.0
  0
LINE
  5
184
330
1F
100
AcDbEntity
  8
0
  6
Continuous
 62
     7
370
    25
100
AcDbLine
 10
6464.7010916007
 20
5140.9494545927
 30
0.0
 11
6466.3047943882
 21
5140.9494545927
 31
0.0
  0
LINE
  5
185
330
1F
100
AcDbEntity
  8
0
  6
Continuous
 62
     7
370
    25
100
AcDbLine
 10
6464.7010916007
 20
5141.9494545927
 30
0.0
 11
6465.9896175516
 21
5141.9494545927
 31
0.0
  0
LINE
  5
186
330
1F
100
AcDbEntity
  8
0
  6
Continuous
 62
     7
370
    25
100
AcDbLine
 10
6464.7010916007
 20
5131.9494545927
 30
0.0
 11
6464.7010916007
 21
5132.5268048619
 31
0.0
  0
LINE
  5
187
330
1F
100
AcDbEntity
  8
0
  6
Continuous
 62
     7
370
    25
100
AcDbLine
 10
6464.7010916007
 20
5132.5268048619
 30
0.0
 11
6466.3047943882
 21
5132.5268048619
 31
0.0
  0
LINE
  5
188
330
1F
100
AcDbEntity
  8
0
  6
Continuous
 62
     7
370
    25
100
AcDbLine
 10
6464.7010916007
 20
5131.9494545927
 30
0.0
 11
6469.1906989357
 21
5131.9494545927
 31
0.0
  0
LINE
  5
189
330
1F
100
AcDbEntity
  8
0
  6
Continuous
 62
     7
370
    25
100
AcDbLine
 10
6491.7010916007
 20
5141.9494545927
 30
0.0
 11
6491.7010916007
 21
5140.9494545927
 31
0.0
  0
LINE
  5
18A
330
1F
100
AcDbEntity
  8
0
  6
Continuous
 62
     7
370
    25
100
AcDbLine
 10
6490.0973888133
 20
5140.9494545927
 30
0.0
 11
6491.7010916007
 21
5140.9494545927
 31
0.0
  0
LINE
  5
18B
330
1F
100
AcDbEntity
  8
0
  6
Continuous
 62
     7
370
    25
100
AcDbLine
 10
6491.7010916007
 20
5132.5268048619
 30
0.0
 11
6491.7010916007
 21
5131.9494545927
 31
0.0
  0
LINE
  5
18C
330
1F
100
AcDbEntity
  8
0
  6
Continuous
 62
     7
370
    25
100
AcDbLine
 10
6490.0973888133
 20
5132.5268048619
 30
0.0
 11
6491.7010916007
 21
5132.5268048619
 31
0.0
  0
LINE
  5
18D
330
1F
100
AcDbEntity
  8
0
  6
Continuous
 62
     7
370
    25
100
AcDbLine
 10
6487.2114842657
 20
5131.9494545927
 30
0.0
 11
6491.7010916007
 21
5131.9494545927
 31
0.0
  0
LINE
  5
18E
330
1F
100
AcDbEntity
  8
0
  6
Continuous
 62
     7
370
    25
100
AcDbLine
 10
6464.7010916007
 20
5132.5268048619
 30
0.0
 11
6464.7010916007
 21
5140.9494545927
 31
0.0
  0
LINE
  5
18F
330
1F
100
AcDbEntity
  8
0
  6
Continuous
 62
     7
370
    25
100
AcDbLine
 10
6491.7010916007
 20
5140.9494545927
 30
0.0
 11
6491.7010916007
 21
5132.5268048619
 31
0.0
  0
LINE
  5
190
330
1F
100
AcDbEntity
  8
0
  6
Continuous
 62
     7
370
    25
100
AcDbLine
 10
6466.0010916007
 20
5295.2423478115
 30
0.0
 11
6544.2010916007
 21
5295.2423478115
 31
0.0
  0
LINE
  5
191
330
1F
100
AcDbEntity
  8
0
  6
Continuous
 62
     7
370
    25
100
AcDbLine
 10
6544.2010916007
 20
5293.9423478115
 30
0.0
 11
6544.2010916007
 21
5295.2423478115
 31
0.0
  0
LINE
  5
192
330
1F
100
AcDbEntity
  8
0
  6
Continuous
 62
     7
370
    25
100
AcDbLine
 10
6544.2010916007
 20
5276.9494545927
 30
0.0
 11
6544.2010916007
 21
5293.9423478115
 31
0.0
  0
LINE
  5
193
330
1F
100
AcDbEntity
  8
0
  6
Continuous
 62
     7
370
    25
100
AcDbLine
 10
6544.2010916007
 20
5276.9494545927
 30
0.0
 11
6544.2010916007
 21
5161.9494545927
 31
0.0
  0
LINE
  5
194
330
1F
100
AcDbEntity
  8
0
  6
Continuous
 62
     7
370
    25
100
AcDbLine
 10
6544.2010916007
 20
5144.9565613739
 30
0.0
 11
6544.2010916007
 21
5161.9494545927
 31
0.0
  0
LINE
  5
195
330
1F
100
AcDbEntity
  8
0
  6
Continuous
 62
     7
370
    25
100
AcDbLine
 10
6544.2010916007
 20
5143.6565613739
 30
0.0
 11
6544.2010916007
 21
5144.9565613739
 31
0.0
  0
LINE
  5
196
330
1F
100
AcDbEntity
  8
0
  6
Continuous
 62
     7
370
    25
100
AcDbLine
 10
6466.0010916007
 20
5143.6565613739
 30
0.0
 11
6544.2010916007
 21
5143.6565613739
 31
0.0
  0
LINE
  5
197
330
1F
100
AcDbEntity
  8
0
  6
Continuous
 62
     7
370
    25
100
AcDbLine
 10
6466.0010916007
 20
5143.6565613739
 30
0.0
 11
6466.0010916007
 21
5295.2423478115
 31
0.0
  0
LINE
  5
198
330
1F
100
AcDbEntity
  8
0
  6
Continuous
 62
     7
370
    25
100
AcDbLine
 10
6546.0010916007
 20
5161.9494545927
 30
0.0
 11
6546.0010916007
 21
5144.9565613739
 31
0.0
  0
LINE
  5
199
330
1F
100
AcDbEntity
  8
0
  6
Continuous
 62
     7
370
    25
100
AcDbLine
 10
6546.0010916007
 20
5144.9565613739
 30
0.0
 11
6544.2010916007
 21
5144.9565613739
 31
0.0
  0
LINE
  5
19A
330
1F
100
AcDbEntity
  8
0
  6
Continuous
 62
     7
370
    25
100
AcDbLine
 10
6544.2010916007
 20
5161.9494545927
 30
0.0
 11
6546.0010916007
 21
5161.9494545927
 31
0.0
  0
LINE
  5
19B
330
1F
100
AcDbEntity
  8
0
  6
Continuous
 62
     7
370
    25
100
AcDbLine
 10
6544.2010916007
 20
5293.9423478115
 30
0.0
 11
6546.0010916007
 21
5293.9423478115
 31
0.0
  0
LINE
  5
19C
330
1F
100
AcDbEntity
  8
0
  6
Continuous
 62
     7
370
    25
100
AcDbLine
 10
6546.0010916007
 20
5293.9423478115
 30
0.0
 11
6546.0010916007
 21
5276.9494545927
 31
0.0
  0
LINE
  5
19D
330
1F
100
AcDbEntity
  8
0
  6
Continuous
 62
     7
370
    25
100
AcDbLine
 10
6546.0010916007
 20
5276.9494545927
 30
0.0
 11
6544.2010916007
 21
5276.9494545927
 31
0.0
  0
ARC
  5
19E
330
1F
100
AcDbEntity
  8
0
  6
Continuous
 62
     7
370
    25
100
AcDbCircle
 10
6466.0595190916
 20
5162.2745410369
 30
0.0
 40
18.61807134223455
100
AcDbArc
 50
264.2712824333
 51
269.8201932912
  0
ARC
  5
19F
330
1F
100
AcDbEntity
  8
0
  6
Continuous
 62
     7
370
    25
100
AcDbCircle
 10
6466.0595190916
 20
5276.624368149
 30
0.0
 40
18.61807134178081
100
AcDbArc
 50
90.1798067087
 51
95.7287175669
  0
LINE
  5
1A0
330
1F
100
AcDbEntity
  8
0
  6
Continuous
 62
     7
370
    25
100
AcDbLine
 10
6464.2010916007
 20
5143.7494545927
 30
0.0
 11
6464.2010916007
 21
5295.1494545927
 31
0.0
  0
LINE
  5
1A1
330
1F
100
AcDbEntity
  8
0
  6
Continuous
 62
     7
370
    25
100
AcDbLine
 10
6466.0010916007
 20
5141.9494545927
 30
0.0
 11
6466.0010916007
 21
5142.9494545927
 31
0.0
  0
LINE
  5
1A2
330
1F
100
AcDbEntity
  8
0
  6
Continuous
 62
     7
370
    25
100
AcDbLine
 10
6466.0010916007
 20
5142.9494545927
 30
0.0
 11
6544.2010916007
 21
5142.9494545927
 31
0.0
  0
LINE
  5
1A3
330
1F
100
AcDbEntity
  8
0
  6
Continuous
 62
     7
370
    25
100
AcDbLine
 10
6544.2010916007
 20
5141.9494545927
 30
0.0
 11
6544.2010916007
 21
5142.9494545927
 31
0.0
  0
LINE
  5
1A4
330
1F
100
AcDbEntity
  8
0
  6
Continuous
 62
     7
370
    25
100
AcDbLine
 10
6466.0010916007
 20
5141.9494545927
 30
0.0
 11
6544.2010916007
 21
5141.9494545927
 31
0.0
  0
ARC
  5
1A5
330
1F
100
AcDbEntity
  8
0
  6
Continuous
 62
     7
370
    25
100
AcDbCircle
 10
6466.0010916007
 20
5143.7494545927
 30
0.0
 40
1.800000000002001
100
AcDbArc
 50
180.0000000001
 51
269.9999999999
  0
ARC
  5
1A6
330
1F
100
AcDbEntity
  8
0
  6
Continuous
 62
     7
370
    25
100
AcDbCircle
 10
6466.0010916007
 20
5143.7494545927
 30
0.0
 40
0.8000000000020009
100
AcDbArc
 50
180.0000000001
 51
269.9999999998
  0
LINE
  5
1A7
330
1F
100
AcDbEntity
  8
0
  6
Continuous
 62
     7
370
    25
100
AcDbLine
 10
6466.0010916007
 20
5296.9494545927
 30
0.0
 11
6466.0010916007
 21
5295.9494545927
 31
0.0
  0
LINE
  5
1A8
330
1F
100
AcDbEntity
  8
0
  6
Continuous
 62
     7
370
    25
100
AcDbLine
 10
6466.0010916007
 20
5296.9494545927
 30
0.0
 11
6544.2010916007
 21
5296.9494545927
 31
0.0
  0
LINE
  5
1A9
330
1F
100
AcDbEntity
  8
0
  6
Continuous
 62
     7
370
    25
100
AcDbLine
 10
6544.2010916007
 20
5296.9494545927
 30
0.0
 11
6544.2010916007
 21
5295.9494545927
 31
0.0
  0
LINE
  5
1AA
330
1F
100
AcDbEntity
  8
0
  6
Continuous
 62
     7
370
    25
100
AcDbLine
 10
6466.0010916007
 20
5295.9494545927
 30
0.0
 11
6544.2010916007
 21
5295.9494545927
 31
0.0
  0
ARC
  5
1AB
330
1F
100
AcDbEntity
  8
0
  6
Continuous
 62
     7
370
    25
100
AcDbCircle
 10
6466.0010916007
 20
5295.1494545927
 30
0.0
 40
0.7999999999992724
100
AcDbArc
 50
90.0
 51
180.0000000001
  0
ARC
  5
1AC
330
1F
100
AcDbEntity
  8
0
  6
Continuous
 62
     7
370
    25
100
AcDbCircle
 10
6466.0010916007
 20
5295.1494545927
 30
0.0
 40
1.800000000001091
100
AcDbArc
 50
90.0
 51
180.0
  0
LINE
  5
1AD
330
1F
100
AcDbEntity
  8
0
  6
Continuous
 62
     7
370
    25
100
AcDbLine
 10
6526.0010916007
 20
5143.1565613739
 30
0.0
 11
6526.0010916007
 21
5143.6565613739
 31
0.0
  0
LINE
  5
1AE
330
1F
100
AcDbEntity
  8
0
  6
Continuous
 62
     7
370
    25
100
AcDbLine
 10
6526.0010916007
 20
5143.1565613739
 30
0.0
 11
6544.2010916007
 21
5143.1565613739
 31
0.0
  0
LINE
  5
1AF
330
1F
100
AcDbEntity
  8
0
  6
Continuous
 62
     7
370
    25
100
AcDbLine
 10
6526.0010916007
 20
5295.7423478115
 30
0.0
 11
6526.0010916007
 21
5295.2423478115
 31
0.0
  0
LINE
  5
1B0
330
1F
100
AcDbEntity
  8
0
  6
Continuous
 62
     7
370
    25
100
AcDbLine
 10
6544.2010916007
 20
5295.7423478115
 30
0.0
 11
6526.0010916007
 21
5295.7423478115
 31
0.0
  0
ARC
  5
1B1
330
1F
100
AcDbEntity
  8
0
  6
Continuous
 62
     7
370
    25
100
AcDbCircle
 10
6544.2010916007
 20
5144.9565613739
 30
0.0
 40
0.8000000000001819
100
AcDbArc
 50
270.0
 51
0.0
  0
ARC
  5
1B2
330
1F
100
AcDbEntity
  8
0
  6
Continuous
 62
     7
370
    25
100
AcDbCircle
 10
6544.2010916007
 20
5144.9565613739
 30
0.0
 40
1.800000000000182
100
AcDbArc
 50
270.0
 51
0.0
  0
ARC
  5
1B3
330
1F
100
AcDbEntity
  8
0
  6
Continuous
 62
     7
370
    25
100
AcDbCircle
 10
6544.2010916007
 20
5293.9423478115
 30
0.0
 40
1.800000000001091
100
AcDbArc
 50
0.0
 51
90.0
  0
ARC
  5
1B4
330
1F
100
AcDbEntity
  8
0
  6
Continuous
 62
     7
370
    25
100
AcDbCircle
 10
6544.2010916007
 20
5293.9423478115
 30
0.0
 40
0.8000000000010914
100
AcDbArc
 50
0.0
 51
90.0
  0
LINE
  5
1B5
330
1F
100
AcDbEntity
  8
0
  6
Continuous
 62
     8
370
    25
100
AcDbLine
 10
6556.7010916007
 20
5242.4494545927
 30
0.0
 11
6556.7010916007
 21
5228.4494545927
 31
0.0
  0
LINE
  5
1B6
330
1F
100
AcDbEntity
  8
0
  6
Continuous
 62
     8
370
    25
100
AcDbLine
 10
6556.7010916007
 20
5256.4494545927
 30
0.0
 11
6556.7010916007
 21
5242.4494545927
 31
0.0
  0
LWPOLYLINE
  5
1B7
330
1F
100
AcDbEntity
  8
0
  6
Continuous
 62
     8
370
    25
100
AcDbPolyline
 90
       12
 70
   128
 43
0.0
 10
6562.8910916007
 20
5228.4494545927
 10
6562.9025672549
 20
5228.4513902139
 10
6563.1030928719
 20
5228.4836900521
 10
6563.5339056817
 20
5228.5432689388
 10
6564.1556296645
 20
5228.605356937
 10
6564.8969396684
 20
5228.6420432832
 10
6565.6634051763
 20
5228.636954869
 10
6566.3718876505
 20
5228.5933894364
 10
6566.9547502854
 20
5228.5297972684
 10
6567.3449606559
 20
5228.4733982805
 10
6567.4759797522
 20
5228.4520015737
 10
6567.4622299334
 20
5228.4542919576
  0
LINE
  5
1B8
330
1F
100
AcDbEntity
  8
0
  6
Continuous
 62
     8
370
    25
100
AcDbLine
 10
6816.3010916007
 20
5242.5994573144
 30
0.0
 11
6816.3010916007
 21
5256.4494545927
 31
0.0
  0
LINE
  5
1B9
330
1F
100
AcDbEntity
  8
0
  6
Continuous
 62
     8
370
    25
100
AcDbLine
 10
6544.2010916007
 20
5143.6565613739
 30
0.0
 11
6544.2010916007
 21
5143.1565613739
 31
0.0
  0
LINE
  5
1BA
330
1F
100
AcDbEntity
  8
0
  6
Continuous
 62
     8
370
    25
100
AcDbLine
 10
6544.2010916007
 20
5295.2423478115
 30
0.0
 11
6544.2010916007
 21
5295.7423478115
 31
0.0
  0
ARC
  5
1BB
330
1F
100
AcDbEntity
  8
0
  6
Continuous
 62
     7
370
    25
100
AcDbCircle
 10
6220.3346455528
 20
4927.6123976995
 30
0.0
 40
0.1999999999998181
100
AcDbArc
 50
90.0
 51
180.0
  0
ARC
  5
1BC
330
1F
100
AcDbEntity
  8
0
  6
Continuous
 62
     7
370
    25
100
AcDbCircle
 10
6247.9346455528
 20
4927.6123976995
 30
0.0
 40
0.1999999999998181
100
AcDbArc
 50
0.0
 51
90.0
  0
LINE
  5
1BD
330
1F
100
AcDbEntity
  8
0
  6
Continuous
 62
     7
370
    25
100
AcDbLine
 10
6248.1346455528
 20
4668.494549305
 30
0.0
 11
6248.1346455528
 21
4927.6123976995
 31
0.0
  0
LINE
  5
1BE
330
1F
100
AcDbEntity
  8
0
  6
Continuous
 62
     7
370
    25
100
AcDbLine
 10
6220.1346455528
 20
4927.6123976995
 30
0.0
 11
6220.1346455528
 21
4668.494549305
 31
0.0
  0
LINE
  5
1BF
330
1F
100
AcDbEntity
  8
0
  6
Continuous
 62
     7
370
    25
100
AcDbLine
 10
6300.1346455528
 20
4927.8123976995
 30
0.0
 11
6300.1346455528
 21
4927.3123976995
 31
0.0
  0
LINE
  5
1C0
330
1F
100
AcDbEntity
  8
0
  6
Continuous
 62
     7
370
    25
100
AcDbLine
 10
6328.1346455528
 20
4927.3123976995
 30
0.0
 11
6328.1346455528
 21
4927.8123976995
 31
0.0
  0
LINE
  5
1C1
330
1F
100
AcDbEntity
  8
0
  6
Continuous
 62
     7
370
    25
100
AcDbLine
 10
6300.1346455528
 20
4927.3123976995
 30
0.0
 11
6301.6346455528
 21
4925.8123976995
 31
0.0
  0
LINE
  5
1C2
330
1F
100
AcDbEntity
  8
0
  6
Continuous
 62
     7
370
    25
100
AcDbLine
 10
6326.6346455528
 20
4925.8123976995
 30
0.0
 11
6328.1346455528
 21
4927.3123976995
 31
0.0
  0
LINE
  5
1C3
330
1F
100
AcDbEntity
  8
0
  6
Continuous
 62
     7
370
    25
100
AcDbLine
 10
6324.8382509527
 20
4938.8087922995
 30
0.0
 11
6324.8346455528
 21
4938.8123976995
 31
0.0
  0
LINE
  5
1C4
330
1F
100
AcDbEntity
  8
0
  6
Continuous
 62
     7
370
    25
100
AcDbLine
 10
6303.4346455528
 20
4938.8123976995
 30
0.0
 11
6302.9400757621
 21
4938.3178279088
 31
0.0
  0
LINE
  5
1C5
330
1F
100
AcDbEntity
  8
0
  6
Continuous
 62
     7
370
    25
100
AcDbLine
 10
6324.5154126965
 20
4938.5870714099
 30
0.0
 11
6324.830522148
 21
4938.7691942883
 31
0.0
  0
LWPOLYLINE
  5
1C6
330
1F
100
AcDbEntity
  8
0
  6
Continuous
 62
     7
370
    25
100
AcDbPolyline
 90
        3
 70
   128
 43
0.0
 10
6302.9414410721
 20
4938.3064488561
 10
6303.3459042131
 20
4938.0728671682
 10
6303.7465497229
 20
4937.8413071643
  0
LWPOLYLINE
  5
1C7
330
1F
100
AcDbEntity
  8
0
  6
Continuous
 62
     7
370
    25
100
AcDbPolyline
 90
        3
 70
   128
 43
0.0
 10
6325.3278359541
 20
4937.9473436516
 10
6324.9195746682
 20
4938.1831568843
 10
6324.5227413529
 20
4938.4124819976
  0
LINE
  5
1C8
330
1F
100
AcDbEntity
  8
0
  6
Continuous
 62
     7
370
    25
100
AcDbLine
 10
6325.3346455528
 20
4937.8123976995
 30
0.0
 11
6325.3346455528
 21
4937.9392766507
 31
0.0
  0
LINE
  5
1C9
330
1F
100
AcDbEntity
  8
0
  6
Continuous
 62
     7
370
    25
100
AcDbLine
 10
6324.5346455528
 20
4938.8123976995
 30
0.0
 11
6324.5346455528
 21
4940.1123976995
 31
0.0
  0
LINE
  5
1CA
330
1F
100
AcDbEntity
  8
0
  6
Continuous
 62
     7
370
    25
100
AcDbLine
 10
6303.7346455528
 20
4940.1123976995
 30
0.0
 11
6303.7346455528
 21
4938.8123976995
 31
0.0
  0
LWPOLYLINE
  5
1CB
330
1F
100
AcDbEntity
  8
0
  6
Continuous
 62
     7
370
    25
100
AcDbPolyline
 90
        3
 70
   128
 43
0.0
 10
6324.5227466184
 20
4938.4080847526
 10
6324.5226330426
 20
4938.5029321303
 10
6324.5227413748
 20
4938.5913071444
  0
LINE
  5
1CC
330
1F
100
AcDbEntity
  8
0
  6
Continuous
 62
     7
370
    25
100
AcDbLine
 10
6303.7465444993
 20
4937.8455830049
 30
0.0
 11
6303.7465850403
 21
4937.8123976995
 31
0.0
  0
LINE
  5
1CD
330
1F
100
AcDbEntity
  8
0
  6
Continuous
 62
     7
370
    25
100
AcDbLine
 10
6351.6346455528
 20
4983.5123976995
 30
0.0
 11
6352.5346455528
 21
4983.5123976995
 31
0.0
  0
LINE
  5
1CE
330
1F
100
AcDbEntity
  8
0
  6
Continuous
 62
     7
370
    25
100
AcDbLine
 10
6352.5346455528
 20
4996.7123976995
 30
0.0
 11
6351.6346455528
 21
4996.7123976995
 31
0.0
  0
ARC
  5
1CF
330
1F
100
AcDbEntity
  8
0
  6
Continuous
 62
     7
370
    25
100
AcDbCircle
 10
6352.5346455528
 20
4984.3123976995
 30
0.0
 40
0.7999999999992724
100
AcDbArc
 50
270.0
 51
0.0
  0
ARC
  5
1D0
330
1F
100
AcDbEntity
  8
0
  6
Continuous
 62
     7
370
    25
100
AcDbCircle
 10
6352.5346455528
 20
4995.9123976995
 30
0.0
 40
0.7999999999992724
100
AcDbArc
 50
0.0
 51
90.0
  0
LINE
  5
1D1
330
1F
100
AcDbEntity
  8
0
  6
Continuous
 62
     7
370
    25
100
AcDbLine
 10
6349.9275387716
 20
4985.3623976995
 30
0.0
 11
6350.6346455528
 21
4985.3623976995
 31
0.0
  0
LINE
  5
1D2
330
1F
100
AcDbEntity
  8
0
  6
Continuous
 62
     7
370
    25
100
AcDbLine
 10
6350.6346455528
 20
4994.8623976995
 30
0.0
 11
6349.9275387716
 21
4994.8623976995
 31
0.0
  0
ELLIPSE
  5
1D3
330
1F
100
AcDbEntity
  8
0
  6
Continuous
 62
     7
370
    25
100
AcDbEllipse
 10
6234.1346455528
 20
4668.494549305
 30
0.0
 11
0.0
 21
45.0
 31
0.0
210
0.0
220
0.0
230
1.0
 40
0.3111111111
 41
1.570796326794897
 42
1.581511011931073
  0
ELLIPSE
  5
1D4
330
1F
100
AcDbEntity
  8
0
  6
Continuous
 62
     7
370
    25
100
AcDbEllipse
 10
6234.1346455528
 20
4668.494549305
 30
0.0
 11
0.0
 21
45.0
 31
0.0
210
0.0
220
0.0
230
1.0
 40
0.3111111111
 41
4.701674295248517
 42
4.712388980384694
  0
LINE
  5
1D5
330
1F
100
AcDbEntity
  8
0
  6
Continuous
 62
     7
370
    25
100
AcDbLine
 10
6220.1354491764
 20
4668.0123976995
 30
0.0
 11
6248.1338419291
 21
4668.0123976995
 31
0.0
  0
ARC
  5
1D6
330
1F
100
AcDbEntity
  8
0
  6
Continuous
 62
     7
370
    25
100
AcDbCircle
 10
6247.9338476691
 20
4668.0123919595
 30
0.0
 40
0.1999942600783277
100
AcDbArc
 50
270.0016445312
 51
0.0016444374
  0
LINE
  5
1D7
330
1F
100
AcDbEntity
  8
0
  6
Continuous
 62
     7
370
    25
100
AcDbLine
 10
6247.9338534094
 20
4667.8123976995
 30
0.0
 11
6220.3354376961
 21
4667.8123976995
 31
0.0
  0
ARC
  5
1D8
330
1F
100
AcDbEntity
  8
0
  6
Continuous
 62
     7
370
    25
100
AcDbCircle
 10
6220.3354434364
 20
4668.0123919595
 30
0.0
 40
0.1999942600783183
100
AcDbArc
 50
179.9983555623
 51
269.9983554682
  0
LINE
  5
1D9
330
1F
100
AcDbEntity
  8
0
  6
Continuous
 62
     7
370
    25
100
AcDbLine
 10
6300.1346455528
 20
4927.3123976995
 30
0.0
 11
6328.1341167241
 21
4927.3123976995
 31
0.0
  0
LINE
  5
1DA
330
1F
100
AcDbEntity
  8
0
  6
Continuous
 62
     7
370
    25
100
AcDbLine
 10
6326.6341733843
 20
4925.8123976995
 30
0.0
 11
6301.6346455528
 21
4925.8123976995
 31
0.0
  0
LINE
  5
1DB
330
1F
100
AcDbEntity
  8
0
  6
Continuous
 62
     7
370
    25
100
AcDbLine
 10
6303.4346455528
 20
4938.8123976995
 30
0.0
 11
6324.8346455528
 21
4938.8123976995
 31
0.0
  0
LWPOLYLINE
  5
1DC
330
1F
100
AcDbEntity
  8
0
  6
Continuous
 62
     7
370
    25
100
AcDbPolyline
 90
       20
 70
   128
 43
0.0
 10
6302.9350686176
 20
4938.3123976995
 10
6303.122786151
 20
4938.3388943205
 10
6303.610988596
 20
4938.3644191998
 10
6304.4145453142
 20
4938.3909531652
 10
6305.4659956645
 20
4938.4162671564
 10
6306.7958707855
 20
4938.4413655946
 10
6308.2904989194
 20
4938.4665532395
 10
6309.99607146
 20
4938.493245128
 10
6311.7512366529
 20
4938.5189442232
 10
6313.6214340258
 20
4938.5446268127
 10
6315.4496763244
 20
4938.5691134184
 10
6317.2886553094
 20
4938.5954719606
 10
6318.9651382508
 20
4938.6212915956
 10
6320.5464229027
 20
4938.6475804607
 10
6321.8978374431
 20
4938.6721147278
 10
6323.0591085216
 20
4938.6977688554
 10
6323.9259544765
 20
4938.7234692619
 10
6324.5315068346
 20
4938.75012544
 10
6324.8237336166
 20
4938.775355603
 10
6324.8186193131
 20
4938.7891606599
  0
LWPOLYLINE
  5
1DD
330
1F
100
AcDbEntity
  8
0
  6
Continuous
 62
     7
370
    25
100
AcDbPolyline
 90
       13
 70
   128
 43
0.0
 10
6303.7465446885
 20
4937.8455624531
 10
6304.100472952
 20
4937.9075302287
 10
6305.16155764
 20
4937.9725663705
 10
6306.8184513491
 20
4938.0340234829
 10
6308.9798353603
 20
4938.0960931499
 10
6311.534670171
 20
4938.16112372
 10
6314.2199575055
 20
4938.2224869211
 10
6316.9107555906
 20
4938.2846568956
 10
6319.4468763463
 20
4938.3496800375
 10
6321.5710022093
 20
4938.4109527468
 10
6323.1982741888
 20
4938.4732214357
 10
6324.2144106356
 20
4938.5382352938
 10
6324.4588396472
 20
4938.5869678737
  0
LINE
  5
1DE
330
1F
100
AcDbEntity
  8
0
  6
Continuous
 62
     7
370
    25
100
AcDbLine
 10
6302.9743504831
 20
4938.3062474401
 30
0.0
 11
6302.9350686176
 21
4938.3123976995
 31
0.0
  0
ARC
  5
1DF
330
1F
100
AcDbEntity
  8
0
  6
Continuous
 62
     7
370
    25
100
AcDbCircle
 10
6323.6772672726
 20
4948.367473153
 30
0.0
 40
10.55555410666275
100
AcDbArc
 50
270.5456437642
 51
278.9093738984
  0
LWPOLYLINE
  5
1E0
330
1F
100
AcDbEntity
  8
0
  6
Continuous
 62
     7
370
    25
100
AcDbPolyline
 90
       11
 70
   128
 43
0.0
 10
6305.8984146967
 20
4937.8123976995
 10
6306.8184514592
 20
4937.8465234863
 10
6308.979835515
 20
4937.9085931541
 10
6311.5346703603
 20
4937.9736237245
 10
6314.2199577125
 20
4938.0349869257
 10
6316.9107558138
 20
4938.097156901
 10
6319.4468765601
 20
4938.1621800433
 10
6321.5710023902
 20
4938.2234527525
 10
6323.1982743282
 20
4938.2857214424
 10
6324.2144107086
 20
4938.3507353008
 10
6324.5016712938
 20
4938.4080073605
  0
LINE
  5
1E1
330
1F
100
AcDbEntity
  8
0
  6
Continuous
 62
     7
370
    25
100
AcDbLine
 10
6349.1346455528
 20
4937.8123976995
 30
0.0
 11
6199.1346455528
 21
4937.8123976995
 31
0.0
  0
LINE
  5
1E2
330
1F
100
AcDbEntity
  8
0
  6
Continuous
 62
     7
370
    25
100
AcDbLine
 10
6349.1346455528
 20
4937.8123976995
 30
0.0
 11
6349.1346455528
 21
4927.8123976995
 31
0.0
  0
LINE
  5
1E3
330
1F
100
AcDbEntity
  8
0
  6
Continuous
 62
     7
370
    25
100
AcDbLine
 10
6349.1346455528
 20
4927.8123976995
 30
0.0
 11
6199.1346455528
 21
4927.8123976995
 31
0.0
  0
LINE
  5
1E4
330
1F
100
AcDbEntity
  8
0
  6
Continuous
 62
     7
370
    25
100
AcDbLine
 10
6199.1346455528
 20
4937.8123976995
 30
0.0
 11
6199.1346455528
 21
4927.8123976995
 31
0.0
  0
ARC
  5
1E5
330
1F
100
AcDbEntity
  8
0
  6
Continuous
 62
     7
370
    25
100
AcDbCircle
 10
6349.1346455528
 20
4937.8123976995
 30
0.0
 40
10.0
100
AcDbArc
 50
270.0
 51
0.0
  0
LINE
  5
1E6
330
1F
100
AcDbEntity
  8
0
  6
Continuous
 62
     7
370
    25
100
AcDbLine
 10
6359.1346455528
 20
4937.8123976995
 30
0.0
 11
6349.1346455528
 21
4937.8123976995
 31
0.0
  0
LINE
  5
1E7
330
1F
100
AcDbEntity
  8
0
  6
Continuous
 62
     7
370
    25
100
AcDbLine
 10
6198.4794518315
 20
4927.8338847247
 30
0.0
 11
6199.1346455528
 21
4927.8123976995
 31
0.0
  0
LINE
  5
1E8
330
1F
100
AcDbEntity
  8
0
  6
Continuous
 62
     7
370
    25
100
AcDbLine
 10
6199.1346455528
 20
4937.8123976995
 30
0.0
 11
6189.9496005522
 21
4937.8123976995
 31
0.0
  0
LINE
  5
1E9
330
1F
100
AcDbEntity
  8
0
  6
Continuous
 62
     7
370
    25
100
AcDbLine
 10
6199.1346455528
 20
4927.8123976995
 30
0.0
 11
6198.9028651194
 21
4927.8123976995
 31
0.0
  0
ARC
  5
1EA
330
1F
100
AcDbEntity
  8
0
  6
Continuous
 62
     7
370
    25
100
AcDbCircle
 10
6198.9028651194
 20
4937.8123976995
 30
0.0
 40
10.0
100
AcDbArc
 50
180.0
 51
270.0
  0
LINE
  5
1EB
330
1F
100
AcDbEntity
  8
0
  6
Continuous
 62
     7
370
    25
100
AcDbLine
 10
6189.9496005522
 20
4937.8123976995
 30
0.0
 11
6188.9028651194
 21
4937.8123976995
 31
0.0
  0
LINE
  5
1EC
330
1F
100
AcDbEntity
  8
0
  6
Continuous
 62
     7
370
    25
100
AcDbLine
 10
6353.3346455528
 20
4984.3123976995
 30
0.0
 11
6353.3346455528
 21
4995.9123970008
 31
0.0
  0
LINE
  5
1ED
330
1F
100
AcDbEntity
  8
0
  6
Continuous
 62
     7
370
    25
100
AcDbLine
 10
6349.9275387716
 20
4988.2623976995
 30
0.0
 11
6350.6346455528
 21
4988.2623976995
 31
0.0
  0
LINE
  5
1EE
330
1F
100
AcDbEntity
  8
0
  6
Continuous
 62
     7
370
    25
100
AcDbLine
 10
6350.6346455528
 20
4989.5123976995
 30
0.0
 11
6349.9275387716
 21
4989.5123976995
 31
0.0
  0
LINE
  5
1EF
330
1F
100
AcDbEntity
  8
0
  6
Continuous
 62
     7
370
    25
100
AcDbLine
 10
6350.6346455528
 20
4991.9623976995
 30
0.0
 11
6349.9275387716
 21
4991.9623976995
 31
0.0
  0
LINE
  5
1F0
330
1F
100
AcDbEntity
  8
0
  6
Continuous
 62
     7
370
    25
100
AcDbLine
 10
6349.9275387716
 20
4990.7123976995
 30
0.0
 11
6350.6346455528
 21
4990.7123976995
 31
0.0
  0
LINE
  5
1F1
330
1F
100
AcDbEntity
  8
0
  6
Continuous
 62
     7
370
    25
100
AcDbLine
 10
6349.9275387716
 20
4992.9623976995
 30
0.0
 11
6350.6346455528
 21
4992.9623976995
 31
0.0
  0
LINE
  5
1F2
330
1F
100
AcDbEntity
  8
0
  6
Continuous
 62
     7
370
    25
100
AcDbLine
 10
6350.6346455528
 20
4987.2623976995
 30
0.0
 11
6349.9275387716
 21
4987.2623976995
 31
0.0
  0
LINE
  5
1F3
330
1F
100
AcDbEntity
  8
0
  6
Continuous
 62
     7
370
    25
100
AcDbLine
 10
6198.3417523339
 20
4940.1123976995
 30
0.0
 11
6349.9275387716
 21
4940.1123976995
 31
0.0
  0
LINE
  5
1F4
330
1F
100
AcDbEntity
  8
0
  6
Continuous
 62
     7
370
    25
100
AcDbLine
 10
6198.3417523339
 20
5018.3123976995
 30
0.0
 11
6198.3417523339
 21
4940.1123976995
 31
0.0
  0
LINE
  5
1F5
330
1F
100
AcDbEntity
  8
0
  6
Continuous
 62
     7
370
    25
100
AcDbLine
 10
6198.3417523339
 20
5018.3123976995
 30
0.0
 11
6349.9275387716
 21
5018.3123976995
 31
0.0
  0
LINE
  5
1F6
330
1F
100
AcDbEntity
  8
0
  6
Continuous
 62
     7
370
    25
100
AcDbLine
 10
6349.9275387716
 20
5018.3123976995
 30
0.0
 11
6349.9275387716
 21
4940.1123976995
 31
0.0
  0
ARC
  5
1F7
330
1F
100
AcDbEntity
  8
0
  6
Continuous
 62
     7
370
    25
100
AcDbCircle
 10
6331.3095591091
 20
5018.2539702086
 30
0.0
 40
18.61807134168706
100
AcDbArc
 50
0.1798067087
 51
5.7287175669
  0
ARC
  5
1F8
330
1F
100
AcDbEntity
  8
0
  6
Continuous
 62
     7
370
    25
100
AcDbCircle
 10
6216.9597319969
 20
5018.2539702086
 30
0.0
 40
18.61807134211908
100
AcDbArc
 50
174.2712824333
 51
179.8201932913
  0
LINE
  5
1F9
330
1F
100
AcDbEntity
  8
0
  6
Continuous
 62
     7
370
    25
100
AcDbLine
 10
6198.4346455528
 20
5020.1123976995
 30
0.0
 11
6349.8346455528
 21
5020.1123976995
 31
0.0
  0
LINE
  5
1FA
330
1F
100
AcDbEntity
  8
0
  6
Continuous
 62
     7
370
    25
100
AcDbLine
 10
6331.6346455528
 20
4938.3123976995
 30
0.0
 11
6331.6346455528
 21
4940.1123976995
 31
0.0
  0
LINE
  5
1FB
330
1F
100
AcDbEntity
  8
0
  6
Continuous
 62
     7
370
    25
100
AcDbLine
 10
6349.8346455528
 20
4940.1123976995
 30
0.0
 11
6349.8346455528
 21
4938.3123976995
 31
0.0
  0
LINE
  5
1FC
330
1F
100
AcDbEntity
  8
0
  6
Continuous
 62
     7
370
    25
100
AcDbLine
 10
6331.6346455528
 20
4938.3123976995
 30
0.0
 11
6349.8346455528
 21
4938.3123976995
 31
0.0
  0
LINE
  5
1FD
330
1F
100
AcDbEntity
  8
0
  6
Continuous
 62
     7
370
    25
100
AcDbLine
 10
6198.4346455528
 20
4938.3123976995
 30
0.0
 11
6198.4346455528
 21
4940.1123976995
 31
0.0
  0
LINE
  5
1FE
330
1F
100
AcDbEntity
  8
0
  6
Continuous
 62
     7
370
    25
100
AcDbLine
 10
6198.4346455528
 20
4938.3123976995
 30
0.0
 11
6216.6346455528
 21
4938.3123976995
 31
0.0
  0
LINE
  5
1FF
330
1F
100
AcDbEntity
  8
0
  6
Continuous
 62
     7
370
    25
100
AcDbLine
 10
6216.6346455528
 20
4940.1123976995
 30
0.0
 11
6216.6346455528
 21
4938.3123976995
 31
0.0
  0
LINE
  5
200
330
1F
100
AcDbEntity
  8
0
  6
Continuous
 62
     7
370
    25
100
AcDbLine
 10
6351.6346455528
 20
5018.3123976995
 30
0.0
 11
6350.6346455528
 21
5018.3123976995
 31
0.0
  0
ARC
  5
201
330
1F
100
AcDbEntity
  8
0
  6
Continuous
 62
     7
370
    25
100
AcDbCircle
 10
6349.8346455528
 20
5018.3123976995
 30
0.0
 40
0.8000000000001819
100
AcDbArc
 50
0.0
 51
90.0000000001
  0
ARC
  5
202
330
1F
100
AcDbEntity
  8
0
  6
Continuous
 62
     7
370
    25
100
AcDbCircle
 10
6349.8346455528
 20
5018.3123976995
 30
0.0
 40
1.799999999998363
100
AcDbArc
 50
359.9999999999
 51
90.0000000001
  0
LINE
  5
203
330
1F
100
AcDbEntity
  8
0
  6
Continuous
 62
     7
370
    25
100
AcDbLine
 10
6350.6346455528
 20
5018.3123976995
 30
0.0
 11
6350.6346455528
 21
4940.1123976995
 31
0.0
  0
LINE
  5
204
330
1F
100
AcDbEntity
  8
0
  6
Continuous
 62
     7
370
    25
100
AcDbLine
 10
6351.6346455528
 20
5018.3123976995
 30
0.0
 11
6351.6346455528
 21
4940.1123976995
 31
0.0
  0
LINE
  5
205
330
1F
100
AcDbEntity
  8
0
  6
Continuous
 62
     7
370
    25
100
AcDbLine
 10
6351.6346455528
 20
4940.1123976995
 30
0.0
 11
6350.6346455528
 21
4940.1123976995
 31
0.0
  0
ARC
  5
206
330
1F
100
AcDbEntity
  8
0
  6
Continuous
 62
     7
370
    25
100
AcDbCircle
 10
6198.4346455528
 20
5018.3123976995
 30
0.0
 40
0.8000000000001819
100
AcDbArc
 50
90.0000000001
 51
180.0
  0
LINE
  5
207
330
1F
100
AcDbEntity
  8
0
  6
Continuous
 62
     7
370
    25
100
AcDbLine
 10
6196.6346455528
 20
5018.3123976995
 30
0.0
 11
6197.6346455528
 21
5018.3123976995
 31
0.0
  0
ARC
  5
208
330
1F
100
AcDbEntity
  8
0
  6
Continuous
 62
     7
370
    25
100
AcDbCircle
 10
6198.4346455528
 20
5018.3123976995
 30
0.0
 40
1.800000000001091
100
AcDbArc
 50
90.0
 51
180.0
  0
LINE
  5
209
330
1F
100
AcDbEntity
  8
0
  6
Continuous
 62
     7
370
    25
100
AcDbLine
 10
6196.6346455528
 20
4940.1123976995
 30
0.0
 11
6197.6346455528
 21
4940.1123976995
 31
0.0
  0
LINE
  5
20A
330
1F
100
AcDbEntity
  8
0
  6
Continuous
 62
     7
370
    25
100
AcDbLine
 10
6196.6346455528
 20
5018.3123976995
 30
0.0
 11
6196.6346455528
 21
4940.1123976995
 31
0.0
  0
LINE
  5
20B
330
1F
100
AcDbEntity
  8
0
  6
Continuous
 62
     7
370
    25
100
AcDbLine
 10
6197.6346455528
 20
5018.3123976995
 30
0.0
 11
6197.6346455528
 21
4940.1123976995
 31
0.0
  0
ARC
  5
20C
330
1F
100
AcDbEntity
  8
0
  6
Continuous
 62
     7
370
    25
100
AcDbCircle
 10
6349.8346455528
 20
4940.1123976995
 30
0.0
 40
1.800000000000182
100
AcDbArc
 50
270.0
 51
0.0
  0
ARC
  5
20D
330
1F
100
AcDbEntity
  8
0
  6
Continuous
 62
     7
370
    25
100
AcDbCircle
 10
6349.8346455528
 20
4940.1123976995
 30
0.0
 40
0.8000000000001819
100
AcDbArc
 50
270.0
 51
0.0
  0
ARC
  5
20E
330
1F
100
AcDbEntity
  8
0
  6
Continuous
 62
     7
370
    25
100
AcDbCircle
 10
6198.4346455528
 20
4940.1123976995
 30
0.0
 40
0.8000000000001819
100
AcDbArc
 50
180.0
 51
270.0
  0
ARC
  5
20F
330
1F
100
AcDbEntity
  8
0
  6
Continuous
 62
     7
370
    25
100
AcDbCircle
 10
6198.4346455528
 20
4940.1123976995
 30
0.0
 40
1.800000000000182
100
AcDbArc
 50
180.0
 51
270.0
  0
LINE
  5
210
330
1F
100
AcDbEntity
  8
0
  6
Continuous
 62
     8
370
    25
100
AcDbLine
 10
6248.1346455528
 20
4927.6123976995
 30
0.0
 11
6220.1346455528
 21
4927.6123976995
 31
0.0
  0
LINE
  5
211
330
1F
100
AcDbEntity
  8
0
  6
Continuous
 62
     8
370
    25
100
AcDbLine
 10
6198.9028651194
 20
4927.8150841688
 30
0.0
 11
6198.9028651194
 21
4927.8123976995
 31
0.0
  0
LINE
  5
212
330
1F
100
AcDbEntity
  8
0
  6
Continuous
 62
     8
370
    25
100
AcDbLine
 10
6352.5346455528
 20
4983.5123976995
 30
0.0
 11
6352.5346455528
 21
4996.7123976995
 31
0.0
  0
ENDSEC
  0
SECTION
  2
OBJECTS
  0
DICTIONARY
  5
C
330
0
100
AcDbDictionary
281
     1
  3
ACAD_GROUP
350
D
  3
ACAD_LAYOUT
350
1A
  3
ACAD_MLINESTYLE
350
17
  3
ACAD_PLOTSETTINGS
350
19
  3
ACAD_PLOTSTYLENAME
350
E
  3
ACAD_SCALELIST
350
47
  3
DWGPROPS
350
213
  0
DICTIONARY
  5
D
102
{ACAD_REACTORS
330
C
102
}
330
C
100
AcDbDictionary
281
     1
  0
DICTIONARY
  5
1A
102
{ACAD_REACTORS
330
C
102
}
330
C
100
AcDbDictionary
281
     1
  3
Layout1
350
1E
  3
Layout2
350
26
  3
Model
350
22
  0
DICTIONARY
  5
17
102
{ACAD_REACTORS
330
C
102
}
330
C
100
AcDbDictionary
281
     1
  3
Standard
350
18
  0
DICTIONARY
  5
19
102
{ACAD_REACTORS
330
C
102
}
330
C
100
AcDbDictionary
281
     1
  0
ACDBDICTIONARYWDFLT
  5
E
102
{ACAD_REACTORS
330
C
102
}
330
C
100
AcDbDictionary
281
     1
  3
Normal
350
F
100
AcDbDictionaryWithDefault
340
F
  0
DICTIONARY
  5
47
102
{ACAD_REACTORS
330
C
102
}
330
C
100
AcDbDictionary
281
     1
  3
A0
350
48
  3
A1
350
49
  3
A2
350
4A
  3
A3
350
4B
  3
A4
350
4C
  3
A5
350
4D
  3
A6
350
4E
  3
A7
350
4F
  3
A8
350
50
  3
A9
350
51
  3
B0
350
52
  3
B1
350
53
  3
B2
350
54
  3
B3
350
55
  3
B4
350
56
  3
B5
350
57
  3
B6
350
58
  3
B7
350
59
  3
B8
350
5A
  3
B9
350
5B
  3
C0
350
5C
  3
C1
350
5D
  3
C2
350
5E
  3
C3
350
5F
  3
C4
350
60
  3
C5
350
61
  3
C6
350
62
  3
C7
350
63
  3
C8
350
64
  3
C9
350
65
  3
D0
350
66
  3
D1
350
67
  3
D2
350
68
  0
XRECORD
  5
213
102
{ACAD_REACTORS
330
C
102
}
330
C
100
AcDbXrecord
280
     1
  1
DWGPROPS COOKIE
  2

  3

  4

  6

  7

  8
radek.stransky
  9

300
=
301
=
302
=
303
=
304
=
305
=
306
=
307
=
308
=
309
=
 40
0.0
 41
2459293.292875938
 42
2459293.292876053
  1

 90
        0
  0
LAYOUT
  5
1E
102
{ACAD_REACTORS
330
1A
102
}
330
1A
100
AcDbPlotSettings
  1

  2
none_device
  4

  6

 40
0.0
 41
0.0
 42
0.0
 43
0.0
 44
0.0
 45
0.0
 46
0.0
 47
0.0
 48
0.0
 49
0.0
140
0.0
141
0.0
142
1.0
143
1.0
 70
   688
 72
     1
 73
     0
 74
     5
  7

 75
    16
147
1.0
148
0.0
149
0.0
100
AcDbLayout
  1
Layout1
 70
     1
 71
     1
 10
0.0
 20
0.0
 11
420.0
 21
297.0
 12
0.0
 22
0.0
 32
0.0
 14
1.0000000000E+20
 24
1.0000000000E+20
 34
1.0000000000E+20
 15
-1.0000000000E+20
 25
-1.0000000000E+20
 35
-1.0000000000E+20
146
0.0
 13
0.0
 23
0.0
 33
0.0
 16
1.0
 26
0.0
 36
0.0
 17
0.0
 27
1.0
 37
0.0
 76
     0
330
1B
  0
LAYOUT
  5
26
102
{ACAD_REACTORS
330
1A
102
}
330
1A
100
AcDbPlotSettings
  1

  2
none_device
  4

  6

 40
0.0
 41
0.0
 42
0.0
 43
0.0
 44
0.0
 45
0.0
 46
0.0
 47
0.0
 48
0.0
 49
0.0
140
0.0
141
0.0
142
1.0
143
1.0
 70
   688
 72
     1
 73
     0
 74
     5
  7

 75
    16
147
1.0
148
0.0
149
0.0
100
AcDbLayout
  1
Layout2
 70
     1
 71
     2
 10
0.0
 20
0.0
 11
0.0
 21
0.0
 12
0.0
 22
0.0
 32
0.0
 14
0.0
 24
0.0
 34
0.0
 15
0.0
 25
0.0
 35
0.0
146
0.0
 13
0.0
 23
0.0
 33
0.0
 16
1.0
 26
0.0
 36
0.0
 17
0.0
 27
1.0
 37
0.0
 76
     0
330
23
  0
LAYOUT
  5
22
102
{ACAD_REACTORS
330
1A
102
}
330
1A
100
AcDbPlotSettings
  1

  2
none_device
  4
Letter_(8.50_x_11.00_Inches)
  6

 40
6.35
 41
6.35
 42
6.35000508
 43
6.35000508
 44
215.9
 45
279.4
 46
0.0
 47
0.0
 48
0.0
 49
0.0
140
0.0
141
0.0
142
1.0
143
1.0
 70
  1712
 72
     1
 73
     0
 74
     0
  7

 75
     0
147
1.0
148
0.0
149
0.0
100
AcDbLayout
  1
Model
 70
     1
 71
     0
 10
0.0
 20
0.0
 11
20000.0
 21
10000.0
 12
0.0
 22
0.0
 32
0.0
 14
0.0
 24
0.0
 34
0.0
 15
20000.0
 25
10000.0
 35
0.0
146
0.0
 13
0.0
 23
0.0
 33
0.0
 16
1.0
 26
0.0
 36
0.0
 17
0.0
 27
1.0
 37
0.0
 76
     0
330
1F
331
29
  0
MLINESTYLE
  5
18
102
{ACAD_REACTORS
330
17
102
}
330
17
100
AcDbMlineStyle
  2
Standard
 70
     0
  3

 62
   256
 51
90.0
 52
90.0
 71
     2
 49
0.5
 62
   256
  6
BYLAYER
 49
-0.5
 62
   256
  6
BYLAYER
  0
ACDBPLACEHOLDER
  5
F
102
{ACAD_REACTORS
330
E
102
}
330
E
  0
SCALE
  5
48
102
{ACAD_REACTORS
330
47
102
}
330
47
100
AcDbScale
 70
     0
300
1:1
140
1.0
141
1.0
290
     1
  0
SCALE
  5
49
102
{ACAD_REACTORS
330
47
102
}
330
47
100
AcDbScale
 70
     0
300
1:2
140
1.0
141
2.0
290
     0
  0
SCALE
  5
4A
102
{ACAD_REACTORS
330
47
102
}
330
47
100
AcDbScale
 70
     0
300
1:4
140
1.0
141
4.0
290
     0
  0
SCALE
  5
4B
102
{ACAD_REACTORS
330
47
102
}
330
47
100
AcDbScale
 70
     0
300
1:5
140
1.0
141
5.0
290
     0
  0
SCALE
  5
4C
102
{ACAD_REACTORS
330
47
102
}
330
47
100
AcDbScale
 70
     0
300
1:8
140
1.0
141
8.0
290
     0
  0
SCALE
  5
4D
102
{ACAD_REACTORS
330
47
102
}
330
47
100
AcDbScale
 70
     0
300
1:10
140
1.0
141
10.0
290
     0
  0
SCALE
  5
4E
102
{ACAD_REACTORS
330
47
102
}
330
47
100
AcDbScale
 70
     0
300
1:16
140
1.0
141
16.0
290
     0
  0
SCALE
  5
4F
102
{ACAD_REACTORS
330
47
102
}
330
47
100
AcDbScale
 70
     0
300
1:20
140
1.0
141
20.0
290
     0
  0
SCALE
  5
50
102
{ACAD_REACTORS
330
47
102
}
330
47
100
AcDbScale
 70
     0
300
1:30
140
1.0
141
30.0
290
     0
  0
SCALE
  5
51
102
{ACAD_REACTORS
330
47
102
}
330
47
100
AcDbScale
 70
     0
300
1:40
140
1.0
141
40.0
290
     0
  0
SCALE
  5
52
102
{ACAD_REACTORS
330
47
102
}
330
47
100
AcDbScale
 70
     0
300
1:50
140
1.0
141
50.0
290
     0
  0
SCALE
  5
53
102
{ACAD_REACTORS
330
47
102
}
330
47
100
AcDbScale
 70
     0
300
1:100
140
1.0
141
100.0
290
     0
  0
SCALE
  5
54
102
{ACAD_REACTORS
330
47
102
}
330
47
100
AcDbScale
 70
     0
300
2:1
140
2.0
141
1.0
290
     0
  0
SCALE
  5
55
102
{ACAD_REACTORS
330
47
102
}
330
47
100
AcDbScale
 70
     0
300
4:1
140
4.0
141
1.0
290
     0
  0
SCALE
  5
56
102
{ACAD_REACTORS
330
47
102
}
330
47
100
AcDbScale
 70
     0
300
8:1
140
8.0
141
1.0
290
     0
  0
SCALE
  5
57
102
{ACAD_REACTORS
330
47
102
}
330
47
100
AcDbScale
 70
     0
300
10:1
140
10.0
141
1.0
290
     0
  0
SCALE
  5
58
102
{ACAD_REACTORS
330
47
102
}
330
47
100
AcDbScale
 70
     0
300
100:1
140
100.0
141
1.0
290
     0
  0
SCALE
  5
59
102
{ACAD_REACTORS
330
47
102
}
330
47
100
AcDbScale
 70
     0
300
1/128" = 1'-0"
140
0.0078125
141
12.0
290
     0
  0
SCALE
  5
5A
102
{ACAD_REACTORS
330
47
102
}
330
47
100
AcDbScale
 70
     0
300
1/64" = 1'-0"
140
0.015625
141
12.0
290
     0
  0
SCALE
  5
5B
102
{ACAD_REACTORS
330
47
102
}
330
47
100
AcDbScale
 70
     0
300
1/32" = 1'-0"
140
0.03125
141
12.0
290
     0
  0
SCALE
  5
5C
102
{ACAD_REACTORS
330
47
102
}
330
47
100
AcDbScale
 70
     0
300
1/16" = 1'-0"
140
0.0625
141
12.0
290
     0
  0
SCALE
  5
5D
102
{ACAD_REACTORS
330
47
102
}
330
47
100
AcDbScale
 70
     0
300
3/32" = 1'-0"
140
0.09375
141
12.0
290
     0
  0
SCALE
  5
5E
102
{ACAD_REACTORS
330
47
102
}
330
47
100
AcDbScale
 70
     0
300
1/8" = 1'-0"
140
0.125
141
12.0
290
     0
  0
SCALE
  5
5F
102
{ACAD_REACTORS
330
47
102
}
330
47
100
AcDbScale
 70
     0
300
3/16" = 1'-0"
140
0.1875
141
12.0
290
     0
  0
SCALE
  5
60
102
{ACAD_REACTORS
330
47
102
}
330
47
100
AcDbScale
 70
     0
300
1/4" = 1'-0"
140
0.25
141
12.0
290
     0
  0
SCALE
  5
61
102
{ACAD_REACTORS
330
47
102
}
330
47
100
AcDbScale
 70
     0
300
3/8" = 1'-0"
140
0.375
141
12.0
290
     0
  0
SCALE
  5
62
102
{ACAD_REACTORS
330
47
102
}
330
47
100
AcDbScale
 70
     0
300
1/2" = 1'-0"
140
0.5
141
12.0
290
     0
  0
SCALE
  5
63
102
{ACAD_REACTORS
330
47
102
}
330
47
100
AcDbScale
 70
     0
300
3/4" = 1'-0"
140
0.75
141
12.0
290
     0
  0
SCALE
  5
64
102
{ACAD_REACTORS
330
47
102
}
330
47
100
AcDbScale
 70
     0
300
1" = 1'-0"
140
1.0
141
12.0
290
     0
  0
SCALE
  5
65
102
{ACAD_REACTORS
330
47
102
}
330
47
100
AcDbScale
 70
     0
300
1-1/2" = 1'-0"
140
1.5
141
12.0
290
     0
  0
SCALE
  5
66
102
{ACAD_REACTORS
330
47
102
}
330
47
100
AcDbScale
 70
     0
300
3" = 1'-0"
140
3.0
141
12.0
290
     0
  0
SCALE
  5
67
102
{ACAD_REACTORS
330
47
102
}
330
47
100
AcDbScale
 70
     0
300
6" = 1'-0"
140
6.0
141
12.0
290
     0
  0
SCALE
  5
68
102
{ACAD_REACTORS
330
47
102
}
330
47
100
AcDbScale
 70
     0
300
1'-0" = 1'-0"
140
12.0
141
12.0
290
     0
  0
ENDSEC
  0
EOF
