  0
SECTION
  2
HEADER
  9
$ACADVER
  1
AC1015
  9
$ACADMAINTVER
 70
     6
  9
$DWGCODEPAGE
  3
ANSI_1250
  9
$INSBASE
 10
0.0
 20
0.0
 30
0.0
  9
$EXTMIN
 10
5968.0582398043
 20
4770.9272382608
 30
0.0
  9
$EXTMAX
 10
6285.7127553377
 20
5125.1502167196
 30
0.0
  9
$LIMMIN
 10
0.0
 20
0.0
  9
$LIMMAX
 10
420.0
 20
297.0
  9
$ORTHOMODE
 70
     0
  9
$REGENMODE
 70
     1
  9
$FILLMODE
 70
     1
  9
$QTEXTMODE
 70
     0
  9
$MIRRTEXT
 70
     1
  9
$LTSCALE
 40
1.0
  9
$ATTMODE
 70
     1
  9
$TEXTSIZE
 40
3.5
  9
$TRACEWID
 40
1.0
  9
$TEXTSTYLE
  7
Standard
  9
$CLAYER
  8
0
  9
$CELTYPE
  6
ByLayer
  9
$CECOLOR
 62
   256
  9
$CELTSCALE
 40
1.0
  9
$DISPSILH
 70
     0
  9
$DIMSCALE
 40
1.0
  9
$DIMASZ
 40
3.302
  9
$DIMEXO
 40
0.0
  9
$DIMDLI
 40
3.75
  9
$DIMRND
 40
0.0
  9
$DIMDLE
 40
0.0
  9
$DIMEXE
 40
1.0
  9
$DIMTP
 40
0.0
  9
$DIMTM
 40
0.0
  9
$DIMTXT
 40
3.5
  9
$DIMCEN
 40
2.5
  9
$DIMTSZ
 40
0.0
  9
$DIMTOL
 70
     0
  9
$DIMLIM
 70
     0
  9
$DIMTIH
 70
     1
  9
$DIMTOH
 70
     1
  9
$DIMSE1
 70
     0
  9
$DIMSE2
 70
     0
  9
$DIMTAD
 70
     1
  9
$DIMZIN
 70
     0
  9
$DIMBLK
  1

  9
$DIMASO
 70
     1
  9
$DIMSHO
 70
     1
  9
$DIMPOST
  1

  9
$DIMAPOST
  1

  9
$DIMALT
 70
     0
  9
$DIMALTD
 70
     3
  9
$DIMALTF
 40
0.0393700787
  9
$DIMLFAC
 40
1.0
  9
$DIMTOFL
 70
     1
  9
$DIMTVP
 40
0.0
  9
$DIMTIX
 70
     0
  9
$DIMSOXD
 70
     0
  9
$DIMSAH
 70
     0
  9
$DIMBLK1
  1

  9
$DIMBLK2
  1

  9
$DIMSTYLE
  2
ISO-25
  9
$DIMCLRD
 70
     0
  9
$DIMCLRE
 70
     0
  9
$DIMCLRT
 70
     0
  9
$DIMTFAC
 40
1.0
  9
$DIMGAP
 40
1.524
  9
$DIMJUST
 70
     0
  9
$DIMSD1
 70
     0
  9
$DIMSD2
 70
     0
  9
$DIMTOLJ
 70
     0
  9
$DIMTZIN
 70
     0
  9
$DIMALTZ
 70
     0
  9
$DIMALTTZ
 70
     0
  9
$DIMUPT
 70
     0
  9
$DIMDEC
 70
     2
  9
$DIMTDEC
 70
     2
  9
$DIMALTU
 70
     2
  9
$DIMALTTD
 70
     3
  9
$DIMTXSTY
  7
Standard
  9
$DIMAUNIT
 70
     0
  9
$DIMADEC
 70
     2
  9
$DIMALTRND
 40
0.0
  9
$DIMAZIN
 70
     0
  9
$DIMDSEP
 70
    44
  9
$DIMATFIT
 70
     3
  9
$DIMFRAC
 70
     0
  9
$DIMLDRBLK
  1

  9
$DIMLUNIT
 70
     2
  9
$DIMLWD
 70
    -2
  9
$DIMLWE
 70
    -2
  9
$DIMTMOVE
 70
     0
  9
$LUNITS
 70
     2
  9
$LUPREC
 70
     2
  9
$SKETCHINC
 40
1.0
  9
$FILLETRAD
 40
10.0
  9
$AUNITS
 70
     0
  9
$AUPREC
 70
     2
  9
$MENU
  1
.
  9
$ELEVATION
 40
0.0
  9
$PELEVATION
 40
0.0
  9
$THICKNESS
 40
0.0
  9
$LIMCHECK
 70
     0
  9
$CHAMFERA
 40
0.0
  9
$CHAMFERB
 40
0.0
  9
$CHAMFERC
 40
0.0
  9
$CHAMFERD
 40
0.0
  9
$SKPOLY
 70
     0
  9
$TDCREATE
 40
2459138.364539144
  9
$TDUCREATE
 40
2459138.28120581
  9
$TDUPDATE
 40
2459138.364579537
  9
$TDUUPDATE
 40
2459138.281246204
  9
$TDINDWG
 40
0.0000000116
  9
$TDUSRTIMER
 40
0.0000000116
  9
$USRTIMER
 70
     1
  9
$ANGBASE
 50
0.0
  9
$ANGDIR
 70
     0
  9
$PDMODE
 70
     0
  9
$PDSIZE
 40
-1.0
  9
$PLINEWID
 40
0.0
  9
$SPLFRAME
 70
     0
  9
$SPLINETYPE
 70
     6
  9
$SPLINESEGS
 70
     8
  9
$HANDSEED
  5
25E
  9
$SURFTAB1
 70
     6
  9
$SURFTAB2
 70
     6
  9
$SURFTYPE
 70
     6
  9
$SURFU
 70
     6
  9
$SURFV
 70
     6
  9
$UCSBASE
  2

  9
$UCSNAME
  2

  9
$UCSORG
 10
0.0
 20
0.0
 30
0.0
  9
$UCSXDIR
 10
1.0
 20
0.0
 30
0.0
  9
$UCSYDIR
 10
0.0
 20
1.0
 30
0.0
  9
$UCSORTHOREF
  2

  9
$UCSORTHOVIEW
 70
     0
  9
$UCSORGTOP
 10
0.0
 20
0.0
 30
0.0
  9
$UCSORGBOTTOM
 10
0.0
 20
0.0
 30
0.0
  9
$UCSORGLEFT
 10
0.0
 20
0.0
 30
0.0
  9
$UCSORGRIGHT
 10
0.0
 20
0.0
 30
0.0
  9
$UCSORGFRONT
 10
0.0
 20
0.0
 30
0.0
  9
$UCSORGBACK
 10
0.0
 20
0.0
 30
0.0
  9
$PUCSBASE
  2

  9
$PUCSNAME
  2

  9
$PUCSORG
 10
0.0
 20
0.0
 30
0.0
  9
$PUCSXDIR
 10
1.0
 20
0.0
 30
0.0
  9
$PUCSYDIR
 10
0.0
 20
1.0
 30
0.0
  9
$PUCSORTHOREF
  2

  9
$PUCSORTHOVIEW
 70
     0
  9
$PUCSORGTOP
 10
0.0
 20
0.0
 30
0.0
  9
$PUCSORGBOTTOM
 10
0.0
 20
0.0
 30
0.0
  9
$PUCSORGLEFT
 10
0.0
 20
0.0
 30
0.0
  9
$PUCSORGRIGHT
 10
0.0
 20
0.0
 30
0.0
  9
$PUCSORGFRONT
 10
0.0
 20
0.0
 30
0.0
  9
$PUCSORGBACK
 10
0.0
 20
0.0
 30
0.0
  9
$USERI1
 70
     0
  9
$USERI2
 70
     0
  9
$USERI3
 70
     0
  9
$USERI4
 70
     0
  9
$USERI5
 70
     0
  9
$USERR1
 40
0.0
  9
$USERR2
 40
0.0
  9
$USERR3
 40
0.0
  9
$USERR4
 40
0.0
  9
$USERR5
 40
0.0
  9
$WORLDVIEW
 70
     1
  9
$SHADEDGE
 70
     3
  9
$SHADEDIF
 70
    70
  9
$TILEMODE
 70
     1
  9
$MAXACTVP
 70
    64
  9
$PINSBASE
 10
0.0
 20
0.0
 30
0.0
  9
$PLIMCHECK
 70
     0
  9
$PEXTMIN
 10
1.0000000000E+20
 20
1.0000000000E+20
 30
1.0000000000E+20
  9
$PEXTMAX
 10
-1.0000000000E+20
 20
-1.0000000000E+20
 30
-1.0000000000E+20
  9
$PLIMMIN
 10
0.0
 20
0.0
  9
$PLIMMAX
 10
420.0
 20
297.0
  9
$UNITMODE
 70
     0
  9
$VISRETAIN
 70
     1
  9
$PLINEGEN
 70
     0
  9
$PSLTSCALE
 70
     1
  9
$TREEDEPTH
 70
  3020
  9
$CMLSTYLE
  2
Standard
  9
$CMLJUST
 70
     0
  9
$CMLSCALE
 40
20.0
  9
$PROXYGRAPHICS
 70
     1
  9
$MEASUREMENT
 70
     1
  9
$CELWEIGHT
370
    -1
  9
$ENDCAPS
280
     0
  9
$JOINSTYLE
280
     0
  9
$LWDISPLAY
290
     1
  9
$INSUNITS
 70
     4
  9
$HYPERLINKBASE
  1

  9
$STYLESHEET
  1

  9
$XEDIT
290
     1
  9
$CEPSNTYPE
380
     0
  9
$PSTYLEMODE
290
     1
  9
$FINGERPRINTGUID
  2
{d314d6da-179c-4930-852f-41945c210fb4}
  9
$VERSIONGUID
  2
{FAEB1C32-E019-11D5-929B-00C0DF256EC4}
  9
$EXTNAMES
290
     1
  9
$PSVPSCALE
 40
0.0
  9
$OLESTARTUP
290
     0
  0
ENDSEC
  0
SECTION
  2
CLASSES
  0
CLASS
  1
ACDBDICTIONARYWDFLT
  2
AcDbDictionaryWithDefault
  3
ObjectDBX Classes
 90
        0
280
     0
281
     0
  0
CLASS
  1
VISUALSTYLE
  2
AcDbVisualStyle
  3
ObjectDBX Classes
 90
     4095
280
     0
281
     0
  0
CLASS
  1
MATERIAL
  2
AcDbMaterial
  3
ObjectDBX Classes
 90
     1153
280
     0
281
     0
  0
CLASS
  1
SCALE
  2
AcDbScale
  3
ObjectDBX Classes
 90
     1153
280
     0
281
     0
  0
CLASS
  1
TABLESTYLE
  2
AcDbTableStyle
  3
ObjectDBX Classes
 90
     4095
280
     0
281
     0
  0
CLASS
  1
MLEADERSTYLE
  2
AcDbMLeaderStyle
  3
ACDB_MLEADERSTYLE_CLASS
 90
     4095
280
     0
281
     0
  0
CLASS
  1
SUN
  2
AcDbSun
  3
SCENEOE
 90
     1153
280
     0
281
     0
  0
CLASS
  1
ACDBPLACEHOLDER
  2
AcDbPlaceHolder
  3
ObjectDBX Classes
 90
        0
280
     0
281
     0
  0
CLASS
  1
LAYOUT
  2
AcDbLayout
  3
ObjectDBX Classes
 90
        0
280
     0
281
     0
  0
ENDSEC
  0
SECTION
  2
TABLES
  0
TABLE
  2
VPORT
  5
8
330
0
100
AcDbSymbolTable
 70
     1
  0
VPORT
  5
29
330
8
100
AcDbSymbolTableRecord
100
AcDbViewportTableRecord
  2
*Active
 70
     0
 10
0.0
 20
0.0
 11
1.0
 21
1.0
 12
6126.885497571
 22
4948.0387274902
 13
0.0
 23
0.0
 14
10.0
 24
10.0
 15
10.0
 25
10.0
 16
0.0
 26
0.0
 36
1.0
 17
0.0
 27
0.0
 37
0.0
 40
361.307438028
 41
0.8967642837
 42
50.0
 43
0.0
 44
0.0
 50
0.0
 51
0.0
 71
     0
 72
   100
 73
     1
 74
     3
 75
     0
 76
     0
 77
     0
 78
     0
281
     0
 65
     1
110
0.0
120
0.0
130
0.0
111
1.0
121
0.0
131
0.0
112
0.0
122
1.0
132
0.0
 79
     0
146
0.0
  0
ENDTAB
  0
TABLE
  2
LTYPE
  5
5
330
0
100
AcDbSymbolTable
 70
     6
  0
LTYPE
  5
14
330
5
100
AcDbSymbolTableRecord
100
AcDbLinetypeTableRecord
  2
ByBlock
 70
     0
  3

 72
    65
 73
     0
 40
0.0
  0
LTYPE
  5
15
330
5
100
AcDbSymbolTableRecord
100
AcDbLinetypeTableRecord
  2
ByLayer
 70
     0
  3

 72
    65
 73
     0
 40
0.0
  0
LTYPE
  5
16
330
5
100
AcDbSymbolTableRecord
100
AcDbLinetypeTableRecord
  2
Continuous
 70
     0
  3
Solid line
 72
    65
 73
     0
 40
0.0
  0
LTYPE
  5
6E
330
5
100
AcDbSymbolTableRecord
100
AcDbLinetypeTableRecord
  2
HIDDEN
 70
     0
  3
Hidden __ __ __ __ __ __ __ __ __ __ __ __ __ __
 72
    65
 73
     2
 40
1.905
 49
1.27
 74
     0
 49
-0.635
 74
     0
  0
LTYPE
  5
6F
330
5
100
AcDbSymbolTableRecord
100
AcDbLinetypeTableRecord
  2
PHANTOM
 70
     0
  3
Phantom ______  __  __  ______  __  __  ______
 72
    65
 73
     6
 40
12.7
 49
6.35
 74
     0
 49
-1.27
 74
     0
 49
1.27
 74
     0
 49
-1.27
 74
     0
 49
1.27
 74
     0
 49
-1.27
 74
     0
  0
LTYPE
  5
70
330
5
100
AcDbSymbolTableRecord
100
AcDbLinetypeTableRecord
  2
CENTER
 70
     0
  3
Center ____ _ ____ _ ____ _ ____ _ ____ _ ____
 72
    65
 73
     4
 40
10.16
 49
6.35
 74
     0
 49
-1.27
 74
     0
 49
1.27
 74
     0
 49
-1.27
 74
     0
  0
LTYPE
  5
71
330
5
100
AcDbSymbolTableRecord
100
AcDbLinetypeTableRecord
  2
CENTERX2
 70
     0
  3
Center (2x) ________  __  ________  __  _____
 72
    65
 73
     4
 40
20.32
 49
12.7
 74
     0
 49
-2.54
 74
     0
 49
2.54
 74
     0
 49
-2.54
 74
     0
  0
LTYPE
  5
72
330
5
100
AcDbSymbolTableRecord
100
AcDbLinetypeTableRecord
  2
DOT2
 70
     0
  3
Dot (.5x) ........................................
 72
    65
 73
     2
 40
0.635
 49
0.0
 74
     0
 49
-0.635
 74
     0
  0
ENDTAB
  0
TABLE
  2
LAYER
  5
2
330
0
100
AcDbSymbolTable
 70
     1
  0
LAYER
  5
10
330
2
100
AcDbSymbolTableRecord
100
AcDbLayerTableRecord
  2
0
 70
     0
 62
     7
  6
Continuous
370
    -3
390
F
  0
ENDTAB
  0
TABLE
  2
STYLE
  5
3
330
0
100
AcDbSymbolTable
 70
     1
  0
STYLE
  5
11
330
3
100
AcDbSymbolTableRecord
100
AcDbTextStyleTableRecord
  2
Standard
 70
     0
 40
0.0
 41
1.0
 50
0.0
 71
     0
 42
3.5
  3
txt
  4

  0
ENDTAB
  0
TABLE
  2
VIEW
  5
6
330
0
100
AcDbSymbolTable
 70
     0
  0
ENDTAB
  0
TABLE
  2
UCS
  5
7
330
0
100
AcDbSymbolTable
 70
     0
  0
ENDTAB
  0
TABLE
  2
APPID
  5
9
330
0
100
AcDbSymbolTable
 70
     1
  0
APPID
  5
12
330
9
100
AcDbSymbolTableRecord
100
AcDbRegAppTableRecord
  2
ACAD
 70
     0
  0
ENDTAB
  0
TABLE
  2
DIMSTYLE
  5
A
330
0
100
AcDbSymbolTable
 70
     1
100
AcDbDimStyleTable
  0
DIMSTYLE
105
27
330
A
100
AcDbSymbolTableRecord
100
AcDbDimStyleTableRecord
  2
ISO-25
 70
     0
 41
2.5
 42
0.625
 43
3.75
 44
1.25
 73
     0
 74
     0
 77
     1
 78
     8
140
2.5
141
2.5
143
0.0393700787
147
0.625
171
     3
172
     1
178
     0
271
     2
272
     2
274
     3
278
    44
283
     0
284
     8
340
11
  0
ENDTAB
  0
TABLE
  2
BLOCK_RECORD
  5
1
330
0
100
AcDbSymbolTable
 70
     1
  0
BLOCK_RECORD
  5
1F
330
1
100
AcDbSymbolTableRecord
100
AcDbBlockTableRecord
  2
*Model_Space
340
22
  0
BLOCK_RECORD
  5
1B
330
1
100
AcDbSymbolTableRecord
100
AcDbBlockTableRecord
  2
*Paper_Space
340
1E
  0
BLOCK_RECORD
  5
23
330
1
100
AcDbSymbolTableRecord
100
AcDbBlockTableRecord
  2
*Paper_Space0
340
26
  0
ENDTAB
  0
ENDSEC
  0
SECTION
  2
BLOCKS
  0
BLOCK
  5
20
330
1F
100
AcDbEntity
  8
0
100
AcDbBlockBegin
  2
*Model_Space
 70
     0
 10
0.0
 20
0.0
 30
0.0
  3
*Model_Space
  1

  0
ENDBLK
  5
21
330
1F
100
AcDbEntity
  8
0
100
AcDbBlockEnd
  0
BLOCK
  5
1C
330
1B
100
AcDbEntity
 67
     1
  8
0
100
AcDbBlockBegin
  2
*Paper_Space
 70
     0
 10
0.0
 20
0.0
 30
0.0
  3
*Paper_Space
  1

  0
ENDBLK
  5
1D
330
1B
100
AcDbEntity
 67
     1
  8
0
100
AcDbBlockEnd
  0
BLOCK
  5
24
330
23
100
AcDbEntity
  8
0
100
AcDbBlockBegin
  2
*Paper_Space0
 70
     0
 10
0.0
 20
0.0
 30
0.0
  3
*Paper_Space0
  1

  0
ENDBLK
  5
25
330
23
100
AcDbEntity
  8
0
100
AcDbBlockEnd
  0
ENDSEC
  0
SECTION
  2
ENTITIES
  0
CIRCLE
  5
73
330
1F
100
AcDbEntity
  8
0
  6
Continuous
 62
     7
100
AcDbCircle
 10
6026.5818051093
 20
5066.450638192
 30
0.0
 40
21.71283293779561
  0
CIRCLE
  5
74
330
1F
100
AcDbEntity
  8
0
  6
Continuous
 62
     7
100
AcDbCircle
 10
6026.5818111816
 20
5066.4466638526
 30
0.0
 40
20.21680540957368
  0
CIRCLE
  5
75
330
1F
100
AcDbEntity
  8
0
  6
Continuous
 62
     7
100
AcDbCircle
 10
6026.5818109838
 20
5066.4466447965
 30
0.0
 40
18.18008953158005
  0
CIRCLE
  5
76
330
1F
100
AcDbEntity
  8
0
  6
Continuous
 62
     7
100
AcDbCircle
 10
6026.5818109795
 20
5066.466511778
 30
0.0
 40
18.16022245730164
  0
CIRCLE
  5
77
330
1F
100
AcDbEntity
  8
0
  6
Continuous
 62
     7
100
AcDbCircle
 10
6026.5818070603
 20
5066.6266494636
 30
0.0
 40
34.52356725598111
  0
CIRCLE
  5
78
330
1F
100
AcDbEntity
  8
0
  6
Continuous
 62
     7
100
AcDbCircle
 10
6026.5818070603
 20
5066.6266494636
 30
0.0
 40
56.54033862097367
  0
CIRCLE
  5
79
330
1F
100
AcDbEntity
  8
0
  6
Continuous
 62
     7
100
AcDbCircle
 10
6026.5818070603
 20
5066.6266494636
 30
0.0
 40
58.05000000000018
  0
CIRCLE
  5
7A
330
1F
100
AcDbEntity
  8
0
  6
Continuous
 62
     7
100
AcDbCircle
 10
6026.5818070603
 20
5066.6266494636
 30
0.0
 40
58.52356725598111
  0
CIRCLE
  5
7B
330
1F
100
AcDbEntity
  8
0
  6
Continuous
 62
     7
100
AcDbCircle
 10
6026.5818070603
 20
5066.6266494636
 30
0.0
 40
14.23949249033012
  0
CIRCLE
  5
7C
330
1F
100
AcDbEntity
  8
0
  6
Continuous
 62
     7
100
AcDbCircle
 10
6026.5818070603
 20
5066.6266494636
 30
0.0
 40
14.99999999999909
  0
CIRCLE
  5
7D
330
1F
100
AcDbEntity
  8
0
  6
Continuous
 62
     7
100
AcDbCircle
 10
6026.5818070603
 20
5066.6266494636
 30
0.0
 40
16.25000000000091
  0
CIRCLE
  5
7E
330
1F
100
AcDbEntity
  8
0
  6
Continuous
 62
     7
100
AcDbCircle
 10
6026.5818070603
 20
5066.6266494636
 30
0.0
 40
17.99999999999909
  0
ARC
  5
7F
330
1F
100
AcDbEntity
  8
0
  6
Continuous
 62
     7
100
AcDbCircle
 10
6250.2873665919
 20
5010.4168024548
 30
0.0
 40
1.848867641200986
100
AcDbArc
 50
275.5651955458
 51
349.7028352892
  0
ARC
  5
80
330
1F
100
AcDbEntity
  8
0
  6
Continuous
 62
     7
100
AcDbCircle
 10
6250.2873665919
 20
5122.8364964724
 30
0.0
 40
1.848867641202884
100
AcDbArc
 50
10.2971647108
 51
84.4348044541
  0
ARC
  5
81
330
1F
100
AcDbEntity
  8
0
  6
Continuous
 62
     7
100
AcDbCircle
 10
6256.1976161973
 20
5046.2378052542
 30
0.0
 40
1.50000000000007
100
AcDbArc
 50
266.4269024802
 51
359.6964527519
  0
ARC
  5
82
330
1F
100
AcDbEntity
  8
0
  6
Continuous
 62
     7
100
AcDbCircle
 10
6256.3047017379
 20
5086.6633748686
 30
0.0
 40
1.500000000000909
100
AcDbArc
 50
0.0
 51
97.72180545
  0
ARC
  5
83
330
1F
100
AcDbEntity
  8
0
  6
Continuous
 62
     7
100
AcDbCircle
 10
6233.2516567037
 20
5089.0960094457
 30
0.0
 40
2.460736840577916
100
AcDbArc
 50
179.4686484779
 51
269.9168112857
  0
ARC
  5
84
330
1F
100
AcDbEntity
  8
0
  6
Continuous
 62
     7
100
AcDbCircle
 10
6194.7310024442
 20
5014.8447564211
 30
0.0
 40
0.5351101650806098
100
AcDbArc
 50
103.4811036837
 51
145.9847808624
  0
ARC
  5
85
330
1F
100
AcDbEntity
  8
0
  6
Continuous
 62
     7
100
AcDbCircle
 10
6231.8439085762
 20
5014.8447564211
 30
0.0
 40
0.535110165081538
100
AcDbArc
 50
34.0152191337
 51
76.5188963027
  0
ARC
  5
86
330
1F
100
AcDbEntity
  8
0
  6
Continuous
 62
     7
100
AcDbCircle
 10
6194.2471785168
 20
5016.8629601435
 30
0.0
 40
1.54027699344897
100
AcDbArc
 50
283.481103695
 51
0.0000000005
  0
ARC
  5
87
330
1F
100
AcDbEntity
  8
0
  6
Continuous
 62
     7
100
AcDbCircle
 10
6232.3277325036
 20
5016.8629601435
 30
0.0
 40
1.540276993449174
100
AcDbArc
 50
180.0000000005
 51
256.518896309
  0
ARC
  5
88
330
1F
100
AcDbEntity
  8
0
  6
Continuous
 62
     7
100
AcDbCircle
 10
6231.2874555102
 20
5095.0965596129
 30
0.0
 40
0.500000000001819
100
AcDbArc
 50
90.0000000001
 51
180.0
  0
ARC
  5
89
330
1F
100
AcDbEntity
  8
0
  6
Continuous
 62
     7
100
AcDbCircle
 10
6195.2874555102
 20
5095.0965596129
 30
0.0
 40
0.5000000000009095
100
AcDbArc
 50
0.0
 51
90.0
  0
ARC
  5
8A
330
1F
100
AcDbEntity
  8
0
  6
Continuous
 62
     7
100
AcDbCircle
 10
6193.1447633046
 20
5049.6725549621
 30
0.0
 40
0.545905498490356
100
AcDbArc
 50
203.6623461752
 51
269.9999999992
  0
ARC
  5
8B
330
1F
100
AcDbEntity
  8
0
  6
Continuous
 62
     7
100
AcDbCircle
 10
6193.1447633046
 20
5083.5807439651
 30
0.0
 40
0.5459054984894465
100
AcDbArc
 50
89.999999996
 51
156.3376538228
  0
ARC
  5
8C
330
1F
100
AcDbEntity
  8
0
  6
Continuous
 62
     7
100
AcDbCircle
 10
6194.7874555102
 20
5085.1266494636
 30
0.0
 40
1.00000000000066
100
AcDbArc
 50
271.0072168641
 51
358.9420498427
  0
ARC
  5
8D
330
1F
100
AcDbEntity
  8
0
  6
Continuous
 62
     7
100
AcDbCircle
 10
6194.7874555102
 20
5048.1266494636
 30
0.0
 40
0.9999999999997504
100
AcDbArc
 50
1.0072168641
 51
88.9420498428
  0
ARC
  5
8E
330
1F
100
AcDbEntity
  8
0
  6
Continuous
 62
     7
100
AcDbCircle
 10
6225.1103679801
 20
5063.6794263763
 30
0.0
 40
35.44565233258618
100
AcDbArc
 50
180.0
 51
203.6623461773
  0
ARC
  5
8F
330
1F
100
AcDbEntity
  8
0
  6
Continuous
 62
     7
100
AcDbCircle
 10
6225.1103679801
 20
5069.5738725509
 30
0.0
 40
35.44565233261931
100
AcDbArc
 50
156.3376538228
 51
179.9999999998
  0
ARC
  5
90
330
1F
100
AcDbEntity
  8
0
  6
Continuous
 62
     7
100
AcDbCircle
 10
6281.2874555102
 20
5052.9756667346
 30
0.0
 40
1.349017270977953
100
AcDbArc
 50
269.9999999997
 51
334.1350938723
  0
ARC
  5
91
330
1F
100
AcDbEntity
  8
0
  6
Continuous
 62
     7
100
AcDbCircle
 10
6281.2874555103
 20
5080.2776321926
 30
0.0
 40
1.349017270978948
100
AcDbArc
 50
25.8649061324
 51
90.0000000024
  0
ARC
  5
92
330
1F
100
AcDbEntity
  8
0
  6
Continuous
 62
     7
100
AcDbCircle
 10
6253.6546065415
 20
5066.3725475994
 30
0.0
 40
32.05814879624904
100
AcDbArc
 50
334.1350938697
 51
0.0000000002
  0
ARC
  5
93
330
1F
100
AcDbEntity
  8
0
  6
Continuous
 62
     7
100
AcDbCircle
 10
6253.6546065415
 20
5066.8807513279
 30
0.0
 40
32.05814879624995
100
AcDbArc
 50
359.9999999998
 51
25.8649061303
  0
ARC
  5
94
330
1F
100
AcDbEntity
  8
0
  6
Continuous
 62
     7
100
AcDbCircle
 10
6232.1228832066
 20
5024.4618625735
 30
0.0
 40
1.350030518278229
100
AcDbArc
 50
124.2102180629
 51
182.4819315554
  0
ARC
  5
95
330
1F
100
AcDbEntity
  8
0
  6
Continuous
 62
     7
100
AcDbCircle
 10
6192.2874555102
 20
5102.2965596129
 30
0.0
 40
1.000000000001819
100
AcDbArc
 50
0.0000000001
 51
89.9999999999
  0
ARC
  5
96
330
1F
100
AcDbEntity
  8
0
  6
Continuous
 62
     7
100
AcDbCircle
 10
6234.2874555102
 20
5102.2965596129
 30
0.0
 40
0.9999999999990905
100
AcDbArc
 50
89.9999999999
 51
180.0000000001
  0
ARC
  5
97
330
1F
100
AcDbEntity
  8
0
  6
Continuous
 62
     7
100
AcDbCircle
 10
6193.7874555102
 20
5096.0965596129
 30
0.0
 40
0.5
100
AcDbArc
 50
180.0
 51
270.0
  0
ARC
  5
98
330
1F
100
AcDbEntity
  8
0
  6
Continuous
 62
     7
100
AcDbCircle
 10
6232.7874555102
 20
5096.0965596129
 30
0.0
 40
0.5
100
AcDbArc
 50
270.0
 51
0.0
  0
ARC
  5
99
330
1F
100
AcDbEntity
  8
0
  6
Continuous
 62
     7
100
AcDbCircle
 10
6199.7598356113
 20
5062.1015145804
 30
0.0
 40
13.09053575712371
100
AcDbArc
 50
338.9048912336
 51
5.6196993004
  0
ARC
  5
9A
330
1F
100
AcDbEntity
  8
0
  6
Continuous
 62
     7
100
AcDbCircle
 10
6199.7175977738
 20
5071.1460452609
 30
0.0
 40
13.13201228261501
100
AcDbArc
 50
354.4232665902
 51
21.0521428765
  0
ARC
  5
9B
330
1F
100
AcDbEntity
  8
0
  6
Continuous
 62
     7
100
AcDbCircle
 10
6213.3077538052
 20
5060.423218346
 30
0.0
 40
3.313861602843656
100
AcDbArc
 50
224.9318208364
 51
246.2498576068
  0
ARC
  5
9C
330
1F
100
AcDbEntity
  8
0
  6
Continuous
 62
     7
100
AcDbCircle
 10
6181.4364866828
 20
5062.5990842196
 30
0.0
 40
29.86864962237472
100
AcDbArc
 50
351.3031564911
 51
1.9715243987
  0
ARC
  5
9D
330
1F
100
AcDbEntity
  8
0
  6
Continuous
 62
     7
100
AcDbCircle
 10
6212.4223167228
 20
5065.8783386528
 30
0.0
 40
2.521510296729697
100
AcDbArc
 50
243.2516957401
 51
278.3262511791
  0
ARC
  5
9E
330
1F
100
AcDbEntity
  8
0
  6
Continuous
 62
     7
100
AcDbCircle
 10
6212.4223167229
 20
5067.3749602744
 30
0.0
 40
2.521510296734688
100
AcDbArc
 50
81.6737488254
 51
116.7483042636
  0
ARC
  5
9F
330
1F
100
AcDbEntity
  8
0
  6
Continuous
 62
     7
100
AcDbCircle
 10
6181.1964510691
 20
5070.6401109452
 30
0.0
 40
30.10806623565026
100
AcDbArc
 50
358.0710140527
 51
8.6543050572
  0
ARC
  5
A0
330
1F
100
AcDbEntity
  8
0
  6
Continuous
 62
     7
100
AcDbCircle
 10
6213.3077538049
 20
5072.8300805809
 30
0.0
 40
3.313861602936372
100
AcDbArc
 50
113.7501423863
 51
135.0681791528
  0
ARC
  5
A1
330
1F
100
AcDbEntity
  8
0
  6
Continuous
 62
     7
100
AcDbCircle
 10
6372.9106435038
 20
5233.6251724838
 30
0.0
 40
225.365711122587
100
AcDbArc
 50
223.8730402957
 51
224.429097982
  0
ARC
  5
A2
330
1F
100
AcDbEntity
  8
0
  6
Continuous
 62
     7
100
AcDbCircle
 10
6219.86808015
 20
5048.2014294394
 30
0.0
 40
12.11448145194105
100
AcDbArc
 50
130.6697298861
 51
141.0281318291
  0
ARC
  5
A3
330
1F
100
AcDbEntity
  8
0
  6
Continuous
 62
     7
100
AcDbCircle
 10
6232.6490799937
 20
5045.0754238938
 30
0.0
 40
2.920046150159559
100
AcDbArc
 50
108.355703994
 51
177.7049412152
  0
ARC
  5
A4
330
1F
100
AcDbEntity
  8
0
  6
Continuous
 62
     7
100
AcDbCircle
 10
6210.5308813684
 20
5062.1255233375
 30
0.0
 40
1.681006864458746
100
AcDbArc
 50
63.2516957377
 51
98.3262511767
  0
ARC
  5
A5
330
1F
100
AcDbEntity
  8
0
  6
Continuous
 62
     7
100
AcDbCircle
 10
6210.5308813685
 20
5071.1277755897
 30
0.0
 40
1.68100686449839
100
AcDbArc
 50
261.6737488214
 51
296.7483042599
  0
ARC
  5
A6
330
1F
100
AcDbEntity
  8
0
  6
Continuous
 62
     7
100
AcDbCircle
 10
6204.2663420653
 20
5057.6055360187
 30
0.0
 40
8.630568020152433
100
AcDbArc
 50
44.2387442974
 51
45.7612557025
  0
ARC
  5
A7
330
1F
100
AcDbEntity
  8
0
  6
Continuous
 62
     7
100
AcDbCircle
 10
6373.7607600232
 20
5020.0385422507
 30
0.0
 40
167.1852019603681
100
AcDbArc
 50
166.8466980541
 51
167.641547849
  0
ARC
  5
A8
330
1F
100
AcDbEntity
  8
0
  6
Continuous
 62
     7
100
AcDbCircle
 10
6390.7945494087
 20
5117.0709464291
 30
0.0
 40
184.6496485008158
100
AcDbArc
 50
192.3960417267
 51
193.1157123707
  0
ARC
  5
A9
330
1F
100
AcDbEntity
  8
0
  6
Continuous
 62
     7
100
AcDbCircle
 10
6204.2663420589
 20
5075.6477629148
 30
0.0
 40
8.630568029078336
100
AcDbArc
 50
314.2387442984
 51
315.7612557019
  0
ARC
  5
AA
330
1F
100
AcDbEntity
  8
0
  6
Continuous
 62
     7
100
AcDbCircle
 10
6192.4881332182
 20
5102.3182485314
 30
0.0
 40
0.9784217049682508
100
AcDbArc
 50
358.7298060913
 51
89.1384065576
  0
ARC
  5
AB
330
1F
100
AcDbEntity
  8
0
  6
Continuous
 62
     7
100
AcDbCircle
 10
6234.0867778022
 20
5102.3182485314
 30
0.0
 40
0.978421704968237
100
AcDbArc
 50
90.8615934423
 51
181.2701939087
  0
ARC
  5
AC
330
1F
100
AcDbEntity
  8
0
  6
Continuous
 62
     7
100
AcDbCircle
 10
6193.955808371
 20
5096.0861174831
 30
0.0
 40
0.4896052349521154
100
AcDbArc
 50
178.7779229208
 51
269.2030227601
  0
ARC
  5
AD
330
1F
100
AcDbEntity
  8
0
  6
Continuous
 62
     7
100
AcDbCircle
 10
6232.6191026494
 20
5096.0861174831
 30
0.0
 40
0.48960523495015
100
AcDbArc
 50
270.7969772395
 51
1.2220770793
  0
ARC
  5
AE
330
1F
100
AcDbEntity
  8
0
  6
Continuous
 62
     7
100
AcDbCircle
 10
6231.1889663732
 20
5019.3046970924
 30
0.0
 40
25.92866379203804
100
AcDbArc
 50
90.1062701477
 51
93.2226040493
  0
ARC
  5
AF
330
1F
100
AcDbEntity
  8
0
  6
Continuous
 62
     7
100
AcDbCircle
 10
6235.5683273501
 20
5045.6092313637
 30
0.0
 40
4.443382472103779
100
AcDbArc
 50
149.7618578659
 51
184.8530873945
  0
ARC
  5
B0
330
1F
100
AcDbEntity
  8
0
  6
Continuous
 62
     7
100
AcDbCircle
 10
6239.3416876504
 20
5028.3612339353
 30
0.0
 40
8.448470742475111
100
AcDbArc
 50
166.0884661181
 51
199.2593186784
  0
ARC
  5
B1
330
1F
100
AcDbEntity
  8
0
  6
Continuous
 62
     7
100
AcDbCircle
 10
5970.3719600515
 20
4806.3526270066
 30
0.0
 40
1.848867641202875
100
AcDbArc
 50
185.5651955427
 51
259.7028352889
  0
ARC
  5
B2
330
1F
100
AcDbEntity
  8
0
  6
Continuous
 62
     7
100
AcDbCircle
 10
6082.7916540691
 20
4806.3526270066
 30
0.0
 40
1.848867641200976
100
AcDbArc
 50
280.2971647111
 51
354.4348044574
  0
ARC
  5
B3
330
1F
100
AcDbEntity
  8
0
  6
Continuous
 62
     7
100
AcDbCircle
 10
6046.8086516398
 20
4800.3672849895
 30
0.0
 40
1.477160724258367
100
AcDbArc
 50
275.727664467
 51
6.4874364342
  0
ARC
  5
B4
330
1F
100
AcDbEntity
  8
0
  6
Continuous
 62
     7
100
AcDbCircle
 10
6006.3704851893
 20
4800.3804481389
 30
0.0
 40
1.492942034756417
100
AcDbArc
 50
174.1172765788
 51
267.2517201296
  0
ARC
  5
B5
330
1F
100
AcDbEntity
  8
0
  6
Continuous
 62
     7
100
AcDbCircle
 10
6009.6277125588
 20
4863.4952302939
 30
0.0
 40
0.5459054984896053
100
AcDbArc
 50
113.6623461751
 51
179.9999999992
  0
ARC
  5
B6
330
1F
100
AcDbEntity
  8
0
  6
Continuous
 62
     7
100
AcDbCircle
 10
6043.5359015618
 20
4863.4952302939
 30
0.0
 40
0.5459054984912655
100
AcDbArc
 50
0.0000000008
 51
66.3376538248
  0
ARC
  5
B7
330
1F
100
AcDbEntity
  8
0
  6
Continuous
 62
     7
100
AcDbCircle
 10
6023.634583973
 20
4831.5296256184
 30
0.0
 40
35.445652332588
100
AcDbArc
 50
90.0
 51
113.6623461773
  0
ARC
  5
B8
330
1F
100
AcDbEntity
  8
0
  6
Continuous
 62
     7
100
AcDbCircle
 10
6029.5290301476
 20
4831.5296256184
 30
0.0
 40
35.44565233258709
100
AcDbArc
 50
66.3376538228
 51
90.0
  0
ARC
  5
B9
330
1F
100
AcDbEntity
  8
0
  6
Continuous
 62
     7
100
AcDbCircle
 10
6012.9308243313
 20
4775.3525380884
 30
0.0
 40
1.349017270978948
100
AcDbArc
 50
180.0000000032
 51
244.1350938709
  0
ARC
  5
BA
330
1F
100
AcDbEntity
  8
0
  6
Continuous
 62
     7
100
AcDbCircle
 10
6040.2327897893
 20
4775.3525380884
 30
0.0
 40
1.349017270977977
100
AcDbArc
 50
295.864906129
 51
359.9999999968
  0
ARC
  5
BB
330
1F
100
AcDbEntity
  8
0
  6
Continuous
 62
     7
100
AcDbCircle
 10
6026.3277051963
 20
4802.985387057
 30
0.0
 40
32.05814879624995
100
AcDbArc
 50
244.1350938693
 51
269.9999999997
  0
ARC
  5
BC
330
1F
100
AcDbEntity
  8
0
  6
Continuous
 62
     7
100
AcDbCircle
 10
6026.8359089243
 20
4802.985387057
 30
0.0
 40
32.05814879624995
100
AcDbArc
 50
270.0000000001
 51
295.8649061307
  0
CIRCLE
  5
BD
330
1F
100
AcDbEntity
  8
0
  6
Continuous
 62
     7
100
AcDbCircle
 10
6026.5818070603
 20
4843.3525380883
 30
0.0
 40
20.49999999999909
  0
CIRCLE
  5
BE
330
1F
100
AcDbEntity
  8
0
  6
Continuous
 62
     7
100
AcDbCircle
 10
6026.5818070603
 20
4843.3525380883
 30
0.0
 40
21.0
  0
CIRCLE
  5
BF
330
1F
100
AcDbEntity
  8
0
  6
Continuous
 62
     7
100
AcDbCircle
 10
6026.5818070603
 20
4843.3525380883
 30
0.0
 40
14.29999999999927
  0
ARC
  5
C0
330
1F
100
AcDbEntity
  8
0
  6
Continuous
 62
     7
100
AcDbCircle
 10
6026.5818070603
 20
4843.3525380883
 30
0.0
 40
23.00000000000056
100
AcDbArc
 50
206.1262287788
 51
209.591845794
  0
ARC
  5
C1
330
1F
100
AcDbEntity
  8
0
  6
Continuous
 62
     7
100
AcDbCircle
 10
6026.5818070603
 20
4843.3525380883
 30
0.0
 40
23.00000000005223
100
AcDbArc
 50
146.1262287787
 51
153.873771221
  0
ARC
  5
C2
330
1F
100
AcDbEntity
  8
0
  6
Continuous
 62
     7
100
AcDbCircle
 10
6026.5818070603
 20
4843.3525380883
 30
0.0
 40
23.00000000005223
100
AcDbArc
 50
26.126228779
 51
33.8737712213
  0
ARC
  5
C3
330
1F
100
AcDbEntity
  8
0
  6
Continuous
 62
     7
100
AcDbCircle
 10
6026.5818070603
 20
4843.3525380883
 30
0.0
 40
22.99999999999977
100
AcDbArc
 50
330.408154206
 51
333.8737712212
  0
LINE
  5
C4
330
1F
100
AcDbEntity
  8
0
  6
Continuous
 62
     7
100
AcDbLine
 10
6007.5818070603
 20
5011.2731678715
 30
0.0
 11
6007.5818070603
 21
5008.1441040553
 31
0.0
  0
LINE
  5
C5
330
1F
100
AcDbEntity
  8
0
  6
Continuous
 62
     7
100
AcDbLine
 10
6045.5818070603
 20
5008.1441040553
 30
0.0
 11
6045.5818070603
 21
5011.2731678715
 31
0.0
  0
LINE
  5
C6
330
1F
100
AcDbEntity
  8
0
  6
Continuous
 62
     7
100
AcDbLine
 10
6011.5818070603
 20
4994.6441040553
 30
0.0
 11
6011.5818070603
 21
4962.1441040553
 31
0.0
  0
LINE
  5
C7
330
1F
100
AcDbEntity
  8
0
  6
Continuous
 62
     7
100
AcDbLine
 10
6041.5818070603
 20
4962.1441040553
 30
0.0
 11
6041.5818070603
 21
4994.6441040553
 31
0.0
  0
LINE
  5
C8
330
1F
100
AcDbEntity
  8
0
  6
Continuous
 62
     7
100
AcDbLine
 10
6025.0279600632
 20
4994.6441040553
 30
0.0
 11
6025.0279600632
 21
5008.1237137777
 31
0.0
  0
LINE
  5
C9
330
1F
100
AcDbEntity
  8
0
  6
Continuous
 62
     7
100
AcDbLine
 10
6028.1356540574
 20
5008.1237137777
 30
0.0
 11
6028.1356540574
 21
4994.6441040553
 31
0.0
  0
LINE
  5
CA
330
1F
100
AcDbEntity
  8
0
  6
Continuous
 62
     7
100
AcDbLine
 10
6025.0279600632
 20
4994.6441040553
 30
0.0
 11
6028.1356540574
 21
4994.6441040553
 31
0.0
  0
LINE
  5
CB
330
1F
100
AcDbEntity
  8
0
  6
Continuous
 62
     7
100
AcDbLine
 10
6045.6779600632
 20
4994.6441040553
 30
0.0
 11
6045.6779600632
 21
5008.1441040553
 31
0.0
  0
LINE
  5
CC
330
1F
100
AcDbEntity
  8
0
  6
Continuous
 62
     7
100
AcDbLine
 10
6028.1356540574
 20
4994.6441040553
 30
0.0
 11
6045.6779600632
 21
4994.6441040553
 31
0.0
  0
LINE
  5
CD
330
1F
100
AcDbEntity
  8
0
  6
Continuous
 62
     7
100
AcDbLine
 10
6045.6779600632
 20
5008.1441040553
 30
0.0
 11
6028.7726532269
 21
5008.1441040553
 31
0.0
  0
LINE
  5
CE
330
1F
100
AcDbEntity
  8
0
  6
Continuous
 62
     7
100
AcDbLine
 10
6007.4856540574
 20
5008.1441040553
 30
0.0
 11
6007.4856540574
 21
4994.6441040553
 31
0.0
  0
LINE
  5
CF
330
1F
100
AcDbEntity
  8
0
  6
Continuous
 62
     7
100
AcDbLine
 10
6007.4856540574
 20
4994.6441040553
 30
0.0
 11
6025.0279600632
 21
4994.6441040553
 31
0.0
  0
LINE
  5
D0
330
1F
100
AcDbEntity
  8
0
  6
Continuous
 62
     7
100
AcDbLine
 10
6024.3909608937
 20
5008.1441040553
 30
0.0
 11
6007.4856540574
 21
5008.1441040553
 31
0.0
  0
LINE
  5
D1
330
1F
100
AcDbEntity
  8
0
  6
Continuous
 62
     7
100
AcDbLine
 10
6011.5818070603
 20
4962.1441040553
 30
0.0
 11
6041.5818070603
 21
4962.1441040553
 31
0.0
  0
LINE
  5
D2
330
1F
100
AcDbEntity
  8
0
  6
Continuous
 62
     7
100
AcDbLine
 10
6047.2318070603
 20
5008.1441040553
 30
0.0
 11
6047.2318070603
 21
4994.6441040553
 31
0.0
  0
LINE
  5
D3
330
1F
100
AcDbEntity
  8
0
  6
Continuous
 62
     7
100
AcDbLine
 10
6045.6779600632
 20
4994.6441040553
 30
0.0
 11
6047.2318070603
 21
4994.6441040553
 31
0.0
  0
LINE
  5
D4
330
1F
100
AcDbEntity
  8
0
  6
Continuous
 62
     7
100
AcDbLine
 10
6045.6779600632
 20
5008.1441040553
 30
0.0
 11
6047.2318070603
 21
5008.1441040553
 31
0.0
  0
LINE
  5
D5
330
1F
100
AcDbEntity
  8
0
  6
Continuous
 62
     7
100
AcDbLine
 10
6005.9318070603
 20
4994.6441040553
 30
0.0
 11
6005.9318070603
 21
5008.1441040553
 31
0.0
  0
LINE
  5
D6
330
1F
100
AcDbEntity
  8
0
  6
Continuous
 62
     7
100
AcDbLine
 10
6005.9318070603
 20
4994.6441040553
 30
0.0
 11
6007.4856540574
 21
4994.6441040553
 31
0.0
  0
LINE
  5
D7
330
1F
100
AcDbEntity
  8
0
  6
Continuous
 62
     7
100
AcDbLine
 10
6005.9318070603
 20
5008.1441040553
 30
0.0
 11
6007.4856540574
 21
5008.1441040553
 31
0.0
  0
LINE
  5
D8
330
1F
100
AcDbEntity
  8
0
  6
Continuous
 62
     7
100
AcDbLine
 10
6245.6064561578
 20
5008.1030822076
 30
0.0
 11
6250.4666666855
 21
5008.5766494636
 31
0.0
  0
LINE
  5
D9
330
1F
100
AcDbEntity
  8
0
  6
Continuous
 62
     7
100
AcDbLine
 10
6250.4666666855
 20
5124.6766494636
 30
0.0
 11
6245.6064561578
 21
5125.1502167196
 31
0.0
  0
LINE
  5
DA
330
1F
100
AcDbEntity
  8
0
  6
Continuous
 62
     7
100
AcDbLine
 10
6252.1064561578
 20
5010.0863108426
 30
0.0
 11
6256.1064561578
 21
5032.1030822076
 31
0.0
  0
LINE
  5
DB
330
1F
100
AcDbEntity
  8
0
  6
Continuous
 62
     7
100
AcDbLine
 10
6256.1064561578
 20
5101.1502167196
 30
0.0
 11
6252.1064561578
 21
5123.1669880846
 31
0.0
  0
LINE
  5
DC
330
1F
100
AcDbEntity
  8
0
  6
Continuous
 62
     7
100
AcDbLine
 10
6257.6975951465
 20
5046.229858443
 30
0.0
 11
6257.7083854613
 21
5048.2665552649
 31
0.0
  0
LINE
  5
DD
330
1F
100
AcDbEntity
  8
0
  6
Continuous
 62
     7
100
AcDbLine
 10
6257.8047017379
 20
5084.6266494636
 30
0.0
 11
6257.8047017379
 21
5086.6633748686
 31
0.0
  0
LINE
  5
DE
330
1F
100
AcDbEntity
  8
0
  6
Continuous
 62
     7
100
AcDbLine
 10
6234.2874555102
 20
5108.7965596129
 30
0.0
 11
6233.7874555102
 21
5109.2965596129
 31
0.0
  0
LINE
  5
DF
330
1F
100
AcDbEntity
  8
0
  6
Continuous
 62
     7
100
AcDbLine
 10
6192.7874555102
 20
5109.2965596129
 30
0.0
 11
6192.2874555102
 21
5108.7965596129
 31
0.0
  0
LINE
  5
E0
330
1F
100
AcDbEntity
  8
0
  6
Continuous
 62
     7
100
AcDbLine
 10
6192.2874555102
 20
5108.7965596129
 30
0.0
 11
6192.2874555102
 21
5103.2965596129
 31
0.0
  0
LINE
  5
E1
330
1F
100
AcDbEntity
  8
0
  6
Continuous
 62
     7
100
AcDbLine
 10
6234.2874555102
 20
5103.2965596129
 30
0.0
 11
6234.2874555102
 21
5108.7965596129
 31
0.0
  0
LINE
  5
E2
330
1F
100
AcDbEntity
  8
0
  6
Continuous
 62
     7
100
AcDbLine
 10
6240.2874555102
 20
5086.6266494636
 30
0.0
 11
6233.2491614644
 21
5086.6266494636
 31
0.0
  0
LINE
  5
E3
330
1F
100
AcDbEntity
  8
0
  6
Continuous
 62
     7
100
AcDbLine
 10
6194.2874555102
 20
5015.1441040553
 30
0.0
 11
6194.2874555102
 21
5008.1441040553
 31
0.0
  0
LINE
  5
E4
330
1F
100
AcDbEntity
  8
0
  6
Continuous
 62
     7
100
AcDbLine
 10
6232.2874555102
 20
5008.1441040553
 30
0.0
 11
6232.2874555102
 21
5015.1441040553
 31
0.0
  0
LINE
  5
E5
330
1F
100
AcDbEntity
  8
0
  6
Continuous
 62
     7
100
AcDbLine
 10
6240.2874555102
 20
5048.6266494636
 30
0.0
 11
6245.6064561578
 21
5048.6266494636
 31
0.0
  0
LINE
  5
E6
330
1F
100
AcDbEntity
  8
0
  6
Continuous
 62
     7
100
AcDbLine
 10
6257.7093393348
 20
5048.6266494636
 30
0.0
 11
6267.2874555102
 21
5048.6266494636
 31
0.0
  0
LINE
  5
E7
330
1F
100
AcDbEntity
  8
0
  6
Continuous
 62
     7
100
AcDbLine
 10
6267.2874555102
 20
5084.6266494636
 30
0.0
 11
6257.8047017379
 21
5084.6266494636
 31
0.0
  0
LINE
  5
E8
330
1F
100
AcDbEntity
  8
0
  6
Continuous
 62
     7
100
AcDbLine
 10
6245.6064561578
 20
5084.6266494636
 30
0.0
 11
6240.2874555102
 21
5084.6266494636
 31
0.0
  0
LINE
  5
E9
330
1F
100
AcDbEntity
  8
0
  6
Continuous
 62
     7
100
AcDbLine
 10
6267.2874555102
 20
5048.6266494636
 30
0.0
 11
6270.2874555102
 21
5050.3766494636
 31
0.0
  0
LINE
  5
EA
330
1F
100
AcDbEntity
  8
0
  6
Continuous
 62
     7
100
AcDbLine
 10
6270.2874555102
 20
5082.8766494636
 30
0.0
 11
6267.2874555102
 21
5084.6266494636
 31
0.0
  0
LINE
  5
EB
330
1F
100
AcDbEntity
  8
0
  6
Continuous
 62
     7
100
AcDbLine
 10
6193.1447633046
 20
5049.1266494636
 30
0.0
 11
6194.7874555102
 21
5049.1266494636
 31
0.0
  0
LINE
  5
EC
330
1F
100
AcDbEntity
  8
0
  6
Continuous
 62
     7
100
AcDbLine
 10
6194.7874555102
 20
5084.1266494636
 30
0.0
 11
6193.1447633046
 21
5084.1266494636
 31
0.0
  0
LINE
  5
ED
330
1F
100
AcDbEntity
  8
0
  6
Continuous
 62
     7
100
AcDbLine
 10
6195.7874555102
 20
5095.0965596129
 30
0.0
 11
6195.7874555102
 21
5085.1266494636
 31
0.0
  0
LINE
  5
EE
330
1F
100
AcDbEntity
  8
0
  6
Continuous
 62
     7
100
AcDbLine
 10
6230.7874555102
 20
5089.1197915663
 30
0.0
 11
6230.7874555102
 21
5095.0965596129
 31
0.0
  0
LINE
  5
EF
330
1F
100
AcDbEntity
  8
0
  6
Continuous
 62
     7
100
AcDbLine
 10
6195.7874555102
 20
5048.1266494636
 30
0.0
 11
6195.7874555102
 21
5016.8629601435
 31
0.0
  0
LINE
  5
F0
330
1F
100
AcDbEntity
  8
0
  6
Continuous
 62
     7
100
AcDbLine
 10
6230.7874555102
 20
5016.8629601435
 30
0.0
 11
6230.7874555102
 21
5024.3908848226
 31
0.0
  0
LINE
  5
F1
330
1F
100
AcDbEntity
  8
0
  6
Continuous
 62
     7
100
AcDbLine
 10
6189.6647156475
 20
5069.573872551
 30
0.0
 11
6189.6647156475
 21
5063.6794263763
 31
0.0
  0
LINE
  5
F2
330
1F
100
AcDbEntity
  8
0
  6
Continuous
 62
     7
100
AcDbLine
 10
6198.2874555102
 20
4994.6441040553
 30
0.0
 11
6198.2874555102
 21
4962.1441040553
 31
0.0
  0
LINE
  5
F3
330
1F
100
AcDbEntity
  8
0
  6
Continuous
 62
     7
100
AcDbLine
 10
6228.2874555102
 20
4962.1441040553
 30
0.0
 11
6228.2874555102
 21
4994.6441040553
 31
0.0
  0
LINE
  5
F4
330
1F
100
AcDbEntity
  8
0
  6
Continuous
 62
     7
100
AcDbLine
 10
6270.2874555102
 20
5051.6266494636
 30
0.0
 11
6281.2874555102
 21
5051.6266494636
 31
0.0
  0
LINE
  5
F5
330
1F
100
AcDbEntity
  8
0
  6
Continuous
 62
     7
100
AcDbLine
 10
6281.2874555102
 20
5081.6266494636
 30
0.0
 11
6270.2874555102
 21
5081.6266494636
 31
0.0
  0
LINE
  5
F6
330
1F
100
AcDbEntity
  8
0
  6
Continuous
 62
     7
100
AcDbLine
 10
6285.7127553377
 20
5066.3725475995
 30
0.0
 11
6285.7127553377
 21
5066.8807513278
 31
0.0
  0
LINE
  5
F7
330
1F
100
AcDbEntity
  8
0
  6
Continuous
 62
     7
100
AcDbLine
 10
6231.3693701519
 20
5025.5692218261
 30
0.0
 11
6235.5616298156
 21
5028.8200815511
 31
0.0
  0
LINE
  5
F8
330
1F
100
AcDbEntity
  8
0
  6
Continuous
 62
     7
100
AcDbLine
 10
6235.5616298156
 20
5028.8200815511
 30
0.0
 11
6240.2874555102
 21
5032.4846898805
 31
0.0
  0
LINE
  5
F9
330
1F
100
AcDbEntity
  8
0
  6
Continuous
 62
     7
100
AcDbLine
 10
6193.2874555102
 20
5102.2965596129
 30
0.0
 11
6193.2874555102
 21
5096.0965596129
 31
0.0
  0
LINE
  5
FA
330
1F
100
AcDbEntity
  8
0
  6
Continuous
 62
     7
100
AcDbLine
 10
6233.2874555102
 20
5096.0965596129
 30
0.0
 11
6233.2874555102
 21
5102.2965596129
 31
0.0
  0
LINE
  5
FB
330
1F
100
AcDbEntity
  8
0
  6
Continuous
 62
     7
100
AcDbLine
 10
6236.2874555102
 20
4994.6441040553
 30
0.0
 11
6236.2874555102
 21
5008.1441040553
 31
0.0
  0
LINE
  5
FC
330
1F
100
AcDbEntity
  8
0
  6
Continuous
 62
     7
100
AcDbLine
 10
6190.2874555102
 20
5008.1441040553
 30
0.0
 11
6190.2874555102
 21
4994.6441040553
 31
0.0
  0
LINE
  5
FD
330
1F
100
AcDbEntity
  8
0
  6
Continuous
 62
     7
100
AcDbLine
 10
6245.6064561578
 20
5066.6266494636
 30
0.0
 11
6245.6064561578
 21
5125.1502167196
 31
0.0
  0
LINE
  5
FE
330
1F
100
AcDbEntity
  8
0
  6
Continuous
 62
     7
100
AcDbLine
 10
6245.6064561578
 20
5008.1030822076
 30
0.0
 11
6245.6064561578
 21
5066.6266494636
 31
0.0
  0
LINE
  5
FF
330
1F
100
AcDbEntity
  8
0
  6
Continuous
 62
     7
100
AcDbLine
 10
6256.1064561578
 20
5066.6266494636
 30
0.0
 11
6256.1064561578
 21
5101.1502167196
 31
0.0
  0
LINE
  5
100
330
1F
100
AcDbEntity
  8
0
  6
Continuous
 62
     7
100
AcDbLine
 10
6256.1064561578
 20
5032.1030822076
 30
0.0
 11
6256.1064561578
 21
5066.6266494636
 31
0.0
  0
LINE
  5
101
330
1F
100
AcDbEntity
  8
0
  6
Continuous
 62
     7
100
AcDbLine
 10
6257.7083854613
 20
5048.2665552649
 30
0.0
 11
6257.8047017379
 21
5084.6266494636
 31
0.0
  0
LINE
  5
102
330
1F
100
AcDbEntity
  8
0
  6
Continuous
 62
     7
100
AcDbLine
 10
6192.7874555102
 20
5109.2965596129
 30
0.0
 11
6233.7874555102
 21
5109.2965596129
 31
0.0
  0
LINE
  5
103
330
1F
100
AcDbEntity
  8
0
  6
Continuous
 62
     7
100
AcDbLine
 10
6192.2874555102
 20
5108.7965596129
 30
0.0
 11
6234.2874555102
 21
5108.7965596129
 31
0.0
  0
LINE
  5
104
330
1F
100
AcDbEntity
  8
0
  6
Continuous
 62
     7
100
AcDbLine
 10
6192.2874555102
 20
5103.2965596129
 30
0.0
 11
6192.5028458194
 21
5103.2965596129
 31
0.0
  0
LINE
  5
105
330
1F
100
AcDbEntity
  8
0
  6
Continuous
 62
     7
100
AcDbLine
 10
6234.072065201
 20
5103.2965596129
 30
0.0
 11
6234.2874555102
 21
5103.2965596129
 31
0.0
  0
LINE
  5
106
330
1F
100
AcDbEntity
  8
0
  6
Continuous
 62
     7
100
AcDbLine
 10
6226.277836567
 20
5103.2965596129
 30
0.0
 11
6234.072065201
 21
5103.2965596129
 31
0.0
  0
LINE
  5
107
330
1F
100
AcDbEntity
  8
0
  6
Continuous
 62
     7
100
AcDbLine
 10
6221.0816841443
 20
5103.2965596129
 30
0.0
 11
6226.277836567
 21
5103.2965596129
 31
0.0
  0
LINE
  5
108
330
1F
100
AcDbEntity
  8
0
  6
Continuous
 62
     7
100
AcDbLine
 10
6205.4932268762
 20
5103.2965596129
 30
0.0
 11
6221.0816841443
 21
5103.2965596129
 31
0.0
  0
LINE
  5
109
330
1F
100
AcDbEntity
  8
0
  6
Continuous
 62
     7
100
AcDbLine
 10
6200.2970744535
 20
5103.2965596129
 30
0.0
 11
6205.4932268762
 21
5103.2965596129
 31
0.0
  0
LINE
  5
10A
330
1F
100
AcDbEntity
  8
0
  6
Continuous
 62
     7
100
AcDbLine
 10
6192.5028458194
 20
5103.2965596129
 30
0.0
 11
6200.2970744535
 21
5103.2965596129
 31
0.0
  0
LINE
  5
10B
330
1F
100
AcDbEntity
  8
0
  6
Continuous
 62
     7
100
AcDbLine
 10
6203.1594004156
 20
5008.1441040553
 30
0.0
 11
6203.1594004156
 21
4994.6441040553
 31
0.0
  0
LINE
  5
10C
330
1F
100
AcDbEntity
  8
0
  6
Continuous
 62
     7
100
AcDbLine
 10
6200.4680584694
 20
4994.6441040553
 30
0.0
 11
6200.4680584694
 21
5008.1441040553
 31
0.0
  0
LINE
  5
10D
330
1F
100
AcDbEntity
  8
0
  6
Continuous
 62
     7
100
AcDbLine
 10
6200.4680584694
 20
5008.1441040553
 30
0.0
 11
6203.1594004156
 21
5008.1441040553
 31
0.0
  0
LINE
  5
10E
330
1F
100
AcDbEntity
  8
0
  6
Continuous
 62
     7
100
AcDbLine
 10
6200.4680584694
 20
4994.6441040553
 30
0.0
 11
6203.1594004156
 21
4994.6441040553
 31
0.0
  0
LINE
  5
10F
330
1F
100
AcDbEntity
  8
0
  6
Continuous
 62
     7
100
AcDbLine
 10
6223.4155106049
 20
4994.6441040553
 30
0.0
 11
6223.4155106049
 21
5008.1441040553
 31
0.0
  0
LINE
  5
110
330
1F
100
AcDbEntity
  8
0
  6
Continuous
 62
     7
100
AcDbLine
 10
6223.4155106049
 20
5008.1441040553
 30
0.0
 11
6203.1594004156
 21
5008.1441040553
 31
0.0
  0
LINE
  5
111
330
1F
100
AcDbEntity
  8
0
  6
Continuous
 62
     7
100
AcDbLine
 10
6203.1594004156
 20
4994.6441040553
 30
0.0
 11
6223.4155106049
 21
4994.6441040553
 31
0.0
  0
LINE
  5
112
330
1F
100
AcDbEntity
  8
0
  6
Continuous
 62
     7
100
AcDbLine
 10
6226.1068525511
 20
5008.1441040553
 30
0.0
 11
6226.1068525511
 21
4994.6441040553
 31
0.0
  0
LINE
  5
113
330
1F
100
AcDbEntity
  8
0
  6
Continuous
 62
     7
100
AcDbLine
 10
6223.4155106049
 20
5008.1441040553
 30
0.0
 11
6226.1068525511
 21
5008.1441040553
 31
0.0
  0
LINE
  5
114
330
1F
100
AcDbEntity
  8
0
  6
Continuous
 62
     7
100
AcDbLine
 10
6223.4155106049
 20
4994.6441040553
 30
0.0
 11
6226.1068525511
 21
4994.6441040553
 31
0.0
  0
LINE
  5
115
330
1F
100
AcDbEntity
  8
0
  6
Continuous
 62
     7
100
AcDbLine
 10
6211.9730994758
 20
5057.3900060976
 30
0.0
 11
6212.7662700328
 21
5057.452487817
 31
0.0
  0
LINE
  5
116
330
1F
100
AcDbEntity
  8
0
  6
Continuous
 62
     7
100
AcDbLine
 10
6212.7662700328
 20
5057.452487817
 30
0.0
 11
6213.5671735997
 21
5057.4608195345
 31
0.0
  0
LINE
  5
117
330
1F
100
AcDbEntity
  8
0
  6
Continuous
 62
     7
100
AcDbLine
 10
6213.5671735997
 20
5057.4608195345
 30
0.0
 11
6214.3809764244
 21
5057.4127774532
 31
0.0
  0
LINE
  5
118
330
1F
100
AcDbEntity
  8
0
  6
Continuous
 62
     7
100
AcDbLine
 10
6214.3809764244
 20
5057.4127774532
 30
0.0
 11
6215.1930677588
 21
5057.3089330882
 31
0.0
  0
LINE
  5
119
330
1F
100
AcDbEntity
  8
0
  6
Continuous
 62
     7
100
AcDbLine
 10
6215.1930677588
 20
5057.3089330882
 30
0.0
 11
6216.060995576
 21
5057.1383060186
 31
0.0
  0
LINE
  5
11A
330
1F
100
AcDbEntity
  8
0
  6
Continuous
 62
     7
100
AcDbLine
 10
6216.060995576
 20
5057.1383060186
 30
0.0
 11
6216.9172671162
 21
5056.9126948412
 31
0.0
  0
LINE
  5
11B
330
1F
100
AcDbEntity
  8
0
  6
Continuous
 62
     7
100
AcDbLine
 10
6216.9172671162
 20
5056.9126948412
 30
0.0
 11
6217.7665200404
 21
5056.6365499076
 31
0.0
  0
LINE
  5
11C
330
1F
100
AcDbEntity
  8
0
  6
Continuous
 62
     7
100
AcDbLine
 10
6217.7665200404
 20
5056.6365499076
 30
0.0
 11
6218.5986728348
 21
5056.3194076812
 31
0.0
  0
LINE
  5
11D
330
1F
100
AcDbEntity
  8
0
  6
Continuous
 62
     7
100
AcDbLine
 10
6218.5986728348
 20
5056.3194076812
 30
0.0
 11
6219.4658473595
 21
5055.9443451543
 31
0.0
  0
LINE
  5
11E
330
1F
100
AcDbEntity
  8
0
  6
Continuous
 62
     7
100
AcDbLine
 10
6219.4658473595
 20
5055.9443451543
 30
0.0
 11
6220.3126560291
 21
5055.5385509006
 31
0.0
  0
LINE
  5
11F
330
1F
100
AcDbEntity
  8
0
  6
Continuous
 62
     7
100
AcDbLine
 10
6220.3126560291
 20
5055.5385509006
 30
0.0
 11
6221.1430971932
 21
5055.106666396
 31
0.0
  0
LINE
  5
120
330
1F
100
AcDbEntity
  8
0
  6
Continuous
 62
     7
100
AcDbLine
 10
6221.1430971932
 20
5055.106666396
 30
0.0
 11
6221.9538454507
 21
5054.6561073622
 31
0.0
  0
LINE
  5
121
330
1F
100
AcDbEntity
  8
0
  6
Continuous
 62
     7
100
AcDbLine
 10
6221.9538454507
 20
5054.6561073622
 30
0.0
 11
6222.7595064131
 21
5054.1831654275
 31
0.0
  0
LINE
  5
122
330
1F
100
AcDbEntity
  8
0
  6
Continuous
 62
     7
100
AcDbLine
 10
6222.7595064131
 20
5054.1831654275
 30
0.0
 11
6223.545707406
 21
5053.7000614721
 31
0.0
  0
LINE
  5
123
330
1F
100
AcDbEntity
  8
0
  6
Continuous
 62
     7
100
AcDbLine
 10
6223.545707406
 20
5053.7000614721
 30
0.0
 11
6224.314860184
 21
5053.2090298307
 31
0.0
  0
LINE
  5
124
330
1F
100
AcDbEntity
  8
0
  6
Continuous
 62
     7
100
AcDbLine
 10
6224.314860184
 20
5053.2090298307
 30
0.0
 11
6225.0645746731
 21
5052.7147421871
 31
0.0
  0
LINE
  5
125
330
1F
100
AcDbEntity
  8
0
  6
Continuous
 62
     7
100
AcDbLine
 10
6225.0645746731
 20
5052.7147421871
 30
0.0
 11
6225.7343512774
 21
5052.2613905692
 31
0.0
  0
LINE
  5
126
330
1F
100
AcDbEntity
  8
0
  6
Continuous
 62
     7
100
AcDbLine
 10
6225.7343512774
 20
5052.2613905692
 30
0.0
 11
6226.3869968683
 21
5051.8099626067
 31
0.0
  0
LINE
  5
127
330
1F
100
AcDbEntity
  8
0
  6
Continuous
 62
     7
100
AcDbLine
 10
6226.3869968683
 20
5051.8099626067
 30
0.0
 11
6227.0235301453
 21
5051.3612994604
 31
0.0
  0
LINE
  5
128
330
1F
100
AcDbEntity
  8
0
  6
Continuous
 62
     7
100
AcDbLine
 10
6227.0235301453
 20
5051.3612994604
 30
0.0
 11
6227.6412919166
 21
5050.918631674
 31
0.0
  0
LINE
  5
129
330
1F
100
AcDbEntity
  8
0
  6
Continuous
 62
     7
100
AcDbLine
 10
6227.6412919166
 20
5050.918631674
 30
0.0
 11
6228.2484508228
 21
5050.4771899812
 31
0.0
  0
LINE
  5
12A
330
1F
100
AcDbEntity
  8
0
  6
Continuous
 62
     7
100
AcDbLine
 10
6228.2484508228
 20
5050.4771899812
 30
0.0
 11
6228.8336875418
 21
5050.0461830655
 31
0.0
  0
LINE
  5
12B
330
1F
100
AcDbEntity
  8
0
  6
Continuous
 62
     7
100
AcDbLine
 10
6228.8336875418
 20
5050.0461830655
 30
0.0
 11
6229.397434601
 21
5049.6262822622
 31
0.0
  0
LINE
  5
12C
330
1F
100
AcDbEntity
  8
0
  6
Continuous
 62
     7
100
AcDbLine
 10
6229.397434601
 20
5049.6262822622
 30
0.0
 11
6229.9353862812
 21
5049.2215876438
 31
0.0
  0
LINE
  5
12D
330
1F
100
AcDbEntity
  8
0
  6
Continuous
 62
     7
100
AcDbLine
 10
6229.9353862812
 20
5049.2215876438
 30
0.0
 11
6230.4285580567
 21
5048.8473740487
 31
0.0
  0
LINE
  5
12E
330
1F
100
AcDbEntity
  8
0
  6
Continuous
 62
     7
100
AcDbLine
 10
6230.4285580567
 20
5048.8473740487
 30
0.0
 11
6230.8930725303
 21
5048.4922758407
 31
0.0
  0
LINE
  5
12F
330
1F
100
AcDbEntity
  8
0
  6
Continuous
 62
     7
100
AcDbLine
 10
6230.8930725303
 20
5048.4922758407
 30
0.0
 11
6231.3286121884
 21
5048.1571439343
 31
0.0
  0
LINE
  5
130
330
1F
100
AcDbEntity
  8
0
  6
Continuous
 62
     7
100
AcDbLine
 10
6231.3286121884
 20
5048.1571439343
 30
0.0
 11
6231.7295126206
 21
5047.8468973946
 31
0.0
  0
LINE
  5
131
330
1F
100
AcDbEntity
  8
0
  6
Continuous
 62
     7
100
AcDbLine
 10
6212.7874555102
 20
5069.8698927069
 30
0.0
 11
6212.7874555102
 21
5063.3834062204
 31
0.0
  0
LINE
  5
132
330
1F
100
AcDbEntity
  8
0
  6
Continuous
 62
     7
100
AcDbLine
 10
6240.2874555102
 20
5047.8468224629
 30
0.0
 11
6240.2874555102
 21
5086.6266494636
 31
0.0
  0
LINE
  5
133
330
1F
100
AcDbEntity
  8
0
  6
Continuous
 62
     7
100
AcDbLine
 10
6240.2874555102
 20
5047.8468224629
 30
0.0
 11
6231.7295126206
 21
5047.8468973946
 31
0.0
  0
LINE
  5
134
330
1F
100
AcDbEntity
  8
0
  6
Continuous
 62
     7
100
AcDbLine
 10
6211.2874555102
 20
5069.6266494636
 30
0.0
 11
6211.2874555102
 21
5063.6266494636
 31
0.0
  0
LINE
  5
135
330
1F
100
AcDbEntity
  8
0
  6
Continuous
 62
     7
100
AcDbLine
 10
6205.6881134334
 20
5102.2965596129
 30
0.0
 11
6201.0656565786
 21
5102.2965596129
 31
0.0
  0
LINE
  5
136
330
1F
100
AcDbEntity
  8
0
  6
Continuous
 62
     7
100
AcDbLine
 10
6201.0656565786
 20
5102.2965596129
 30
0.0
 11
6201.0236407714
 21
5102.6229086422
 31
0.0
  0
LINE
  5
137
330
1F
100
AcDbEntity
  8
0
  6
Continuous
 62
     7
100
AcDbLine
 10
6201.0236407714
 20
5102.6229086422
 30
0.0
 11
6200.9028105983
 21
5102.9124251005
 31
0.0
  0
LINE
  5
138
330
1F
100
AcDbEntity
  8
0
  6
Continuous
 62
     7
100
AcDbLine
 10
6200.9028105983
 20
5102.9124251005
 30
0.0
 11
6200.7156233056
 21
5103.1355319059
 31
0.0
  0
LINE
  5
139
330
1F
100
AcDbEntity
  8
0
  6
Continuous
 62
     7
100
AcDbLine
 10
6200.7156233056
 20
5103.1355319059
 30
0.0
 11
6200.4794799915
 21
5103.2680597566
 31
0.0
  0
LINE
  5
13A
330
1F
100
AcDbEntity
  8
0
  6
Continuous
 62
     7
100
AcDbLine
 10
6200.4794799915
 20
5103.2680597566
 30
0.0
 11
6200.3049218439
 21
5103.2965076505
 31
0.0
  0
LINE
  5
13B
330
1F
100
AcDbEntity
  8
0
  6
Continuous
 62
     7
100
AcDbLine
 10
6200.3049218439
 20
5103.2965076505
 30
0.0
 11
6200.2970744535
 21
5103.2965596129
 31
0.0
  0
LINE
  5
13C
330
1F
100
AcDbEntity
  8
0
  6
Continuous
 62
     7
100
AcDbLine
 10
6205.6881134334
 20
5102.2965596129
 30
0.0
 11
6205.6773141196
 21
5102.6229086422
 31
0.0
  0
LINE
  5
13D
330
1F
100
AcDbEntity
  8
0
  6
Continuous
 62
     7
100
AcDbLine
 10
6205.6773141196
 20
5102.6229086422
 30
0.0
 11
6205.6463531001
 21
5102.9124251005
 31
0.0
  0
LINE
  5
13E
330
1F
100
AcDbEntity
  8
0
  6
Continuous
 62
     7
100
AcDbLine
 10
6205.6463531001
 20
5102.9124251005
 30
0.0
 11
6205.5986664256
 21
5103.1355319059
 31
0.0
  0
LINE
  5
13F
330
1F
100
AcDbEntity
  8
0
  6
Continuous
 62
     7
100
AcDbLine
 10
6205.5986664256
 20
5103.1355319059
 30
0.0
 11
6205.5389793307
 21
5103.2680597566
 31
0.0
  0
LINE
  5
140
330
1F
100
AcDbEntity
  8
0
  6
Continuous
 62
     7
100
AcDbLine
 10
6205.5389793307
 20
5103.2680597566
 30
0.0
 11
6205.4951890016
 21
5103.2965076505
 31
0.0
  0
LINE
  5
141
330
1F
100
AcDbEntity
  8
0
  6
Continuous
 62
     7
100
AcDbLine
 10
6205.4951890016
 20
5103.2965076505
 30
0.0
 11
6205.4932268762
 21
5103.2965596129
 31
0.0
  0
LINE
  5
142
330
1F
100
AcDbEntity
  8
0
  6
Continuous
 62
     7
100
AcDbLine
 10
6221.0816841443
 20
5103.2965596129
 30
0.0
 11
6221.0797220188
 21
5103.2965076505
 31
0.0
  0
LINE
  5
143
330
1F
100
AcDbEntity
  8
0
  6
Continuous
 62
     7
100
AcDbLine
 10
6221.0797220188
 20
5103.2965076505
 30
0.0
 11
6221.0359316898
 21
5103.2680597566
 31
0.0
  0
LINE
  5
144
330
1F
100
AcDbEntity
  8
0
  6
Continuous
 62
     7
100
AcDbLine
 10
6221.0359316898
 20
5103.2680597566
 30
0.0
 11
6220.9762445949
 21
5103.1355319059
 31
0.0
  0
LINE
  5
145
330
1F
100
AcDbEntity
  8
0
  6
Continuous
 62
     7
100
AcDbLine
 10
6220.9762445949
 20
5103.1355319059
 30
0.0
 11
6220.9285579204
 21
5102.9124251005
 31
0.0
  0
LINE
  5
146
330
1F
100
AcDbEntity
  8
0
  6
Continuous
 62
     7
100
AcDbLine
 10
6220.9285579204
 20
5102.9124251005
 30
0.0
 11
6220.8975969009
 21
5102.6229086422
 31
0.0
  0
LINE
  5
147
330
1F
100
AcDbEntity
  8
0
  6
Continuous
 62
     7
100
AcDbLine
 10
6220.8975969009
 20
5102.6229086422
 30
0.0
 11
6220.886797587
 21
5102.2965596129
 31
0.0
  0
LINE
  5
148
330
1F
100
AcDbEntity
  8
0
  6
Continuous
 62
     7
100
AcDbLine
 10
6220.886797587
 20
5102.2965596129
 30
0.0
 11
6205.6881134334
 21
5102.2965596129
 31
0.0
  0
LINE
  5
149
330
1F
100
AcDbEntity
  8
0
  6
Continuous
 62
     7
100
AcDbLine
 10
6226.277836567
 20
5103.2965596129
 30
0.0
 11
6226.2699891765
 21
5103.2965076505
 31
0.0
  0
LINE
  5
14A
330
1F
100
AcDbEntity
  8
0
  6
Continuous
 62
     7
100
AcDbLine
 10
6226.2699891765
 20
5103.2965076505
 30
0.0
 11
6226.0954310289
 21
5103.2680597566
 31
0.0
  0
LINE
  5
14B
330
1F
100
AcDbEntity
  8
0
  6
Continuous
 62
     7
100
AcDbLine
 10
6226.0954310289
 20
5103.2680597566
 30
0.0
 11
6225.8592877148
 21
5103.1355319059
 31
0.0
  0
LINE
  5
14C
330
1F
100
AcDbEntity
  8
0
  6
Continuous
 62
     7
100
AcDbLine
 10
6225.8592877148
 20
5103.1355319059
 30
0.0
 11
6225.6721004221
 21
5102.9124251005
 31
0.0
  0
LINE
  5
14D
330
1F
100
AcDbEntity
  8
0
  6
Continuous
 62
     7
100
AcDbLine
 10
6225.6721004221
 20
5102.9124251005
 30
0.0
 11
6225.551270249
 21
5102.6229086422
 31
0.0
  0
LINE
  5
14E
330
1F
100
AcDbEntity
  8
0
  6
Continuous
 62
     7
100
AcDbLine
 10
6225.551270249
 20
5102.6229086422
 30
0.0
 11
6225.5092544418
 21
5102.2965596129
 31
0.0
  0
LINE
  5
14F
330
1F
100
AcDbEntity
  8
0
  6
Continuous
 62
     7
100
AcDbLine
 10
6225.5092544418
 20
5102.2965596129
 30
0.0
 11
6220.886797587
 21
5102.2965596129
 31
0.0
  0
LINE
  5
150
330
1F
100
AcDbEntity
  8
0
  6
Continuous
 62
     7
100
AcDbLine
 10
6229.7313761516
 20
5045.1923589564
 30
0.0
 11
6229.3397296237
 21
5045.5836990858
 31
0.0
  0
LINE
  5
151
330
1F
100
AcDbEntity
  8
0
  6
Continuous
 62
     7
100
AcDbLine
 10
6229.3397296237
 20
5045.5836990858
 30
0.0
 11
6228.8954908581
 21
5046.0248172116
 31
0.0
  0
LINE
  5
152
330
1F
100
AcDbEntity
  8
0
  6
Continuous
 62
     7
100
AcDbLine
 10
6228.8954908581
 20
5046.0248172116
 30
0.0
 11
6228.3976707219
 21
5046.5154074863
 31
0.0
  0
LINE
  5
153
330
1F
100
AcDbEntity
  8
0
  6
Continuous
 62
     7
100
AcDbLine
 10
6228.3976707219
 20
5046.5154074863
 30
0.0
 11
6227.8543949348
 21
5047.0459549163
 31
0.0
  0
LINE
  5
154
330
1F
100
AcDbEntity
  8
0
  6
Continuous
 62
     7
100
AcDbLine
 10
6227.8543949348
 20
5047.0459549163
 30
0.0
 11
6226.9288078557
 21
5047.9370334424
 31
0.0
  0
LINE
  5
155
330
1F
100
AcDbEntity
  8
0
  6
Continuous
 62
     7
100
AcDbLine
 10
6226.9288078557
 20
5047.9370334424
 30
0.0
 11
6225.910802271
 21
5048.8959090988
 31
0.0
  0
LINE
  5
156
330
1F
100
AcDbEntity
  8
0
  6
Continuous
 62
     7
100
AcDbLine
 10
6225.910802271
 20
5048.8959090988
 30
0.0
 11
6224.7925961916
 21
5049.9191912889
 31
0.0
  0
LINE
  5
157
330
1F
100
AcDbEntity
  8
0
  6
Continuous
 62
     7
100
AcDbLine
 10
6224.7925961916
 20
5049.9191912889
 30
0.0
 11
6223.5924347777
 21
5050.9757537775
 31
0.0
  0
LINE
  5
158
330
1F
100
AcDbEntity
  8
0
  6
Continuous
 62
     7
100
AcDbLine
 10
6223.5924347777
 20
5050.9757537775
 30
0.0
 11
6222.3287643556
 21
5052.0314678427
 31
0.0
  0
LINE
  5
159
330
1F
100
AcDbEntity
  8
0
  6
Continuous
 62
     7
100
AcDbLine
 10
6222.3287643556
 20
5052.0314678427
 30
0.0
 11
6220.9810573281
 21
5053.0781676813
 31
0.0
  0
LINE
  5
15A
330
1F
100
AcDbEntity
  8
0
  6
Continuous
 62
     7
100
AcDbLine
 10
6220.9810573281
 20
5053.0781676813
 30
0.0
 11
6219.5186719182
 21
5054.0981141102
 31
0.0
  0
LINE
  5
15B
330
1F
100
AcDbEntity
  8
0
  6
Continuous
 62
     7
100
AcDbLine
 10
6219.5186719182
 20
5054.0981141102
 30
0.0
 11
6217.9347706692
 21
5055.0310024584
 31
0.0
  0
LINE
  5
15C
330
1F
100
AcDbEntity
  8
0
  6
Continuous
 62
     7
100
AcDbLine
 10
6217.9347706692
 20
5055.0310024584
 30
0.0
 11
6216.5088985212
 21
5055.681123414
 31
0.0
  0
LINE
  5
15D
330
1F
100
AcDbEntity
  8
0
  6
Continuous
 62
     7
100
AcDbLine
 10
6216.5088985212
 20
5055.681123414
 30
0.0
 11
6215.7463652429
 21
5055.9426836281
 31
0.0
  0
LINE
  5
15E
330
1F
100
AcDbEntity
  8
0
  6
Continuous
 62
     7
100
AcDbLine
 10
6215.7463652429
 20
5055.9426836281
 30
0.0
 11
6214.9548662277
 21
5056.1442185413
 31
0.0
  0
LINE
  5
15F
330
1F
100
AcDbEntity
  8
0
  6
Continuous
 62
     7
100
AcDbLine
 10
6214.9548662277
 20
5056.1442185413
 30
0.0
 11
6213.7158651941
 21
5056.3072638716
 31
0.0
  0
LINE
  5
160
330
1F
100
AcDbEntity
  8
0
  6
Continuous
 62
     7
100
AcDbLine
 10
6213.7158651941
 20
5056.3072638716
 30
0.0
 11
6212.4270390308
 21
5056.2720879556
 31
0.0
  0
LINE
  5
161
330
1F
100
AcDbEntity
  8
0
  6
Continuous
 62
     7
100
AcDbLine
 10
6212.4270390308
 20
5056.2720879556
 30
0.0
 11
6211.7389585671
 21
5056.1680703877
 31
0.0
  0
LINE
  5
162
330
1F
100
AcDbEntity
  8
0
  6
Continuous
 62
     7
100
AcDbLine
 10
6211.7389585671
 20
5056.1680703877
 30
0.0
 11
6211.2874555102
 21
5056.0685014349
 31
0.0
  0
LINE
  5
163
330
1F
100
AcDbEntity
  8
0
  6
Continuous
 62
     7
100
AcDbLine
 10
6211.2874555102
 20
5056.0685014349
 30
0.0
 11
6210.4496176724
 21
5055.8206961632
 31
0.0
  0
LINE
  5
164
330
1F
100
AcDbEntity
  8
0
  6
Continuous
 62
     7
100
AcDbLine
 10
6236.2349076457
 20
4994.6441040553
 30
0.0
 11
6236.2349076457
 21
5008.1441040553
 31
0.0
  0
LINE
  5
165
330
1F
100
AcDbEntity
  8
0
  6
Continuous
 62
     7
100
AcDbLine
 10
6236.2349076457
 20
5008.1441040553
 30
0.0
 11
6226.1068525511
 21
5008.1441040553
 31
0.0
  0
LINE
  5
166
330
1F
100
AcDbEntity
  8
0
  6
Continuous
 62
     7
100
AcDbLine
 10
6226.1068525511
 20
4994.6441040553
 30
0.0
 11
6236.2349076457
 21
4994.6441040553
 31
0.0
  0
LINE
  5
167
330
1F
100
AcDbEntity
  8
0
  6
Continuous
 62
     7
100
AcDbLine
 10
6190.3400033748
 20
5008.1441040553
 30
0.0
 11
6190.3400033748
 21
4994.6441040553
 31
0.0
  0
LINE
  5
168
330
1F
100
AcDbEntity
  8
0
  6
Continuous
 62
     7
100
AcDbLine
 10
6200.4680584694
 20
5008.1441040553
 30
0.0
 11
6190.3400033748
 21
5008.1441040553
 31
0.0
  0
LINE
  5
169
330
1F
100
AcDbEntity
  8
0
  6
Continuous
 62
     7
100
AcDbLine
 10
6190.3400033748
 20
4994.6441040553
 30
0.0
 11
6200.4680584694
 21
4994.6441040553
 31
0.0
  0
LINE
  5
16A
330
1F
100
AcDbEntity
  8
0
  6
Continuous
 62
     7
100
AcDbLine
 10
6194.2874555102
 20
5015.1441040553
 30
0.0
 11
6232.2874555102
 21
5015.1441040553
 31
0.0
  0
LINE
  5
16B
330
1F
100
AcDbEntity
  8
0
  6
Continuous
 62
     7
100
AcDbLine
 10
6205.7874555102
 20
5095.5965596129
 30
0.0
 11
6201.4489982421
 21
5095.5965596129
 31
0.0
  0
LINE
  5
16C
330
1F
100
AcDbEntity
  8
0
  6
Continuous
 62
     7
100
AcDbLine
 10
6201.4489982421
 20
5095.5965596129
 30
0.0
 11
6201.4435815382
 21
5095.5966096158
 31
0.0
  0
LINE
  5
16D
330
1F
100
AcDbEntity
  8
0
  6
Continuous
 62
     7
100
AcDbLine
 10
6201.4435815382
 20
5095.5966096158
 30
0.0
 11
6201.3579555125
 21
5095.6108845045
 31
0.0
  0
LINE
  5
16E
330
1F
100
AcDbEntity
  8
0
  6
Continuous
 62
     7
100
AcDbLine
 10
6201.3579555125
 20
5095.6108845045
 30
0.0
 11
6201.2403748298
 21
5095.677157926
 31
0.0
  0
LINE
  5
16F
330
1F
100
AcDbEntity
  8
0
  6
Continuous
 62
     7
100
AcDbLine
 10
6201.2403748298
 20
5095.677157926
 30
0.0
 11
6201.1470100344
 21
5095.7886708815
 31
0.0
  0
LINE
  5
170
330
1F
100
AcDbEntity
  8
0
  6
Continuous
 62
     7
100
AcDbLine
 10
6201.1470100344
 20
5095.7886708815
 30
0.0
 11
6201.0866553418
 21
5095.9334087351
 31
0.0
  0
LINE
  5
171
330
1F
100
AcDbEntity
  8
0
  6
Continuous
 62
     7
100
AcDbLine
 10
6201.0866553418
 20
5095.9334087351
 30
0.0
 11
6201.0656565786
 21
5096.0965596129
 31
0.0
  0
LINE
  5
172
330
1F
100
AcDbEntity
  8
0
  6
Continuous
 62
     7
100
AcDbLine
 10
6201.0656565786
 20
5096.0965596129
 30
0.0
 11
6205.6881134334
 21
5096.0965596129
 31
0.0
  0
LINE
  5
173
330
1F
100
AcDbEntity
  8
0
  6
Continuous
 62
     7
100
AcDbLine
 10
6205.7874555102
 20
5095.5965596129
 30
0.0
 11
6205.7860414248
 21
5095.5966096158
 31
0.0
  0
LINE
  5
174
330
1F
100
AcDbEntity
  8
0
  6
Continuous
 62
     7
100
AcDbLine
 10
6205.7860414248
 20
5095.5966096158
 30
0.0
 11
6205.7637277843
 21
5095.6108845045
 31
0.0
  0
LINE
  5
175
330
1F
100
AcDbEntity
  8
0
  6
Continuous
 62
     7
100
AcDbLine
 10
6205.7637277843
 20
5095.6108845045
 30
0.0
 11
6205.7332082469
 21
5095.677157926
 31
0.0
  0
LINE
  5
176
330
1F
100
AcDbEntity
  8
0
  6
Continuous
 62
     7
100
AcDbLine
 10
6205.7332082469
 20
5095.677157926
 30
0.0
 11
6205.7090730851
 21
5095.7886708815
 31
0.0
  0
LINE
  5
177
330
1F
100
AcDbEntity
  8
0
  6
Continuous
 62
     7
100
AcDbLine
 10
6205.7090730851
 20
5095.7886708815
 30
0.0
 11
6205.6935172377
 21
5095.9334087351
 31
0.0
  0
LINE
  5
178
330
1F
100
AcDbEntity
  8
0
  6
Continuous
 62
     7
100
AcDbLine
 10
6205.6935172377
 20
5095.9334087351
 30
0.0
 11
6205.6881134334
 21
5096.0965596129
 31
0.0
  0
LINE
  5
179
330
1F
100
AcDbEntity
  8
0
  6
Continuous
 62
     7
100
AcDbLine
 10
6201.0656565786
 20
5096.0965596129
 30
0.0
 11
6201.0656565786
 21
5102.2965596129
 31
0.0
  0
LINE
  5
17A
330
1F
100
AcDbEntity
  8
0
  6
Continuous
 62
     7
100
AcDbLine
 10
6205.6881134334
 20
5102.2965596129
 30
0.0
 11
6205.6881134334
 21
5096.0965596129
 31
0.0
  0
LINE
  5
17B
330
1F
100
AcDbEntity
  8
0
  6
Continuous
 62
     7
100
AcDbLine
 10
6220.7874555102
 20
5095.5965596129
 30
0.0
 11
6213.2874555102
 21
5095.5965596129
 31
0.0
  0
LINE
  5
17C
330
1F
100
AcDbEntity
  8
0
  6
Continuous
 62
     7
100
AcDbLine
 10
6213.2874555102
 20
5095.5965596129
 30
0.0
 11
6205.7874555102
 21
5095.5965596129
 31
0.0
  0
LINE
  5
17D
330
1F
100
AcDbEntity
  8
0
  6
Continuous
 62
     7
100
AcDbLine
 10
6205.6881134334
 20
5096.0965596129
 30
0.0
 11
6220.886797587
 21
5096.0965596129
 31
0.0
  0
LINE
  5
17E
330
1F
100
AcDbEntity
  8
0
  6
Continuous
 62
     7
100
AcDbLine
 10
6220.7874555102
 20
5095.5965596129
 30
0.0
 11
6220.7888695956
 21
5095.5966096158
 31
0.0
  0
LINE
  5
17F
330
1F
100
AcDbEntity
  8
0
  6
Continuous
 62
     7
100
AcDbLine
 10
6220.7888695956
 20
5095.5966096158
 30
0.0
 11
6220.8111832361
 21
5095.6108845045
 31
0.0
  0
LINE
  5
180
330
1F
100
AcDbEntity
  8
0
  6
Continuous
 62
     7
100
AcDbLine
 10
6220.8111832361
 20
5095.6108845045
 30
0.0
 11
6220.8417027736
 21
5095.677157926
 31
0.0
  0
LINE
  5
181
330
1F
100
AcDbEntity
  8
0
  6
Continuous
 62
     7
100
AcDbLine
 10
6220.8417027736
 20
5095.677157926
 30
0.0
 11
6220.8658379353
 21
5095.7886708815
 31
0.0
  0
LINE
  5
182
330
1F
100
AcDbEntity
  8
0
  6
Continuous
 62
     7
100
AcDbLine
 10
6220.8658379353
 20
5095.7886708815
 30
0.0
 11
6220.8813937828
 21
5095.9334087351
 31
0.0
  0
LINE
  5
183
330
1F
100
AcDbEntity
  8
0
  6
Continuous
 62
     7
100
AcDbLine
 10
6220.8813937828
 20
5095.9334087351
 30
0.0
 11
6220.886797587
 21
5096.0965596129
 31
0.0
  0
LINE
  5
184
330
1F
100
AcDbEntity
  8
0
  6
Continuous
 62
     7
100
AcDbLine
 10
6220.886797587
 20
5096.0965596129
 30
0.0
 11
6220.886797587
 21
5102.2965596129
 31
0.0
  0
LINE
  5
185
330
1F
100
AcDbEntity
  8
0
  6
Continuous
 62
     7
100
AcDbLine
 10
6210.2874555102
 20
5063.7888116258
 30
0.0
 11
6210.2874555102
 21
5069.4644873014
 31
0.0
  0
LINE
  5
186
330
1F
100
AcDbEntity
  8
0
  6
Continuous
 62
     7
100
AcDbLine
 10
6225.1259127783
 20
5095.5965596129
 30
0.0
 11
6220.7874555102
 21
5095.5965596129
 31
0.0
  0
LINE
  5
187
330
1F
100
AcDbEntity
  8
0
  6
Continuous
 62
     7
100
AcDbLine
 10
6220.886797587
 20
5096.0965596129
 30
0.0
 11
6225.5092544418
 21
5096.0965596129
 31
0.0
  0
LINE
  5
188
330
1F
100
AcDbEntity
  8
0
  6
Continuous
 62
     7
100
AcDbLine
 10
6225.1259127783
 20
5095.5965596129
 30
0.0
 11
6225.1313294822
 21
5095.5966096158
 31
0.0
  0
LINE
  5
189
330
1F
100
AcDbEntity
  8
0
  6
Continuous
 62
     7
100
AcDbLine
 10
6225.1313294822
 20
5095.5966096158
 30
0.0
 11
6225.2169555079
 21
5095.6108845045
 31
0.0
  0
LINE
  5
18A
330
1F
100
AcDbEntity
  8
0
  6
Continuous
 62
     7
100
AcDbLine
 10
6225.2169555079
 20
5095.6108845045
 30
0.0
 11
6225.3345361906
 21
5095.677157926
 31
0.0
  0
LINE
  5
18B
330
1F
100
AcDbEntity
  8
0
  6
Continuous
 62
     7
100
AcDbLine
 10
6225.3345361906
 20
5095.677157926
 30
0.0
 11
6225.4279009861
 21
5095.7886708815
 31
0.0
  0
LINE
  5
18C
330
1F
100
AcDbEntity
  8
0
  6
Continuous
 62
     7
100
AcDbLine
 10
6225.4279009861
 20
5095.7886708815
 30
0.0
 11
6225.4882556787
 21
5095.9334087351
 31
0.0
  0
LINE
  5
18D
330
1F
100
AcDbEntity
  8
0
  6
Continuous
 62
     7
100
AcDbLine
 10
6225.4882556787
 20
5095.9334087351
 30
0.0
 11
6225.5092544418
 21
5096.0965596129
 31
0.0
  0
LINE
  5
18E
330
1F
100
AcDbEntity
  8
0
  6
Continuous
 62
     7
100
AcDbLine
 10
6225.5092544418
 20
5102.2965596129
 30
0.0
 11
6225.5092544418
 21
5096.0965596129
 31
0.0
  0
LINE
  5
18F
330
1F
100
AcDbEntity
  8
0
  6
Continuous
 62
     7
100
AcDbLine
 10
6211.2874555102
 20
5063.6266494636
 30
0.0
 11
6210.4496176724
 21
5063.6266494636
 31
0.0
  0
LINE
  5
190
330
1F
100
AcDbEntity
  8
0
  6
Continuous
 62
     7
100
AcDbLine
 10
6210.4496176724
 20
5055.8206961632
 30
0.0
 11
6210.4496176724
 21
5063.6266494636
 31
0.0
  0
LINE
  5
191
330
1F
100
AcDbEntity
  8
0
  6
Continuous
 62
     7
100
AcDbLine
 10
6211.2874555102
 20
5069.6266494636
 30
0.0
 11
6210.4496176724
 21
5069.6266494636
 31
0.0
  0
LINE
  5
192
330
1F
100
AcDbEntity
  8
0
  6
Continuous
 62
     7
100
AcDbLine
 10
6210.4496176724
 20
5069.6266494636
 30
0.0
 11
6210.4496176724
 21
5077.4326027642
 31
0.0
  0
LINE
  5
193
330
1F
100
AcDbEntity
  8
0
  6
Continuous
 62
     7
100
AcDbLine
 10
6267.2874555102
 20
5066.6266494636
 30
0.0
 11
6267.2874555102
 21
5084.6266494636
 31
0.0
  0
LINE
  5
194
330
1F
100
AcDbEntity
  8
0
  6
Continuous
 62
     7
100
AcDbLine
 10
6267.2874555102
 20
5048.6266494636
 30
0.0
 11
6267.2874555102
 21
5066.6266494636
 31
0.0
  0
LINE
  5
195
330
1F
100
AcDbEntity
  8
0
  6
Continuous
 62
     7
100
AcDbLine
 10
6270.2874555102
 20
5066.6266494636
 30
0.0
 11
6270.2874555102
 21
5082.8766494636
 31
0.0
  0
LINE
  5
196
330
1F
100
AcDbEntity
  8
0
  6
Continuous
 62
     7
100
AcDbLine
 10
6270.2874555102
 20
5050.3766494636
 30
0.0
 11
6270.2874555102
 21
5066.6266494636
 31
0.0
  0
LINE
  5
197
330
1F
100
AcDbEntity
  8
0
  6
Continuous
 62
     7
100
AcDbLine
 10
6230.7843665268
 20
5024.3908848226
 30
0.0
 11
6230.7795755006
 21
5024.4030612593
 31
0.0
  0
LINE
  5
198
330
1F
100
AcDbEntity
  8
0
  6
Continuous
 62
     7
100
AcDbLine
 10
6201.0656565786
 20
5102.2965596129
 30
0.0
 11
6193.4663145018
 21
5102.2965596129
 31
0.0
  0
LINE
  5
199
330
1F
100
AcDbEntity
  8
0
  6
Continuous
 62
     7
100
AcDbLine
 10
6233.1085965186
 20
5102.2965596129
 30
0.0
 11
6225.5092544418
 21
5102.2965596129
 31
0.0
  0
LINE
  5
19A
330
1F
100
AcDbEntity
  8
0
  6
Continuous
 62
     7
100
AcDbLine
 10
6197.6989982421
 20
5095.5965596129
 30
0.0
 11
6193.9489982421
 21
5095.5965596129
 31
0.0
  0
LINE
  5
19B
330
1F
100
AcDbEntity
  8
0
  6
Continuous
 62
     7
100
AcDbLine
 10
6193.4663145018
 20
5096.0965596129
 30
0.0
 11
6201.0656565786
 21
5096.0965596129
 31
0.0
  0
LINE
  5
19C
330
1F
100
AcDbEntity
  8
0
  6
Continuous
 62
     7
100
AcDbLine
 10
6201.4489982421
 20
5095.5965596129
 30
0.0
 11
6197.6989982421
 21
5095.5965596129
 31
0.0
  0
LINE
  5
19D
330
1F
100
AcDbEntity
  8
0
  6
Continuous
 62
     7
100
AcDbLine
 10
6232.6259127783
 20
5095.5965596129
 30
0.0
 11
6228.8759127783
 21
5095.5965596129
 31
0.0
  0
LINE
  5
19E
330
1F
100
AcDbEntity
  8
0
  6
Continuous
 62
     7
100
AcDbLine
 10
6225.5092544418
 20
5096.0965596129
 30
0.0
 11
6233.1085965186
 21
5096.0965596129
 31
0.0
  0
LINE
  5
19F
330
1F
100
AcDbEntity
  8
0
  6
Continuous
 62
     7
100
AcDbLine
 10
6228.8759127783
 20
5095.5965596129
 30
0.0
 11
6225.1259127783
 21
5095.5965596129
 31
0.0
  0
LINE
  5
1A0
330
1F
100
AcDbEntity
  8
0
  6
Continuous
 62
     7
100
AcDbLine
 10
6193.4663145018
 20
5102.2965596129
 30
0.0
 11
6193.4663145018
 21
5096.0965596129
 31
0.0
  0
LINE
  5
1A1
330
1F
100
AcDbEntity
  8
0
  6
Continuous
 62
     7
100
AcDbLine
 10
6233.1085965186
 20
5096.0965596129
 30
0.0
 11
6233.1085965186
 21
5102.2965596129
 31
0.0
  0
LINE
  5
1A2
330
1F
100
AcDbEntity
  8
0
  6
Continuous
 62
     7
100
AcDbLine
 10
6198.2874555102
 20
4962.1441040553
 30
0.0
 11
6228.2874555102
 21
4962.1441040553
 31
0.0
  0
LINE
  5
1A3
330
1F
100
AcDbEntity
  8
0
  6
Continuous
 62
     7
100
AcDbLine
 10
6231.1408748493
 20
5045.2333162852
 30
0.0
 11
6231.1410265816
 21
5045.0798135975
 31
0.0
  0
LINE
  5
1A4
330
1F
100
AcDbEntity
  8
0
  6
Continuous
 62
     7
100
AcDbLine
 10
6231.1410265816
 20
5045.0798135975
 30
0.0
 11
6231.1410265816
 21
5044.9262821591
 31
0.0
  0
LINE
  5
1A5
330
1F
100
AcDbEntity
  8
0
  6
Continuous
 62
     7
100
AcDbLine
 10
6231.1410265816
 20
5044.9262821591
 30
0.0
 11
6231.1410265816
 21
5044.6193362193
 31
0.0
  0
LINE
  5
1A6
330
1F
100
AcDbEntity
  8
0
  6
Continuous
 62
     7
100
AcDbLine
 10
6231.1410265816
 20
5044.6193362193
 30
0.0
 11
6231.1410265816
 21
5044.3123902796
 31
0.0
  0
LINE
  5
1A7
330
1F
100
AcDbEntity
  8
0
  6
Continuous
 62
     7
100
AcDbLine
 10
6231.1410265816
 20
5044.3123902796
 30
0.0
 11
6231.1410265816
 21
5044.0050935282
 31
0.0
  0
LINE
  5
1A8
330
1F
100
AcDbEntity
  8
0
  6
Continuous
 62
     7
100
AcDbLine
 10
6231.1410265816
 20
5044.0050935282
 30
0.0
 11
6231.1410265816
 21
5042.7773097692
 31
0.0
  0
LINE
  5
1A9
330
1F
100
AcDbEntity
  8
0
  6
Continuous
 62
     7
100
AcDbLine
 10
6231.1410265816
 20
5042.7773097692
 30
0.0
 11
6231.1410265816
 21
5042.7768420204
 31
0.0
  0
LINE
  5
1AA
330
1F
100
AcDbEntity
  8
0
  6
Continuous
 62
     7
100
AcDbLine
 10
6231.1410265816
 20
5042.7768420204
 30
0.0
 11
6231.1410265816
 21
5041.5495260103
 31
0.0
  0
LINE
  5
1AB
330
1F
100
AcDbEntity
  8
0
  6
Continuous
 62
     7
100
AcDbLine
 10
6231.1410265816
 20
5041.5495260103
 30
0.0
 11
6231.1410265816
 21
5040.3203390048
 31
0.0
  0
LINE
  5
1AC
330
1F
100
AcDbEntity
  8
0
  6
Continuous
 62
     7
100
AcDbLine
 10
6231.1410265816
 20
5040.3203390048
 30
0.0
 11
6231.1410265816
 21
5035.4483190531
 31
0.0
  0
LINE
  5
1AD
330
1F
100
AcDbEntity
  8
0
  6
Continuous
 62
     7
100
AcDbLine
 10
6231.1410265816
 20
5035.4483190531
 30
0.0
 11
6231.1410265816
 21
5030.3924443925
 31
0.0
  0
LINE
  5
1AE
330
1F
100
AcDbEntity
  8
0
  6
Continuous
 62
     7
100
AcDbLine
 10
6231.3660323078
 20
5025.5745549544
 30
0.0
 11
6231.3667376656
 21
5025.5726167082
 31
0.0
  0
LINE
  5
1AF
330
1F
100
AcDbEntity
  8
0
  6
Continuous
 62
     7
100
AcDbLine
 10
6240.2874555102
 20
5045.1575004452
 30
0.0
 11
6240.2874555102
 21
5037.4853483771
 31
0.0
  0
LINE
  5
1B0
330
1F
100
AcDbEntity
  8
0
  6
Continuous
 62
     7
100
AcDbLine
 10
6240.2874555102
 20
5045.1575004452
 30
0.0
 11
6240.2874555102
 21
5047.8468224629
 31
0.0
  0
LINE
  5
1B1
330
1F
100
AcDbEntity
  8
0
  6
Continuous
 62
     7
100
AcDbLine
 10
6193.9489982421
 20
5095.5965596129
 30
0.0
 11
6193.7874555102
 21
5095.5965596129
 31
0.0
  0
LINE
  5
1B2
330
1F
100
AcDbEntity
  8
0
  6
Continuous
 62
     7
100
AcDbLine
 10
6232.7874555102
 20
5095.5965596129
 30
0.0
 11
6232.6259127783
 21
5095.5965596129
 31
0.0
  0
LINE
  5
1B3
330
1F
100
AcDbEntity
  8
0
  6
Continuous
 62
     7
100
AcDbLine
 10
6236.2349076457
 20
5008.1441040553
 30
0.0
 11
6236.2874555102
 21
5008.1441040553
 31
0.0
  0
LINE
  5
1B4
330
1F
100
AcDbEntity
  8
0
  6
Continuous
 62
     7
100
AcDbLine
 10
6236.2349076457
 20
4994.6441040553
 30
0.0
 11
6236.2874555102
 21
4994.6441040553
 31
0.0
  0
LINE
  5
1B5
330
1F
100
AcDbEntity
  8
0
  6
Continuous
 62
     7
100
AcDbLine
 10
6190.2874555102
 20
5008.1441040553
 30
0.0
 11
6190.3400033748
 21
5008.1441040553
 31
0.0
  0
LINE
  5
1B6
330
1F
100
AcDbEntity
  8
0
  6
Continuous
 62
     7
100
AcDbLine
 10
6190.2874555102
 20
4994.6441040553
 30
0.0
 11
6190.3400033748
 21
4994.6441040553
 31
0.0
  0
LINE
  5
1B7
330
1F
100
AcDbEntity
  8
0
  6
Continuous
 62
     7
100
AcDbLine
 10
6250.4666666855
 20
5066.6266494636
 30
0.0
 11
6250.4666666855
 21
5124.6766494636
 31
0.0
  0
LINE
  5
1B8
330
1F
100
AcDbEntity
  8
0
  6
Continuous
 62
     7
100
AcDbLine
 10
6250.4666666855
 20
5008.5766494636
 30
0.0
 11
6250.4666666855
 21
5066.6266494636
 31
0.0
  0
LINE
  5
1B9
330
1F
100
AcDbEntity
  8
0
  6
Continuous
 62
     7
100
AcDbLine
 10
6252.1064561578
 20
5066.6266494636
 30
0.0
 11
6252.1064561578
 21
5123.1669880846
 31
0.0
  0
LINE
  5
1BA
330
1F
100
AcDbEntity
  8
0
  6
Continuous
 62
     7
100
AcDbLine
 10
6252.1064561578
 20
5010.0863108426
 30
0.0
 11
6252.1064561578
 21
5066.6266494636
 31
0.0
  0
LINE
  5
1BB
330
1F
100
AcDbEntity
  8
0
  6
Continuous
 62
     7
100
AcDbLine
 10
6257.6975951465
 20
5046.229858443
 30
0.0
 11
6257.8047017379
 21
5086.6633748686
 31
0.0
  0
LINE
  5
1BC
330
1F
100
AcDbEntity
  8
0
  6
Continuous
 62
     7
100
AcDbLine
 10
6233.2491614644
 20
5086.5964004977
 30
0.0
 11
6233.2655870925
 21
5086.6093726981
 31
0.0
  0
LINE
  5
1BD
330
1F
100
AcDbEntity
  8
0
  6
Continuous
 62
     7
100
AcDbLine
 10
6233.2655870925
 20
5086.6093726981
 30
0.0
 11
6232.9672492629
 21
5086.374077506
 31
0.0
  0
LINE
  5
1BE
330
1F
100
AcDbEntity
  8
0
  6
Continuous
 62
     7
100
AcDbLine
 10
6232.9672492629
 20
5086.374077506
 30
0.0
 11
6232.6293470025
 21
5086.1085058712
 31
0.0
  0
LINE
  5
1BF
330
1F
100
AcDbEntity
  8
0
  6
Continuous
 62
     7
100
AcDbLine
 10
6232.6293470025
 20
5086.1085058712
 30
0.0
 11
6232.1774746099
 21
5085.7549687775
 31
0.0
  0
LINE
  5
1C0
330
1F
100
AcDbEntity
  8
0
  6
Continuous
 62
     7
100
AcDbLine
 10
6232.1774746099
 20
5085.7549687775
 30
0.0
 11
6230.9352868912
 21
5084.793414994
 31
0.0
  0
LINE
  5
1C1
330
1F
100
AcDbEntity
  8
0
  6
Continuous
 62
     7
100
AcDbLine
 10
6230.9352868912
 20
5084.793414994
 30
0.0
 11
6229.9254072409
 21
5084.0241702245
 31
0.0
  0
LINE
  5
1C2
330
1F
100
AcDbEntity
  8
0
  6
Continuous
 62
     7
100
AcDbLine
 10
6229.9254072409
 20
5084.0241702245
 30
0.0
 11
6228.7792687673
 21
5083.1668219557
 31
0.0
  0
LINE
  5
1C3
330
1F
100
AcDbEntity
  8
0
  6
Continuous
 62
     7
100
AcDbLine
 10
6228.7792687673
 20
5083.1668219557
 30
0.0
 11
6227.4880757378
 21
5082.2242463623
 31
0.0
  0
LINE
  5
1C4
330
1F
100
AcDbEntity
  8
0
  6
Continuous
 62
     7
100
AcDbLine
 10
6227.4880757378
 20
5082.2242463623
 30
0.0
 11
6226.0869126107
 21
5081.2346425962
 31
0.0
  0
LINE
  5
1C5
330
1F
100
AcDbEntity
  8
0
  6
Continuous
 62
     7
100
AcDbLine
 10
6226.0869126107
 20
5081.2346425962
 30
0.0
 11
6223.2042589727
 21
5079.3409611325
 31
0.0
  0
LINE
  5
1C6
330
1F
100
AcDbEntity
  8
0
  6
Continuous
 62
     7
100
AcDbLine
 10
6223.2042589727
 20
5079.3409611325
 30
0.0
 11
6221.616440228
 21
5078.4064224243
 31
0.0
  0
LINE
  5
1C7
330
1F
100
AcDbEntity
  8
0
  6
Continuous
 62
     7
100
AcDbLine
 10
6221.616440228
 20
5078.4064224243
 30
0.0
 11
6219.9331550013
 21
5077.5283316254
 31
0.0
  0
LINE
  5
1C8
330
1F
100
AcDbEntity
  8
0
  6
Continuous
 62
     7
100
AcDbLine
 10
6219.9331550013
 20
5077.5283316254
 30
0.0
 11
6217.9683614608
 21
5076.6895972395
 31
0.0
  0
LINE
  5
1C9
330
1F
100
AcDbEntity
  8
0
  6
Continuous
 62
     7
100
AcDbLine
 10
6217.9683614608
 20
5076.6895972395
 30
0.0
 11
6215.8464989674
 21
5076.0672480391
 31
0.0
  0
LINE
  5
1CA
330
1F
100
AcDbEntity
  8
0
  6
Continuous
 62
     7
100
AcDbLine
 10
6215.8464989674
 20
5076.0672480391
 30
0.0
 11
6214.0831200469
 21
5075.8163627489
 31
0.0
  0
LINE
  5
1CB
330
1F
100
AcDbEntity
  8
0
  6
Continuous
 62
     7
100
AcDbLine
 10
6214.0831200469
 20
5075.8163627489
 30
0.0
 11
6212.2455474341
 21
5075.8357945668
 31
0.0
  0
LINE
  5
1CC
330
1F
100
AcDbEntity
  8
0
  6
Continuous
 62
     7
100
AcDbLine
 10
6212.2455474341
 20
5075.8357945668
 30
0.0
 11
6211.9730994758
 21
5075.8632928296
 31
0.0
  0
LINE
  5
1CD
330
1F
100
AcDbEntity
  8
0
  6
Continuous
 62
     7
100
AcDbLine
 10
6210.4496176724
 20
5077.4326027642
 30
0.0
 11
6211.2874555102
 21
5077.1847974923
 31
0.0
  0
LINE
  5
1CE
330
1F
100
AcDbEntity
  8
0
  6
Continuous
 62
     7
100
AcDbLine
 10
6211.2874555102
 20
5077.1847974923
 30
0.0
 11
6212.3757859436
 21
5076.9869377047
 31
0.0
  0
LINE
  5
1CF
330
1F
100
AcDbEntity
  8
0
  6
Continuous
 62
     7
100
AcDbLine
 10
6212.3757859436
 20
5076.9869377047
 30
0.0
 11
6213.0366745853
 21
5076.9383973
 31
0.0
  0
LINE
  5
1D0
330
1F
100
AcDbEntity
  8
0
  6
Continuous
 62
     7
100
AcDbLine
 10
6213.0366745853
 20
5076.9383973
 30
0.0
 11
6213.7052671559
 21
5076.945467483
 31
0.0
  0
LINE
  5
1D1
330
1F
100
AcDbEntity
  8
0
  6
Continuous
 62
     7
100
AcDbLine
 10
6213.7052671559
 20
5076.945467483
 30
0.0
 11
6214.3877122541
 21
5077.010827139
 31
0.0
  0
LINE
  5
1D2
330
1F
100
AcDbEntity
  8
0
  6
Continuous
 62
     7
100
AcDbLine
 10
6214.3877122541
 20
5077.010827139
 30
0.0
 11
6215.0665206135
 21
5077.1330271662
 31
0.0
  0
LINE
  5
1D3
330
1F
100
AcDbEntity
  8
0
  6
Continuous
 62
     7
100
AcDbLine
 10
6215.0665206135
 20
5077.1330271662
 30
0.0
 11
6215.5266185353
 21
5077.2473228611
 31
0.0
  0
LINE
  5
1D4
330
1F
100
AcDbEntity
  8
0
  6
Continuous
 62
     7
100
AcDbLine
 10
6215.5266185353
 20
5077.2473228611
 30
0.0
 11
6216.4582256834
 21
5077.552832343
 31
0.0
  0
LINE
  5
1D5
330
1F
100
AcDbEntity
  8
0
  6
Continuous
 62
     7
100
AcDbLine
 10
6216.4582256834
 20
5077.552832343
 30
0.0
 11
6217.3621550922
 21
5077.9375195358
 31
0.0
  0
LINE
  5
1D6
330
1F
100
AcDbEntity
  8
0
  6
Continuous
 62
     7
100
AcDbLine
 10
6217.3621550922
 20
5077.9375195358
 30
0.0
 11
6218.248166191
 21
5078.3906585932
 31
0.0
  0
LINE
  5
1D7
330
1F
100
AcDbEntity
  8
0
  6
Continuous
 62
     7
100
AcDbLine
 10
6218.248166191
 20
5078.3906585932
 30
0.0
 11
6219.1024425649
 21
5078.8910418956
 31
0.0
  0
LINE
  5
1D8
330
1F
100
AcDbEntity
  8
0
  6
Continuous
 62
     7
100
AcDbLine
 10
6219.1024425649
 20
5078.8910418956
 30
0.0
 11
6220.5545710518
 21
5079.8640053643
 31
0.0
  0
LINE
  5
1D9
330
1F
100
AcDbEntity
  8
0
  6
Continuous
 62
     7
100
AcDbLine
 10
6220.5545710518
 20
5079.8640053643
 30
0.0
 11
6221.9268797775
 21
5080.9003499169
 31
0.0
  0
LINE
  5
1DA
330
1F
100
AcDbEntity
  8
0
  6
Continuous
 62
     7
100
AcDbLine
 10
6221.9268797775
 20
5080.9003499169
 30
0.0
 11
6223.2423250782
 21
5081.978717329
 31
0.0
  0
LINE
  5
1DB
330
1F
100
AcDbEntity
  8
0
  6
Continuous
 62
     7
100
AcDbLine
 10
6223.2423250782
 20
5081.978717329
 30
0.0
 11
6224.4869804732
 21
5083.0606417378
 31
0.0
  0
LINE
  5
1DC
330
1F
100
AcDbEntity
  8
0
  6
Continuous
 62
     7
100
AcDbLine
 10
6224.4869804732
 20
5083.0606417378
 30
0.0
 11
6225.6693127292
 21
5084.1335663732
 31
0.0
  0
LINE
  5
1DD
330
1F
100
AcDbEntity
  8
0
  6
Continuous
 62
     7
100
AcDbLine
 10
6225.6693127292
 20
5084.1335663732
 30
0.0
 11
6226.7735283154
 21
5085.1684919524
 31
0.0
  0
LINE
  5
1DE
330
1F
100
AcDbEntity
  8
0
  6
Continuous
 62
     7
100
AcDbLine
 10
6226.7735283154
 20
5085.1684919524
 30
0.0
 11
6227.3022375799
 21
5085.6737197582
 31
0.0
  0
LINE
  5
1DF
330
1F
100
AcDbEntity
  8
0
  6
Continuous
 62
     7
100
AcDbLine
 10
6227.3022375799
 20
5085.6737197582
 30
0.0
 11
6227.8052112623
 21
5086.1595755393
 31
0.0
  0
LINE
  5
1E0
330
1F
100
AcDbEntity
  8
0
  6
Continuous
 62
     7
100
AcDbLine
 10
6227.8052112623
 20
5086.1595755393
 30
0.0
 11
6228.282666429
 21
5086.6251475868
 31
0.0
  0
LINE
  5
1E1
330
1F
100
AcDbEntity
  8
0
  6
Continuous
 62
     7
100
AcDbLine
 10
6228.282666429
 20
5086.6251475868
 30
0.0
 11
6228.7293079685
 21
5087.0642606853
 31
0.0
  0
LINE
  5
1E2
330
1F
100
AcDbEntity
  8
0
  6
Continuous
 62
     7
100
AcDbLine
 10
6228.7293079685
 20
5087.0642606853
 30
0.0
 11
6229.2921762655
 21
5087.6222367226
 31
0.0
  0
LINE
  5
1E3
330
1F
100
AcDbEntity
  8
0
  6
Continuous
 62
     7
100
AcDbLine
 10
6229.2921762655
 20
5087.6222367226
 30
0.0
 11
6229.7818161028
 21
5088.1115001334
 31
0.0
  0
LINE
  5
1E4
330
1F
100
AcDbEntity
  8
0
  6
Continuous
 62
     7
100
AcDbLine
 10
6229.7818161028
 20
5088.1115001334
 30
0.0
 11
6230.1941925667
 21
5088.5261725715
 31
0.0
  0
LINE
  5
1E5
330
1F
100
AcDbEntity
  8
0
  6
Continuous
 62
     7
100
AcDbLine
 10
6230.1941925667
 20
5088.5261725715
 30
0.0
 11
6230.5072750438
 21
5088.8425060113
 31
0.0
  0
LINE
  5
1E6
330
1F
100
AcDbEntity
  8
0
  6
Continuous
 62
     7
100
AcDbLine
 10
6230.5072750438
 20
5088.8425060113
 30
0.0
 11
6230.6703946286
 21
5089.0078143916
 31
0.0
  0
LINE
  5
1E7
330
1F
100
AcDbEntity
  8
0
  6
Continuous
 62
     7
100
AcDbLine
 10
6230.6703946286
 20
5089.0078143916
 30
0.0
 11
6230.7644395431
 21
5089.103271394
 31
0.0
  0
LINE
  5
1E8
330
1F
100
AcDbEntity
  8
0
  6
Continuous
 62
     7
100
AcDbLine
 10
6230.7644395431
 20
5089.103271394
 30
0.0
 11
6230.7803230621
 21
5089.1194046112
 31
0.0
  0
LINE
  5
1E9
330
1F
100
AcDbEntity
  8
0
  6
Continuous
 62
     7
100
AcDbLine
 10
6194.6062550685
 20
5015.3651226201
 30
0.0
 11
6231.968655952
 21
5015.3651226201
 31
0.0
  0
LINE
  5
1EA
330
1F
100
AcDbEntity
  8
0
  6
Continuous
 62
     7
100
AcDbLine
 10
6195.7874555102
 20
5016.8629601435
 30
0.0
 11
6230.7874555102
 21
5016.8629601435
 31
0.0
  0
LINE
  5
1EB
330
1F
100
AcDbEntity
  8
0
  6
Continuous
 62
     7
100
AcDbLine
 10
6230.7874555102
 20
5095.0965596129
 30
0.0
 11
6195.7874555102
 21
5095.0965596129
 31
0.0
  0
LINE
  5
1EC
330
1F
100
AcDbEntity
  8
0
  6
Continuous
 62
     7
100
AcDbLine
 10
6193.1447633046
 20
5066.6266494636
 30
0.0
 11
6193.1447633046
 21
5084.1266494636
 31
0.0
  0
LINE
  5
1ED
330
1F
100
AcDbEntity
  8
0
  6
Continuous
 62
     7
100
AcDbLine
 10
6193.1447633046
 20
5049.1266494636
 30
0.0
 11
6193.1447633046
 21
5066.6266494636
 31
0.0
  0
LINE
  5
1EE
330
1F
100
AcDbEntity
  8
0
  6
Continuous
 62
     7
100
AcDbLine
 10
6192.6447539653
 20
5066.6266494636
 30
0.0
 11
6192.6447539653
 21
5083.7998409161
 31
0.0
  0
LINE
  5
1EF
330
1F
100
AcDbEntity
  8
0
  6
Continuous
 62
     7
100
AcDbLine
 10
6192.6447539653
 20
5049.4534580111
 30
0.0
 11
6192.6447539653
 21
5066.6266494636
 31
0.0
  0
LINE
  5
1F0
330
1F
100
AcDbEntity
  8
0
  6
Continuous
 62
     7
100
AcDbLine
 10
6194.7874555102
 20
5049.1266494636
 30
0.0
 11
6210.2874555102
 21
5063.7888116258
 31
0.0
  0
LINE
  5
1F1
330
1F
100
AcDbEntity
  8
0
  6
Continuous
 62
     7
100
AcDbLine
 10
6210.2874555102
 20
5069.4644873014
 30
0.0
 11
6194.7874555102
 21
5084.1266494636
 31
0.0
  0
LINE
  5
1F2
330
1F
100
AcDbEntity
  8
0
  6
Continuous
 62
     7
100
AcDbLine
 10
6195.7874555102
 20
5085.1266494636
 30
0.0
 11
6210.4496176724
 21
5069.6266494636
 31
0.0
  0
LINE
  5
1F3
330
1F
100
AcDbEntity
  8
0
  6
Continuous
 62
     7
100
AcDbLine
 10
6210.4496176724
 20
5063.6266494636
 30
0.0
 11
6195.7874555102
 21
5048.1266494636
 31
0.0
  0
LINE
  5
1F4
330
1F
100
AcDbEntity
  8
0
  6
Continuous
 62
     7
100
AcDbLine
 10
6230.7795755006
 20
5024.4030612593
 30
0.0
 11
6230.7742900993
 21
5024.4164941551
 31
0.0
  0
LINE
  5
1F5
330
1F
100
AcDbEntity
  8
0
  6
Continuous
 62
     7
100
AcDbLine
 10
6230.7742900993
 20
5024.4164941551
 30
0.0
 11
6230.7440379153
 21
5024.4940161617
 31
0.0
  0
LINE
  5
1F6
330
1F
100
AcDbEntity
  8
0
  6
Continuous
 62
     7
100
AcDbLine
 10
6230.7440379153
 20
5024.4940161617
 30
0.0
 11
6230.6626827815
 21
5024.7090747674
 31
0.0
  0
LINE
  5
1F7
330
1F
100
AcDbEntity
  8
0
  6
Continuous
 62
     7
100
AcDbLine
 10
6230.6626827815
 20
5024.7090747674
 30
0.0
 11
6230.552581104
 21
5025.0199470109
 31
0.0
  0
LINE
  5
1F8
330
1F
100
AcDbEntity
  8
0
  6
Continuous
 62
     7
100
AcDbLine
 10
6230.552581104
 20
5025.0199470109
 30
0.0
 11
6230.414791455
 21
5025.4467223737
 31
0.0
  0
LINE
  5
1F9
330
1F
100
AcDbEntity
  8
0
  6
Continuous
 62
     7
100
AcDbLine
 10
6230.414791455
 20
5025.4467223737
 30
0.0
 11
6230.3024715314
 21
5025.8342518559
 31
0.0
  0
LINE
  5
1FA
330
1F
100
AcDbEntity
  8
0
  6
Continuous
 62
     7
100
AcDbLine
 10
6230.3024715314
 20
5025.8342518559
 30
0.0
 11
6230.16548356
 21
5026.3740436918
 31
0.0
  0
LINE
  5
1FB
330
1F
100
AcDbEntity
  8
0
  6
Continuous
 62
     7
100
AcDbLine
 10
6230.16548356
 20
5026.3740436918
 30
0.0
 11
6230.0775696126
 21
5026.7750416582
 31
0.0
  0
LINE
  5
1FC
330
1F
100
AcDbEntity
  8
0
  6
Continuous
 62
     7
100
AcDbLine
 10
6230.0775696126
 20
5026.7750416582
 30
0.0
 11
6229.950722697
 21
5027.4733938268
 31
0.0
  0
LINE
  5
1FD
330
1F
100
AcDbEntity
  8
0
  6
Continuous
 62
     7
100
AcDbLine
 10
6229.950722697
 20
5027.4733938268
 30
0.0
 11
6229.8906585281
 21
5027.8846436317
 31
0.0
  0
LINE
  5
1FE
330
1F
100
AcDbEntity
  8
0
  6
Continuous
 62
     7
100
AcDbLine
 10
6229.8906585281
 20
5027.8846436317
 30
0.0
 11
6229.8393498609
 21
5028.3098659581
 31
0.0
  0
LINE
  5
1FF
330
1F
100
AcDbEntity
  8
0
  6
Continuous
 62
     7
100
AcDbLine
 10
6229.8393498609
 20
5028.3098659581
 30
0.0
 11
6229.7976715052
 21
5028.7461122337
 31
0.0
  0
LINE
  5
200
330
1F
100
AcDbEntity
  8
0
  6
Continuous
 62
     7
100
AcDbLine
 10
6229.7976715052
 20
5028.7461122337
 30
0.0
 11
6229.7644554889
 21
5029.2189272334
 31
0.0
  0
LINE
  5
201
330
1F
100
AcDbEntity
  8
0
  6
Continuous
 62
     7
100
AcDbLine
 10
6229.7644554889
 20
5029.2189272334
 30
0.0
 11
6229.7353939978
 21
5029.9837454941
 31
0.0
  0
LINE
  5
202
330
1F
100
AcDbEntity
  8
0
  6
Continuous
 62
     7
100
AcDbLine
 10
6229.7353939978
 20
5029.9837454941
 30
0.0
 11
6229.7315341286
 21
5032.3030460216
 31
0.0
  0
LINE
  5
203
330
1F
100
AcDbEntity
  8
0
  6
Continuous
 62
     7
100
AcDbLine
 10
6229.7315341286
 20
5032.3030460216
 30
0.0
 11
6229.7315341286
 21
5033.8422401113
 31
0.0
  0
LINE
  5
204
330
1F
100
AcDbEntity
  8
0
  6
Continuous
 62
     7
100
AcDbLine
 10
6229.7315341286
 20
5033.8422401113
 30
0.0
 11
6229.7315341286
 21
5035.4483190531
 31
0.0
  0
LINE
  5
205
330
1F
100
AcDbEntity
  8
0
  6
Continuous
 62
     7
100
AcDbLine
 10
6229.7315341286
 20
5035.4483190531
 30
0.0
 11
6229.7315341286
 21
5040.3203390048
 31
0.0
  0
LINE
  5
206
330
1F
100
AcDbEntity
  8
0
  6
Continuous
 62
     7
100
AcDbLine
 10
6229.7315341286
 20
5040.3203390048
 30
0.0
 11
6229.7315341286
 21
5041.5383439927
 31
0.0
  0
LINE
  5
207
330
1F
100
AcDbEntity
  8
0
  6
Continuous
 62
     7
100
AcDbLine
 10
6229.7315341286
 20
5041.5383439927
 30
0.0
 11
6229.7315341286
 21
5042.7563489806
 31
0.0
  0
LINE
  5
208
330
1F
100
AcDbEntity
  8
0
  6
Continuous
 62
     7
100
AcDbLine
 10
6229.7315341286
 20
5042.7563489806
 30
0.0
 11
6229.7315341286
 21
5043.9743539685
 31
0.0
  0
LINE
  5
209
330
1F
100
AcDbEntity
  8
0
  6
Continuous
 62
     7
100
AcDbLine
 10
6229.7315341286
 20
5043.9743539685
 30
0.0
 11
6229.7315341286
 21
5044.5833564624
 31
0.0
  0
LINE
  5
20A
330
1F
100
AcDbEntity
  8
0
  6
Continuous
 62
     7
100
AcDbLine
 10
6229.7315341286
 20
5044.5833564624
 30
0.0
 11
6229.7313761516
 21
5045.1923589564
 31
0.0
  0
LINE
  5
20B
330
1F
100
AcDbEntity
  8
0
  6
Continuous
 62
     7
100
AcDbLine
 10
6281.2874555102
 20
5066.6266494636
 30
0.0
 11
6281.2874555102
 21
5081.6266494636
 31
0.0
  0
LINE
  5
20C
330
1F
100
AcDbEntity
  8
0
  6
Continuous
 62
     7
100
AcDbLine
 10
6281.2874555102
 20
5051.6266494636
 30
0.0
 11
6281.2874555102
 21
5066.6266494636
 31
0.0
  0
LINE
  5
20D
330
1F
100
AcDbEntity
  8
0
  6
Continuous
 62
     7
100
AcDbLine
 10
6282.5013351823
 20
5066.6266494636
 30
0.0
 11
6282.5013351823
 21
5080.866141954
 31
0.0
  0
LINE
  5
20E
330
1F
100
AcDbEntity
  8
0
  6
Continuous
 62
     7
100
AcDbLine
 10
6282.5013351823
 20
5052.3871569733
 30
0.0
 11
6282.5013351823
 21
5066.6266494636
 31
0.0
  0
LINE
  5
20F
330
1F
100
AcDbEntity
  8
0
  6
Continuous
 62
     7
100
AcDbLine
 10
6193.4663145018
 20
5102.2965596129
 30
0.0
 11
6193.2874555102
 21
5102.2965596129
 31
0.0
  0
LINE
  5
210
330
1F
100
AcDbEntity
  8
0
  6
Continuous
 62
     7
100
AcDbLine
 10
6233.2874555102
 20
5102.2965596129
 30
0.0
 11
6233.1085965186
 21
5102.2965596129
 31
0.0
  0
LINE
  5
211
330
1F
100
AcDbEntity
  8
0
  6
Continuous
 62
     7
100
AcDbLine
 10
6193.2874555102
 20
5096.0965596129
 30
0.0
 11
6193.4663145018
 21
5096.0965596129
 31
0.0
  0
LINE
  5
212
330
1F
100
AcDbEntity
  8
0
  6
Continuous
 62
     7
100
AcDbLine
 10
6233.1085965186
 20
5096.0965596129
 30
0.0
 11
6233.2874555102
 21
5096.0965596129
 31
0.0
  0
LINE
  5
213
330
1F
100
AcDbEntity
  8
0
  6
Continuous
 62
     7
100
AcDbLine
 10
5968.0582398043
 20
4811.0335374407
 30
0.0
 11
5968.5318070603
 21
4806.1733269131
 31
0.0
  0
LINE
  5
214
330
1F
100
AcDbEntity
  8
0
  6
Continuous
 62
     7
100
AcDbLine
 10
6084.6318070603
 20
4806.1733269131
 30
0.0
 11
6085.1053743163
 21
4811.0335374407
 31
0.0
  0
LINE
  5
215
330
1F
100
AcDbEntity
  8
0
  6
Continuous
 62
     7
100
AcDbLine
 10
5970.0414684393
 20
4804.5335374407
 30
0.0
 11
5992.0582398043
 21
4800.5335374407
 31
0.0
  0
LINE
  5
216
330
1F
100
AcDbEntity
  8
0
  6
Continuous
 62
     7
100
AcDbLine
 10
6061.1053743163
 20
4800.5335374407
 30
0.0
 11
6083.1221456813
 21
4804.5335374407
 31
0.0
  0
LINE
  5
217
330
1F
100
AcDbEntity
  8
0
  6
Continuous
 62
     7
100
AcDbLine
 10
6006.5818070603
 20
4836.9494138509
 30
0.0
 11
6006.5818070603
 21
4816.3525380883
 31
0.0
  0
LINE
  5
218
330
1F
100
AcDbEntity
  8
0
  6
Continuous
 62
     7
100
AcDbLine
 10
6046.5818070603
 20
4816.3525380883
 30
0.0
 11
6046.5818070603
 21
4836.9494138509
 31
0.0
  0
LINE
  5
219
330
1F
100
AcDbEntity
  8
0
  6
Continuous
 62
     7
100
AcDbLine
 10
6008.5818070603
 20
4816.3525380883
 30
0.0
 11
6008.5818070603
 21
4811.0335374407
 31
0.0
  0
LINE
  5
21A
330
1F
100
AcDbEntity
  8
0
  6
Continuous
 62
     7
100
AcDbLine
 10
6008.5818070603
 20
4798.8644633095
 30
0.0
 11
6008.5818070603
 21
4789.3525380883
 31
0.0
  0
LINE
  5
21B
330
1F
100
AcDbEntity
  8
0
  6
Continuous
 62
     7
100
AcDbLine
 10
6044.5818070603
 20
4789.3525380883
 30
0.0
 11
6044.5818070603
 21
4798.8644633095
 31
0.0
  0
LINE
  5
21C
330
1F
100
AcDbEntity
  8
0
  6
Continuous
 62
     7
100
AcDbLine
 10
6044.5818070603
 20
4811.0335374407
 30
0.0
 11
6044.5818070603
 21
4816.3525380883
 31
0.0
  0
LINE
  5
21D
330
1F
100
AcDbEntity
  8
0
  6
Continuous
 62
     7
100
AcDbLine
 10
6008.5818070603
 20
4789.3525380883
 30
0.0
 11
6010.3318070603
 21
4786.3525380883
 31
0.0
  0
LINE
  5
21E
330
1F
100
AcDbEntity
  8
0
  6
Continuous
 62
     7
100
AcDbLine
 10
6042.8318070603
 20
4786.3525380883
 30
0.0
 11
6044.5818070603
 21
4789.3525380883
 31
0.0
  0
LINE
  5
21F
330
1F
100
AcDbEntity
  8
0
  6
Continuous
 62
     7
100
AcDbLine
 10
6009.0818070603
 20
4863.4952302939
 30
0.0
 11
6009.0818070603
 21
4854.9607248546
 31
0.0
  0
LINE
  5
220
330
1F
100
AcDbEntity
  8
0
  6
Continuous
 62
     7
100
AcDbLine
 10
6044.0818070603
 20
4854.9607248546
 30
0.0
 11
6044.0818070603
 21
4863.4952302939
 31
0.0
  0
LINE
  5
221
330
1F
100
AcDbEntity
  8
0
  6
Continuous
 62
     7
100
AcDbLine
 10
6029.5290301476
 20
4866.975277951
 30
0.0
 11
6023.634583973
 21
4866.975277951
 31
0.0
  0
LINE
  5
222
330
1F
100
AcDbEntity
  8
0
  6
Continuous
 62
     7
100
AcDbLine
 10
6011.5818070603
 20
4786.3525380883
 30
0.0
 11
6011.5818070603
 21
4775.3525380883
 31
0.0
  0
LINE
  5
223
330
1F
100
AcDbEntity
  8
0
  6
Continuous
 62
     7
100
AcDbLine
 10
6041.5818070603
 20
4775.3525380883
 30
0.0
 11
6041.5818070603
 21
4786.3525380883
 31
0.0
  0
LINE
  5
224
330
1F
100
AcDbEntity
  8
0
  6
Continuous
 62
     7
100
AcDbLine
 10
6026.3277051961
 20
4770.9272382608
 30
0.0
 11
6026.8359089244
 21
4770.9272382608
 31
0.0
  0
LINE
  5
225
330
1F
100
AcDbEntity
  8
0
  6
Continuous
 62
     7
100
AcDbLine
 10
5968.0582398043
 20
4811.0335374407
 30
0.0
 11
6085.1053743163
 21
4811.0335374407
 31
0.0
  0
LINE
  5
226
330
1F
100
AcDbEntity
  8
0
  6
Continuous
 62
     7
100
AcDbLine
 10
5992.0582398043
 20
4800.5335374407
 30
0.0
 11
6061.1053743163
 21
4800.5335374407
 31
0.0
  0
LINE
  5
227
330
1F
100
AcDbEntity
  8
0
  6
Continuous
 62
     7
100
AcDbLine
 10
6006.3848475754
 20
4798.8864714164
 30
0.0
 11
6006.441909056
 21
4798.8841776791
 31
0.0
  0
LINE
  5
228
330
1F
100
AcDbEntity
  8
0
  6
Continuous
 62
     7
100
AcDbLine
 10
6006.441909056
 20
4798.8841776791
 30
0.0
 11
6006.6721169791
 21
4798.8795457241
 31
0.0
  0
LINE
  5
229
330
1F
100
AcDbEntity
  8
0
  6
Continuous
 62
     7
100
AcDbLine
 10
6006.6721169791
 20
4798.8795457241
 30
0.0
 11
6007.0538496656
 21
4798.8749845435
 31
0.0
  0
LINE
  5
22A
330
1F
100
AcDbEntity
  8
0
  6
Continuous
 62
     7
100
AcDbLine
 10
6007.0538496656
 20
4798.8749845435
 30
0.0
 11
6007.5842018991
 21
4798.8705288504
 31
0.0
  0
LINE
  5
22B
330
1F
100
AcDbEntity
  8
0
  6
Continuous
 62
     7
100
AcDbLine
 10
6007.5842018991
 20
4798.8705288504
 30
0.0
 11
6008.259137379
 21
4798.8662125556
 31
0.0
  0
LINE
  5
22C
330
1F
100
AcDbEntity
  8
0
  6
Continuous
 62
     7
100
AcDbLine
 10
6008.259137379
 20
4798.8662125556
 30
0.0
 11
6009.0735194387
 21
4798.8620685085
 31
0.0
  0
LINE
  5
22D
330
1F
100
AcDbEntity
  8
0
  6
Continuous
 62
     7
100
AcDbLine
 10
6009.0735194387
 20
4798.8620685085
 30
0.0
 11
6010.0211501389
 21
4798.8581282478
 31
0.0
  0
LINE
  5
22E
330
1F
100
AcDbEntity
  8
0
  6
Continuous
 62
     7
100
AcDbLine
 10
6010.0211501389
 20
4798.8581282478
 30
0.0
 11
6011.094817438
 21
4798.8544217614
 31
0.0
  0
LINE
  5
22F
330
1F
100
AcDbEntity
  8
0
  6
Continuous
 62
     7
100
AcDbLine
 10
6011.094817438
 20
4798.8544217614
 30
0.0
 11
6012.2863500793
 21
4798.8509772578
 31
0.0
  0
LINE
  5
230
330
1F
100
AcDbEntity
  8
0
  6
Continuous
 62
     7
100
AcDbLine
 10
6012.2863500793
 20
4798.8509772578
 30
0.0
 11
6013.5866797802
 21
4798.8478209517
 31
0.0
  0
LINE
  5
231
330
1F
100
AcDbEntity
  8
0
  6
Continuous
 62
     7
100
AcDbLine
 10
6013.5866797802
 20
4798.8478209517
 30
0.0
 11
6014.9859102463
 21
4798.8449768647
 31
0.0
  0
LINE
  5
232
330
1F
100
AcDbEntity
  8
0
  6
Continuous
 62
     7
100
AcDbLine
 10
6014.9859102463
 20
4798.8449768647
 30
0.0
 11
6016.4733924889
 21
4798.8424666418
 31
0.0
  0
LINE
  5
233
330
1F
100
AcDbEntity
  8
0
  6
Continuous
 62
     7
100
AcDbLine
 10
6016.4733924889
 20
4798.8424666418
 30
0.0
 11
6018.0378058701
 21
4798.8403093874
 31
0.0
  0
LINE
  5
234
330
1F
100
AcDbEntity
  8
0
  6
Continuous
 62
     7
100
AcDbLine
 10
6018.0378058701
 20
4798.8403093874
 30
0.0
 11
6019.6672442593
 21
4798.8385215195
 31
0.0
  0
LINE
  5
235
330
1F
100
AcDbEntity
  8
0
  6
Continuous
 62
     7
100
AcDbLine
 10
6019.6672442593
 20
4798.8385215195
 30
0.0
 11
6021.3493066466
 21
4798.8371166449
 31
0.0
  0
LINE
  5
236
330
1F
100
AcDbEntity
  8
0
  6
Continuous
 62
     7
100
AcDbLine
 10
6021.3493066466
 20
4798.8371166449
 30
0.0
 11
6023.0711915214
 21
4798.8361054555
 31
0.0
  0
LINE
  5
237
330
1F
100
AcDbEntity
  8
0
  6
Continuous
 62
     7
100
AcDbLine
 10
6023.0711915214
 20
4798.8361054555
 30
0.0
 11
6024.8197943004
 21
4798.8354956471
 31
0.0
  0
LINE
  5
238
330
1F
100
AcDbEntity
  8
0
  6
Continuous
 62
     7
100
AcDbLine
 10
6024.8197943004
 20
4798.8354956471
 30
0.0
 11
6026.5818070603
 21
4798.8352918606
 31
0.0
  0
LINE
  5
239
330
1F
100
AcDbEntity
  8
0
  6
Continuous
 62
     7
100
AcDbLine
 10
6026.5818070603
 20
4798.8352918606
 30
0.0
 11
6028.3438198202
 21
4798.8354956471
 31
0.0
  0
LINE
  5
23A
330
1F
100
AcDbEntity
  8
0
  6
Continuous
 62
     7
100
AcDbLine
 10
6028.3438198202
 20
4798.8354956471
 30
0.0
 11
6030.0924225991
 21
4798.8361054555
 31
0.0
  0
LINE
  5
23B
330
1F
100
AcDbEntity
  8
0
  6
Continuous
 62
     7
100
AcDbLine
 10
6030.0924225991
 20
4798.8361054555
 30
0.0
 11
6031.814307474
 21
4798.8371166449
 31
0.0
  0
LINE
  5
23C
330
1F
100
AcDbEntity
  8
0
  6
Continuous
 62
     7
100
AcDbLine
 10
6031.814307474
 20
4798.8371166449
 30
0.0
 11
6033.4963698613
 21
4798.8385215195
 31
0.0
  0
LINE
  5
23D
330
1F
100
AcDbEntity
  8
0
  6
Continuous
 62
     7
100
AcDbLine
 10
6033.4963698613
 20
4798.8385215195
 30
0.0
 11
6035.1258082505
 21
4798.8403093874
 31
0.0
  0
LINE
  5
23E
330
1F
100
AcDbEntity
  8
0
  6
Continuous
 62
     7
100
AcDbLine
 10
6035.1258082505
 20
4798.8403093874
 30
0.0
 11
6036.6902216317
 21
4798.8424666418
 31
0.0
  0
LINE
  5
23F
330
1F
100
AcDbEntity
  8
0
  6
Continuous
 62
     7
100
AcDbLine
 10
6036.6902216317
 20
4798.8424666418
 30
0.0
 11
6038.1777038743
 21
4798.8449768647
 31
0.0
  0
LINE
  5
240
330
1F
100
AcDbEntity
  8
0
  6
Continuous
 62
     7
100
AcDbLine
 10
6038.1777038743
 20
4798.8449768647
 30
0.0
 11
6039.5769343404
 21
4798.8478209517
 31
0.0
  0
LINE
  5
241
330
1F
100
AcDbEntity
  8
0
  6
Continuous
 62
     7
100
AcDbLine
 10
6039.5769343404
 20
4798.8478209517
 30
0.0
 11
6040.8772640413
 21
4798.8509772578
 31
0.0
  0
LINE
  5
242
330
1F
100
AcDbEntity
  8
0
  6
Continuous
 62
     7
100
AcDbLine
 10
6040.8772640413
 20
4798.8509772578
 30
0.0
 11
6042.0687966826
 21
4798.8544217614
 31
0.0
  0
LINE
  5
243
330
1F
100
AcDbEntity
  8
0
  6
Continuous
 62
     7
100
AcDbLine
 10
6042.0687966826
 20
4798.8544217614
 30
0.0
 11
6043.1424639817
 21
4798.8581282478
 31
0.0
  0
LINE
  5
244
330
1F
100
AcDbEntity
  8
0
  6
Continuous
 62
     7
100
AcDbLine
 10
6043.1424639817
 20
4798.8581282478
 30
0.0
 11
6044.0900946819
 21
4798.8620685085
 31
0.0
  0
LINE
  5
245
330
1F
100
AcDbEntity
  8
0
  6
Continuous
 62
     7
100
AcDbLine
 10
6044.0900946819
 20
4798.8620685085
 30
0.0
 11
6044.9044767416
 21
4798.8662125556
 31
0.0
  0
LINE
  5
246
330
1F
100
AcDbEntity
  8
0
  6
Continuous
 62
     7
100
AcDbLine
 10
6044.9044767416
 20
4798.8662125556
 30
0.0
 11
6045.5794122215
 21
4798.8705288504
 31
0.0
  0
LINE
  5
247
330
1F
100
AcDbEntity
  8
0
  6
Continuous
 62
     7
100
AcDbLine
 10
6045.5794122215
 20
4798.8705288504
 30
0.0
 11
6046.109764455
 21
4798.8749845435
 31
0.0
  0
LINE
  5
248
330
1F
100
AcDbEntity
  8
0
  6
Continuous
 62
     7
100
AcDbLine
 10
6046.109764455
 20
4798.8749845435
 30
0.0
 11
6046.4914971415
 21
4798.8795457241
 31
0.0
  0
LINE
  5
249
330
1F
100
AcDbEntity
  8
0
  6
Continuous
 62
     7
100
AcDbLine
 10
6046.4914971415
 20
4798.8795457241
 30
0.0
 11
6046.7217050646
 21
4798.8841776791
 31
0.0
  0
LINE
  5
24A
330
1F
100
AcDbEntity
  8
0
  6
Continuous
 62
     7
100
AcDbLine
 10
6046.7217050646
 20
4798.8841776791
 30
0.0
 11
6046.7908621334
 21
4798.887360154
 31
0.0
  0
LINE
  5
24B
330
1F
100
AcDbEntity
  8
0
  6
Continuous
 62
     7
100
AcDbLine
 10
6006.5818070603
 20
4816.3525380883
 30
0.0
 11
6046.5818070603
 21
4816.3525380883
 31
0.0
  0
LINE
  5
24C
330
1F
100
AcDbEntity
  8
0
  6
Continuous
 62
     7
100
AcDbLine
 10
6008.5818070603
 20
4789.3525380883
 30
0.0
 11
6044.5818070603
 21
4789.3525380883
 31
0.0
  0
LINE
  5
24D
330
1F
100
AcDbEntity
  8
0
  6
Continuous
 62
     7
100
AcDbLine
 10
6010.3318070603
 20
4786.3525380883
 30
0.0
 11
6042.8318070603
 21
4786.3525380883
 31
0.0
  0
LINE
  5
24E
330
1F
100
AcDbEntity
  8
0
  6
Continuous
 62
     7
100
AcDbLine
 10
6005.9318070603
 20
4833.2244829937
 30
0.0
 11
6005.9318070603
 21
4839.5344888482
 31
0.0
  0
LINE
  5
24F
330
1F
100
AcDbEntity
  8
0
  6
Continuous
 62
     7
100
AcDbLine
 10
6005.9318070603
 20
4847.1705873284
 30
0.0
 11
6005.9318070603
 21
4853.480593183
 31
0.0
  0
LINE
  5
250
330
1F
100
AcDbEntity
  8
0
  6
Continuous
 62
     7
100
AcDbLine
 10
6007.4856540574
 20
4856.1719351292
 30
0.0
 11
6009.0818070603
 21
4857.093474495
 31
0.0
  0
LINE
  5
251
330
1F
100
AcDbEntity
  8
0
  6
Continuous
 62
     7
100
AcDbLine
 10
6044.0818070603
 20
4857.0934744951
 30
0.0
 11
6045.6779600632
 21
4856.1719351292
 31
0.0
  0
LINE
  5
252
330
1F
100
AcDbEntity
  8
0
  6
Continuous
 62
     7
100
AcDbLine
 10
6047.2318070603
 20
4853.480593183
 30
0.0
 11
6047.2318070603
 21
4847.1705873284
 31
0.0
  0
LINE
  5
253
330
1F
100
AcDbEntity
  8
0
  6
Continuous
 62
     7
100
AcDbLine
 10
6047.2318070603
 20
4839.5344888482
 30
0.0
 11
6047.2318070603
 21
4833.2244829937
 31
0.0
  0
LINE
  5
254
330
1F
100
AcDbEntity
  8
0
  6
Continuous
 62
     7
100
AcDbLine
 10
5968.5318070603
 20
4806.1733269131
 30
0.0
 11
6084.6318070603
 21
4806.1733269131
 31
0.0
  0
LINE
  5
255
330
1F
100
AcDbEntity
  8
0
  6
Continuous
 62
     7
100
AcDbLine
 10
5970.0414684393
 20
4804.5335374407
 30
0.0
 11
6083.1221456813
 21
4804.5335374407
 31
0.0
  0
LINE
  5
256
330
1F
100
AcDbEntity
  8
0
  6
Continuous
 62
     7
100
AcDbLine
 10
6009.0818070603
 20
4863.4952302939
 30
0.0
 11
6020.6427877212
 21
4863.4952302939
 31
0.0
  0
LINE
  5
257
330
1F
100
AcDbEntity
  8
0
  6
Continuous
 62
     7
100
AcDbLine
 10
6032.5208263994
 20
4863.4952302939
 30
0.0
 11
6044.0818070603
 21
4863.4952302939
 31
0.0
  0
LINE
  5
258
330
1F
100
AcDbEntity
  8
0
  6
Continuous
 62
     7
100
AcDbLine
 10
6009.4086156078
 20
4863.9952396332
 30
0.0
 11
6022.7244928484
 21
4863.9952396332
 31
0.0
  0
LINE
  5
259
330
1F
100
AcDbEntity
  8
0
  6
Continuous
 62
     7
100
AcDbLine
 10
6030.4391212722
 20
4863.9952396332
 30
0.0
 11
6043.7549985128
 21
4863.9952396332
 31
0.0
  0
LINE
  5
25A
330
1F
100
AcDbEntity
  8
0
  6
Continuous
 62
     7
100
AcDbLine
 10
6011.5818070603
 20
4775.3525380883
 30
0.0
 11
6041.5818070603
 21
4775.3525380883
 31
0.0
  0
LINE
  5
25B
330
1F
100
AcDbEntity
  8
0
  6
Continuous
 62
     7
100
AcDbLine
 10
6012.34231457
 20
4774.1386584163
 30
0.0
 11
6040.8212995506
 21
4774.1386584163
 31
0.0
  0
LINE
  5
25C
330
1F
100
AcDbEntity
  8
0
  6
Continuous
 62
     7
100
AcDbLine
 10
6240.2874555102
 20
5037.4853483771
 30
0.0
 11
6240.2874555102
 21
5032.4846898805
 31
0.0
  0
ENDSEC
  0
SECTION
  2
OBJECTS
  0
DICTIONARY
  5
C
330
0
100
AcDbDictionary
281
     1
  3
ACAD_GROUP
350
D
  3
ACAD_LAYOUT
350
1A
  3
ACAD_MLINESTYLE
350
17
  3
ACAD_PLOTSETTINGS
350
19
  3
ACAD_PLOTSTYLENAME
350
E
  3
ACAD_SCALELIST
350
47
  3
DWGPROPS
350
25D
  0
DICTIONARY
  5
D
102
{ACAD_REACTORS
330
C
102
}
330
C
100
AcDbDictionary
281
     1
  0
DICTIONARY
  5
1A
102
{ACAD_REACTORS
330
C
102
}
330
C
100
AcDbDictionary
281
     1
  3
Layout1
350
1E
  3
Layout2
350
26
  3
Model
350
22
  0
DICTIONARY
  5
17
102
{ACAD_REACTORS
330
C
102
}
330
C
100
AcDbDictionary
281
     1
  3
Standard
350
18
  0
DICTIONARY
  5
19
102
{ACAD_REACTORS
330
C
102
}
330
C
100
AcDbDictionary
281
     1
  0
ACDBDICTIONARYWDFLT
  5
E
102
{ACAD_REACTORS
330
C
102
}
330
C
100
AcDbDictionary
281
     1
  3
Normal
350
F
100
AcDbDictionaryWithDefault
340
F
  0
DICTIONARY
  5
47
102
{ACAD_REACTORS
330
C
102
}
330
C
100
AcDbDictionary
281
     1
  3
A0
350
48
  3
A1
350
49
  3
A2
350
4A
  3
A3
350
4B
  3
A4
350
4C
  3
A5
350
4D
  3
A6
350
4E
  3
A7
350
4F
  3
A8
350
50
  3
A9
350
51
  3
B0
350
52
  3
B1
350
53
  3
B2
350
54
  3
B3
350
55
  3
B4
350
56
  3
B5
350
57
  3
B6
350
58
  3
B7
350
59
  3
B8
350
5A
  3
B9
350
5B
  3
C0
350
5C
  3
C1
350
5D
  3
C2
350
5E
  3
C3
350
5F
  3
C4
350
60
  3
C5
350
61
  3
C6
350
62
  3
C7
350
63
  3
C8
350
64
  3
C9
350
65
  3
D0
350
66
  3
D1
350
67
  3
D2
350
68
  0
XRECORD
  5
25D
102
{ACAD_REACTORS
330
C
102
}
330
C
100
AcDbXrecord
280
     1
  1
DWGPROPS COOKIE
  2

  3

  4

  6

  7

  8
radek.stransky
  9

300
=
301
=
302
=
303
=
304
=
305
=
306
=
307
=
308
=
309
=
 40
0.0
 41
2459138.28120581
 42
2459138.281246204
  1

 90
        0
  0
LAYOUT
  5
1E
102
{ACAD_REACTORS
330
1A
102
}
330
1A
100
AcDbPlotSettings
  1

  2
none_device
  4

  6

 40
0.0
 41
0.0
 42
0.0
 43
0.0
 44
0.0
 45
0.0
 46
0.0
 47
0.0
 48
0.0
 49
0.0
140
0.0
141
0.0
142
1.0
143
1.0
 70
   688
 72
     1
 73
     0
 74
     5
  7

 75
    16
147
1.0
148
0.0
149
0.0
100
AcDbLayout
  1
Layout1
 70
     1
 71
     1
 10
0.0
 20
0.0
 11
420.0
 21
297.0
 12
0.0
 22
0.0
 32
0.0
 14
1.0000000000E+20
 24
1.0000000000E+20
 34
1.0000000000E+20
 15
-1.0000000000E+20
 25
-1.0000000000E+20
 35
-1.0000000000E+20
146
0.0
 13
0.0
 23
0.0
 33
0.0
 16
1.0
 26
0.0
 36
0.0
 17
0.0
 27
1.0
 37
0.0
 76
     0
330
1B
  0
LAYOUT
  5
26
102
{ACAD_REACTORS
330
1A
102
}
330
1A
100
AcDbPlotSettings
  1

  2
none_device
  4

  6

 40
0.0
 41
0.0
 42
0.0
 43
0.0
 44
0.0
 45
0.0
 46
0.0
 47
0.0
 48
0.0
 49
0.0
140
0.0
141
0.0
142
1.0
143
1.0
 70
   688
 72
     1
 73
     0
 74
     5
  7

 75
    16
147
1.0
148
0.0
149
0.0
100
AcDbLayout
  1
Layout2
 70
     1
 71
     2
 10
0.0
 20
0.0
 11
0.0
 21
0.0
 12
0.0
 22
0.0
 32
0.0
 14
0.0
 24
0.0
 34
0.0
 15
0.0
 25
0.0
 35
0.0
146
0.0
 13
0.0
 23
0.0
 33
0.0
 16
1.0
 26
0.0
 36
0.0
 17
0.0
 27
1.0
 37
0.0
 76
     0
330
23
  0
LAYOUT
  5
22
102
{ACAD_REACTORS
330
1A
102
}
330
1A
100
AcDbPlotSettings
  1

  2
none_device
  4
ANSI_A_(11.00_x_8.50_Inches)
  6

 40
6.35
 41
19.05
 42
6.35000508
 43
19.05000254
 44
279.4
 45
215.9
 46
-3563.6620903333
 47
-2896.7864472878
 48
0.0
 49
0.0
140
0.0
141
0.0
142
0.0237562228
143
1.0
 70
  1696
 72
     0
 73
     0
 74
     0
  7

 75
     0
147
0.0179189148
148
-1300.4909072572
149
0.0
100
AcDbLayout
  1
Model
 70
     1
 71
     0
 10
0.0
 20
0.0
 11
420.0
 21
297.0
 12
0.0
 22
0.0
 32
0.0
 14
5968.0582398043
 24
4770.9272382608
 34
0.0
 15
6285.7127553377
 25
5125.1502167196
 35
0.0
146
0.0
 13
0.0
 23
0.0
 33
0.0
 16
1.0
 26
0.0
 36
0.0
 17
0.0
 27
1.0
 37
0.0
 76
     0
330
1F
331
29
  0
MLINESTYLE
  5
18
102
{ACAD_REACTORS
330
17
102
}
330
17
100
AcDbMlineStyle
  2
Standard
 70
     0
  3

 62
   256
 51
90.0
 52
90.0
 71
     2
 49
0.5
 62
   256
  6
BYLAYER
 49
-0.5
 62
   256
  6
BYLAYER
  0
ACDBPLACEHOLDER
  5
F
102
{ACAD_REACTORS
330
E
102
}
330
E
  0
SCALE
  5
48
102
{ACAD_REACTORS
330
47
102
}
330
47
100
AcDbScale
 70
     0
300
1:1
140
1.0
141
1.0
290
     1
  0
SCALE
  5
49
102
{ACAD_REACTORS
330
47
102
}
330
47
100
AcDbScale
 70
     0
300
1:2
140
1.0
141
2.0
290
     0
  0
SCALE
  5
4A
102
{ACAD_REACTORS
330
47
102
}
330
47
100
AcDbScale
 70
     0
300
1:4
140
1.0
141
4.0
290
     0
  0
SCALE
  5
4B
102
{ACAD_REACTORS
330
47
102
}
330
47
100
AcDbScale
 70
     0
300
1:5
140
1.0
141
5.0
290
     0
  0
SCALE
  5
4C
102
{ACAD_REACTORS
330
47
102
}
330
47
100
AcDbScale
 70
     0
300
1:8
140
1.0
141
8.0
290
     0
  0
SCALE
  5
4D
102
{ACAD_REACTORS
330
47
102
}
330
47
100
AcDbScale
 70
     0
300
1:10
140
1.0
141
10.0
290
     0
  0
SCALE
  5
4E
102
{ACAD_REACTORS
330
47
102
}
330
47
100
AcDbScale
 70
     0
300
1:16
140
1.0
141
16.0
290
     0
  0
SCALE
  5
4F
102
{ACAD_REACTORS
330
47
102
}
330
47
100
AcDbScale
 70
     0
300
1:20
140
1.0
141
20.0
290
     0
  0
SCALE
  5
50
102
{ACAD_REACTORS
330
47
102
}
330
47
100
AcDbScale
 70
     0
300
1:30
140
1.0
141
30.0
290
     0
  0
SCALE
  5
51
102
{ACAD_REACTORS
330
47
102
}
330
47
100
AcDbScale
 70
     0
300
1:40
140
1.0
141
40.0
290
     0
  0
SCALE
  5
52
102
{ACAD_REACTORS
330
47
102
}
330
47
100
AcDbScale
 70
     0
300
1:50
140
1.0
141
50.0
290
     0
  0
SCALE
  5
53
102
{ACAD_REACTORS
330
47
102
}
330
47
100
AcDbScale
 70
     0
300
1:100
140
1.0
141
100.0
290
     0
  0
SCALE
  5
54
102
{ACAD_REACTORS
330
47
102
}
330
47
100
AcDbScale
 70
     0
300
2:1
140
2.0
141
1.0
290
     0
  0
SCALE
  5
55
102
{ACAD_REACTORS
330
47
102
}
330
47
100
AcDbScale
 70
     0
300
4:1
140
4.0
141
1.0
290
     0
  0
SCALE
  5
56
102
{ACAD_REACTORS
330
47
102
}
330
47
100
AcDbScale
 70
     0
300
8:1
140
8.0
141
1.0
290
     0
  0
SCALE
  5
57
102
{ACAD_REACTORS
330
47
102
}
330
47
100
AcDbScale
 70
     0
300
10:1
140
10.0
141
1.0
290
     0
  0
SCALE
  5
58
102
{ACAD_REACTORS
330
47
102
}
330
47
100
AcDbScale
 70
     0
300
100:1
140
100.0
141
1.0
290
     0
  0
SCALE
  5
59
102
{ACAD_REACTORS
330
47
102
}
330
47
100
AcDbScale
 70
     0
300
1/128" = 1'-0"
140
0.0078125
141
12.0
290
     0
  0
SCALE
  5
5A
102
{ACAD_REACTORS
330
47
102
}
330
47
100
AcDbScale
 70
     0
300
1/64" = 1'-0"
140
0.015625
141
12.0
290
     0
  0
SCALE
  5
5B
102
{ACAD_REACTORS
330
47
102
}
330
47
100
AcDbScale
 70
     0
300
1/32" = 1'-0"
140
0.03125
141
12.0
290
     0
  0
SCALE
  5
5C
102
{ACAD_REACTORS
330
47
102
}
330
47
100
AcDbScale
 70
     0
300
1/16" = 1'-0"
140
0.0625
141
12.0
290
     0
  0
SCALE
  5
5D
102
{ACAD_REACTORS
330
47
102
}
330
47
100
AcDbScale
 70
     0
300
3/32" = 1'-0"
140
0.09375
141
12.0
290
     0
  0
SCALE
  5
5E
102
{ACAD_REACTORS
330
47
102
}
330
47
100
AcDbScale
 70
     0
300
1/8" = 1'-0"
140
0.125
141
12.0
290
     0
  0
SCALE
  5
5F
102
{ACAD_REACTORS
330
47
102
}
330
47
100
AcDbScale
 70
     0
300
3/16" = 1'-0"
140
0.1875
141
12.0
290
     0
  0
SCALE
  5
60
102
{ACAD_REACTORS
330
47
102
}
330
47
100
AcDbScale
 70
     0
300
1/4" = 1'-0"
140
0.25
141
12.0
290
     0
  0
SCALE
  5
61
102
{ACAD_REACTORS
330
47
102
}
330
47
100
AcDbScale
 70
     0
300
3/8" = 1'-0"
140
0.375
141
12.0
290
     0
  0
SCALE
  5
62
102
{ACAD_REACTORS
330
47
102
}
330
47
100
AcDbScale
 70
     0
300
1/2" = 1'-0"
140
0.5
141
12.0
290
     0
  0
SCALE
  5
63
102
{ACAD_REACTORS
330
47
102
}
330
47
100
AcDbScale
 70
     0
300
3/4" = 1'-0"
140
0.75
141
12.0
290
     0
  0
SCALE
  5
64
102
{ACAD_REACTORS
330
47
102
}
330
47
100
AcDbScale
 70
     0
300
1" = 1'-0"
140
1.0
141
12.0
290
     0
  0
SCALE
  5
65
102
{ACAD_REACTORS
330
47
102
}
330
47
100
AcDbScale
 70
     0
300
1-1/2" = 1'-0"
140
1.5
141
12.0
290
     0
  0
SCALE
  5
66
102
{ACAD_REACTORS
330
47
102
}
330
47
100
AcDbScale
 70
     0
300
3" = 1'-0"
140
3.0
141
12.0
290
     0
  0
SCALE
  5
67
102
{ACAD_REACTORS
330
47
102
}
330
47
100
AcDbScale
 70
     0
300
6" = 1'-0"
140
6.0
141
12.0
290
     0
  0
SCALE
  5
68
102
{ACAD_REACTORS
330
47
102
}
330
47
100
AcDbScale
 70
     0
300
1'-0" = 1'-0"
140
12.0
141
12.0
290
     0
  0
ENDSEC
  0
EOF
