  0
SECTION
  2
HEADER
  9
$ACADVER
  1
AC1015
  9
$ACADMAINTVER
 70
     6
  9
$DWGCODEPAGE
  3
ANSI_1250
  9
$INSBASE
 10
0.0
 20
0.0
 30
0.0
  9
$EXTMIN
 10
5194.6619367774
 20
4754.7399766199
 30
0.0
  9
$EXTMAX
 10
5626.744283953
 20
5347.6994544977
 30
0.0
  9
$LIMMIN
 10
0.0
 20
0.0
  9
$LIMMAX
 10
420.0
 20
297.0
  9
$ORTHOMODE
 70
     0
  9
$REGENMODE
 70
     1
  9
$FILLMODE
 70
     1
  9
$QTEXTMODE
 70
     0
  9
$MIRRTEXT
 70
     1
  9
$LTSCALE
 40
1.0
  9
$ATTMODE
 70
     1
  9
$TEXTSIZE
 40
3.5
  9
$TRACEWID
 40
1.0
  9
$TEXTSTYLE
  7
Standard
  9
$CLAYER
  8
0
  9
$CELTYPE
  6
ByLayer
  9
$CECOLOR
 62
   256
  9
$CELTSCALE
 40
1.0
  9
$DISPSILH
 70
     0
  9
$DIMSCALE
 40
1.0
  9
$DIMASZ
 40
3.302
  9
$DIMEXO
 40
0.0
  9
$DIMDLI
 40
3.75
  9
$DIMRND
 40
0.0
  9
$DIMDLE
 40
0.0
  9
$DIMEXE
 40
1.0
  9
$DIMTP
 40
0.0
  9
$DIMTM
 40
0.0
  9
$DIMTXT
 40
3.5
  9
$DIMCEN
 40
2.5
  9
$DIMTSZ
 40
0.0
  9
$DIMTOL
 70
     0
  9
$DIMLIM
 70
     0
  9
$DIMTIH
 70
     1
  9
$DIMTOH
 70
     1
  9
$DIMSE1
 70
     0
  9
$DIMSE2
 70
     0
  9
$DIMTAD
 70
     1
  9
$DIMZIN
 70
     0
  9
$DIMBLK
  1

  9
$DIMASO
 70
     1
  9
$DIMSHO
 70
     1
  9
$DIMPOST
  1

  9
$DIMAPOST
  1

  9
$DIMALT
 70
     0
  9
$DIMALTD
 70
     3
  9
$DIMALTF
 40
0.0393700787
  9
$DIMLFAC
 40
1.0
  9
$DIMTOFL
 70
     1
  9
$DIMTVP
 40
0.0
  9
$DIMTIX
 70
     0
  9
$DIMSOXD
 70
     0
  9
$DIMSAH
 70
     0
  9
$DIMBLK1
  1

  9
$DIMBLK2
  1

  9
$DIMSTYLE
  2
ISO-25
  9
$DIMCLRD
 70
     0
  9
$DIMCLRE
 70
     0
  9
$DIMCLRT
 70
     0
  9
$DIMTFAC
 40
1.0
  9
$DIMGAP
 40
1.524
  9
$DIMJUST
 70
     0
  9
$DIMSD1
 70
     0
  9
$DIMSD2
 70
     0
  9
$DIMTOLJ
 70
     0
  9
$DIMTZIN
 70
     0
  9
$DIMALTZ
 70
     0
  9
$DIMALTTZ
 70
     0
  9
$DIMUPT
 70
     0
  9
$DIMDEC
 70
     2
  9
$DIMTDEC
 70
     2
  9
$DIMALTU
 70
     2
  9
$DIMALTTD
 70
     3
  9
$DIMTXSTY
  7
Standard
  9
$DIMAUNIT
 70
     0
  9
$DIMADEC
 70
     2
  9
$DIMALTRND
 40
0.0
  9
$DIMAZIN
 70
     0
  9
$DIMDSEP
 70
    44
  9
$DIMATFIT
 70
     3
  9
$DIMFRAC
 70
     0
  9
$DIMLDRBLK
  1

  9
$DIMLUNIT
 70
     2
  9
$DIMLWD
 70
    -2
  9
$DIMLWE
 70
    -2
  9
$DIMTMOVE
 70
     0
  9
$LUNITS
 70
     2
  9
$LUPREC
 70
     2
  9
$SKETCHINC
 40
1.0
  9
$FILLETRAD
 40
10.0
  9
$AUNITS
 70
     0
  9
$AUPREC
 70
     2
  9
$MENU
  1
.
  9
$ELEVATION
 40
0.0
  9
$PELEVATION
 40
0.0
  9
$THICKNESS
 40
0.0
  9
$LIMCHECK
 70
     0
  9
$CHAMFERA
 40
0.0
  9
$CHAMFERB
 40
0.0
  9
$CHAMFERC
 40
0.0
  9
$CHAMFERD
 40
0.0
  9
$SKPOLY
 70
     0
  9
$TDCREATE
 40
2459101.27134375
  9
$TDUCREATE
 40
2459101.188010416
  9
$TDUPDATE
 40
2459101.271392454
  9
$TDUUPDATE
 40
2459101.18805912
  9
$TDINDWG
 40
0.0000000116
  9
$TDUSRTIMER
 40
0.0000000116
  9
$USRTIMER
 70
     1
  9
$ANGBASE
 50
0.0
  9
$ANGDIR
 70
     0
  9
$PDMODE
 70
     0
  9
$PDSIZE
 40
-1.0
  9
$PLINEWID
 40
0.0
  9
$SPLFRAME
 70
     0
  9
$SPLINETYPE
 70
     6
  9
$SPLINESEGS
 70
     8
  9
$HANDSEED
  5
3FB
  9
$SURFTAB1
 70
     6
  9
$SURFTAB2
 70
     6
  9
$SURFTYPE
 70
     6
  9
$SURFU
 70
     6
  9
$SURFV
 70
     6
  9
$UCSBASE
  2

  9
$UCSNAME
  2

  9
$UCSORG
 10
0.0
 20
0.0
 30
0.0
  9
$UCSXDIR
 10
1.0
 20
0.0
 30
0.0
  9
$UCSYDIR
 10
0.0
 20
1.0
 30
0.0
  9
$UCSORTHOREF
  2

  9
$UCSORTHOVIEW
 70
     0
  9
$UCSORGTOP
 10
0.0
 20
0.0
 30
0.0
  9
$UCSORGBOTTOM
 10
0.0
 20
0.0
 30
0.0
  9
$UCSORGLEFT
 10
0.0
 20
0.0
 30
0.0
  9
$UCSORGRIGHT
 10
0.0
 20
0.0
 30
0.0
  9
$UCSORGFRONT
 10
0.0
 20
0.0
 30
0.0
  9
$UCSORGBACK
 10
0.0
 20
0.0
 30
0.0
  9
$PUCSBASE
  2

  9
$PUCSNAME
  2

  9
$PUCSORG
 10
0.0
 20
0.0
 30
0.0
  9
$PUCSXDIR
 10
1.0
 20
0.0
 30
0.0
  9
$PUCSYDIR
 10
0.0
 20
1.0
 30
0.0
  9
$PUCSORTHOREF
  2

  9
$PUCSORTHOVIEW
 70
     0
  9
$PUCSORGTOP
 10
0.0
 20
0.0
 30
0.0
  9
$PUCSORGBOTTOM
 10
0.0
 20
0.0
 30
0.0
  9
$PUCSORGLEFT
 10
0.0
 20
0.0
 30
0.0
  9
$PUCSORGRIGHT
 10
0.0
 20
0.0
 30
0.0
  9
$PUCSORGFRONT
 10
0.0
 20
0.0
 30
0.0
  9
$PUCSORGBACK
 10
0.0
 20
0.0
 30
0.0
  9
$USERI1
 70
     0
  9
$USERI2
 70
     0
  9
$USERI3
 70
     0
  9
$USERI4
 70
     0
  9
$USERI5
 70
     0
  9
$USERR1
 40
0.0
  9
$USERR2
 40
0.0
  9
$USERR3
 40
0.0
  9
$USERR4
 40
0.0
  9
$USERR5
 40
0.0
  9
$WORLDVIEW
 70
     1
  9
$SHADEDGE
 70
     3
  9
$SHADEDIF
 70
    70
  9
$TILEMODE
 70
     1
  9
$MAXACTVP
 70
    64
  9
$PINSBASE
 10
0.0
 20
0.0
 30
0.0
  9
$PLIMCHECK
 70
     0
  9
$PEXTMIN
 10
1.0000000000E+20
 20
1.0000000000E+20
 30
1.0000000000E+20
  9
$PEXTMAX
 10
-1.0000000000E+20
 20
-1.0000000000E+20
 30
-1.0000000000E+20
  9
$PLIMMIN
 10
0.0
 20
0.0
  9
$PLIMMAX
 10
420.0
 20
297.0
  9
$UNITMODE
 70
     0
  9
$VISRETAIN
 70
     1
  9
$PLINEGEN
 70
     0
  9
$PSLTSCALE
 70
     1
  9
$TREEDEPTH
 70
  3020
  9
$CMLSTYLE
  2
Standard
  9
$CMLJUST
 70
     0
  9
$CMLSCALE
 40
20.0
  9
$PROXYGRAPHICS
 70
     1
  9
$MEASUREMENT
 70
     1
  9
$CELWEIGHT
370
    -1
  9
$ENDCAPS
280
     0
  9
$JOINSTYLE
280
     0
  9
$LWDISPLAY
290
     1
  9
$INSUNITS
 70
     4
  9
$HYPERLINKBASE
  1

  9
$STYLESHEET
  1

  9
$XEDIT
290
     1
  9
$CEPSNTYPE
380
     0
  9
$PSTYLEMODE
290
     1
  9
$FINGERPRINTGUID
  2
{e3408000-a937-403d-8212-468da48b6f2e}
  9
$VERSIONGUID
  2
{FAEB1C32-E019-11D5-929B-00C0DF256EC4}
  9
$EXTNAMES
290
     1
  9
$PSVPSCALE
 40
0.0
  9
$OLESTARTUP
290
     0
  0
ENDSEC
  0
SECTION
  2
CLASSES
  0
CLASS
  1
ACDBDICTIONARYWDFLT
  2
AcDbDictionaryWithDefault
  3
ObjectDBX Classes
 90
        0
280
     0
281
     0
  0
CLASS
  1
VISUALSTYLE
  2
AcDbVisualStyle
  3
ObjectDBX Classes
 90
     4095
280
     0
281
     0
  0
CLASS
  1
MATERIAL
  2
AcDbMaterial
  3
ObjectDBX Classes
 90
     1153
280
     0
281
     0
  0
CLASS
  1
SCALE
  2
AcDbScale
  3
ObjectDBX Classes
 90
     1153
280
     0
281
     0
  0
CLASS
  1
TABLESTYLE
  2
AcDbTableStyle
  3
ObjectDBX Classes
 90
     4095
280
     0
281
     0
  0
CLASS
  1
MLEADERSTYLE
  2
AcDbMLeaderStyle
  3
ACDB_MLEADERSTYLE_CLASS
 90
     4095
280
     0
281
     0
  0
CLASS
  1
SUN
  2
AcDbSun
  3
SCENEOE
 90
     1153
280
     0
281
     0
  0
CLASS
  1
ACDBPLACEHOLDER
  2
AcDbPlaceHolder
  3
ObjectDBX Classes
 90
        0
280
     0
281
     0
  0
CLASS
  1
LAYOUT
  2
AcDbLayout
  3
ObjectDBX Classes
 90
        0
280
     0
281
     0
  0
ENDSEC
  0
SECTION
  2
TABLES
  0
TABLE
  2
VPORT
  5
8
330
0
100
AcDbSymbolTable
 70
     1
  0
VPORT
  5
29
330
8
100
AcDbSymbolTableRecord
100
AcDbViewportTableRecord
  2
*Active
 70
     0
 10
0.0
 20
0.0
 11
1.0
 21
1.0
 12
5410.7031103652
 22
5051.2197155588
 13
0.0
 23
0.0
 14
10.0
 24
10.0
 15
10.0
 25
10.0
 16
0.0
 26
0.0
 36
1.0
 17
0.0
 27
0.0
 37
0.0
 40
604.8186674354
 41
0.7286878164
 42
50.0
 43
0.0
 44
0.0
 50
0.0
 51
0.0
 71
     0
 72
   100
 73
     1
 74
     3
 75
     0
 76
     0
 77
     0
 78
     0
281
     0
 65
     1
110
0.0
120
0.0
130
0.0
111
1.0
121
0.0
131
0.0
112
0.0
122
1.0
132
0.0
 79
     0
146
0.0
  0
ENDTAB
  0
TABLE
  2
LTYPE
  5
5
330
0
100
AcDbSymbolTable
 70
     6
  0
LTYPE
  5
14
330
5
100
AcDbSymbolTableRecord
100
AcDbLinetypeTableRecord
  2
ByBlock
 70
     0
  3

 72
    65
 73
     0
 40
0.0
  0
LTYPE
  5
15
330
5
100
AcDbSymbolTableRecord
100
AcDbLinetypeTableRecord
  2
ByLayer
 70
     0
  3

 72
    65
 73
     0
 40
0.0
  0
LTYPE
  5
16
330
5
100
AcDbSymbolTableRecord
100
AcDbLinetypeTableRecord
  2
Continuous
 70
     0
  3
Solid line
 72
    65
 73
     0
 40
0.0
  0
LTYPE
  5
6E
330
5
100
AcDbSymbolTableRecord
100
AcDbLinetypeTableRecord
  2
HIDDEN
 70
     0
  3
Hidden __ __ __ __ __ __ __ __ __ __ __ __ __ __
 72
    65
 73
     2
 40
1.905
 49
1.27
 74
     0
 49
-0.635
 74
     0
  0
LTYPE
  5
6F
330
5
100
AcDbSymbolTableRecord
100
AcDbLinetypeTableRecord
  2
PHANTOM
 70
     0
  3
Phantom ______  __  __  ______  __  __  ______
 72
    65
 73
     6
 40
12.7
 49
6.35
 74
     0
 49
-1.27
 74
     0
 49
1.27
 74
     0
 49
-1.27
 74
     0
 49
1.27
 74
     0
 49
-1.27
 74
     0
  0
LTYPE
  5
70
330
5
100
AcDbSymbolTableRecord
100
AcDbLinetypeTableRecord
  2
CENTER
 70
     0
  3
Center ____ _ ____ _ ____ _ ____ _ ____ _ ____
 72
    65
 73
     4
 40
10.16
 49
6.35
 74
     0
 49
-1.27
 74
     0
 49
1.27
 74
     0
 49
-1.27
 74
     0
  0
LTYPE
  5
71
330
5
100
AcDbSymbolTableRecord
100
AcDbLinetypeTableRecord
  2
CENTERX2
 70
     0
  3
Center (2x) ________  __  ________  __  _____
 72
    65
 73
     4
 40
20.32
 49
12.7
 74
     0
 49
-2.54
 74
     0
 49
2.54
 74
     0
 49
-2.54
 74
     0
  0
LTYPE
  5
72
330
5
100
AcDbSymbolTableRecord
100
AcDbLinetypeTableRecord
  2
DOT2
 70
     0
  3
Dot (.5x) ........................................
 72
    65
 73
     2
 40
0.635
 49
0.0
 74
     0
 49
-0.635
 74
     0
  0
ENDTAB
  0
TABLE
  2
LAYER
  5
2
330
0
100
AcDbSymbolTable
 70
     1
  0
LAYER
  5
10
330
2
100
AcDbSymbolTableRecord
100
AcDbLayerTableRecord
  2
0
 70
     0
 62
     7
  6
Continuous
370
    -3
390
F
  0
ENDTAB
  0
TABLE
  2
STYLE
  5
3
330
0
100
AcDbSymbolTable
 70
     1
  0
STYLE
  5
11
330
3
100
AcDbSymbolTableRecord
100
AcDbTextStyleTableRecord
  2
Standard
 70
     0
 40
0.0
 41
1.0
 50
0.0
 71
     0
 42
3.5
  3
txt
  4

  0
ENDTAB
  0
TABLE
  2
VIEW
  5
6
330
0
100
AcDbSymbolTable
 70
     0
  0
ENDTAB
  0
TABLE
  2
UCS
  5
7
330
0
100
AcDbSymbolTable
 70
     0
  0
ENDTAB
  0
TABLE
  2
APPID
  5
9
330
0
100
AcDbSymbolTable
 70
     1
  0
APPID
  5
12
330
9
100
AcDbSymbolTableRecord
100
AcDbRegAppTableRecord
  2
ACAD
 70
     0
  0
ENDTAB
  0
TABLE
  2
DIMSTYLE
  5
A
330
0
100
AcDbSymbolTable
 70
     1
100
AcDbDimStyleTable
  0
DIMSTYLE
105
27
330
A
100
AcDbSymbolTableRecord
100
AcDbDimStyleTableRecord
  2
ISO-25
 70
     0
 41
2.5
 42
0.625
 43
3.75
 44
1.25
 73
     0
 74
     0
 77
     1
 78
     8
140
2.5
141
2.5
143
0.0393700787
147
0.625
171
     3
172
     1
178
     0
271
     2
272
     2
274
     3
278
    44
283
     0
284
     8
340
11
  0
ENDTAB
  0
TABLE
  2
BLOCK_RECORD
  5
1
330
0
100
AcDbSymbolTable
 70
     1
  0
BLOCK_RECORD
  5
1F
330
1
100
AcDbSymbolTableRecord
100
AcDbBlockTableRecord
  2
*Model_Space
340
22
  0
BLOCK_RECORD
  5
1B
330
1
100
AcDbSymbolTableRecord
100
AcDbBlockTableRecord
  2
*Paper_Space
340
1E
  0
BLOCK_RECORD
  5
23
330
1
100
AcDbSymbolTableRecord
100
AcDbBlockTableRecord
  2
*Paper_Space0
340
26
  0
ENDTAB
  0
ENDSEC
  0
SECTION
  2
BLOCKS
  0
BLOCK
  5
20
330
1F
100
AcDbEntity
  8
0
100
AcDbBlockBegin
  2
*Model_Space
 70
     0
 10
0.0
 20
0.0
 30
0.0
  3
*Model_Space
  1

  0
ENDBLK
  5
21
330
1F
100
AcDbEntity
  8
0
100
AcDbBlockEnd
  0
BLOCK
  5
1C
330
1B
100
AcDbEntity
 67
     1
  8
0
100
AcDbBlockBegin
  2
*Paper_Space
 70
     0
 10
0.0
 20
0.0
 30
0.0
  3
*Paper_Space
  1

  0
ENDBLK
  5
1D
330
1B
100
AcDbEntity
 67
     1
  8
0
100
AcDbBlockEnd
  0
BLOCK
  5
24
330
23
100
AcDbEntity
  8
0
100
AcDbBlockBegin
  2
*Paper_Space0
 70
     0
 10
0.0
 20
0.0
 30
0.0
  3
*Paper_Space0
  1

  0
ENDBLK
  5
25
330
23
100
AcDbEntity
  8
0
100
AcDbBlockEnd
  0
ENDSEC
  0
SECTION
  2
ENTITIES
  0
ARC
  5
73
330
1F
100
AcDbEntity
  8
0
  6
Continuous
 62
     7
100
AcDbCircle
 10
5626.244283953
 20
5118.6994609108
 30
0.0
 40
0.5000000000009162
100
AcDbArc
 50
359.9990301201
 51
90.0000094046
  0
ARC
  5
74
330
1F
100
AcDbEntity
  8
0
  6
Continuous
 62
     7
100
AcDbCircle
 10
5626.244283953
 20
5114.699450778
 30
0.0
 40
0.5000000000000067
100
AcDbArc
 50
269.9999905953
 51
0.0009698914
  0
ARC
  5
75
330
1F
100
AcDbEntity
  8
0
  6
Continuous
 62
     7
100
AcDbCircle
 10
5624.744303165
 20
5259.6990666717
 30
0.0
 40
0.9999806679891847
100
AcDbArc
 50
359.9573659324
 51
90.0129429732
  0
ARC
  5
76
330
1F
100
AcDbEntity
  8
0
  6
Continuous
 62
     7
100
AcDbCircle
 10
5624.7443021224
 20
5199.6996095502
 30
0.0
 40
0.9999817953520106
100
AcDbArc
 50
270.1062016663
 51
359.9910121429
  0
ARC
  5
77
330
1F
100
AcDbEntity
  8
0
  6
Continuous
 62
     7
100
AcDbCircle
 10
5596.744283925
 20
5098.6994566193
 30
0.0
 40
2.999999560449396
100
AcDbArc
 50
180.0
 51
0.0
  0
CIRCLE
  5
78
330
1F
100
AcDbEntity
  8
0
  6
Continuous
 62
     7
100
AcDbCircle
 10
5526.7442838579
 20
5089.6994526556
 30
0.0
 40
4.64999999999913
  0
ARC
  5
79
330
1F
100
AcDbEntity
  8
0
  6
Continuous
 62
     7
100
AcDbCircle
 10
5622.7442828116
 20
5345.6994525606
 30
0.0
 40
1.999997921278009
100
AcDbArc
 50
0.0
 51
90.0
  0
ARC
  5
7A
330
1F
100
AcDbEntity
  8
0
  6
Continuous
 62
     7
100
AcDbCircle
 10
5622.7442828116
 20
5106.6994532567
 30
0.0
 40
1.999997921282116
100
AcDbArc
 50
270.0
 51
0.0001161128
  0
ARC
  5
7B
330
1F
100
AcDbEntity
  8
0
  6
Continuous
 62
     7
100
AcDbCircle
 10
5526.7442838579
 20
5089.6994526556
 30
0.0
 40
10.00000473855504
100
AcDbArc
 50
179.9999221356
 51
270.0000146849
  0
ARC
  5
7C
330
1F
100
AcDbEntity
  8
0
  6
Continuous
 62
     7
100
AcDbCircle
 10
5559.0493241876
 20
5102.6994583492
 30
0.0
 40
3.999998960643211
100
AcDbArc
 50
89.9999892946
 51
156.250474626
  0
ARC
  5
7D
330
1F
100
AcDbEntity
  8
0
  6
Continuous
 62
     7
100
AcDbCircle
 10
5559.0493241876
 20
5102.6994583492
 30
0.0
 40
1.999996986261318
100
AcDbArc
 50
89.9999785892
 51
156.2505765943
  0
ARC
  5
7E
330
1F
100
AcDbEntity
  8
0
  6
Continuous
 62
     7
100
AcDbCircle
 10
5251.2445291429
 20
5098.6994566193
 30
0.0
 40
3.000000026050657
100
AcDbArc
 50
180.0
 51
0.0
  0
ARC
  5
7F
330
1F
100
AcDbEntity
  8
0
  6
Continuous
 62
     7
100
AcDbCircle
 10
5303.244529143
 20
5089.6320302877
 30
0.0
 40
5.000000000001703
100
AcDbArc
 50
293.5781784782
 51
331.4339809246
  0
ARC
  5
80
330
1F
100
AcDbEntity
  8
0
  6
Continuous
 62
     7
100
AcDbCircle
 10
5303.244529143
 20
5089.7668788978
 30
0.0
 40
5.000000000000778
100
AcDbArc
 50
29.4168754149
 51
66.4218215218
  0
ARC
  5
81
330
1F
100
AcDbEntity
  8
0
  6
Continuous
 62
     7
100
AcDbCircle
 10
5199.244529143
 20
5089.7668788978
 30
0.0
 40
5.000000000001142
100
AcDbArc
 50
113.5781784782
 51
151.4329569492
  0
ARC
  5
82
330
1F
100
AcDbEntity
  8
0
  6
Continuous
 62
     7
100
AcDbCircle
 10
5199.244529143
 20
5089.6320302877
 30
0.0
 40
5.000000000000599
100
AcDbArc
 50
209.3947627015
 51
246.4218215218
  0
CIRCLE
  5
83
330
1F
100
AcDbEntity
  8
0
  6
Continuous
 62
     7
100
AcDbCircle
 10
5211.244529143
 20
5116.6994545927
 30
0.0
 40
2.0
  0
CIRCLE
  5
84
330
1F
100
AcDbEntity
  8
0
  6
Continuous
 62
     7
100
AcDbCircle
 10
5211.244529143
 20
5116.6994545927
 30
0.0
 40
2.500000000000909
  0
ARC
  5
85
330
1F
100
AcDbEntity
  8
0
  6
Continuous
 62
     7
100
AcDbCircle
 10
5303.2445305437
 20
5345.6994544977
 30
0.0
 40
1.999999999995479
100
AcDbArc
 50
359.9999972785
 51
90.0000093936
  0
ARC
  5
86
330
1F
100
AcDbEntity
  8
0
  6
Continuous
 62
     7
100
AcDbCircle
 10
5303.2445305437
 20
5106.6994538775
 30
0.0
 40
2.000000000000936
100
AcDbArc
 50
269.9999906062
 51
0.0001161127
  0
ARC
  5
87
330
1F
100
AcDbEntity
  8
0
  6
Continuous
 62
     7
100
AcDbCircle
 10
5199.2445277422
 20
5345.6994544977
 30
0.0
 40
1.999999999996389
100
AcDbArc
 50
89.9999906063
 51
180.0
  0
ARC
  5
88
330
1F
100
AcDbEntity
  8
0
  6
Continuous
 62
     7
100
AcDbCircle
 10
5199.2445277422
 20
5106.6994538775
 30
0.0
 40
2.000000000000936
100
AcDbArc
 50
179.9998838873
 51
270.0000093938
  0
ARC
  5
89
330
1F
100
AcDbEntity
  8
0
  6
Continuous
 62
     7
100
AcDbCircle
 10
5271.244377906
 20
4756.7399761344
 30
0.0
 40
0.9999994473761992
100
AcDbArc
 50
270.2803543625
 51
0.6510631715
  0
ARC
  5
8A
330
1F
100
AcDbEntity
  8
0
  6
Continuous
 62
     7
100
AcDbCircle
 10
5231.2446283193
 20
4756.7399760448
 30
0.0
 40
0.9999992788101114
100
AcDbArc
 50
179.3502592836
 51
269.7751361045
  0
ARC
  5
8B
330
1F
100
AcDbEntity
  8
0
  6
Continuous
 62
     7
100
AcDbCircle
 10
5213.2445276528
 20
4755.2399766199
 30
0.0
 40
0.5000000000018979
100
AcDbArc
 50
270.0003107725
 51
0.0000093971
  0
ARC
  5
8C
330
1F
100
AcDbEntity
  8
0
  6
Continuous
 62
     7
100
AcDbCircle
 10
5209.2445286959
 20
4755.2399766199
 30
0.0
 40
0.5000000000001172
100
AcDbArc
 50
179.9999906034
 51
270.0001161157
  0
ARC
  5
8D
330
1F
100
AcDbEntity
  8
0
  6
Continuous
 62
     7
100
AcDbCircle
 10
5199.244529143
 20
4854.80740102
 30
0.0
 40
5.000000000000308
100
AcDbArc
 50
113.5781784782
 51
154.3594025331
  0
ARC
  5
8E
330
1F
100
AcDbEntity
  8
0
  6
Continuous
 62
     7
100
AcDbCircle
 10
5199.2440839197
 20
4854.6727466955
 30
0.0
 40
5.000000000000548
100
AcDbArc
 50
203.9606178392
 51
246.4273880146
  0
ARC
  5
8F
330
1F
100
AcDbEntity
  8
0
  6
Continuous
 62
     7
100
AcDbCircle
 10
5303.244529143
 20
4854.6725524099
 30
0.0
 40
5.000000000000213
100
AcDbArc
 50
293.5781784782
 51
336.0655543015
  0
ARC
  5
90
330
1F
100
AcDbEntity
  8
0
  6
Continuous
 62
     7
100
AcDbCircle
 10
5303.244529143
 20
4854.80740102
 30
0.0
 40
4.999999999999945
100
AcDbArc
 50
25.6402716933
 51
66.4218215218
  0
ARC
  5
91
330
1F
100
AcDbEntity
  8
0
  6
Continuous
 62
     7
100
AcDbCircle
 10
5303.2445305437
 20
4758.7399768099
 30
0.0
 40
2.000000000001846
100
AcDbArc
 50
269.9999906064
 51
0.0
  0
ARC
  5
92
330
1F
100
AcDbEntity
  8
0
  6
Continuous
 62
     7
100
AcDbCircle
 10
5199.2445277422
 20
4758.7399768099
 30
0.0
 40
2.000000000001846
100
AcDbArc
 50
180.0
 51
270.0000093936
  0
ELLIPSE
  5
93
330
1F
100
AcDbEntity
  8
0
  6
Continuous
 62
     7
100
AcDbEllipse
 10
5251.244529143
 20
5229.6994545927
 30
0.0
 11
0.0
 21
-30.99999999999909
 31
0.0
210
0.0
220
0.0
230
1.0
 40
0.6774193548
 41
0.0
 42
6.283185307179586
  0
ELLIPSE
  5
94
330
1F
100
AcDbEntity
  8
0
  6
Continuous
 62
     7
100
AcDbEllipse
 10
5303.244529143
 20
5084.6654546959
 30
0.0
 11
0.0
 21
4.966000103180704
 31
0.0
210
0.0
220
0.0
230
1.0
 40
0.4027386143
 41
3.394272908731238
 42
3.665191429187259
  0
ELLIPSE
  5
95
330
1F
100
AcDbEntity
  8
0
  6
Continuous
 62
     7
100
AcDbEllipse
 10
5303.244529143
 20
5086.9381819686
 30
0.0
 11
0.0
 21
4.966000103180704
 31
0.0
210
0.0
220
0.0
230
1.0
 40
0.4027386143
 41
3.141592653589793
 42
3.394272908731284
  0
ELLIPSE
  5
96
330
1F
100
AcDbEntity
  8
0
  6
Continuous
 62
     7
100
AcDbEllipse
 10
5199.244529143
 20
5084.6654546959
 30
0.0
 11
0.0
 21
-4.966000103180704
 31
0.0
210
0.0
220
0.0
230
1.0
 40
0.4027386143
 41
5.759586531581296
 42
6.030505052037767
  0
ELLIPSE
  5
97
330
1F
100
AcDbEntity
  8
0
  6
Continuous
 62
     7
100
AcDbEllipse
 10
5199.244529143
 20
5086.9381819686
 30
0.0
 11
0.0
 21
-4.966000103181614
 31
0.0
210
0.0
220
0.0
230
1.0
 40
0.4027386143
 41
6.030505052037676
 42
6.283185307179586
  0
LINE
  5
98
330
1F
100
AcDbEntity
  8
0
  6
Continuous
 62
     7
100
AcDbLine
 10
5624.7442838579
 20
5114.199450778
 30
0.0
 11
5626.2442838709
 21
5114.199450778
 31
0.0
  0
LINE
  5
99
330
1F
100
AcDbEntity
  8
0
  6
Continuous
 62
     7
100
AcDbLine
 10
5626.2442838709
 20
5119.1994609108
 30
0.0
 11
5624.7442838579
 21
5119.1994609108
 31
0.0
  0
LINE
  5
9A
330
1F
100
AcDbEntity
  8
0
  6
Continuous
 62
     7
100
AcDbLine
 10
5593.7442843645
 20
5104.6994538775
 30
0.0
 11
5593.7442843645
 21
5098.6994566193
 31
0.0
  0
LINE
  5
9B
330
1F
100
AcDbEntity
  8
0
  6
Continuous
 62
     7
100
AcDbLine
 10
5599.7442834854
 20
5098.6994566193
 30
0.0
 11
5599.7442834854
 21
5104.6994538775
 31
0.0
  0
LINE
  5
9C
330
1F
100
AcDbEntity
  8
0
  6
Continuous
 62
     7
100
AcDbLine
 10
5624.7567838576
 20
5341.5390863812
 30
0.0
 11
5624.7442838579
 21
5341.5390863812
 31
0.0
  0
LINE
  5
9D
330
1F
100
AcDbEntity
  8
0
  6
Continuous
 62
     7
100
AcDbLine
 10
5624.7442838579
 20
5332.563233169
 30
0.0
 11
5624.7567838576
 21
5332.563233169
 31
0.0
  0
LINE
  5
9E
330
1F
100
AcDbEntity
  8
0
  6
Continuous
 62
     7
100
AcDbLine
 10
5624.7442838579
 20
5331.3225997409
 30
0.0
 11
5624.7567838576
 21
5331.3225997409
 31
0.0
  0
LINE
  5
9F
330
1F
100
AcDbEntity
  8
0
  6
Continuous
 62
     7
100
AcDbLine
 10
5624.7567838576
 20
5338.5576285219
 30
0.0
 11
5624.7442838579
 21
5338.5576285219
 31
0.0
  0
LINE
  5
A0
330
1F
100
AcDbEntity
  8
0
  6
Continuous
 62
     7
100
AcDbLine
 10
5624.7567838576
 20
5339.6849805286
 30
0.0
 11
5624.7442838579
 21
5339.6849805286
 31
0.0
  0
LINE
  5
A1
330
1F
100
AcDbEntity
  8
0
  6
Continuous
 62
     7
100
AcDbLine
 10
5624.7567838576
 20
5338.5383948481
 30
0.0
 11
5624.7442838579
 21
5338.5383948481
 31
0.0
  0
LINE
  5
A2
330
1F
100
AcDbEntity
  8
0
  6
Continuous
 62
     7
100
AcDbLine
 10
5624.7567838576
 20
5338.5190633854
 30
0.0
 11
5624.7442838579
 21
5338.5190633854
 31
0.0
  0
LINE
  5
A3
330
1F
100
AcDbEntity
  8
0
  6
Continuous
 62
     7
100
AcDbLine
 10
5624.7567838576
 20
5339.6470049193
 30
0.0
 11
5624.7442838579
 21
5339.6470049193
 31
0.0
  0
LINE
  5
A4
330
1F
100
AcDbEntity
  8
0
  6
Continuous
 62
     7
100
AcDbLine
 10
5624.7567838576
 20
5338.5062418675
 30
0.0
 11
5624.7442838579
 21
5338.5062418675
 31
0.0
  0
LINE
  5
A5
330
1F
100
AcDbEntity
  8
0
  6
Continuous
 62
     7
100
AcDbLine
 10
5624.7567838576
 20
5338.9156615158
 30
0.0
 11
5624.7442838579
 21
5338.9156615158
 31
0.0
  0
LINE
  5
A6
330
1F
100
AcDbEntity
  8
0
  6
Continuous
 62
     7
100
AcDbLine
 10
5624.7442838579
 20
5339.0664659237
 30
0.0
 11
5624.7567838576
 21
5339.0664659237
 31
0.0
  0
LINE
  5
A7
330
1F
100
AcDbEntity
  8
0
  6
Continuous
 62
     7
100
AcDbLine
 10
5624.7567838576
 20
5339.5414758271
 30
0.0
 11
5624.7442838579
 21
5339.5414758271
 31
0.0
  0
LINE
  5
A8
330
1F
100
AcDbEntity
  8
0
  6
Continuous
 62
     7
100
AcDbLine
 10
5624.7567838576
 20
5339.7324332764
 30
0.0
 11
5624.7442838579
 21
5339.7324332764
 31
0.0
  0
LINE
  5
A9
330
1F
100
AcDbEntity
  8
0
  6
Continuous
 62
     7
100
AcDbLine
 10
5624.7567838576
 20
5341.5545770695
 30
0.0
 11
5624.7442838579
 21
5341.5545770695
 31
0.0
  0
LINE
  5
AA
330
1F
100
AcDbEntity
  8
0
  6
Continuous
 62
     7
100
AcDbLine
 10
5624.7567838576
 20
5339.13725389
 30
0.0
 11
5624.7442838579
 21
5339.13725389
 31
0.0
  0
LINE
  5
AB
330
1F
100
AcDbEntity
  8
0
  6
Continuous
 62
     7
100
AcDbLine
 10
5624.7567838576
 20
5341.450570224
 30
0.0
 11
5624.7442838579
 21
5341.450570224
 31
0.0
  0
LINE
  5
AC
330
1F
100
AcDbEntity
  8
0
  6
Continuous
 62
     7
100
AcDbLine
 10
5624.7442838579
 20
5337.4989215081
 30
0.0
 11
5624.7567838576
 21
5337.4989215081
 31
0.0
  0
LINE
  5
AD
330
1F
100
AcDbEntity
  8
0
  6
Continuous
 62
     7
100
AcDbLine
 10
5624.7442838579
 20
5339.9307979999
 30
0.0
 11
5624.7567838576
 21
5339.9307979999
 31
0.0
  0
LINE
  5
AE
330
1F
100
AcDbEntity
  8
0
  6
Continuous
 62
     7
100
AcDbLine
 10
5624.7442838579
 20
5340.0373208133
 30
0.0
 11
5624.7567838576
 21
5340.0373208133
 31
0.0
  0
LINE
  5
AF
330
1F
100
AcDbEntity
  8
0
  6
Continuous
 62
     7
100
AcDbLine
 10
5624.7442838579
 20
5337.8012819013
 30
0.0
 11
5624.7567838576
 21
5337.8012819013
 31
0.0
  0
LINE
  5
B0
330
1F
100
AcDbEntity
  8
0
  6
Continuous
 62
     7
100
AcDbLine
 10
5624.7567838576
 20
5339.547045136
 30
0.0
 11
5624.7442838579
 21
5339.547045136
 31
0.0
  0
LINE
  5
B1
330
1F
100
AcDbEntity
  8
0
  6
Continuous
 62
     7
100
AcDbLine
 10
5624.7442838579
 20
5333.3054413816
 30
0.0
 11
5624.7567838576
 21
5333.3054413816
 31
0.0
  0
LINE
  5
B2
330
1F
100
AcDbEntity
  8
0
  6
Continuous
 62
     7
100
AcDbLine
 10
5624.7442838579
 20
5334.3404769694
 30
0.0
 11
5624.7567838576
 21
5334.3404769694
 31
0.0
  0
LINE
  5
B3
330
1F
100
AcDbEntity
  8
0
  6
Continuous
 62
     7
100
AcDbLine
 10
5624.7442838579
 20
5335.2744417062
 30
0.0
 11
5624.7567838576
 21
5335.2744417062
 31
0.0
  0
LINE
  5
B4
330
1F
100
AcDbEntity
  8
0
  6
Continuous
 62
     7
100
AcDbLine
 10
5624.7442838579
 20
5336.2866133248
 30
0.0
 11
5624.7567838576
 21
5336.2866133248
 31
0.0
  0
LINE
  5
B5
330
1F
100
AcDbEntity
  8
0
  6
Continuous
 62
     7
100
AcDbLine
 10
5624.7567838576
 20
5338.8276953047
 30
0.0
 11
5624.7442838579
 21
5338.8276953047
 31
0.0
  0
LINE
  5
B6
330
1F
100
AcDbEntity
  8
0
  6
Continuous
 62
     7
100
AcDbLine
 10
5624.7567838576
 20
5342.7198855935
 30
0.0
 11
5624.7442838579
 21
5342.7198855935
 31
0.0
  0
LINE
  5
B7
330
1F
100
AcDbEntity
  8
0
  6
Continuous
 62
     7
100
AcDbLine
 10
5624.7567838576
 20
5342.6130023582
 30
0.0
 11
5624.7442838579
 21
5342.6130023582
 31
0.0
  0
LINE
  5
B8
330
1F
100
AcDbEntity
  8
0
  6
Continuous
 62
     7
100
AcDbLine
 10
5624.7442838579
 20
5340.9825056588
 30
0.0
 11
5624.7567838576
 21
5340.9825056588
 31
0.0
  0
LINE
  5
B9
330
1F
100
AcDbEntity
  8
0
  6
Continuous
 62
     7
100
AcDbLine
 10
5624.7442838579
 20
5340.8759828454
 30
0.0
 11
5624.7567838576
 21
5340.8759828454
 31
0.0
  0
LINE
  5
BA
330
1F
100
AcDbEntity
  8
0
  6
Continuous
 62
     7
100
AcDbLine
 10
5624.7442807328
 20
5345.6994525606
 30
0.0
 11
5624.7442807328
 21
5106.6994573098
 31
0.0
  0
LINE
  5
BB
330
1F
100
AcDbEntity
  8
0
  6
Continuous
 62
     7
100
AcDbLine
 10
5624.7442807328
 20
5106.6994573098
 30
0.0
 11
5622.7442828116
 21
5106.6994532567
 31
0.0
  0
LINE
  5
BC
330
1F
100
AcDbEntity
  8
0
  6
Continuous
 62
     7
100
AcDbLine
 10
5622.7442828116
 20
5106.6994532567
 30
0.0
 11
5622.7442828116
 21
5345.6994525606
 31
0.0
  0
LINE
  5
BD
330
1F
100
AcDbEntity
  8
0
  6
Continuous
 62
     7
100
AcDbLine
 10
5624.7442807328
 20
5345.6994525606
 30
0.0
 11
5622.7442828116
 21
5345.6994525606
 31
0.0
  0
LINE
  5
BE
330
1F
100
AcDbEntity
  8
0
  6
Continuous
 62
     7
100
AcDbLine
 10
5622.7442828116
 20
5347.6994504818
 30
0.0
 11
5622.7442828116
 21
5345.6994525606
 31
0.0
  0
LINE
  5
BF
330
1F
100
AcDbEntity
  8
0
  6
Continuous
 62
     7
100
AcDbLine
 10
5622.7442828116
 20
5104.6994553354
 30
0.0
 11
5622.7442828116
 21
5106.6994532567
 31
0.0
  0
LINE
  5
C0
330
1F
100
AcDbEntity
  8
0
  6
Continuous
 62
     7
100
AcDbLine
 10
5622.7442828116
 20
5104.6994553354
 30
0.0
 11
5559.049324935
 21
5104.6994553354
 31
0.0
  0
LINE
  5
C1
330
1F
100
AcDbEntity
  8
0
  6
Continuous
 62
     7
100
AcDbLine
 10
5559.049324935
 20
5104.6994553354
 30
0.0
 11
5559.049324935
 21
5106.6994573098
 31
0.0
  0
LINE
  5
C2
330
1F
100
AcDbEntity
  8
0
  6
Continuous
 62
     7
100
AcDbLine
 10
5559.049324935
 20
5106.6994573098
 30
0.0
 11
5622.7442828116
 21
5106.6994532567
 31
0.0
  0
LINE
  5
C3
330
1F
100
AcDbEntity
  8
0
  6
Continuous
 62
     7
100
AcDbLine
 10
5516.7442791194
 20
5347.6994504818
 30
0.0
 11
5622.7442828116
 21
5347.6994504818
 31
0.0
  0
LINE
  5
C4
330
1F
100
AcDbEntity
  8
0
  6
Continuous
 62
     7
100
AcDbLine
 10
5622.7442828116
 20
5345.6994525606
 30
0.0
 11
5516.7442791194
 21
5345.6994525606
 31
0.0
  0
LINE
  5
C5
330
1F
100
AcDbEntity
  8
0
  6
Continuous
 62
     7
100
AcDbLine
 10
5516.7442791194
 20
5345.6994525606
 30
0.0
 11
5516.7442791194
 21
5347.6994504818
 31
0.0
  0
LINE
  5
C6
330
1F
100
AcDbEntity
  8
0
  6
Continuous
 62
     7
100
AcDbLine
 10
5516.7442791194
 20
5345.6994525606
 30
0.0
 11
5516.7442791194
 21
5089.6994662455
 31
0.0
  0
LINE
  5
C7
330
1F
100
AcDbEntity
  8
0
  6
Continuous
 62
     7
100
AcDbLine
 10
5544.5592430263
 20
5079.699447917
 30
0.0
 11
5555.3880658775
 21
5104.310414361
 31
0.0
  0
LINE
  5
C8
330
1F
100
AcDbEntity
  8
0
  6
Continuous
 62
     7
100
AcDbLine
 10
5526.7442864209
 20
5079.699447917
 30
0.0
 11
5544.5592430263
 21
5079.699447917
 31
0.0
  0
LINE
  5
C9
330
1F
100
AcDbEntity
  8
0
  6
Continuous
 62
     7
100
AcDbLine
 10
5557.2186958819
 20
5103.5049320927
 30
0.0
 11
5557.1835216909
 21
5103.5204143992
 31
0.0
  0
LINE
  5
CA
330
1F
100
AcDbEntity
  8
0
  6
Continuous
 62
     7
100
AcDbLine
 10
5557.1835216909
 20
5103.5204143992
 30
0.0
 11
5557.079347673
 21
5103.566250371
 31
0.0
  0
LINE
  5
CB
330
1F
100
AcDbEntity
  8
0
  6
Continuous
 62
     7
100
AcDbLine
 10
5557.079347673
 20
5103.566250371
 30
0.0
 11
5556.91017479
 21
5103.6406816712
 31
0.0
  0
LINE
  5
CC
330
1F
100
AcDbEntity
  8
0
  6
Continuous
 62
     7
100
AcDbLine
 10
5556.91017479
 20
5103.6406816712
 30
0.0
 11
5556.6825148493
 21
5103.7408472767
 31
0.0
  0
LINE
  5
CD
330
1F
100
AcDbEntity
  8
0
  6
Continuous
 62
     7
100
AcDbLine
 10
5556.6825148493
 20
5103.7408472767
 30
0.0
 11
5556.4051073819
 21
5103.862902688
 31
0.0
  0
LINE
  5
CE
330
1F
100
AcDbEntity
  8
0
  6
Continuous
 62
     7
100
AcDbLine
 10
5556.4051073819
 20
5103.862902688
 30
0.0
 11
5556.0886141687
 21
5104.0021689406
 31
0.0
  0
LINE
  5
CF
330
1F
100
AcDbEntity
  8
0
  6
Continuous
 62
     7
100
AcDbLine
 10
5556.0886141687
 20
5104.0021689406
 30
0.0
 11
5555.7452020078
 21
5104.1532667151
 31
0.0
  0
LINE
  5
D0
330
1F
100
AcDbEntity
  8
0
  6
Continuous
 62
     7
100
AcDbLine
 10
5555.7452020078
 20
5104.1532667151
 30
0.0
 11
5555.3880658775
 21
5104.310414361
 31
0.0
  0
LINE
  5
D1
330
1F
100
AcDbEntity
  8
0
  6
Continuous
 62
     7
100
AcDbLine
 10
5547.7442842751
 20
5082.1298869124
 30
0.0
 11
5546.7442822486
 21
5079.8571320048
 31
0.0
  0
LINE
  5
D2
330
1F
100
AcDbEntity
  8
0
  6
Continuous
 62
     7
100
AcDbLine
 10
5546.7442822486
 20
5079.8571320048
 30
0.0
 11
5546.7442822486
 21
5080.3647847643
 31
0.0
  0
LINE
  5
D3
330
1F
100
AcDbEntity
  8
0
  6
Continuous
 62
     7
100
AcDbLine
 10
5546.7442822486
 20
5080.3647847643
 30
0.0
 11
5546.4515414863
 21
5079.699447917
 31
0.0
  0
LINE
  5
D4
330
1F
100
AcDbEntity
  8
0
  6
Continuous
 62
     7
100
AcDbLine
 10
5546.4515414863
 20
5079.699447917
 30
0.0
 11
5544.5592430263
 21
5079.699447917
 31
0.0
  0
LINE
  5
D5
330
1F
100
AcDbEntity
  8
0
  6
Continuous
 62
     7
100
AcDbLine
 10
5557.2186958819
 20
5103.5049320927
 30
0.0
 11
5547.7442842751
 21
5081.9721730223
 31
0.0
  0
LINE
  5
D6
330
1F
100
AcDbEntity
  8
0
  6
Continuous
 62
     7
100
AcDbLine
 10
5547.7442842751
 20
5081.9721730223
 30
0.0
 11
5547.7442842751
 21
5082.1298869124
 31
0.0
  0
LINE
  5
D7
330
1F
100
AcDbEntity
  8
0
  6
Continuous
 62
     7
100
AcDbLine
 10
5626.7442839529
 20
5118.699452447
 30
0.0
 11
5626.7442839529
 21
5114.6994592419
 31
0.0
  0
LINE
  5
D8
330
1F
100
AcDbEntity
  8
0
  6
Continuous
 62
     7
100
AcDbLine
 10
5625.7442839054
 20
5259.6994550696
 30
0.0
 11
5625.7442839054
 21
5199.6994526854
 31
0.0
  0
LINE
  5
D9
330
1F
100
AcDbEntity
  8
0
  6
Continuous
 62
     7
100
AcDbLine
 10
5626.2442838709
 20
5114.199450778
 30
0.0
 11
5626.2442838709
 21
5119.1994609108
 31
0.0
  0
LINE
  5
DA
330
1F
100
AcDbEntity
  8
0
  6
Continuous
 62
     7
100
AcDbLine
 10
5593.7442843645
 20
5098.6994566193
 30
0.0
 11
5599.7442834854
 21
5098.6994566193
 31
0.0
  0
LINE
  5
DB
330
1F
100
AcDbEntity
  8
0
  6
Continuous
 62
     7
100
AcDbLine
 10
5248.2445291169
 20
5104.6994538775
 30
0.0
 11
5248.2445291169
 21
5098.6994566193
 31
0.0
  0
LINE
  5
DC
330
1F
100
AcDbEntity
  8
0
  6
Continuous
 62
     7
100
AcDbLine
 10
5254.244529169
 20
5098.6994566193
 30
0.0
 11
5254.244529169
 21
5104.6994538775
 31
0.0
  0
LINE
  5
DD
330
1F
100
AcDbEntity
  8
0
  6
Continuous
 62
     7
100
AcDbLine
 10
5303.2445305437
 20
5345.6994544977
 30
0.0
 11
5303.2445302158
 21
5347.6994544977
 31
0.0
  0
LINE
  5
DE
330
1F
100
AcDbEntity
  8
0
  6
Continuous
 62
     7
100
AcDbLine
 10
5305.2445305437
 20
5345.6994544027
 30
0.0
 11
5303.2445305437
 21
5345.6994544977
 31
0.0
  0
LINE
  5
DF
330
1F
100
AcDbEntity
  8
0
  6
Continuous
 62
     7
100
AcDbLine
 10
5303.2445302158
 20
5104.6994538775
 30
0.0
 11
5303.2445305437
 21
5106.6994538775
 31
0.0
  0
LINE
  5
E0
330
1F
100
AcDbEntity
  8
0
  6
Continuous
 62
     7
100
AcDbLine
 10
5305.2445305437
 20
5106.6994579306
 30
0.0
 11
5303.2445305437
 21
5106.6994538775
 31
0.0
  0
LINE
  5
E1
330
1F
100
AcDbEntity
  8
0
  6
Continuous
 62
     7
100
AcDbLine
 10
5305.2445305437
 20
5345.6994544027
 30
0.0
 11
5305.2445305437
 21
5106.6994579306
 31
0.0
  0
LINE
  5
E2
330
1F
100
AcDbEntity
  8
0
  6
Continuous
 62
     7
100
AcDbLine
 10
5303.2445305437
 20
5106.6994538775
 30
0.0
 11
5303.2445305437
 21
5345.6994544977
 31
0.0
  0
LINE
  5
E3
330
1F
100
AcDbEntity
  8
0
  6
Continuous
 62
     7
100
AcDbLine
 10
5303.2445305437
 20
5345.6994544977
 30
0.0
 11
5199.2445277422
 21
5345.6994544977
 31
0.0
  0
LINE
  5
E4
330
1F
100
AcDbEntity
  8
0
  6
Continuous
 62
     7
100
AcDbLine
 10
5199.2445277422
 20
5345.6994544977
 30
0.0
 11
5199.2445280701
 21
5347.6994544977
 31
0.0
  0
LINE
  5
E5
330
1F
100
AcDbEntity
  8
0
  6
Continuous
 62
     7
100
AcDbLine
 10
5199.2445280701
 20
5347.6994544977
 30
0.0
 11
5303.2445302158
 21
5347.6994544977
 31
0.0
  0
LINE
  5
E6
330
1F
100
AcDbEntity
  8
0
  6
Continuous
 62
     7
100
AcDbLine
 10
5268.748694092
 20
5327.4932546338
 30
0.0
 11
5268.7261952013
 21
5327.4990865758
 31
0.0
  0
LINE
  5
E7
330
1F
100
AcDbEntity
  8
0
  6
Continuous
 62
     7
100
AcDbLine
 10
5268.7261952013
 20
5327.4990865758
 30
0.0
 11
5268.7378609478
 21
5327.5682540407
 31
0.0
  0
LINE
  5
E8
330
1F
100
AcDbEntity
  8
0
  6
Continuous
 62
     7
100
AcDbLine
 10
5267.4470273703
 20
5327.3607535085
 30
0.0
 11
5267.4245284796
 21
5327.3665873131
 31
0.0
  0
LINE
  5
E9
330
1F
100
AcDbEntity
  8
0
  6
Continuous
 62
     7
100
AcDbLine
 10
5271.9153603464
 20
5327.0157543739
 30
0.0
 11
5271.9270279556
 21
5327.0040867647
 31
0.0
  0
LINE
  5
EA
330
1F
100
AcDbEntity
  8
0
  6
Continuous
 62
     7
100
AcDbLine
 10
5271.9270279556
 20
5327.0040867647
 30
0.0
 11
5271.921194151
 21
5326.9699202647
 31
0.0
  0
LINE
  5
EB
330
1F
100
AcDbEntity
  8
0
  6
Continuous
 62
     7
100
AcDbLine
 10
5285.1986950189
 20
5326.4990864118
 30
0.0
 11
5285.181193605
 21
5326.4932544699
 31
0.0
  0
LINE
  5
EC
330
1F
100
AcDbEntity
  8
0
  6
Continuous
 62
     7
100
AcDbLine
 10
5285.181193605
 20
5326.4932544699
 30
0.0
 11
5285.1636959165
 21
5326.4932544699
 31
0.0
  0
LINE
  5
ED
330
1F
100
AcDbEntity
  8
0
  6
Continuous
 62
     7
100
AcDbLine
 10
5284.749529317
 20
5328.0099207332
 30
0.0
 11
5284.7553593963
 21
5328.060754182
 31
0.0
  0
LINE
  5
EE
330
1F
100
AcDbEntity
  8
0
  6
Continuous
 62
     7
100
AcDbLine
 10
5285.4236951023
 20
5328.373253884
 30
0.0
 11
5285.0370285958
 21
5328.373253884
 31
0.0
  0
LINE
  5
EF
330
1F
100
AcDbEntity
  8
0
  6
Continuous
 62
     7
100
AcDbLine
 10
5284.4186937362
 20
5328.5174207559
 30
0.0
 11
5284.4186937362
 21
5328.5057531467
 31
0.0
  0
LINE
  5
F0
330
1F
100
AcDbEntity
  8
0
  6
Continuous
 62
     7
100
AcDbLine
 10
5284.1495266109
 20
5328.1065864285
 30
0.0
 11
5284.2545276433
 21
5328.1065864285
 31
0.0
  0
LINE
  5
F1
330
1F
100
AcDbEntity
  8
0
  6
Continuous
 62
     7
100
AcDbLine
 10
5261.4895272925
 20
5326.6649214348
 30
0.0
 11
5261.4895272925
 21
5326.6532538256
 31
0.0
  0
LINE
  5
F2
330
1F
100
AcDbEntity
  8
0
  6
Continuous
 62
     7
100
AcDbLine
 10
5268.4693699628
 20
5339.6846378019
 30
0.0
 11
5268.3705435991
 21
5339.6764701029
 31
0.0
  0
LINE
  5
F3
330
1F
100
AcDbEntity
  8
0
  6
Continuous
 62
     7
100
AcDbLine
 10
5268.3705435991
 20
5339.6764701029
 30
0.0
 11
5268.3070851415
 21
5339.6766237711
 31
0.0
  0
LINE
  5
F4
330
1F
100
AcDbEntity
  8
0
  6
Continuous
 62
     7
100
AcDbLine
 10
5266.4196146577
 20
5337.6081935858
 30
0.0
 11
5266.39644894
 21
5336.1759815162
 31
0.0
  0
LINE
  5
F5
330
1F
100
AcDbEntity
  8
0
  6
Continuous
 62
     7
100
AcDbLine
 10
5266.39644894
 20
5336.1759815162
 30
0.0
 11
5265.4679259211
 21
5336.1768467149
 31
0.0
  0
LINE
  5
F6
330
1F
100
AcDbEntity
  8
0
  6
Continuous
 62
     7
100
AcDbLine
 10
5265.4679259211
 20
5336.1768467149
 30
0.0
 11
5265.843304798
 21
5335.0357474556
 31
0.0
  0
LINE
  5
F7
330
1F
100
AcDbEntity
  8
0
  6
Continuous
 62
     7
100
AcDbLine
 10
5265.843304798
 20
5335.0357474556
 30
0.0
 11
5266.33862219
 21
5335.027522946
 31
0.0
  0
LINE
  5
F8
330
1F
100
AcDbEntity
  8
0
  6
Continuous
 62
     7
100
AcDbLine
 10
5266.33862219
 20
5335.027522946
 30
0.0
 11
5266.3353308961
 21
5331.3261778822
 31
0.0
  0
LINE
  5
F9
330
1F
100
AcDbEntity
  8
0
  6
Continuous
 62
     7
100
AcDbLine
 10
5266.3353308961
 20
5331.3261778822
 30
0.0
 11
5267.4275292009
 21
5331.3390431723
 31
0.0
  0
LINE
  5
FA
330
1F
100
AcDbEntity
  8
0
  6
Continuous
 62
     7
100
AcDbLine
 10
5267.4275292009
 20
5331.3390431723
 30
0.0
 11
5267.430751577
 21
5335.0121384283
 31
0.0
  0
LINE
  5
FB
330
1F
100
AcDbEntity
  8
0
  6
Continuous
 62
     7
100
AcDbLine
 10
5267.430751577
 20
5335.0121384283
 30
0.0
 11
5268.3677663952
 21
5335.0183494186
 31
0.0
  0
LINE
  5
FC
330
1F
100
AcDbEntity
  8
0
  6
Continuous
 62
     7
100
AcDbLine
 10
5268.3677663952
 20
5335.0183494186
 30
0.0
 11
5269.2314023077
 21
5335.0247382915
 31
0.0
  0
LINE
  5
FD
330
1F
100
AcDbEntity
  8
0
  6
Continuous
 62
     7
100
AcDbLine
 10
5269.2314023077
 20
5335.0247382915
 30
0.0
 11
5269.2139865756
 21
5331.323428618
 31
0.0
  0
LINE
  5
FE
330
1F
100
AcDbEntity
  8
0
  6
Continuous
 62
     7
100
AcDbLine
 10
5269.2139865756
 20
5331.323428618
 30
0.0
 11
5270.3344346881
 21
5331.3362249901
 31
0.0
  0
LINE
  5
FF
330
1F
100
AcDbEntity
  8
0
  6
Continuous
 62
     7
100
AcDbLine
 10
5270.3344346881
 20
5331.3362249901
 30
0.0
 11
5270.3541396111
 21
5337.7257451212
 31
0.0
  0
LINE
  5
100
330
1F
100
AcDbEntity
  8
0
  6
Continuous
 62
     7
100
AcDbLine
 10
5278.1511573046
 20
5335.0384706428
 30
0.0
 11
5278.1492276042
 21
5332.5281642174
 31
0.0
  0
LINE
  5
101
330
1F
100
AcDbEntity
  8
0
  6
Continuous
 62
     7
100
AcDbLine
 10
5280.6543325931
 20
5335.0225711038
 30
0.0
 11
5278.1511573046
 21
5335.0384706428
 31
0.0
  0
LINE
  5
102
330
1F
100
AcDbEntity
  8
0
  6
Continuous
 62
     7
100
AcDbLine
 10
5280.2650006413
 20
5336.20601015
 30
0.0
 11
5280.6543325931
 21
5335.0225711038
 31
0.0
  0
LINE
  5
103
330
1F
100
AcDbEntity
  8
0
  6
Continuous
 62
     7
100
AcDbLine
 10
5278.2300515026
 20
5336.2081000378
 30
0.0
 11
5280.2650006413
 21
5336.20601015
 31
0.0
  0
LINE
  5
104
330
1F
100
AcDbEntity
  8
0
  6
Continuous
 62
     7
100
AcDbLine
 10
5278.2323835343
 20
5338.3149137517
 30
0.0
 11
5278.2300515026
 21
5336.2081000378
 31
0.0
  0
LINE
  5
105
330
1F
100
AcDbEntity
  8
0
  6
Continuous
 62
     7
100
AcDbLine
 10
5280.3236944526
 20
5338.3126878908
 30
0.0
 11
5278.2323835343
 21
5338.3149137517
 31
0.0
  0
LINE
  5
106
330
1F
100
AcDbEntity
  8
0
  6
Continuous
 62
     7
100
AcDbLine
 10
5280.3250560462
 20
5339.5036576113
 30
0.0
 11
5280.3236944526
 21
5338.3126878908
 31
0.0
  0
LINE
  5
107
330
1F
100
AcDbEntity
  8
0
  6
Continuous
 62
     7
100
AcDbLine
 10
5277.1063679754
 20
5339.5057819581
 30
0.0
 11
5280.3250560462
 21
5339.5036576113
 31
0.0
  0
LINE
  5
108
330
1F
100
AcDbEntity
  8
0
  6
Continuous
 62
     7
100
AcDbLine
 10
5277.1040042788
 20
5336.188288944
 30
0.0
 11
5277.1063679754
 21
5339.5057819581
 31
0.0
  0
LINE
  5
109
330
1F
100
AcDbEntity
  8
0
  6
Continuous
 62
     7
100
AcDbLine
 10
5276.2093814015
 20
5336.1890032684
 30
0.0
 11
5277.1040042788
 21
5336.188288944
 31
0.0
  0
LINE
  5
10A
330
1F
100
AcDbEntity
  8
0
  6
Continuous
 62
     7
100
AcDbLine
 10
5276.2060956955
 20
5339.5065791702
 30
0.0
 11
5276.2093814015
 21
5336.1890032684
 31
0.0
  0
LINE
  5
10B
330
1F
100
AcDbEntity
  8
0
  6
Continuous
 62
     7
100
AcDbLine
 10
5275.9577045142
 20
5339.5071789419
 30
0.0
 11
5276.2060956955
 21
5339.5065791702
 31
0.0
  0
LINE
  5
10C
330
1F
100
AcDbEntity
  8
0
  6
Continuous
 62
     7
100
AcDbLine
 10
5274.9008173048
 20
5339.5082844218
 30
0.0
 11
5275.9577045142
 21
5339.5071789419
 31
0.0
  0
LINE
  5
10D
330
1F
100
AcDbEntity
  8
0
  6
Continuous
 62
     7
100
AcDbLine
 10
5274.8982543051
 20
5336.7072135007
 30
0.0
 11
5274.9008173048
 21
5339.5082844218
 31
0.0
  0
LINE
  5
10E
330
1F
100
AcDbEntity
  8
0
  6
Continuous
 62
     7
100
AcDbLine
 10
5271.2631868124
 20
5339.6172556823
 30
0.0
 11
5274.8982543051
 21
5336.7072135007
 31
0.0
  0
LINE
  5
10F
330
1F
100
AcDbEntity
  8
0
  6
Continuous
 62
     7
100
AcDbLine
 10
5271.2643528282
 20
5331.3142718544
 30
0.0
 11
5271.2631868124
 21
5339.6172556823
 31
0.0
  0
LINE
  5
110
330
1F
100
AcDbEntity
  8
0
  6
Continuous
 62
     7
100
AcDbLine
 10
5272.4327268004
 20
5331.3142755797
 30
0.0
 11
5271.2643528282
 21
5331.3142718544
 31
0.0
  0
LINE
  5
111
330
1F
100
AcDbEntity
  8
0
  6
Continuous
 62
     7
100
AcDbLine
 10
5272.4531972706
 20
5336.8796562573
 30
0.0
 11
5272.4327268004
 21
5331.3142755797
 31
0.0
  0
LINE
  5
112
330
1F
100
AcDbEntity
  8
0
  6
Continuous
 62
     7
100
AcDbLine
 10
5274.9181045145
 20
5334.9983241206
 30
0.0
 11
5272.4531972706
 21
5336.8796562573
 31
0.0
  0
LINE
  5
113
330
1F
100
AcDbEntity
  8
0
  6
Continuous
 62
     7
100
AcDbLine
 10
5274.914800182
 20
5331.2913296541
 30
0.0
 11
5274.9181045145
 21
5334.9983241206
 31
0.0
  0
LINE
  5
114
330
1F
100
AcDbEntity
  8
0
  6
Continuous
 62
     7
100
AcDbLine
 10
5275.949186638
 20
5331.3029562851
 30
0.0
 11
5274.914800182
 21
5331.2913296541
 31
0.0
  0
LINE
  5
115
330
1F
100
AcDbEntity
  8
0
  6
Continuous
 62
     7
100
AcDbLine
 10
5276.1778226048
 20
5331.310878115
 30
0.0
 11
5275.949186638
 21
5331.3029562851
 31
0.0
  0
LINE
  5
116
330
1F
100
AcDbEntity
  8
0
  6
Continuous
 62
     7
100
AcDbLine
 10
5276.1599784642
 20
5335.0193021616
 30
0.0
 11
5276.1778226048
 21
5331.310878115
 31
0.0
  0
LINE
  5
117
330
1F
100
AcDbEntity
  8
0
  6
Continuous
 62
     7
100
AcDbLine
 10
5277.1308058798
 20
5335.0184043666
 30
0.0
 11
5276.1599784642
 21
5335.0193021616
 31
0.0
  0
LINE
  5
118
330
1F
100
AcDbEntity
  8
0
  6
Continuous
 62
     7
100
AcDbLine
 10
5277.1275499761
 20
5331.3311846724
 30
0.0
 11
5277.1308058798
 21
5335.0184043666
 31
0.0
  0
LINE
  5
119
330
1F
100
AcDbEntity
  8
0
  6
Continuous
 62
     7
100
AcDbLine
 10
5280.2616236657
 20
5331.3278170099
 30
0.0
 11
5277.1275499761
 21
5331.3311846724
 31
0.0
  0
LINE
  5
11A
330
1F
100
AcDbEntity
  8
0
  6
Continuous
 62
     7
100
AcDbLine
 10
5280.2617652267
 20
5332.5272645598
 30
0.0
 11
5280.2616236657
 21
5331.3278170099
 31
0.0
  0
LINE
  5
11B
330
1F
100
AcDbEntity
  8
0
  6
Continuous
 62
     7
100
AcDbLine
 10
5278.1492276042
 20
5332.5281642174
 30
0.0
 11
5280.2617652267
 21
5332.5272645598
 31
0.0
  0
LINE
  5
11C
330
1F
100
AcDbEntity
  8
0
  6
Continuous
 62
     7
100
AcDbLine
 10
5287.3880034238
 20
5339.6460363438
 30
0.0
 11
5287.2314592749
 21
5339.6464144608
 31
0.0
  0
LINE
  5
11D
330
1F
100
AcDbEntity
  8
0
  6
Continuous
 62
     7
100
AcDbLine
 10
5285.3354951292
 20
5337.5710459223
 30
0.0
 11
5285.3137059062
 21
5336.1373837834
 31
0.0
  0
LINE
  5
11E
330
1F
100
AcDbEntity
  8
0
  6
Continuous
 62
     7
100
AcDbLine
 10
5285.3137059062
 20
5336.1373837834
 30
0.0
 11
5284.6053978354
 21
5336.139094623
 31
0.0
  0
LINE
  5
11F
330
1F
100
AcDbEntity
  8
0
  6
Continuous
 62
     7
100
AcDbLine
 10
5284.6053978354
 20
5336.139094623
 30
0.0
 11
5284.4064040035
 21
5336.1381279102
 31
0.0
  0
LINE
  5
120
330
1F
100
AcDbEntity
  8
0
  6
Continuous
 62
     7
100
AcDbLine
 10
5284.4064040035
 20
5336.1381279102
 30
0.0
 11
5284.6052860766
 21
5335.5224212428
 31
0.0
  0
LINE
  5
121
330
1F
100
AcDbEntity
  8
0
  6
Continuous
 62
     7
100
AcDbLine
 10
5284.6052860766
 20
5335.5224212428
 30
0.0
 11
5284.7733786255
 21
5334.9971189892
 31
0.0
  0
LINE
  5
122
330
1F
100
AcDbEntity
  8
0
  6
Continuous
 62
     7
100
AcDbLine
 10
5284.7733786255
 20
5334.9971189892
 30
0.0
 11
5285.2630456835
 21
5335.0170884078
 31
0.0
  0
LINE
  5
123
330
1F
100
AcDbEntity
  8
0
  6
Continuous
 62
     7
100
AcDbLine
 10
5285.2630456835
 20
5335.0170884078
 30
0.0
 11
5285.2526931017
 21
5331.3030140271
 31
0.0
  0
LINE
  5
124
330
1F
100
AcDbEntity
  8
0
  6
Continuous
 62
     7
100
AcDbLine
 10
5285.2526931017
 20
5331.3030140271
 30
0.0
 11
5286.3660110086
 21
5331.3017716428
 31
0.0
  0
LINE
  5
125
330
1F
100
AcDbEntity
  8
0
  6
Continuous
 62
     7
100
AcDbLine
 10
5286.3660110086
 20
5331.3017716428
 30
0.0
 11
5286.3833224326
 21
5334.9875794521
 31
0.0
  0
LINE
  5
126
330
1F
100
AcDbEntity
  8
0
  6
Continuous
 62
     7
100
AcDbLine
 10
5286.3833224326
 20
5334.9875794521
 30
0.0
 11
5287.2837325483
 21
5334.9867831713
 31
0.0
  0
LINE
  5
127
330
1F
100
AcDbEntity
  8
0
  6
Continuous
 62
     7
100
AcDbLine
 10
5287.2837325483
 20
5334.9867831713
 30
0.0
 11
5288.1487263292
 21
5334.9861405587
 31
0.0
  0
LINE
  5
128
330
1F
100
AcDbEntity
  8
0
  6
Continuous
 62
     7
100
AcDbLine
 10
5288.1487263292
 20
5334.9861405587
 30
0.0
 11
5288.1454741508
 21
5331.3002982905
 31
0.0
  0
LINE
  5
129
330
1F
100
AcDbEntity
  8
0
  6
Continuous
 62
     7
100
AcDbLine
 10
5288.1454741508
 20
5331.3002982905
 30
0.0
 11
5289.2728475779
 21
5331.2989534607
 31
0.0
  0
LINE
  5
12A
330
1F
100
AcDbEntity
  8
0
  6
Continuous
 62
     7
100
AcDbLine
 10
5289.2728475779
 20
5331.2989534607
 30
0.0
 11
5289.2995765358
 21
5337.687010484
 31
0.0
  0
LINE
  5
12B
330
1F
100
AcDbEntity
  8
0
  6
Continuous
 62
     7
100
AcDbLine
 10
5282.2834690958
 20
5332.3473702913
 30
0.0
 11
5284.6018960625
 21
5332.3516916281
 31
0.0
  0
LINE
  5
12C
330
1F
100
AcDbEntity
  8
0
  6
Continuous
 62
     7
100
AcDbLine
 10
5282.2964778095
 20
5339.5017204603
 30
0.0
 11
5282.2834690958
 21
5332.3473702913
 31
0.0
  0
LINE
  5
12D
330
1F
100
AcDbEntity
  8
0
  6
Continuous
 62
     7
100
AcDbLine
 10
5281.0843391269
 20
5339.4961735031
 30
0.0
 11
5282.2964778095
 21
5339.5017204603
 31
0.0
  0
LINE
  5
12E
330
1F
100
AcDbEntity
  8
0
  6
Continuous
 62
     7
100
AcDbLine
 10
5281.0911694467
 20
5331.313066723
 30
0.0
 11
5281.0843391269
 21
5339.4961735031
 31
0.0
  0
LINE
  5
12F
330
1F
100
AcDbEntity
  8
0
  6
Continuous
 62
     7
100
AcDbLine
 10
5284.600607112
 20
5331.3032114675
 30
0.0
 11
5281.0911694467
 21
5331.313066723
 31
0.0
  0
LINE
  5
130
330
1F
100
AcDbEntity
  8
0
  6
Continuous
 62
     7
100
AcDbLine
 10
5284.7911892384
 20
5331.3027513942
 30
0.0
 11
5284.600607112
 21
5331.3032114675
 31
0.0
  0
LINE
  5
131
330
1F
100
AcDbEntity
  8
0
  6
Continuous
 62
     7
100
AcDbLine
 10
5284.7993737012
 20
5332.3525931483
 30
0.0
 11
5284.7911892384
 21
5331.3027513942
 31
0.0
  0
LINE
  5
132
330
1F
100
AcDbEntity
  8
0
  6
Continuous
 62
     7
100
AcDbLine
 10
5284.6018960625
 20
5332.3516916281
 30
0.0
 11
5284.7993737012
 21
5332.3525931483
 31
0.0
  0
LINE
  5
133
330
1F
100
AcDbEntity
  8
0
  6
Continuous
 62
     7
100
AcDbLine
 10
5299.3229357451
 20
5342.7198692953
 30
0.0
 11
5299.3163196295
 21
5342.7198851278
 31
0.0
  0
LINE
  5
134
330
1F
100
AcDbEntity
  8
0
  6
Continuous
 62
     7
100
AcDbLine
 10
5299.3146246224
 20
5340.8760000748
 30
0.0
 11
5299.3215126842
 21
5340.875983311
 31
0.0
  0
LINE
  5
135
330
1F
100
AcDbEntity
  8
0
  6
Continuous
 62
     7
100
AcDbLine
 10
5295.7313647419
 20
5337.993591631
 30
0.0
 11
5295.7241823822
 21
5337.9864427989
 31
0.0
  0
LINE
  5
136
330
1F
100
AcDbEntity
  8
0
  6
Continuous
 62
     7
100
AcDbLine
 10
5295.5686701387
 20
5337.7867271921
 30
0.0
 11
5295.3626653105
 21
5337.9634074664
 31
0.0
  0
LINE
  5
137
330
1F
100
AcDbEntity
  8
0
  6
Continuous
 62
     7
100
AcDbLine
 10
5297.1617607325
 20
5338.672543483
 30
0.0
 11
5297.1808975488
 21
5338.6650556495
 31
0.0
  0
LINE
  5
138
330
1F
100
AcDbEntity
  8
0
  6
Continuous
 62
     7
100
AcDbLine
 10
5297.1808975488
 20
5338.6650556495
 30
0.0
 11
5297.1891527921
 21
5338.6607631838
 31
0.0
  0
LINE
  5
139
330
1F
100
AcDbEntity
  8
0
  6
Continuous
 62
     7
100
AcDbLine
 10
5297.1891527921
 20
5338.6607631838
 30
0.0
 11
5297.1967710107
 21
5338.6765928736
 31
0.0
  0
LINE
  5
13A
330
1F
100
AcDbEntity
  8
0
  6
Continuous
 62
     7
100
AcDbLine
 10
5294.0113684088
 20
5341.5619149601
 30
0.0
 11
5293.9686318785
 21
5341.5545766039
 31
0.0
  0
LINE
  5
13B
330
1F
100
AcDbEntity
  8
0
  6
Continuous
 62
     7
100
AcDbLine
 10
5293.3949893266
 20
5341.5124850145
 30
0.0
 11
5293.3377651423
 21
5341.5551358631
 31
0.0
  0
LINE
  5
13C
330
1F
100
AcDbEntity
  8
0
  6
Continuous
 62
     7
100
AcDbLine
 10
5290.5739722699
 20
5342.6994547045
 30
0.0
 11
5290.5739201158
 21
5342.6780952869
 31
0.0
  0
LINE
  5
13D
330
1F
100
AcDbEntity
  8
0
  6
Continuous
 62
     7
100
AcDbLine
 10
5290.5739201158
 20
5342.6780952869
 30
0.0
 11
5290.5735811144
 21
5342.3094005121
 31
0.0
  0
LINE
  5
13E
330
1F
100
AcDbEntity
  8
0
  6
Continuous
 62
     7
100
AcDbLine
 10
5290.8810255974
 20
5339.0019764921
 30
0.0
 11
5290.8428264707
 21
5338.9329599013
 31
0.0
  0
LINE
  5
13F
330
1F
100
AcDbEntity
  8
0
  6
Continuous
 62
     7
100
AcDbLine
 10
5290.9322781414
 20
5338.826428706
 30
0.0
 11
5290.962724939
 21
5338.8224277442
 31
0.0
  0
LINE
  5
140
330
1F
100
AcDbEntity
  8
0
  6
Continuous
 62
     7
100
AcDbLine
 10
5294.0011536628
 20
5330.3159443458
 30
0.0
 11
5294.079563573
 21
5330.3158921918
 31
0.0
  0
LINE
  5
141
330
1F
100
AcDbEntity
  8
0
  6
Continuous
 62
     7
100
AcDbLine
 10
5297.5642969757
 20
5334.1134205257
 30
0.0
 11
5297.5645540207
 21
5334.3334240636
 31
0.0
  0
LINE
  5
142
330
1F
100
AcDbEntity
  8
0
  6
Continuous
 62
     7
100
AcDbLine
 10
5199.2445277422
 20
5106.6994538775
 30
0.0
 11
5303.2445305437
 21
5106.6994538775
 31
0.0
  0
LINE
  5
143
330
1F
100
AcDbEntity
  8
0
  6
Continuous
 62
     7
100
AcDbLine
 10
5199.2445277422
 20
5345.6994544977
 30
0.0
 11
5199.2445277422
 21
5106.6994538775
 31
0.0
  0
LINE
  5
144
330
1F
100
AcDbEntity
  8
0
  6
Continuous
 62
     7
100
AcDbLine
 10
5260.6359850541
 20
5332.56481828
 30
0.0
 11
5263.0320517272
 21
5332.5632341003
 31
0.0
  0
LINE
  5
145
330
1F
100
AcDbEntity
  8
0
  6
Continuous
 62
     7
100
AcDbLine
 10
5260.6344353333
 20
5331.3244456222
 30
0.0
 11
5260.6359850541
 21
5332.56481828
 31
0.0
  0
LINE
  5
146
330
1F
100
AcDbEntity
  8
0
  6
Continuous
 62
     7
100
AcDbLine
 10
5263.1377139985
 20
5331.3226034662
 30
0.0
 11
5260.6344353333
 21
5331.3244456222
 31
0.0
  0
LINE
  5
147
330
1F
100
AcDbEntity
  8
0
  6
Continuous
 62
     7
100
AcDbLine
 10
5268.372139886
 20
5340.3368932923
 30
0.0
 11
5263.8114662766
 21
5340.3479094414
 31
0.0
  0
LINE
  5
148
330
1F
100
AcDbEntity
  8
0
  6
Continuous
 62
     7
100
AcDbLine
 10
5275.9582968354
 20
5340.3227716481
 30
0.0
 11
5268.372139886
 21
5340.3368932923
 31
0.0
  0
LINE
  5
149
330
1F
100
AcDbEntity
  8
0
  6
Continuous
 62
     7
100
AcDbLine
 10
5284.6084525734
 20
5340.3145550547
 30
0.0
 11
5275.9582968354
 21
5340.3227716481
 31
0.0
  0
LINE
  5
14A
330
1F
100
AcDbEntity
  8
0
  6
Continuous
 62
     7
100
AcDbLine
 10
5287.2895514518
 20
5340.3053223884
 30
0.0
 11
5284.6084525734
 21
5340.3145550547
 31
0.0
  0
LINE
  5
14B
330
1F
100
AcDbEntity
  8
0
  6
Continuous
 62
     7
100
AcDbLine
 10
5289.6997434944
 20
5340.3037037497
 30
0.0
 11
5287.2895514518
 21
5340.3053223884
 31
0.0
  0
LINE
  5
14C
330
1F
100
AcDbEntity
  8
0
  6
Continuous
 62
     7
100
AcDbLine
 10
5289.7011702806
 20
5341.5229232779
 30
0.0
 11
5289.6997434944
 21
5340.3037037497
 31
0.0
  0
LINE
  5
14D
330
1F
100
AcDbEntity
  8
0
  6
Continuous
 62
     7
100
AcDbLine
 10
5287.2894657701
 20
5341.5244767239
 30
0.0
 11
5289.7011702806
 21
5341.5229232779
 31
0.0
  0
LINE
  5
14E
330
1F
100
AcDbEntity
  8
0
  6
Continuous
 62
     7
100
AcDbLine
 10
5284.6098681837
 20
5341.5281242488
 30
0.0
 11
5287.2894657701
 21
5341.5244767239
 31
0.0
  0
LINE
  5
14F
330
1F
100
AcDbEntity
  8
0
  6
Continuous
 62
     7
100
AcDbLine
 10
5275.9597776383
 20
5341.5348940326
 30
0.0
 11
5284.6098681837
 21
5341.5281242488
 31
0.0
  0
LINE
  5
150
330
1F
100
AcDbEntity
  8
0
  6
Continuous
 62
     7
100
AcDbLine
 10
5268.3722088039
 20
5341.5348940326
 30
0.0
 11
5275.9597776383
 21
5341.5348940326
 31
0.0
  0
LINE
  5
151
330
1F
100
AcDbEntity
  8
0
  6
Continuous
 62
     7
100
AcDbLine
 10
5263.7282852009
 20
5341.5390835872
 30
0.0
 11
5268.3722088039
 21
5341.5348940326
 31
0.0
  0
LINE
  5
152
330
1F
100
AcDbEntity
  8
0
  6
Continuous
 62
     7
100
AcDbLine
 10
5282.955362454
 20
5327.0157543739
 30
0.0
 11
5282.967026338
 21
5327.0040867647
 31
0.0
  0
LINE
  5
153
330
1F
100
AcDbEntity
  8
0
  6
Continuous
 62
     7
100
AcDbLine
 10
5282.967026338
 20
5327.0040867647
 30
0.0
 11
5282.9611925334
 21
5326.9699202647
 31
0.0
  0
LINE
  5
154
330
1F
100
AcDbEntity
  8
0
  6
Continuous
 62
     7
100
AcDbLine
 10
5279.6228611767
 20
5326.6649214348
 30
0.0
 11
5279.6228611767
 21
5326.6532538256
 31
0.0
  0
LINE
  5
155
330
1F
100
AcDbEntity
  8
0
  6
Continuous
 62
     7
100
AcDbLine
 10
5303.2445302158
 20
5104.6994538775
 30
0.0
 11
5199.2445280701
 21
5104.6994538775
 31
0.0
  0
LINE
  5
156
330
1F
100
AcDbEntity
  8
0
  6
Continuous
 62
     7
100
AcDbLine
 10
5199.2445280701
 20
5104.6994538775
 30
0.0
 11
5199.2445277422
 21
5106.6994538775
 31
0.0
  0
LINE
  5
157
330
1F
100
AcDbEntity
  8
0
  6
Continuous
 62
     7
100
AcDbLine
 10
5299.5067117661
 20
5341.7268903723
 30
0.0
 11
5299.435964778
 21
5341.762752345
 31
0.0
  0
LINE
  5
158
330
1F
100
AcDbEntity
  8
0
  6
Continuous
 62
     7
100
AcDbLine
 10
5299.3726050406
 20
5342.2305440327
 30
0.0
 11
5299.3373265415
 21
5342.2306292487
 31
0.0
  0
LINE
  5
159
330
1F
100
AcDbEntity
  8
0
  6
Continuous
 62
     7
100
AcDbLine
 10
5299.3373265415
 20
5342.2306292487
 30
0.0
 11
5299.0039763897
 21
5342.2308834998
 31
0.0
  0
LINE
  5
15A
330
1F
100
AcDbEntity
  8
0
  6
Continuous
 62
     7
100
AcDbLine
 10
5299.0039763897
 20
5342.2308834998
 30
0.0
 11
5299.0033170134
 21
5341.3871788217
 31
0.0
  0
LINE
  5
15B
330
1F
100
AcDbEntity
  8
0
  6
Continuous
 62
     7
100
AcDbLine
 10
5299.0033170134
 20
5341.3871788217
 30
0.0
 11
5299.116316244
 21
5341.3870433142
 31
0.0
  0
LINE
  5
15C
330
1F
100
AcDbEntity
  8
0
  6
Continuous
 62
     7
100
AcDbLine
 10
5299.116316244
 20
5341.3870433142
 30
0.0
 11
5299.1166552454
 21
5341.7557376234
 31
0.0
  0
LINE
  5
15D
330
1F
100
AcDbEntity
  8
0
  6
Continuous
 62
     7
100
AcDbLine
 10
5299.1166552454
 20
5341.7557376234
 30
0.0
 11
5299.244399175
 21
5341.7555671913
 31
0.0
  0
LINE
  5
15E
330
1F
100
AcDbEntity
  8
0
  6
Continuous
 62
     7
100
AcDbLine
 10
5299.244399175
 20
5341.7555671913
 30
0.0
 11
5299.3010384887
 21
5341.7555681227
 31
0.0
  0
LINE
  5
15F
330
1F
100
AcDbEntity
  8
0
  6
Continuous
 62
     7
100
AcDbLine
 10
5299.3010384887
 20
5341.7555681227
 30
0.0
 11
5299.3366932422
 21
5341.7412192358
 31
0.0
  0
LINE
  5
160
330
1F
100
AcDbEntity
  8
0
  6
Continuous
 62
     7
100
AcDbLine
 10
5299.3366932422
 20
5341.7412192358
 30
0.0
 11
5299.350871697
 21
5341.7338813452
 31
0.0
  0
LINE
  5
161
330
1F
100
AcDbEntity
  8
0
  6
Continuous
 62
     7
100
AcDbLine
 10
5299.350871697
 20
5341.7338813452
 30
0.0
 11
5299.407373175
 21
5341.677314209
 31
0.0
  0
LINE
  5
162
330
1F
100
AcDbEntity
  8
0
  6
Continuous
 62
     7
100
AcDbLine
 10
5299.4923992008
 20
5341.563626731
 30
0.0
 11
5299.6057970375
 21
5341.3865501789
 31
0.0
  0
LINE
  5
163
330
1F
100
AcDbEntity
  8
0
  6
Continuous
 62
     7
100
AcDbLine
 10
5299.6057970375
 20
5341.3865501789
 30
0.0
 11
5299.7404290288
 21
5341.3863625174
 31
0.0
  0
LINE
  5
164
330
1F
100
AcDbEntity
  8
0
  6
Continuous
 62
     7
100
AcDbLine
 10
5299.7404290288
 20
5341.3863625174
 30
0.0
 11
5299.5987823158
 21
5341.62055848
 31
0.0
  0
LINE
  5
165
330
1F
100
AcDbEntity
  8
0
  6
Continuous
 62
     7
100
AcDbLine
 10
5299.3510244339
 20
5341.8546664325
 30
0.0
 11
5299.3368310779
 21
5341.8547004258
 31
0.0
  0
LINE
  5
166
330
1F
100
AcDbEntity
  8
0
  6
Continuous
 62
     7
100
AcDbLine
 10
5299.3368310779
 20
5341.8547004258
 30
0.0
 11
5299.1167595535
 21
5341.8549565395
 31
0.0
  0
LINE
  5
167
330
1F
100
AcDbEntity
  8
0
  6
Continuous
 62
     7
100
AcDbLine
 10
5299.1167595535
 20
5341.8549565395
 30
0.0
 11
5299.1170128733
 21
5342.1316669119
 31
0.0
  0
LINE
  5
168
330
1F
100
AcDbEntity
  8
0
  6
Continuous
 62
     7
100
AcDbLine
 10
5299.1170128733
 20
5342.1316669119
 30
0.0
 11
5299.3370843976
 21
5342.1314107982
 31
0.0
  0
LINE
  5
169
330
1F
100
AcDbEntity
  8
0
  6
Continuous
 62
     7
100
AcDbLine
 10
5299.3370843976
 20
5342.1314107982
 30
0.0
 11
5299.3795303553
 21
5342.1314461885
 31
0.0
  0
LINE
  5
16A
330
1F
100
AcDbEntity
  8
0
  6
Continuous
 62
     7
100
AcDbLine
 10
5299.5354225784
 20
5341.9182999788
 30
0.0
 11
5299.4716381579
 21
5341.8684998324
 31
0.0
  0
LINE
  5
16B
330
1F
100
AcDbEntity
  8
0
  6
Continuous
 62
     7
100
AcDbLine
 10
5299.5565598756
 20
5341.9967285154
 30
0.0
 11
5299.5354225784
 21
5341.9182999788
 31
0.0
  0
LINE
  5
16C
330
1F
100
AcDbEntity
  8
0
  6
Continuous
 62
     7
100
AcDbLine
 10
5295.3515676707
 20
5341.2411767786
 30
0.0
 11
5295.3163413256
 21
5341.262759248
 31
0.0
  0
LINE
  5
16D
330
1F
100
AcDbEntity
  8
0
  6
Continuous
 62
     7
100
AcDbLine
 10
5295.1957611292
 20
5341.3193436136
 30
0.0
 11
5295.1318724006
 21
5341.3406508772
 31
0.0
  0
LINE
  5
16E
330
1F
100
AcDbEntity
  8
0
  6
Continuous
 62
     7
100
AcDbLine
 10
5295.1318724006
 20
5341.3406508772
 30
0.0
 11
5295.1958132833
 21
5341.397478318
 31
0.0
  0
LINE
  5
16F
330
1F
100
AcDbEntity
  8
0
  6
Continuous
 62
     7
100
AcDbLine
 10
5295.3131673783
 20
5337.8948313912
 30
0.0
 11
5295.3184200376
 21
5337.9021916335
 31
0.0
  0
LINE
  5
170
330
1F
100
AcDbEntity
  8
0
  6
Continuous
 62
     7
100
AcDbLine
 10
5294.8980247527
 20
5333.4703208676
 30
0.0
 11
5294.9408655911
 21
5333.4637401422
 31
0.0
  0
LINE
  5
171
330
1F
100
AcDbEntity
  8
0
  6
Continuous
 62
     7
100
AcDbLine
 10
5290.9624529928
 20
5339.0534562787
 30
0.0
 11
5290.9581763595
 21
5339.0509174934
 31
0.0
  0
LINE
  5
172
330
1F
100
AcDbEntity
  8
0
  6
Continuous
 62
     7
100
AcDbLine
 10
5294.0099267214
 20
5339.938033445
 30
0.0
 11
5294.0952097922
 21
5339.9307993969
 31
0.0
  0
LINE
  5
173
330
1F
100
AcDbEntity
  8
0
  6
Continuous
 62
     7
100
AcDbLine
 10
5295.1949154883
 20
5340.3410046158
 30
0.0
 11
5295.2299853712
 21
5340.3693075089
 31
0.0
  0
LINE
  5
174
330
1F
100
AcDbEntity
  8
0
  6
Continuous
 62
     7
100
AcDbLine
 10
5294.087841168
 20
5339.7323792597
 30
0.0
 11
5294.0097069293
 21
5339.7324295511
 31
0.0
  0
LINE
  5
175
330
1F
100
AcDbEntity
  8
0
  6
Continuous
 62
     7
100
AcDbLine
 10
5294.2493325025
 20
5338.0725500902
 30
0.0
 11
5294.4126306027
 21
5338.0724318122
 31
0.0
  0
LINE
  5
176
330
1F
100
AcDbEntity
  8
0
  6
Continuous
 62
     7
100
AcDbLine
 10
5294.4127684384
 20
5338.2430333441
 30
0.0
 11
5294.0083136707
 21
5338.2433211228
 31
0.0
  0
LINE
  5
177
330
1F
100
AcDbEntity
  8
0
  6
Continuous
 62
     7
100
AcDbLine
 10
5294.0083136707
 20
5338.2433211228
 30
0.0
 11
5293.7605408877
 21
5338.2434375381
 31
0.0
  0
LINE
  5
178
330
1F
100
AcDbEntity
  8
0
  6
Continuous
 62
     7
100
AcDbLine
 10
5293.7604067772
 20
5338.0728360062
 30
0.0
 11
5293.9165374189
 21
5338.0727344921
 31
0.0
  0
LINE
  5
179
330
1F
100
AcDbEntity
  8
0
  6
Continuous
 62
     7
100
AcDbLine
 10
5293.9973128885
 20
5341.4483979141
 30
0.0
 11
5294.0113684088
 21
5341.4483639209
 31
0.0
  0
LINE
  5
17A
330
1F
100
AcDbEntity
  8
0
  6
Continuous
 62
     7
100
AcDbLine
 10
5295.2162353247
 20
5340.4967403768
 30
0.0
 11
5295.1949639171
 21
5340.4757767713
 31
0.0
  0
LINE
  5
17B
330
1F
100
AcDbEntity
  8
0
  6
Continuous
 62
     7
100
AcDbLine
 10
5294.0953290015
 20
5340.0373217447
 30
0.0
 11
5294.0100459307
 21
5340.044417957
 31
0.0
  0
LINE
  5
17C
330
1F
100
AcDbEntity
  8
0
  6
Continuous
 62
     7
100
AcDbLine
 10
5294.0112417489
 20
5333.2940755209
 30
0.0
 11
5294.0039550811
 21
5333.2442767715
 31
0.0
  0
LINE
  5
17D
330
1F
100
AcDbEntity
  8
0
  6
Continuous
 62
     7
100
AcDbLine
 10
5294.0076356679
 20
5337.5057257509
 30
0.0
 11
5294.0576402396
 21
5337.4989215081
 31
0.0
  0
LINE
  5
17E
330
1F
100
AcDbEntity
  8
0
  6
Continuous
 62
     7
100
AcDbLine
 10
5294.9457121938
 20
5339.0651257506
 30
0.0
 11
5294.9381349534
 21
5339.0650065413
 31
0.0
  0
LINE
  5
17F
330
1F
100
AcDbEntity
  8
0
  6
Continuous
 62
     7
100
AcDbLine
 10
5294.9384702295
 20
5339.547045136
 30
0.0
 11
5294.9460511952
 21
5339.5471643453
 31
0.0
  0
LINE
  5
180
330
1F
100
AcDbEntity
  8
0
  6
Continuous
 62
     7
100
AcDbLine
 10
5293.3349190205
 20
5330.507929044
 30
0.0
 11
5293.3279117495
 21
5330.5152492395
 31
0.0
  0
LINE
  5
181
330
1F
100
AcDbEntity
  8
0
  6
Continuous
 62
     7
100
AcDbLine
 10
5291.4299396723
 20
5340.2734795382
 30
0.0
 11
5291.3439338952
 21
5340.1530399715
 31
0.0
  0
LINE
  5
182
330
1F
100
AcDbEntity
  8
0
  6
Continuous
 62
     7
100
AcDbLine
 10
5288.2205946296
 20
5336.1571650749
 30
0.0
 11
5287.2850438505
 21
5336.1579781195
 31
0.0
  0
LINE
  5
183
330
1F
100
AcDbEntity
  8
0
  6
Continuous
 62
     7
100
AcDbLine
 10
5287.2850438505
 20
5336.1579781195
 30
0.0
 11
5286.3410888165
 21
5336.1588796398
 31
0.0
  0
LINE
  5
184
330
1F
100
AcDbEntity
  8
0
  6
Continuous
 62
     7
100
AcDbLine
 10
5286.3410888165
 20
5336.1588796398
 30
0.0
 11
5286.3420648426
 21
5336.5624375438
 31
0.0
  0
LINE
  5
185
330
1F
100
AcDbEntity
  8
0
  6
Continuous
 62
     7
100
AcDbLine
 10
5287.2088914662
 20
5338.5190233385
 30
0.0
 11
5287.2866121977
 21
5338.5188361427
 31
0.0
  0
LINE
  5
186
330
1F
100
AcDbEntity
  8
0
  6
Continuous
 62
     7
100
AcDbLine
 10
5287.2866121977
 20
5338.5188361427
 30
0.0
 11
5287.5842330903
 21
5338.5039917922
 31
0.0
  0
LINE
  5
187
330
1F
100
AcDbEntity
  8
0
  6
Continuous
 62
     7
100
AcDbLine
 10
5288.2216041833
 20
5336.5748474171
 30
0.0
 11
5288.2205946296
 21
5336.1571650749
 31
0.0
  0
LINE
  5
188
330
1F
100
AcDbEntity
  8
0
  6
Continuous
 62
     7
100
AcDbLine
 10
5269.3043472171
 20
5336.6134451499
 30
0.0
 11
5269.2963080406
 21
5336.1944021454
 31
0.0
  0
LINE
  5
189
330
1F
100
AcDbEntity
  8
0
  6
Continuous
 62
     7
100
AcDbLine
 10
5269.2963080406
 20
5336.1944021454
 30
0.0
 11
5268.3677850216
 21
5336.1951974949
 31
0.0
  0
LINE
  5
18A
330
1F
100
AcDbEntity
  8
0
  6
Continuous
 62
     7
100
AcDbLine
 10
5268.3677850216
 20
5336.1951974949
 30
0.0
 11
5267.4252064824
 21
5336.1960962212
 31
0.0
  0
LINE
  5
18B
330
1F
100
AcDbEntity
  8
0
  6
Continuous
 62
     7
100
AcDbLine
 10
5267.4252064824
 20
5336.1960962212
 30
0.0
 11
5267.4247370958
 21
5336.6011041945
 31
0.0
  0
LINE
  5
18C
330
1F
100
AcDbEntity
  8
0
  6
Continuous
 62
     7
100
AcDbLine
 10
5268.3057608008
 20
5338.5575875437
 30
0.0
 11
5268.3706479072
 21
5338.5504033213
 31
0.0
  0
LINE
  5
18D
330
1F
100
AcDbEntity
  8
0
  6
Continuous
 62
     7
100
AcDbLine
 10
5268.3706479072
 20
5338.5504033213
 30
0.0
 11
5268.6669612229
 21
5338.5355617648
 31
0.0
  0
LINE
  5
18E
330
1F
100
AcDbEntity
  8
0
  6
Continuous
 62
     7
100
AcDbLine
 10
5199.2445277422
 20
5106.6994538775
 30
0.0
 11
5197.2445277422
 21
5106.6994579306
 31
0.0
  0
LINE
  5
18F
330
1F
100
AcDbEntity
  8
0
  6
Continuous
 62
     7
100
AcDbLine
 10
5197.2445277422
 20
5106.6994579306
 30
0.0
 11
5197.2445277422
 21
5345.6994544977
 31
0.0
  0
LINE
  5
190
330
1F
100
AcDbEntity
  8
0
  6
Continuous
 62
     7
100
AcDbLine
 10
5199.2445277422
 20
5345.6994544977
 30
0.0
 11
5197.2445277422
 21
5345.6994544977
 31
0.0
  0
LINE
  5
191
330
1F
100
AcDbEntity
  8
0
  6
Continuous
 62
     7
100
AcDbLine
 10
5303.2445302158
 20
5103.5049320927
 30
0.0
 11
5303.6347096711
 21
5103.5204143992
 31
0.0
  0
LINE
  5
192
330
1F
100
AcDbEntity
  8
0
  6
Continuous
 62
     7
100
AcDbLine
 10
5303.6347096711
 20
5103.5204143992
 30
0.0
 11
5304.0098948329
 21
5103.566250371
 31
0.0
  0
LINE
  5
193
330
1F
100
AcDbEntity
  8
0
  6
Continuous
 62
     7
100
AcDbLine
 10
5304.0098948329
 20
5103.566250371
 30
0.0
 11
5304.3556688279
 21
5103.6406816712
 31
0.0
  0
LINE
  5
194
330
1F
100
AcDbEntity
  8
0
  6
Continuous
 62
     7
100
AcDbLine
 10
5304.3556688279
 20
5103.6406816712
 30
0.0
 11
5304.6587435454
 21
5103.7408472767
 31
0.0
  0
LINE
  5
195
330
1F
100
AcDbEntity
  8
0
  6
Continuous
 62
     7
100
AcDbLine
 10
5304.6587435454
 20
5103.7408472767
 30
0.0
 11
5304.9074700027
 21
5103.862902688
 31
0.0
  0
LINE
  5
196
330
1F
100
AcDbEntity
  8
0
  6
Continuous
 62
     7
100
AcDbLine
 10
5304.9074700027
 20
5103.862902688
 30
0.0
 11
5305.092289105
 21
5104.0021689406
 31
0.0
  0
LINE
  5
197
330
1F
100
AcDbEntity
  8
0
  6
Continuous
 62
     7
100
AcDbLine
 10
5305.092289105
 20
5104.0021689406
 30
0.0
 11
5305.2061004489
 21
5104.1532667151
 31
0.0
  0
LINE
  5
198
330
1F
100
AcDbEntity
  8
0
  6
Continuous
 62
     7
100
AcDbLine
 10
5305.2061004489
 20
5104.1532667151
 30
0.0
 11
5305.2445305437
 21
5104.310414361
 31
0.0
  0
LINE
  5
199
330
1F
100
AcDbEntity
  8
0
  6
Continuous
 62
     7
100
AcDbLine
 10
5303.2445302158
 20
5103.5049320927
 30
0.0
 11
5303.2445302158
 21
5104.6994538775
 31
0.0
  0
LINE
  5
19A
330
1F
100
AcDbEntity
  8
0
  6
Continuous
 62
     7
100
AcDbLine
 10
5305.2445305437
 20
5104.310414361
 30
0.0
 11
5305.2445305437
 21
5106.6994579306
 31
0.0
  0
LINE
  5
19B
330
1F
100
AcDbEntity
  8
0
  6
Continuous
 62
     7
100
AcDbLine
 10
5199.2445280701
 20
5103.5049320927
 30
0.0
 11
5199.2445280701
 21
5104.6994538775
 31
0.0
  0
LINE
  5
19C
330
1F
100
AcDbEntity
  8
0
  6
Continuous
 62
     7
100
AcDbLine
 10
5199.2445280701
 20
5103.5049320927
 30
0.0
 11
5198.8543486148
 21
5103.5204143992
 31
0.0
  0
LINE
  5
19D
330
1F
100
AcDbEntity
  8
0
  6
Continuous
 62
     7
100
AcDbLine
 10
5198.8543486148
 20
5103.5204143992
 30
0.0
 11
5198.479163453
 21
5103.566250371
 31
0.0
  0
LINE
  5
19E
330
1F
100
AcDbEntity
  8
0
  6
Continuous
 62
     7
100
AcDbLine
 10
5198.479163453
 20
5103.566250371
 30
0.0
 11
5198.133389458
 21
5103.6406816712
 31
0.0
  0
LINE
  5
19F
330
1F
100
AcDbEntity
  8
0
  6
Continuous
 62
     7
100
AcDbLine
 10
5198.133389458
 20
5103.6406816712
 30
0.0
 11
5197.8303147405
 21
5103.7408472767
 31
0.0
  0
LINE
  5
1A0
330
1F
100
AcDbEntity
  8
0
  6
Continuous
 62
     7
100
AcDbLine
 10
5197.8303147405
 20
5103.7408472767
 30
0.0
 11
5197.5815882832
 21
5103.862902688
 31
0.0
  0
LINE
  5
1A1
330
1F
100
AcDbEntity
  8
0
  6
Continuous
 62
     7
100
AcDbLine
 10
5197.5815882832
 20
5103.862902688
 30
0.0
 11
5197.3967691809
 21
5104.0021689406
 31
0.0
  0
LINE
  5
1A2
330
1F
100
AcDbEntity
  8
0
  6
Continuous
 62
     7
100
AcDbLine
 10
5197.3967691809
 20
5104.0021689406
 30
0.0
 11
5197.282957837
 21
5104.1532667151
 31
0.0
  0
LINE
  5
1A3
330
1F
100
AcDbEntity
  8
0
  6
Continuous
 62
     7
100
AcDbLine
 10
5197.282957837
 20
5104.1532667151
 30
0.0
 11
5197.2445277422
 21
5104.310414361
 31
0.0
  0
LINE
  5
1A4
330
1F
100
AcDbEntity
  8
0
  6
Continuous
 62
     7
100
AcDbLine
 10
5197.2445277422
 20
5106.6994579306
 30
0.0
 11
5197.2445277422
 21
5104.310414361
 31
0.0
  0
LINE
  5
1A5
330
1F
100
AcDbEntity
  8
0
  6
Continuous
 62
     7
100
AcDbLine
 10
5304.2445285171
 20
5079.699447917
 30
0.0
 11
5304.2445285171
 21
5080.3647847643
 31
0.0
  0
LINE
  5
1A6
330
1F
100
AcDbEntity
  8
0
  6
Continuous
 62
     7
100
AcDbLine
 10
5303.7445275038
 20
5079.8571320048
 30
0.0
 11
5303.7445275038
 21
5082.1298869124
 31
0.0
  0
LINE
  5
1A7
330
1F
100
AcDbEntity
  8
0
  6
Continuous
 62
     7
100
AcDbLine
 10
5303.244529143
 20
5081.9721818654
 30
0.0
 11
5303.2445302158
 21
5103.5049320927
 31
0.0
  0
LINE
  5
1A8
330
1F
100
AcDbEntity
  8
0
  6
Continuous
 62
     7
100
AcDbLine
 10
5305.2445305437
 20
5079.699447917
 30
0.0
 11
5304.2445285171
 21
5079.699447917
 31
0.0
  0
LINE
  5
1A9
330
1F
100
AcDbEntity
  8
0
  6
Continuous
 62
     7
100
AcDbLine
 10
5305.2445305437
 20
5104.310414361
 30
0.0
 11
5305.2445305437
 21
5079.699447917
 31
0.0
  0
LINE
  5
1AA
330
1F
100
AcDbEntity
  8
0
  6
Continuous
 62
     7
100
AcDbLine
 10
5199.244529143
 20
5081.9721818654
 30
0.0
 11
5303.244529143
 21
5081.9721818654
 31
0.0
  0
LINE
  5
1AB
330
1F
100
AcDbEntity
  8
0
  6
Continuous
 62
     7
100
AcDbLine
 10
5199.2445280701
 20
5103.5049320927
 30
0.0
 11
5199.244529143
 21
5081.9721818654
 31
0.0
  0
LINE
  5
1AC
330
1F
100
AcDbEntity
  8
0
  6
Continuous
 62
     7
100
AcDbLine
 10
5198.7445307821
 20
5082.1298869124
 30
0.0
 11
5198.7445307821
 21
5079.8571320048
 31
0.0
  0
LINE
  5
1AD
330
1F
100
AcDbEntity
  8
0
  6
Continuous
 62
     7
100
AcDbLine
 10
5198.2445297688
 20
5080.3647847643
 30
0.0
 11
5198.2445297688
 21
5079.699447917
 31
0.0
  0
LINE
  5
1AE
330
1F
100
AcDbEntity
  8
0
  6
Continuous
 62
     7
100
AcDbLine
 10
5198.2445297688
 20
5079.699447917
 30
0.0
 11
5197.2445277422
 21
5079.699447917
 31
0.0
  0
LINE
  5
1AF
330
1F
100
AcDbEntity
  8
0
  6
Continuous
 62
     7
100
AcDbLine
 10
5197.2445277422
 20
5079.699447917
 30
0.0
 11
5197.2445277422
 21
5104.310414361
 31
0.0
  0
LINE
  5
1B0
330
1F
100
AcDbEntity
  8
0
  6
Continuous
 62
     7
100
AcDbLine
 10
5303.7445275038
 20
5080.6994648447
 30
0.0
 11
5198.7445307821
 21
5080.6994648447
 31
0.0
  0
LINE
  5
1B1
330
1F
100
AcDbEntity
  8
0
  6
Continuous
 62
     7
100
AcDbLine
 10
5248.2445291169
 20
5098.6994566193
 30
0.0
 11
5254.244529169
 21
5098.6994566193
 31
0.0
  0
LINE
  5
1B2
330
1F
100
AcDbEntity
  8
0
  6
Continuous
 62
     7
100
AcDbLine
 10
5303.2445302158
 20
5103.5049320927
 30
0.0
 11
5254.244529169
 21
5103.5049320927
 31
0.0
  0
LINE
  5
1B3
330
1F
100
AcDbEntity
  8
0
  6
Continuous
 62
     7
100
AcDbLine
 10
5248.2445291169
 20
5103.5049320927
 30
0.0
 11
5199.2445280701
 21
5103.5049320927
 31
0.0
  0
LINE
  5
1B4
330
1F
100
AcDbEntity
  8
0
  6
Continuous
 62
     7
100
AcDbLine
 10
5300.2445278615
 20
4756.7274767152
 30
0.0
 11
5300.2445278615
 21
4756.7399767149
 31
0.0
  0
LINE
  5
1B5
330
1F
100
AcDbEntity
  8
0
  6
Continuous
 62
     7
100
AcDbLine
 10
5297.5186100155
 20
4756.7274767152
 30
0.0
 11
5297.5186100155
 21
4756.7399767149
 31
0.0
  0
LINE
  5
1B6
330
1F
100
AcDbEntity
  8
0
  6
Continuous
 62
     7
100
AcDbLine
 10
5300.1381447464
 20
4756.7274767152
 30
0.0
 11
5300.1381447464
 21
4756.7399767149
 31
0.0
  0
LINE
  5
1B7
330
1F
100
AcDbEntity
  8
0
  6
Continuous
 62
     7
100
AcDbLine
 10
5290.6883461326
 20
4756.7399767149
 30
0.0
 11
5290.6883461326
 21
4756.7274767152
 31
0.0
  0
LINE
  5
1B8
330
1F
100
AcDbEntity
  8
0
  6
Continuous
 62
     7
100
AcDbLine
 10
5290.8821767121
 20
4756.7399767149
 30
0.0
 11
5290.8821767121
 21
4756.7274767152
 31
0.0
  0
LINE
  5
1B9
330
1F
100
AcDbEntity
  8
0
  6
Continuous
 62
     7
100
AcDbLine
 10
5298.4004383832
 20
4756.7399767149
 30
0.0
 11
5298.4004383832
 21
4756.7274767152
 31
0.0
  0
LINE
  5
1BA
330
1F
100
AcDbEntity
  8
0
  6
Continuous
 62
     7
100
AcDbLine
 10
5298.507510677
 20
4756.7399767149
 30
0.0
 11
5298.507510677
 21
4756.7274767152
 31
0.0
  0
LINE
  5
1BB
330
1F
100
AcDbEntity
  8
0
  6
Continuous
 62
     7
100
AcDbLine
 10
5270.354581058
 20
4756.7274767152
 30
0.0
 11
5270.354581058
 21
4756.7399767149
 31
0.0
  0
LINE
  5
1BC
330
1F
100
AcDbEntity
  8
0
  6
Continuous
 62
     7
100
AcDbLine
 10
5289.3000086695
 20
4756.7274767152
 30
0.0
 11
5289.3000086695
 21
4756.7399767149
 31
0.0
  0
LINE
  5
1BD
330
1F
100
AcDbEntity
  8
0
  6
Continuous
 62
     7
100
AcDbLine
 10
5295.1795970946
 20
4756.7274767152
 30
0.0
 11
5295.1795970946
 21
4756.7399767149
 31
0.0
  0
LINE
  5
1BE
330
1F
100
AcDbEntity
  8
0
  6
Continuous
 62
     7
100
AcDbLine
 10
5293.5768021196
 20
4756.7274767152
 30
0.0
 11
5293.5768021196
 21
4756.7399767149
 31
0.0
  0
LINE
  5
1BF
330
1F
100
AcDbEntity
  8
0
  6
Continuous
 62
     7
100
AcDbLine
 10
5294.704037711
 20
4756.7399767149
 30
0.0
 11
5294.704037711
 21
4756.7274767152
 31
0.0
  0
LINE
  5
1C0
330
1F
100
AcDbEntity
  8
0
  6
Continuous
 62
     7
100
AcDbLine
 10
5261.0621182173
 20
4756.7399767149
 30
0.0
 11
5261.0621182173
 21
4756.7274767152
 31
0.0
  0
LINE
  5
1C1
330
1F
100
AcDbEntity
  8
0
  6
Continuous
 62
     7
100
AcDbLine
 10
5262.3573150411
 20
4756.7399767149
 30
0.0
 11
5262.3573150411
 21
4756.7274767152
 31
0.0
  0
LINE
  5
1C2
330
1F
100
AcDbEntity
  8
0
  6
Continuous
 62
     7
100
AcDbLine
 10
5297.1866680234
 20
4756.7274767152
 30
0.0
 11
5297.1866680234
 21
4756.7399767149
 31
0.0
  0
LINE
  5
1C3
330
1F
100
AcDbEntity
  8
0
  6
Continuous
 62
     7
100
AcDbLine
 10
5267.424116835
 20
4756.7399767149
 30
0.0
 11
5267.424116835
 21
4756.7274767152
 31
0.0
  0
LINE
  5
1C4
330
1F
100
AcDbEntity
  8
0
  6
Continuous
 62
     7
100
AcDbLine
 10
5292.6732292324
 20
4756.7274767152
 30
0.0
 11
5292.6732292324
 21
4756.7399767149
 31
0.0
  0
LINE
  5
1C5
330
1F
100
AcDbEntity
  8
0
  6
Continuous
 62
     7
100
AcDbLine
 10
5288.2216190845
 20
4756.7274767152
 30
0.0
 11
5288.2216190845
 21
4756.7399767149
 31
0.0
  0
LINE
  5
1C6
330
1F
100
AcDbEntity
  8
0
  6
Continuous
 62
     7
100
AcDbLine
 10
5294.4675041288
 20
4756.7399767149
 30
0.0
 11
5294.4675041288
 21
4756.7274767152
 31
0.0
  0
LINE
  5
1C7
330
1F
100
AcDbEntity
  8
0
  6
Continuous
 62
     7
100
AcDbLine
 10
5294.5665633231
 20
4756.7399767149
 30
0.0
 11
5294.5665633231
 21
4756.7274767152
 31
0.0
  0
LINE
  5
1C8
330
1F
100
AcDbEntity
  8
0
  6
Continuous
 62
     7
100
AcDbLine
 10
5264.140293926
 20
4756.7274767152
 30
0.0
 11
5264.140293926
 21
4756.7399767149
 31
0.0
  0
LINE
  5
1C9
330
1F
100
AcDbEntity
  8
0
  6
Continuous
 62
     7
100
AcDbLine
 10
5265.4333552271
 20
4756.7274767152
 30
0.0
 11
5265.4333552271
 21
4756.7399767149
 31
0.0
  0
LINE
  5
1CA
330
1F
100
AcDbEntity
  8
0
  6
Continuous
 62
     7
100
AcDbLine
 10
5294.8070121854
 20
4756.7399767149
 30
0.0
 11
5294.8070121854
 21
4756.7274767152
 31
0.0
  0
LINE
  5
1CB
330
1F
100
AcDbEntity
  8
0
  6
Continuous
 62
     7
100
AcDbLine
 10
5291.323604986
 20
4756.7399767149
 30
0.0
 11
5291.323604986
 21
4756.7274767152
 31
0.0
  0
LINE
  5
1CC
330
1F
100
AcDbEntity
  8
0
  6
Continuous
 62
     7
100
AcDbLine
 10
5293.3336226195
 20
4756.7399767149
 30
0.0
 11
5293.3336226195
 21
4756.7274767152
 31
0.0
  0
LINE
  5
1CD
330
1F
100
AcDbEntity
  8
0
  6
Continuous
 62
     7
100
AcDbLine
 10
5293.3640135377
 20
4756.7274767152
 30
0.0
 11
5293.3640135377
 21
4756.7399767149
 31
0.0
  0
LINE
  5
1CE
330
1F
100
AcDbEntity
  8
0
  6
Continuous
 62
     7
100
AcDbLine
 10
5291.1614729017
 20
4756.7399767149
 30
0.0
 11
5291.1614729017
 21
4756.7274767152
 31
0.0
  0
LINE
  5
1CF
330
1F
100
AcDbEntity
  8
0
  6
Continuous
 62
     7
100
AcDbLine
 10
5294.0014107078
 20
4756.7399767149
 30
0.0
 11
5294.0014107078
 21
4756.7274767152
 31
0.0
  0
LINE
  5
1D0
330
1F
100
AcDbEntity
  8
0
  6
Continuous
 62
     7
100
AcDbLine
 10
5294.0730517655
 20
4756.7274767152
 30
0.0
 11
5294.0730517655
 21
4756.7399767149
 31
0.0
  0
LINE
  5
1D1
330
1F
100
AcDbEntity
  8
0
  6
Continuous
 62
     7
100
AcDbLine
 10
5293.9520990401
 20
4756.7274767152
 30
0.0
 11
5293.9520990401
 21
4756.7399767149
 31
0.0
  0
LINE
  5
1D2
330
1F
100
AcDbEntity
  8
0
  6
Continuous
 62
     7
100
AcDbLine
 10
5293.9060805291
 20
4756.7399767149
 30
0.0
 11
5293.9060805291
 21
4756.7274767152
 31
0.0
  0
LINE
  5
1D3
330
1F
100
AcDbEntity
  8
0
  6
Continuous
 62
     7
100
AcDbLine
 10
5208.7445286959
 20
4756.7399767149
 30
0.0
 11
5208.7445286959
 21
4755.2399767019
 31
0.0
  0
LINE
  5
1D4
330
1F
100
AcDbEntity
  8
0
  6
Continuous
 62
     7
100
AcDbLine
 10
5213.7445276528
 20
4755.2399767019
 30
0.0
 11
5213.7445276528
 21
4756.7399767149
 31
0.0
  0
LINE
  5
1D5
330
1F
100
AcDbEntity
  8
0
  6
Continuous
 62
     7
100
AcDbLine
 10
5303.2445305437
 20
4758.7399768099
 30
0.0
 11
5303.2445305437
 21
4864.7399795164
 31
0.0
  0
LINE
  5
1D6
330
1F
100
AcDbEntity
  8
0
  6
Continuous
 62
     7
100
AcDbLine
 10
5303.2445305437
 20
4864.7399795164
 30
0.0
 11
5305.2445305437
 21
4864.7399795164
 31
0.0
  0
LINE
  5
1D7
330
1F
100
AcDbEntity
  8
0
  6
Continuous
 62
     7
100
AcDbLine
 10
5305.2445305437
 20
4864.7399795164
 30
0.0
 11
5305.2445305437
 21
4758.7399768099
 31
0.0
  0
LINE
  5
1D8
330
1F
100
AcDbEntity
  8
0
  6
Continuous
 62
     7
100
AcDbLine
 10
5305.2445305437
 20
4758.7399768099
 30
0.0
 11
5303.2445305437
 21
4758.7399768099
 31
0.0
  0
LINE
  5
1D9
330
1F
100
AcDbEntity
  8
0
  6
Continuous
 62
     7
100
AcDbLine
 10
5199.2445277422
 20
4864.7399795164
 30
0.0
 11
5199.2445277422
 21
4758.7399768099
 31
0.0
  0
LINE
  5
1DA
330
1F
100
AcDbEntity
  8
0
  6
Continuous
 62
     7
100
AcDbLine
 10
5199.2445277422
 20
4758.7399768099
 30
0.0
 11
5197.2445277422
 21
4758.7399768099
 31
0.0
  0
LINE
  5
1DB
330
1F
100
AcDbEntity
  8
0
  6
Continuous
 62
     7
100
AcDbLine
 10
5197.2445277422
 20
4758.7399768099
 30
0.0
 11
5197.2445277422
 21
4864.7399795164
 31
0.0
  0
LINE
  5
1DC
330
1F
100
AcDbEntity
  8
0
  6
Continuous
 62
     7
100
AcDbLine
 10
5197.2445277422
 20
4864.7399795164
 30
0.0
 11
5199.2445277422
 21
4864.7399795164
 31
0.0
  0
LINE
  5
1DD
330
1F
100
AcDbEntity
  8
0
  6
Continuous
 62
     7
100
AcDbLine
 10
5199.2445277422
 20
4758.7399768099
 30
0.0
 11
5303.2445305437
 21
4758.7399768099
 31
0.0
  0
LINE
  5
1DE
330
1F
100
AcDbEntity
  8
0
  6
Continuous
 62
     7
100
AcDbLine
 10
5199.2445277422
 20
4864.7399795164
 30
0.0
 11
5303.2445305437
 21
4864.7399795164
 31
0.0
  0
LINE
  5
1DF
330
1F
100
AcDbEntity
  8
0
  6
Continuous
 62
     7
100
AcDbLine
 10
5303.2445302158
 20
4756.7399768099
 30
0.0
 11
5303.2445305437
 21
4758.7399768099
 31
0.0
  0
LINE
  5
1E0
330
1F
100
AcDbEntity
  8
0
  6
Continuous
 62
     7
100
AcDbLine
 10
5303.2445302158
 20
4756.7399768099
 30
0.0
 11
5199.2445280701
 21
4756.7399768099
 31
0.0
  0
LINE
  5
1E1
330
1F
100
AcDbEntity
  8
0
  6
Continuous
 62
     7
100
AcDbLine
 10
5199.2445280701
 20
4756.7399768099
 30
0.0
 11
5199.2445277422
 21
4758.7399768099
 31
0.0
  0
LINE
  5
1E2
330
1F
100
AcDbEntity
  8
0
  6
Continuous
 62
     7
100
AcDbLine
 10
5231.2453826815
 20
4755.7399766674
 30
0.0
 11
5271.2195767015
 21
4755.7399766674
 31
0.0
  0
LINE
  5
1E3
330
1F
100
AcDbEntity
  8
0
  6
Continuous
 62
     7
100
AcDbLine
 10
5213.2445303648
 20
4754.7399766199
 30
0.0
 11
5209.2445297092
 21
4754.7399766199
 31
0.0
  0
LINE
  5
1E4
330
1F
100
AcDbEntity
  8
0
  6
Continuous
 62
     7
100
AcDbLine
 10
5194.7389347404
 20
4856.9726002324
 30
0.0
 11
5194.9094152003
 21
4856.9726002324
 31
0.0
  0
LINE
  5
1E5
330
1F
100
AcDbEntity
  8
0
  6
Continuous
 62
     7
100
AcDbLine
 10
5307.7507680207
 20
4856.9726002324
 30
0.0
 11
5307.5796430856
 21
4856.9726002324
 31
0.0
  0
LINE
  5
1E6
330
1F
100
AcDbEntity
  8
0
  6
Continuous
 62
     7
100
AcDbLine
 10
5208.7445286959
 20
4755.2399767019
 30
0.0
 11
5213.7445276528
 21
4755.2399767019
 31
0.0
  0
LWPOLYLINE
  5
1E7
330
1F
100
AcDbEntity
  8
0
  6
Continuous
 62
     7
100
AcDbPolyline
 90
        3
 70
   128
 43
0.0
 10
5528.8391113281
 20
5090.9495311686
 10
5528.8420556956
 20
5089.542497679
 10
5528.8420556956
 20
5088.4493780168
  0
LWPOLYLINE
  5
1E8
330
1F
100
AcDbEntity
  8
0
  6
Continuous
 62
     7
100
AcDbPolyline
 90
        3
 70
   128
 43
0.0
 10
5526.6761779785
 20
5092.1996077445
 10
5527.8880865751
 20
5091.5003054972
 10
5528.8420556956
 20
5090.9495311686
  0
LWPOLYLINE
  5
1E9
330
1F
100
AcDbEntity
  8
0
  6
Continuous
 62
     7
100
AcDbPolyline
 90
        3
 70
   128
 43
0.0
 10
5524.5094299316
 20
5090.9495311686
 10
5525.7224355617
 20
5091.6485707963
 10
5526.6768595528
 20
5092.1996077445
  0
LWPOLYLINE
  5
1EA
330
1F
100
AcDbEntity
  8
0
  6
Continuous
 62
     7
100
AcDbPolyline
 90
        3
 70
   128
 43
0.0
 10
5524.5094299316
 20
5088.4493780168
 10
5524.51166341
 20
5089.8563820836
 10
5524.51166341
 20
5090.9495311686
  0
LWPOLYLINE
  5
1EB
330
1F
100
AcDbEntity
  8
0
  6
Continuous
 62
     7
100
AcDbPolyline
 90
        3
 70
   128
 43
0.0
 10
5526.6761779785
 20
5087.1993014409
 10
5525.4618177291
 20
5087.900806165
 10
5524.51166341
 20
5088.4493780168
  0
LWPOLYLINE
  5
1EC
330
1F
100
AcDbEntity
  8
0
  6
Continuous
 62
     7
100
AcDbPolyline
 90
        3
 70
   128
 43
0.0
 10
5528.8391113281
 20
5088.4493780168
 10
5527.6264372888
 20
5087.7475404024
 10
5526.6768595528
 20
5087.1993014409
  0
LWPOLYLINE
  5
1ED
330
1F
100
AcDbEntity
  8
0
  6
Continuous
 62
     7
100
AcDbPolyline
 90
        7
 70
   128
 43
0.0
 10
5251.293182373
 20
5259.6993646637
 10
5242.0975138662
 20
5256.3578661569
 10
5235.8190318568
 20
5248.7598751927
 10
5231.2445357403
 20
5229.7237572341
 10
5235.795490937
 20
5210.6819063676
 10
5242.0542542961
 20
5203.0746601783
 10
5251.244529143
 20
5199.6994545927
  0
LWPOLYLINE
  5
1EE
330
1F
100
AcDbEntity
  8
0
  6
Continuous
 62
     7
100
AcDbPolyline
 90
        7
 70
   128
 43
0.0
 10
5251.2435913086
 20
5199.6994545927
 10
5260.4203238385
 20
5203.063385351
 10
5266.6894622808
 20
5210.6744186742
 10
5271.2445274009
 20
5229.6869663969
 10
5266.7107053419
 20
5248.6856897568
 10
5260.4620803967
 20
5256.3029495511
 10
5251.2933017166
 20
5259.6993646637
  0
LWPOLYLINE
  5
1EF
330
1F
100
AcDbEntity
  8
0
  6
Continuous
 62
     7
100
AcDbPolyline
 90
        3
 70
   128
 43
0.0
 10
5269.6685791016
 20
5328.4265872623
 10
5269.0590629816
 20
5328.0075406123
 10
5268.748694092
 20
5327.4932546338
  0
LWPOLYLINE
  5
1F0
330
1F
100
AcDbEntity
  8
0
  6
Continuous
 62
     7
100
AcDbPolyline
 90
        3
 70
   128
 43
0.0
 10
5268.7377929688
 20
5327.5682540407
 10
5268.782263422
 20
5327.8313026763
 10
5268.8011943258
 20
5328.0399205956
  0
LWPOLYLINE
  5
1F1
330
1F
100
AcDbEntity
  8
0
  6
Continuous
 62
     7
100
AcDbPolyline
 90
        3
 70
   128
 43
0.0
 10
5268.798828125
 20
5328.0399205956
 10
5268.7023893916
 20
5328.3338465699
 10
5268.4786943258
 20
5328.4265872623
  0
LWPOLYLINE
  5
1F2
330
1F
100
AcDbEntity
  8
0
  6
Continuous
 62
     7
100
AcDbPolyline
 90
        3
 70
   128
 43
0.0
 10
5268.4783935547
 20
5328.4265872623
 10
5267.7835477612
 20
5327.9558604035
 10
5267.4470273703
 20
5327.3607535085
  0
ARC
  5
1F3
330
1F
100
AcDbEntity
  8
0
  6
Continuous
 62
     7
100
AcDbCircle
 10
5212.7843914973
 20
5334.0220009363
 30
0.0
 40
55.04118875889408
100
AcDbArc
 50
353.0549736893
 51
354.0379838315
  0
LWPOLYLINE
  5
1F4
330
1F
100
AcDbEntity
  8
0
  6
Continuous
 62
     7
100
AcDbPolyline
 90
        4
 70
   128
 43
0.0
 10
5267.5247192383
 20
5328.3049205956
 10
5267.5208200997
 20
5328.3763214274
 10
5267.5072980166
 20
5328.4108252328
 10
5267.4761943258
 20
5328.4265872623
  0
LWPOLYLINE
  5
1F5
330
1F
100
AcDbEntity
  8
0
  6
Continuous
 62
     7
100
AcDbPolyline
 90
        3
 70
   128
 43
0.0
 10
5267.4751281738
 20
5328.4265872623
 10
5267.3052219717
 20
5328.3682089617
 10
5267.1820276591
 20
5328.2965872623
  0
LWPOLYLINE
  5
1F6
330
1F
100
AcDbEntity
  8
0
  6
Continuous
 62
     7
100
AcDbPolyline
 90
        3
 70
   128
 43
0.0
 10
5267.1813964844
 20
5328.2965872623
 10
5267.1160698931
 20
5328.1667151375
 10
5267.0961943258
 20
5328.0524205956
  0
ARC
  5
1F7
330
1F
100
AcDbEntity
  8
0
  6
Continuous
 62
     7
100
AcDbCircle
 10
5529.0001151147
 20
5292.6750016305
 30
0.0
 40
264.2849859842905
100
AcDbArc
 50
172.3072451348
 51
172.6862699912
  0
LWPOLYLINE
  5
1F8
330
1F
100
AcDbEntity
  8
0
  6
Continuous
 62
     7
100
AcDbPolyline
 90
        3
 70
   128
 43
0.0
 10
5266.8647766113
 20
5326.3190872623
 10
5266.8987572116
 20
5326.2527400444
 10
5266.9578609925
 20
5326.2399205956
  0
LWPOLYLINE
  5
1F9
330
1F
100
AcDbEntity
  8
0
  6
Continuous
 62
     7
100
AcDbPolyline
 90
        3
 70
   128
 43
0.0
 10
5266.9563293457
 20
5326.2399205956
 10
5267.1576226281
 20
5326.3084978096
 10
5267.2628609925
 20
5326.4315872623
  0
LWPOLYLINE
  5
1FA
330
1F
100
AcDbEntity
  8
0
  6
Continuous
 62
     7
100
AcDbPolyline
 90
        3
 70
   128
 43
0.0
 10
5267.261505127
 20
5326.4315872623
 10
5267.6653170935
 20
5327.5169134195
 10
5268.2770276591
 20
5328.1599205956
  0
LWPOLYLINE
  5
1FB
330
1F
100
AcDbEntity
  8
0
  6
Continuous
 62
     7
100
AcDbPolyline
 90
        3
 70
   128
 43
0.0
 10
5268.2762145996
 20
5328.1599205956
 10
5268.3620858763
 20
5328.1031339339
 10
5268.3745276591
 20
5328.0190872623
  0
ARC
  5
1FC
330
1F
100
AcDbEntity
  8
0
  6
Continuous
 62
     7
100
AcDbCircle
 10
5256.0186078782
 20
5329.1439198448
 30
0.0
 40
12.40408073036555
100
AcDbArc
 50
348.6169237996
 51
354.7971301515
  0
LWPOLYLINE
  5
1FD
330
1F
100
AcDbEntity
  8
0
  6
Continuous
 62
     7
100
AcDbPolyline
 90
        3
 70
   128
 43
0.0
 10
5268.1770324707
 20
5326.6957539289
 10
5268.145225902
 20
5326.5004092441
 10
5268.1211943258
 20
5326.3465872623
  0
LWPOLYLINE
  5
1FE
330
1F
100
AcDbEntity
  8
0
  6
Continuous
 62
     7
100
AcDbPolyline
 90
        3
 70
   128
 43
0.0
 10
5268.1198120117
 20
5326.3465872623
 10
5268.1410746289
 20
5326.2679988033
 10
5268.1961943258
 20
5326.2399205956
  0
LWPOLYLINE
  5
1FF
330
1F
100
AcDbEntity
  8
0
  6
Continuous
 62
     7
100
AcDbPolyline
 90
        3
 70
   128
 43
0.0
 10
5268.196105957
 20
5326.2399205956
 10
5268.3667409945
 20
5326.2945637915
 10
5268.4853609925
 20
5326.3690872623
  0
LWPOLYLINE
  5
200
330
1F
100
AcDbEntity
  8
0
  6
Continuous
 62
     7
100
AcDbPolyline
 90
        3
 70
   128
 43
0.0
 10
5268.482208252
 20
5326.3690872623
 10
5268.5660860724
 20
5326.581855937
 10
5268.6011943258
 20
5326.7582539289
  0
LWPOLYLINE
  5
201
330
1F
100
AcDbEntity
  8
0
  6
Continuous
 62
     7
100
AcDbPolyline
 90
        3
 70
   128
 43
0.0
 10
5268.6004638672
 20
5326.7582539289
 10
5268.9515216056
 20
5327.6302375286
 10
5269.4478609925
 20
5328.1599205956
  0
LWPOLYLINE
  5
202
330
1F
100
AcDbEntity
  8
0
  6
Continuous
 62
     7
100
AcDbPolyline
 90
        3
 70
   128
 43
0.0
 10
5269.4473266602
 20
5328.1599205956
 10
5269.5338863646
 20
5328.1093535919
 10
5269.5478609925
 20
5328.0282539289
  0
LWPOLYLINE
  5
203
330
1F
100
AcDbEntity
  8
0
  6
Continuous
 62
     7
100
AcDbPolyline
 90
        3
 70
   128
 43
0.0
 10
5269.5465087891
 20
5328.0282539289
 10
5269.49878148
 20
5327.6138917024
 10
5269.4411943258
 20
5327.2907539289
  0
LWPOLYLINE
  5
204
330
1F
100
AcDbEntity
  8
0
  6
Continuous
 62
     7
100
AcDbPolyline
 90
        3
 70
   128
 43
0.0
 10
5269.4396972656
 20
5327.2907539289
 10
5269.3673978141
 20
5326.9015791062
 10
5269.3345276591
 20
5326.5924205956
  0
LWPOLYLINE
  5
205
330
1F
100
AcDbEntity
  8
0
  6
Continuous
 62
     7
100
AcDbPolyline
 90
        3
 70
   128
 43
0.0
 10
5269.3328857422
 20
5326.5924205956
 10
5269.4383601145
 20
5326.2608828601
 10
5269.7036943258
 20
5326.1865872623
  0
ARC
  5
206
330
1F
100
AcDbEntity
  8
0
  6
Continuous
 62
     7
100
AcDbCircle
 10
5269.8039501578
 20
5326.658047521
 30
0.0
 40
0.4821655429358533
100
AcDbArc
 50
257.9038971202
 51
320.5361408019
  0
LWPOLYLINE
  5
207
330
1F
100
AcDbEntity
  8
0
  6
Continuous
 62
     7
100
AcDbPolyline
 90
        5
 70
   128
 43
0.0
 10
5270.1759338379
 20
5326.3515872623
 10
5270.1702979065
 20
5326.3783103381
 10
5270.1484174579
 20
5326.3936950315
 10
5270.0944696412
 20
5326.3981761368
 10
5269.9861943258
 20
5326.3999205956
  0
LWPOLYLINE
  5
208
330
1F
100
AcDbEntity
  8
0
  6
Continuous
 62
     7
100
AcDbPolyline
 90
        3
 70
   128
 43
0.0
 10
5269.9851989746
 20
5326.3999205956
 10
5269.8065053416
 20
5326.4640235031
 10
5269.7611943258
 20
5326.6082539289
  0
LWPOLYLINE
  5
209
330
1F
100
AcDbEntity
  8
0
  6
Continuous
 62
     7
100
AcDbPolyline
 90
        3
 70
   128
 43
0.0
 10
5269.7601318359
 20
5326.6082539289
 10
5269.8051804832
 20
5326.9757856921
 10
5269.8561943258
 20
5327.2624205956
  0
LWPOLYLINE
  5
20A
330
1F
100
AcDbEntity
  8
0
  6
Continuous
 62
     7
100
AcDbPolyline
 90
        3
 70
   128
 43
0.0
 10
5269.8554992676
 20
5327.2624205956
 10
5269.9389133873
 20
5327.7143552533
 10
5269.9745276591
 20
5328.0732539289
  0
LWPOLYLINE
  5
20B
330
1F
100
AcDbEntity
  8
0
  6
Continuous
 62
     7
100
AcDbPolyline
 90
        3
 70
   128
 43
0.0
 10
5269.9737548828
 20
5328.0732539289
 10
5269.8882571222
 20
5328.3539299266
 10
5269.6695276591
 20
5328.4265872623
  0
LWPOLYLINE
  5
20C
330
1F
100
AcDbEntity
  8
0
  6
Continuous
 62
     7
100
AcDbPolyline
 90
        3
 70
   128
 43
0.0
 10
5271.1944580078
 20
5327.8640872623
 10
5271.448951424
 20
5328.1020617792
 10
5271.7145276591
 20
5328.1599205956
  0
LWPOLYLINE
  5
20D
330
1F
100
AcDbEntity
  8
0
  6
Continuous
 62
     7
100
AcDbPolyline
 90
        3
 70
   128
 43
0.0
 10
5271.7132568359
 20
5328.1599205956
 10
5271.9311636215
 20
5328.1427076623
 10
5272.1003609925
 20
5328.1190872623
  0
LWPOLYLINE
  5
20E
330
1F
100
AcDbEntity
  8
0
  6
Continuous
 62
     7
100
AcDbPolyline
 90
        3
 70
   128
 43
0.0
 10
5272.0985412598
 20
5328.1190872623
 10
5272.2359222729
 20
5328.1009895319
 10
5272.3428609925
 20
5328.0907539289
  0
LWPOLYLINE
  5
20F
330
1F
100
AcDbEntity
  8
0
  6
Continuous
 62
     7
100
AcDbPolyline
 90
        3
 70
   128
 43
0.0
 10
5272.3426818848
 20
5328.0907539289
 10
5272.4415049159
 20
5328.1307867703
 10
5272.4636943258
 20
5328.2132539289
  0
LWPOLYLINE
  5
210
330
1F
100
AcDbEntity
  8
0
  6
Continuous
 62
     7
100
AcDbPolyline
 90
        4
 70
   128
 43
0.0
 10
5272.4609375
 20
5328.2132539289
 10
5272.4332854816
 20
5328.3217301335
 10
5272.3412757722
 20
5328.3866506685
 10
5272.1178609925
 20
5328.4265872623
  0
LWPOLYLINE
  5
211
330
1F
100
AcDbEntity
  8
0
  6
Continuous
 62
     7
100
AcDbPolyline
 90
        3
 70
   128
 43
0.0
 10
5272.1176147461
 20
5328.4265872623
 10
5270.8116050897
 20
5327.8435486598
 10
5270.4011943258
 20
5326.7782539289
  0
LWPOLYLINE
  5
212
330
1F
100
AcDbEntity
  8
0
  6
Continuous
 62
     7
100
AcDbPolyline
 90
        3
 70
   128
 43
0.0
 10
5270.4010009766
 20
5326.7782539289
 10
5270.602922819
 20
5326.3144920192
 10
5270.9886943258
 20
5326.1865872623
  0
LWPOLYLINE
  5
213
330
1F
100
AcDbEntity
  8
0
  6
Continuous
 62
     7
100
AcDbPolyline
 90
        3
 70
   128
 43
0.0
 10
5270.9884643555
 20
5326.1865872623
 10
5271.6048167505
 20
5326.5319671047
 10
5271.9153603464
 20
5327.0157543739
  0
LWPOLYLINE
  5
214
330
1F
100
AcDbEntity
  8
0
  6
Continuous
 62
     7
100
AcDbPolyline
 90
        3
 70
   128
 43
0.0
 10
5271.9192504883
 20
5326.9699202647
 10
5271.868462585
 20
5326.6676445104
 10
5271.8411943258
 20
5326.4282539289
  0
LWPOLYLINE
  5
215
330
1F
100
AcDbEntity
  8
0
  6
Continuous
 62
     7
100
AcDbPolyline
 90
        3
 70
   128
 43
0.0
 10
5271.8391418457
 20
5326.4282539289
 10
5271.9368696349
 20
5326.2249589424
 10
5272.1153609925
 20
5326.1865872623
  0
LWPOLYLINE
  5
216
330
1F
100
AcDbEntity
  8
0
  6
Continuous
 62
     7
100
AcDbPolyline
 90
        5
 70
   128
 43
0.0
 10
5272.1138000488
 20
5326.1865872623
 10
5272.3807266998
 20
5326.2239850032
 10
5272.5086836484
 20
5326.2642492666
 10
5272.5678338183
 20
5326.2957342051
 10
5272.6003609925
 20
5326.3515872623
  0
LWPOLYLINE
  5
217
330
1F
100
AcDbEntity
  8
0
  6
Continuous
 62
     7
100
AcDbPolyline
 90
        5
 70
   128
 43
0.0
 10
5272.5982666016
 20
5326.3515872623
 10
5272.5962897094
 20
5326.3735607872
 10
5272.5810523953
 20
5326.3886093338
 10
5272.5380066093
 20
5326.3974432629
 10
5272.4503609925
 20
5326.3999205956
  0
LWPOLYLINE
  5
218
330
1F
100
AcDbEntity
  8
0
  6
Continuous
 62
     7
100
AcDbPolyline
 90
        4
 70
   128
 43
0.0
 10
5272.4494934082
 20
5326.3999205956
 10
5272.2943912719
 20
5326.4166462479
 10
5272.2333083579
 20
5326.4637331847
 10
5272.2145276591
 20
5326.5399205956
  0
ARC
  5
219
330
1F
100
AcDbEntity
  8
0
  6
Continuous
 62
     7
100
AcDbCircle
 10
5299.9817145614
 20
5323.3270939804
 30
0.0
 40
27.95397562164982
100
AcDbArc
 50
171.4116375188
 51
173.4002552075
  0
LWPOLYLINE
  5
21A
330
1F
100
AcDbEntity
  8
0
  6
Continuous
 62
     7
100
AcDbPolyline
 90
        3
 70
   128
 43
0.0
 10
5272.3388671875
 20
5327.5015872623
 10
5272.3713363597
 20
5327.7011438968
 10
5272.3928609925
 20
5327.8582539289
  0
LWPOLYLINE
  5
21B
330
1F
100
AcDbEntity
  8
0
  6
Continuous
 62
     7
100
AcDbPolyline
 90
        4
 70
   128
 43
0.0
 10
5272.3922729492
 20
5327.8582539289
 10
5272.3800368246
 20
5327.9150771362
 10
5272.3379928024
 20
5327.9551543837
 10
5272.2253609925
 20
5327.9857539289
  0
LWPOLYLINE
  5
21C
330
1F
100
AcDbEntity
  8
0
  6
Continuous
 62
     7
100
AcDbPolyline
 90
        4
 70
   128
 43
0.0
 10
5272.2244262695
 20
5327.9857539289
 10
5272.1534061809
 20
5327.9596599424
 10
5272.111419381
 20
5327.8940650645
 10
5272.0528609925
 20
5327.7490872623
  0
LWPOLYLINE
  5
21D
330
1F
100
AcDbEntity
  8
0
  6
Continuous
 62
     7
100
AcDbPolyline
 90
        3
 70
   128
 43
0.0
 10
5272.0527648926
 20
5327.7490872623
 10
5272.0121718876
 20
5327.6324119278
 10
5271.9778609925
 20
5327.5415872623
  0
LWPOLYLINE
  5
21E
330
1F
100
AcDbEntity
  8
0
  6
Continuous
 62
     7
100
AcDbPolyline
 90
        3
 70
   128
 43
0.0
 10
5271.9764709473
 20
5327.5415872623
 10
5271.7794291945
 20
5327.1108107378
 10
5271.5845276591
 20
5326.7932539289
  0
LWPOLYLINE
  5
21F
330
1F
100
AcDbEntity
  8
0
  6
Continuous
 62
     7
100
AcDbPolyline
 90
        3
 70
   128
 43
0.0
 10
5271.5835571289
 20
5326.7932539289
 10
5271.3488605944
 20
5326.5449830843
 10
5271.0995276591
 20
5326.4532539289
  0
LWPOLYLINE
  5
220
330
1F
100
AcDbEntity
  8
0
  6
Continuous
 62
     7
100
AcDbPolyline
 90
        3
 70
   128
 43
0.0
 10
5271.0990905762
 20
5326.4532539289
 10
5270.8698769767
 20
5326.6126522833
 10
5270.8278609925
 20
5326.8399205956
  0
LWPOLYLINE
  5
221
330
1F
100
AcDbEntity
  8
0
  6
Continuous
 62
     7
100
AcDbPolyline
 90
        3
 70
   128
 43
0.0
 10
5270.824432373
 20
5326.8399205956
 10
5270.954715402
 20
5327.4431925917
 10
5271.1961943258
 20
5327.8640872623
  0
LWPOLYLINE
  5
222
330
1F
100
AcDbEntity
  8
0
  6
Continuous
 62
     7
100
AcDbPolyline
 90
        3
 70
   128
 43
0.0
 10
5274.7535705566
 20
5326.8240872623
 10
5274.8011011835
 20
5326.8071571688
 10
5274.8253609925
 20
5326.7782539289
  0
LWPOLYLINE
  5
223
330
1F
100
AcDbEntity
  8
0
  6
Continuous
 62
     7
100
AcDbPolyline
 90
        3
 70
   128
 43
0.0
 10
5274.8222351074
 20
5326.7782539289
 10
5275.1523005623
 20
5326.2917636114
 10
5275.6078609925
 20
5326.1865872623
  0
LWPOLYLINE
  5
224
330
1F
100
AcDbEntity
  8
0
  6
Continuous
 62
     7
100
AcDbPolyline
 90
        3
 70
   128
 43
0.0
 10
5275.6042480469
 20
5326.1865872623
 10
5276.1753352612
 20
5326.3283909684
 10
5276.5353609925
 20
5326.6032539289
  0
LWPOLYLINE
  5
225
330
1F
100
AcDbEntity
  8
0
  6
Continuous
 62
     7
100
AcDbPolyline
 90
        3
 70
   128
 43
0.0
 10
5276.5350341797
 20
5326.6032539289
 10
5276.5188821171
 20
5326.6574877156
 10
5276.4770276591
 20
5326.6724205956
  0
LWPOLYLINE
  5
226
330
1F
100
AcDbEntity
  8
0
  6
Continuous
 62
     7
100
AcDbPolyline
 90
        3
 70
   128
 43
0.0
 10
5276.4739990234
 20
5326.6724205956
 10
5276.3851513806
 20
5326.6418409299
 10
5276.3161943258
 20
5326.6090872623
  0
LWPOLYLINE
  5
227
330
1F
100
AcDbEntity
  8
0
  6
Continuous
 62
     7
100
AcDbPolyline
 90
        3
 70
   128
 43
0.0
 10
5276.3137817383
 20
5326.6090872623
 10
5276.0178574816
 20
5326.489740657
 10
5275.7686943258
 20
5326.4532539289
  0
LWPOLYLINE
  5
228
330
1F
100
AcDbEntity
  8
0
  6
Continuous
 62
     7
100
AcDbPolyline
 90
        3
 70
   128
 43
0.0
 10
5275.7682800293
 20
5326.4532539289
 10
5275.4149971539
 20
5326.6095183344
 10
5275.3078609925
 20
5326.8990872623
  0
LWPOLYLINE
  5
229
330
1F
100
AcDbEntity
  8
0
  6
Continuous
 62
     7
100
AcDbPolyline
 90
        3
 70
   128
 43
0.0
 10
5275.3067016602
 20
5326.8990872623
 10
5275.3776197733
 20
5327.0065670892
 10
5275.4736943258
 20
5327.0540872623
  0
LWPOLYLINE
  5
22A
330
1F
100
AcDbEntity
  8
0
  6
Continuous
 62
     7
100
AcDbPolyline
 90
        3
 70
   128
 43
0.0
 10
5275.4707336426
 20
5327.0540872623
 10
5276.2293672296
 20
5327.4911394979
 10
5276.5878609925
 20
5328.0490872623
  0
LWPOLYLINE
  5
22B
330
1F
100
AcDbEntity
  8
0
  6
Continuous
 62
     7
100
AcDbPolyline
 90
        3
 70
   128
 43
0.0
 10
5276.5846252441
 20
5328.0490872623
 10
5276.4301851953
 20
5328.3644957473
 10
5276.1511943258
 20
5328.4265872623
  0
LWPOLYLINE
  5
22C
330
1F
100
AcDbEntity
  8
0
  6
Continuous
 62
     7
100
AcDbPolyline
 90
        3
 70
   128
 43
0.0
 10
5276.1497497559
 20
5328.4265872623
 10
5275.2358134249
 20
5327.9222187882
 10
5274.8803609925
 20
5327.1632539289
  0
LWPOLYLINE
  5
22D
330
1F
100
AcDbEntity
  8
0
  6
Continuous
 62
     7
100
AcDbPolyline
 90
        3
 70
   128
 43
0.0
 10
5274.8794555664
 20
5327.1632539289
 10
5274.8359750892
 20
5327.0927397405
 10
5274.7770276591
 20
5327.0599205956
  0
LWPOLYLINE
  5
22E
330
1F
100
AcDbEntity
  8
0
  6
Continuous
 62
     7
100
AcDbPolyline
 90
        3
 70
   128
 43
0.0
 10
5274.7764587402
 20
5327.0599205956
 10
5274.6881595432
 20
5326.9941056432
 10
5274.6678609925
 20
5326.9099205956
  0
LWPOLYLINE
  5
22F
330
1F
100
AcDbEntity
  8
0
  6
Continuous
 62
     7
100
AcDbPolyline
 90
        3
 70
   128
 43
0.0
 10
5274.6658325195
 20
5326.9099205956
 10
5274.6961526572
 20
5326.8404709971
 10
5274.7553609925
 20
5326.8240872623
  0
LWPOLYLINE
  5
230
330
1F
100
AcDbEntity
  8
0
  6
Continuous
 62
     7
100
AcDbPolyline
 90
        3
 70
   128
 43
0.0
 10
5285.1600646973
 20
5326.4932544699
 10
5285.1222707245
 20
5326.4860334084
 10
5285.0895276591
 20
5326.4815872623
  0
LWPOLYLINE
  5
231
330
1F
100
AcDbEntity
  8
0
  6
Continuous
 62
     7
100
AcDbPolyline
 90
        3
 70
   128
 43
0.0
 10
5285.0875854492
 20
5326.4815872623
 10
5284.960805212
 20
5326.4609144399
 10
5284.8586943258
 20
5326.4532539289
  0
LWPOLYLINE
  5
232
330
1F
100
AcDbEntity
  8
0
  6
Continuous
 62
     7
100
AcDbPolyline
 90
        3
 70
   128
 43
0.0
 10
5284.854888916
 20
5326.4532539289
 10
5284.6410910534
 20
5326.5117036787
 10
5284.5878609925
 20
5326.6807539289
  0
ARC
  5
233
330
1F
100
AcDbEntity
  8
0
  6
Continuous
 62
     7
100
AcDbCircle
 10
5302.7076749855
 20
5325.1512201796
 30
0.0
 40
18.18425595693996
100
AcDbArc
 50
170.9551562332
 51
175.1749746345
  0
LWPOLYLINE
  5
234
330
1F
100
AcDbEntity
  8
0
  6
Continuous
 62
     7
100
AcDbPolyline
 90
        4
 70
   128
 43
0.0
 10
5284.7518920898
 20
5328.060754182
 10
5284.7958090272
 20
5328.1162382957
 10
5284.8656900352
 20
5328.1320222561
 10
5285.0086943258
 20
5328.1457539289
  0
LWPOLYLINE
  5
235
330
1F
100
AcDbEntity
  8
0
  6
Continuous
 62
     7
100
AcDbPolyline
 90
        3
 70
   128
 43
0.0
 10
5285.0074768066
 20
5328.1457539289
 10
5285.1250034519
 20
5328.1578569687
 10
5285.2161943258
 20
5328.1690872623
  0
LWPOLYLINE
  5
236
330
1F
100
AcDbEntity
  8
0
  6
Continuous
 62
     7
100
AcDbPolyline
 90
        4
 70
   128
 43
0.0
 10
5285.213470459
 20
5328.1690872623
 10
5285.3926478765
 20
5328.1961750244
 10
5285.4764573408
 20
5328.2262550001
 10
5285.5211943258
 20
5328.2990872623
  0
LWPOLYLINE
  5
237
330
1F
100
AcDbEntity
  8
0
  6
Continuous
 62
     7
100
AcDbPolyline
 90
        4
 70
   128
 43
0.0
 10
5285.5186462402
 20
5328.2990872623
 10
5285.5164958644
 20
5328.3345780377
 10
5285.4938103194
 20
5328.3616307383
 10
5285.4236951023
 20
5328.373253884
  0
LWPOLYLINE
  5
238
330
1F
100
AcDbEntity
  8
0
  6
Continuous
 62
     7
100
AcDbPolyline
 90
        5
 70
   128
 43
0.0
 10
5285.0341796875
 20
5328.373253884
 10
5284.9000830288
 20
5328.3765524842
 10
5284.8322585989
 20
5328.3851726572
 10
5284.8076242313
 20
5328.4085665085
 10
5284.8011943258
 20
5328.4424205956
  0
LWPOLYLINE
  5
239
330
1F
100
AcDbEntity
  8
0
  6
Continuous
 62
     7
100
AcDbPolyline
 90
        3
 70
   128
 43
0.0
 10
5284.797668457
 20
5328.4424205956
 10
5284.828182429
 20
5328.6945808679
 10
5284.8586943258
 20
5328.8915872623
  0
LWPOLYLINE
  5
23A
330
1F
100
AcDbEntity
  8
0
  6
Continuous
 62
     7
100
AcDbPolyline
 90
        3
 70
   128
 43
0.0
 10
5284.854888916
 20
5328.8915872623
 10
5284.887991989
 20
5329.1105505146
 10
5284.9045276591
 20
5329.2832539289
  0
LWPOLYLINE
  5
23B
330
1F
100
AcDbEntity
  8
0
  6
Continuous
 62
     7
100
AcDbPolyline
 90
        4
 70
   128
 43
0.0
 10
5284.9044799805
 20
5329.2832539289
 10
5284.8972849375
 20
5329.3220152568
 10
5284.8838046969
 20
5329.336522279
 10
5284.8645276591
 20
5329.3407539289
  0
LWPOLYLINE
  5
23C
330
1F
100
AcDbEntity
  8
0
  6
Continuous
 62
     7
100
AcDbPolyline
 90
        3
 70
   128
 43
0.0
 10
5284.8625183105
 20
5329.3407539289
 10
5284.6865793345
 20
5329.2866790884
 10
5284.5603609925
 20
5329.2140872623
  0
ARC
  5
23D
330
1F
100
AcDbEntity
  8
0
  6
Continuous
 62
     7
100
AcDbCircle
 10
5287.5968396214
 20
5328.2861665997
 30
0.0
 40
3.177983531885582
100
AcDbArc
 50
163.0232213823
 51
172.5949631963
  0
LWPOLYLINE
  5
23E
330
1F
100
AcDbEntity
  8
0
  6
Continuous
 62
     7
100
AcDbPolyline
 90
        3
 70
   128
 43
0.0
 10
5284.4429016113
 20
5328.6957539289
 10
5284.430066657
 20
5328.5959398005
 10
5284.4186937362
 20
5328.5174207559
  0
LWPOLYLINE
  5
23F
330
1F
100
AcDbEntity
  8
0
  6
Continuous
 62
     7
100
AcDbPolyline
 90
        4
 70
   128
 43
0.0
 10
5284.4161987305
 20
5328.5057531467
 10
5284.3880528432
 20
5328.3972898746
 10
5284.3376463239
 20
5328.3758262139
 10
5284.2811943258
 20
5328.3732539289
  0
LWPOLYLINE
  5
240
330
1F
100
AcDbEntity
  8
0
  6
Continuous
 62
     7
100
AcDbPolyline
 90
        4
 70
   128
 43
0.0
 10
5284.2788696289
 20
5328.3732539289
 10
5284.0504854493
 20
5328.3510502541
 10
5283.947876115
 20
5328.3032838999
 10
5283.9195276591
 20
5328.1924205956
  0
LWPOLYLINE
  5
241
330
1F
100
AcDbEntity
  8
0
  6
Continuous
 62
     7
100
AcDbPolyline
 90
        4
 70
   128
 43
0.0
 10
5283.9164733887
 20
5328.1924205956
 10
5283.9286359442
 20
5328.1458698723
 10
5283.9638662431
 20
5328.1149974868
 10
5284.0578609925
 20
5328.1007539289
  0
LWPOLYLINE
  5
242
330
1F
100
AcDbEntity
  8
0
  6
Continuous
 62
     7
100
AcDbPolyline
 90
        3
 70
   128
 43
0.0
 10
5284.0576171875
 20
5328.1007539289
 10
5284.109224991
 20
5328.1035141996
 10
5284.1495266109
 20
5328.1065864285
  0
LWPOLYLINE
  5
243
330
1F
100
AcDbEntity
  8
0
  6
Continuous
 62
     7
100
AcDbPolyline
 90
        3
 70
   128
 43
0.0
 10
5284.252166748
 20
5328.1065864285
 10
5284.3124878186
 20
5328.0913632772
 10
5284.3303609925
 20
5328.0482539289
  0
LWPOLYLINE
  5
244
330
1F
100
AcDbEntity
  8
0
  6
Continuous
 62
     7
100
AcDbPolyline
 90
        3
 70
   128
 43
0.0
 10
5284.3284606934
 20
5328.0482539289
 10
5284.2976909353
 20
5327.7561510291
 10
5284.2653609925
 20
5327.5274205956
  0
LWPOLYLINE
  5
245
330
1F
100
AcDbEntity
  8
0
  6
Continuous
 62
     7
100
AcDbPolyline
 90
        3
 70
   128
 43
0.0
 10
5284.2636108398
 20
5327.5274205956
 10
5284.2008038217
 20
5327.0100110055
 10
5284.1611943258
 20
5326.6024205956
  0
LWPOLYLINE
  5
246
330
1F
100
AcDbEntity
  8
0
  6
Continuous
 62
     7
100
AcDbPolyline
 90
        3
 70
   128
 43
0.0
 10
5284.1606140137
 20
5326.6024205956
 10
5284.2958043255
 20
5326.2640127661
 10
5284.5770276591
 20
5326.1865872623
  0
LWPOLYLINE
  5
247
330
1F
100
AcDbEntity
  8
0
  6
Continuous
 62
     7
100
AcDbPolyline
 90
        5
 70
   128
 43
0.0
 10
5284.5764160156
 20
5326.1865872623
 10
5284.9622656634
 20
5326.2391088683
 10
5285.1443279575
 20
5326.3078587938
 10
5285.2268157423
 20
5326.3596078237
 10
5285.2736943258
 20
5326.4415872623
  0
LWPOLYLINE
  5
248
330
1F
100
AcDbEntity
  8
0
  6
Continuous
 62
     7
100
AcDbPolyline
 90
        3
 70
   128
 43
0.0
 10
5285.270690918
 20
5326.4415872623
 10
5285.2451681223
 20
5326.4911657039
 10
5285.1986950189
 20
5326.4990864118
  0
LWPOLYLINE
  5
249
330
1F
100
AcDbEntity
  8
0
  6
Continuous
 62
     7
100
AcDbPolyline
 90
        3
 70
   128
 43
0.0
 10
5291.389465332
 20
5328.0224205956
 10
5291.5657543222
 20
5328.0969638069
 10
5291.7153609925
 20
5328.1065872623
  0
LWPOLYLINE
  5
24A
330
1F
100
AcDbEntity
  8
0
  6
Continuous
 62
     7
100
AcDbPolyline
 90
        3
 70
   128
 43
0.0
 10
5291.7137145996
 20
5328.1065872623
 10
5291.9376908632
 20
5328.0969440773
 10
5292.1120276591
 20
5328.0832539289
  0
LWPOLYLINE
  5
24B
330
1F
100
AcDbEntity
  8
0
  6
Continuous
 62
     7
100
AcDbPolyline
 90
        3
 70
   128
 43
0.0
 10
5292.1104431152
 20
5328.0832539289
 10
5292.2188340838
 20
5328.0727057152
 10
5292.3028609925
 20
5328.0657539289
  0
LWPOLYLINE
  5
24C
330
1F
100
AcDbEntity
  8
0
  6
Continuous
 62
     7
100
AcDbPolyline
 90
        3
 70
   128
 43
0.0
 10
5292.3011779785
 20
5328.0657539289
 10
5292.4406738067
 20
5328.1046778399
 10
5292.4811943258
 20
5328.2082539289
  0
LWPOLYLINE
  5
24D
330
1F
100
AcDbEntity
  8
0
  6
Continuous
 62
     7
100
AcDbPolyline
 90
        4
 70
   128
 43
0.0
 10
5292.48046875
 20
5328.2082539289
 10
5292.4345354885
 20
5328.3125884893
 10
5292.324923464
 20
5328.3547700288
 10
5292.0895276591
 20
5328.3732539289
  0
LWPOLYLINE
  5
24E
330
1F
100
AcDbEntity
  8
0
  6
Continuous
 62
     7
100
AcDbPolyline
 90
        3
 70
   128
 43
0.0
 10
5292.0875549316
 20
5328.3732539289
 10
5290.8955477306
 20
5327.8894728603
 10
5290.5078609925
 20
5326.9490872623
  0
LWPOLYLINE
  5
24F
330
1F
100
AcDbEntity
  8
0
  6
Continuous
 62
     7
100
AcDbPolyline
 90
        4
 70
   128
 43
0.0
 10
5290.5044555664
 20
5326.9490872623
 10
5290.5853476918
 20
5326.6183669263
 10
5290.8314298868
 20
5326.384738368
 10
5291.4961943258
 20
5326.2399205956
  0
LWPOLYLINE
  5
250
330
1F
100
AcDbEntity
  8
0
  6
Continuous
 62
     7
100
AcDbPolyline
 90
        5
 70
   128
 43
0.0
 10
5291.4924621582
 20
5326.2399205956
 10
5291.984305804
 20
5326.2974089786
 10
5292.2160171526
 20
5326.3803614032
 10
5292.322470304
 20
5326.4419133696
 10
5292.3886943258
 20
5326.5407539289
  0
LWPOLYLINE
  5
251
330
1F
100
AcDbEntity
  8
0
  6
Continuous
 62
     7
100
AcDbPolyline
 90
        3
 70
   128
 43
0.0
 10
5292.3851013184
 20
5326.5407539289
 10
5292.3648289262
 20
5326.5930699621
 10
5292.3195276591
 20
5326.6040872623
  0
LWPOLYLINE
  5
252
330
1F
100
AcDbEntity
  8
0
  6
Continuous
 62
     7
100
AcDbPolyline
 90
        3
 70
   128
 43
0.0
 10
5292.3164367676
 20
5326.6040872623
 10
5292.2357569588
 20
5326.5895818092
 10
5292.1703609925
 20
5326.5757539289
  0
LWPOLYLINE
  5
253
330
1F
100
AcDbEntity
  8
0
  6
Continuous
 62
     7
100
AcDbPolyline
 90
        3
 70
   128
 43
0.0
 10
5292.1676635742
 20
5326.5757539289
 10
5291.9068514487
 20
5326.5284987846
 10
5291.6978609925
 20
5326.5065872623
  0
LWPOLYLINE
  5
254
330
1F
100
AcDbEntity
  8
0
  6
Continuous
 62
     7
100
AcDbPolyline
 90
        3
 70
   128
 43
0.0
 10
5291.6946411133
 20
5326.5065872623
 10
5291.1688782294
 20
5326.6894683218
 10
5291.0411943258
 20
5327.1149205956
  0
LWPOLYLINE
  5
255
330
1F
100
AcDbEntity
  8
0
  6
Continuous
 62
     7
100
AcDbPolyline
 90
        3
 70
   128
 43
0.0
 10
5291.0385131836
 20
5327.1149205956
 10
5291.1485212347
 20
5327.6614115482
 10
5291.3920276591
 20
5328.0224205956
  0
LWPOLYLINE
  5
256
330
1F
100
AcDbEntity
  8
0
  6
Continuous
 62
     7
100
AcDbPolyline
 90
        3
 70
   128
 43
0.0
 10
5293.9758300781
 20
5328.4265872623
 10
5292.989927327
 20
5327.931470122
 10
5292.6945276591
 20
5327.1007539289
  0
LWPOLYLINE
  5
257
330
1F
100
AcDbEntity
  8
0
  6
Continuous
 62
     7
100
AcDbPolyline
 90
        3
 70
   128
 43
0.0
 10
5292.6940917969
 20
5327.1007539289
 10
5293.0019521951
 20
5326.3797896141
 10
5293.5970276591
 20
5326.1865872623
  0
LWPOLYLINE
  5
258
330
1F
100
AcDbEntity
  8
0
  6
Continuous
 62
     7
100
AcDbPolyline
 90
        3
 70
   128
 43
0.0
 10
5293.5943603516
 20
5326.1865872623
 10
5294.5857327231
 20
5326.681625763
 10
5294.8811943258
 20
5327.5124205956
  0
LWPOLYLINE
  5
259
330
1F
100
AcDbEntity
  8
0
  6
Continuous
 62
     7
100
AcDbPolyline
 90
        3
 70
   128
 43
0.0
 10
5294.8799133301
 20
5327.5124205956
 10
5294.5729238964
 20
5328.2325218443
 10
5293.9786943258
 20
5328.4265872623
  0
ARC
  5
25A
330
1F
100
AcDbEntity
  8
0
  6
Continuous
 62
     7
100
AcDbCircle
 10
5298.2523328944
 20
5326.7355990703
 30
0.0
 40
0.5650670554563397
100
AcDbArc
 50
256.3091681446
 51
320.5545174051
  0
LWPOLYLINE
  5
25B
330
1F
100
AcDbEntity
  8
0
  6
Continuous
 62
     7
100
AcDbPolyline
 90
        4
 70
   128
 43
0.0
 10
5298.6869812012
 20
5326.3765872623
 10
5298.6690389987
 20
5326.4350297132
 10
5298.6076930767
 20
5326.4498412301
 10
5298.4803609925
 20
5326.4532539289
  0
LWPOLYLINE
  5
25C
330
1F
100
AcDbEntity
  8
0
  6
Continuous
 62
     7
100
AcDbPolyline
 90
        4
 70
   128
 43
0.0
 10
5298.4771728516
 20
5326.4532539289
 10
5298.2519361672
 20
5326.487837507
 10
5298.1971217391
 20
5326.5866137096
 10
5298.1878609925
 20
5326.7024205956
  0
ARC
  5
25D
330
1F
100
AcDbEntity
  8
0
  6
Continuous
 62
     7
100
AcDbCircle
 10
5354.7061776154
 20
5321.0805195644
 30
0.0
 40
56.79783699815287
100
AcDbArc
 50
171.3546473891
 51
174.3195107933
  0
LWPOLYLINE
  5
25E
330
1F
100
AcDbEntity
  8
0
  6
Continuous
 62
     7
100
AcDbPolyline
 90
        3
 70
   128
 43
0.0
 10
5298.5534667969
 20
5329.6182539289
 10
5298.5981371397
 20
5329.9551767631
 10
5298.6328609925
 20
5330.2199205956
  0
LWPOLYLINE
  5
25F
330
1F
100
AcDbEntity
  8
0
  6
Continuous
 62
     7
100
AcDbPolyline
 90
        3
 70
   128
 43
0.0
 10
5298.6297607422
 20
5330.2199205956
 10
5298.6172727236
 20
5330.2756712224
 10
5298.5761943258
 20
5330.2932539289
  0
LWPOLYLINE
  5
260
330
1F
100
AcDbEntity
  8
0
  6
Continuous
 62
     7
100
AcDbPolyline
 90
        3
 70
   128
 43
0.0
 10
5298.5725402832
 20
5330.2932539289
 10
5298.3309696617
 20
5330.1715238415
 10
5298.1936943258
 20
5330.0090872623
  0
ARC
  5
261
330
1F
100
AcDbEntity
  8
0
  6
Continuous
 62
     7
100
AcDbCircle
 10
5358.9120072592
 20
5320.7625125121
 30
0.0
 40
61.42093534488436
100
AcDbArc
 50
171.3415262901
 51
174.6244980982
  0
LWPOLYLINE
  5
262
330
1F
100
AcDbEntity
  8
0
  6
Continuous
 62
     7
100
AcDbPolyline
 90
        3
 70
   128
 43
0.0
 10
5297.7600097656
 20
5326.5165872623
 10
5297.8818333094
 20
5326.2387469678
 10
5298.1220276591
 20
5326.1865872623
  0
LWPOLYLINE
  5
263
330
1F
100
AcDbEntity
  8
0
  6
Continuous
 62
     7
100
AcDbPolyline
 90
        3
 70
   128
 43
0.0
 10
5261.4860534668
 20
5326.6532538256
 10
5261.7272710682
 20
5326.2805672554
 10
5262.0670276591
 20
5326.1865872623
  0
LWPOLYLINE
  5
264
330
1F
100
AcDbEntity
  8
0
  6
Continuous
 62
     7
100
AcDbPolyline
 90
        4
 70
   128
 43
0.0
 10
5262.0658874512
 20
5326.1865872623
 10
5262.6070211229
 20
5326.4659639449
 10
5262.8965138209
 20
5327.0222948642
 10
5263.0945276591
 20
5328.2632539289
  0
LWPOLYLINE
  5
265
330
1F
100
AcDbEntity
  8
0
  6
Continuous
 62
     7
100
AcDbPolyline
 90
        3
 70
   128
 43
0.0
 10
5263.0920410156
 20
5328.2632539289
 10
5263.0722102837
 20
5328.3475932922
 10
5263.0095276591
 20
5328.3732539289
  0
ARC
  5
266
330
1F
100
AcDbEntity
  8
0
  6
Continuous
 62
     7
100
AcDbCircle
 10
5262.9916575727
 20
5327.9039892147
 30
0.0
 40
0.4695533058521102
100
AcDbArc
 50
87.9910956185
 51
138.1248488917
  0
LWPOLYLINE
  5
267
330
1F
100
AcDbEntity
  8
0
  6
Continuous
 62
     7
100
AcDbPolyline
 90
        3
 70
   128
 43
0.0
 10
5262.6419067383
 20
5328.2174205956
 10
5262.6563122583
 20
5328.1714925834
 10
5262.6711943258
 20
5328.1365872623
  0
LWPOLYLINE
  5
268
330
1F
100
AcDbEntity
  8
0
  6
Continuous
 62
     7
100
AcDbPolyline
 90
        3
 70
   128
 43
0.0
 10
5262.6686096191
 20
5328.1365872623
 10
5262.7569707765
 20
5327.8911446742
 10
5262.7745276591
 20
5327.6874205956
  0
LWPOLYLINE
  5
269
330
1F
100
AcDbEntity
  8
0
  6
Continuous
 62
     7
100
AcDbPolyline
 90
        4
 70
   128
 43
0.0
 10
5262.7716064453
 20
5327.6874205956
 10
5262.6823966715
 20
5326.9597932886
 10
5262.5307405588
 20
5326.6262452585
 10
5262.2220276591
 20
5326.4532539289
  0
LWPOLYLINE
  5
26A
330
1F
100
AcDbEntity
  8
0
  6
Continuous
 62
     7
100
AcDbPolyline
 90
        3
 70
   128
 43
0.0
 10
5262.2184753418
 20
5326.4532539289
 10
5261.9085688541
 20
5326.6651820262
 10
5261.8503609925
 20
5326.9715872623
  0
LWPOLYLINE
  5
26B
330
1F
100
AcDbEntity
  8
0
  6
Continuous
 62
     7
100
AcDbPolyline
 90
        3
 70
   128
 43
0.0
 10
5261.848449707
 20
5326.9715872623
 10
5261.919957798
 20
5327.5669347537
 10
5262.0303609925
 20
5328.0257539289
  0
LWPOLYLINE
  5
26C
330
1F
100
AcDbEntity
  8
0
  6
Continuous
 62
     7
100
AcDbPolyline
 90
        3
 70
   128
 43
0.0
 10
5262.0277404785
 20
5328.0257539289
 10
5262.0521494723
 20
5328.098474539
 10
5262.0653609925
 20
5328.1565872623
  0
LWPOLYLINE
  5
26D
330
1F
100
AcDbEntity
  8
0
  6
Continuous
 62
     7
100
AcDbPolyline
 90
        3
 70
   128
 43
0.0
 10
5262.0620727539
 20
5328.1565872623
 10
5261.9184787175
 20
5328.307541599
 10
5261.7628609925
 20
5328.3732539289
  0
ARC
  5
26E
330
1F
100
AcDbEntity
  8
0
  6
Continuous
 62
     7
100
AcDbCircle
 10
5263.7464829308
 20
5327.2883527264
 30
0.0
 40
2.262807574642876
100
AcDbArc
 50
151.3505676986
 51
180.2346083158
  0
LWPOLYLINE
  5
26F
330
1F
100
AcDbEntity
  8
0
  6
Continuous
 62
     7
100
AcDbPolyline
 90
        3
 70
   128
 43
0.0
 10
5261.4822387695
 20
5327.2790872623
 10
5261.2764901088
 20
5326.7427173685
 10
5260.9203609925
 20
5326.4840872623
  0
LWPOLYLINE
  5
270
330
1F
100
AcDbEntity
  8
0
  6
Continuous
 62
     7
100
AcDbPolyline
 90
        4
 70
   128
 43
0.0
 10
5260.9176635742
 20
5326.4840872623
 10
5260.7706142666
 20
5326.5419704895
 10
5260.6828270426
 20
5326.6786039151
 10
5260.6411943258
 20
5327.0024205956
  0
LWPOLYLINE
  5
271
330
1F
100
AcDbEntity
  8
0
  6
Continuous
 62
     7
100
AcDbPolyline
 90
        3
 70
   128
 43
0.0
 10
5260.6391906738
 20
5327.0024205956
 10
5260.6969687638
 20
5327.5700379707
 10
5260.8078609925
 20
5328.0049205956
  0
LWPOLYLINE
  5
272
330
1F
100
AcDbEntity
  8
0
  6
Continuous
 62
     7
100
AcDbPolyline
 90
        3
 70
   128
 43
0.0
 10
5260.8070373535
 20
5328.0049205956
 10
5260.8302010717
 20
5328.0883283998
 10
5260.8428609925
 20
5328.1549205956
  0
LWPOLYLINE
  5
273
330
1F
100
AcDbEntity
  8
0
  6
Continuous
 62
     7
100
AcDbPolyline
 90
        3
 70
   128
 43
0.0
 10
5260.8413696289
 20
5328.1549205956
 10
5260.6941326876
 20
5328.3232596033
 10
5260.5478609925
 20
5328.4265872623
  0
ARC
  5
274
330
1F
100
AcDbEntity
  8
0
  6
Continuous
 62
     7
100
AcDbCircle
 10
5263.4927932657
 20
5327.1086326143
 30
0.0
 40
3.226599502520269
100
AcDbArc
 50
155.8915223607
 51
181.8419654028
  0
LWPOLYLINE
  5
275
330
1F
100
AcDbEntity
  8
0
  6
Continuous
 62
     7
100
AcDbPolyline
 90
        4
 70
   128
 43
0.0
 10
5260.2653503418
 20
5327.0049205956
 10
5260.3463839813
 20
5326.4794278976
 10
5260.4964844828
 20
5326.2624543204
 10
5260.7478609925
 20
5326.1865872623
  0
LWPOLYLINE
  5
276
330
1F
100
AcDbEntity
  8
0
  6
Continuous
 62
     7
100
AcDbPolyline
 90
        3
 70
   128
 43
0.0
 10
5260.7460021973
 20
5326.1865872623
 10
5261.0501615264
 20
5326.2953869688
 10
5261.2386943258
 20
5326.4690872623
  0
LWPOLYLINE
  5
277
330
1F
100
AcDbEntity
  8
0
  6
Continuous
 62
     7
100
AcDbPolyline
 90
        3
 70
   128
 43
0.0
 10
5261.2380981445
 20
5326.4690872623
 10
5261.3244470919
 20
5326.570047671
 10
5261.3870276591
 20
5326.6532539289
  0
LWPOLYLINE
  5
278
330
1F
100
AcDbEntity
  8
0
  6
Continuous
 62
     7
100
AcDbPolyline
 90
        3
 70
   128
 43
0.0
 10
5261.3868713379
 20
5326.6532539289
 10
5261.4226466758
 20
5326.6979144804
 10
5261.4553609925
 20
5326.7282539289
  0
LWPOLYLINE
  5
279
330
1F
100
AcDbEntity
  8
0
  6
Continuous
 62
     7
100
AcDbPolyline
 90
        3
 70
   128
 43
0.0
 10
5261.4517211914
 20
5326.7282539289
 10
5261.479865542
 20
5326.6962435014
 10
5261.4895272925
 20
5326.6649214348
  0
LWPOLYLINE
  5
27A
330
1F
100
AcDbEntity
  8
0
  6
Continuous
 62
     7
100
AcDbPolyline
 90
        3
 70
   128
 43
0.0
 10
5268.3067321777
 20
5339.6766237711
 10
5266.8546381183
 20
5338.9115032024
 10
5266.4196146577
 20
5337.6081935858
  0
LWPOLYLINE
  5
27B
330
1F
100
AcDbEntity
  8
0
  6
Continuous
 62
     7
100
AcDbPolyline
 90
        3
 70
   128
 43
0.0
 10
5270.3514099121
 20
5337.7257451212
 10
5269.6935976244
 20
5339.2533258011
 10
5268.4693699628
 20
5339.6846378019
  0
LWPOLYLINE
  5
27C
330
1F
100
AcDbEntity
  8
0
  6
Continuous
 62
     7
100
AcDbPolyline
 90
        3
 70
   128
 43
0.0
 10
5287.2314453125
 20
5339.6464144608
 10
5285.7745738852
 20
5338.8771732419
 10
5285.3354951292
 20
5337.5710459223
  0
LWPOLYLINE
  5
27D
330
1F
100
AcDbEntity
  8
0
  6
Continuous
 62
     7
100
AcDbPolyline
 90
        3
 70
   128
 43
0.0
 10
5289.2990112305
 20
5337.687010484
 10
5288.6227215218
 20
5339.2205177543
 10
5287.3880034238
 20
5339.6460363438
  0
LWPOLYLINE
  5
27E
330
1F
100
AcDbEntity
  8
0
  6
Continuous
 62
     7
100
AcDbPolyline
 90
        3
 70
   128
 43
0.0
 10
5299.3125915527
 20
5342.7198851278
 10
5298.6104537552
 20
5342.3842835076
 10
5298.4004373201
 20
5341.7918501388
  0
LWPOLYLINE
  5
27F
330
1F
100
AcDbEntity
  8
0
  6
Continuous
 62
     7
100
AcDbPolyline
 90
        3
 70
   128
 43
0.0
 10
5298.397064209
 20
5341.7918501388
 10
5298.7280507535
 20
5341.088249475
 10
5299.3146246224
 20
5340.8760000748
  0
LWPOLYLINE
  5
280
330
1F
100
AcDbEntity
  8
0
  6
Continuous
 62
     7
100
AcDbPolyline
 90
        3
 70
   128
 43
0.0
 10
5299.3202209473
 20
5340.875983311
 10
5300.0292045615
 20
5341.2062677704
 10
5300.244529143
 20
5341.7900828717
  0
LWPOLYLINE
  5
281
330
1F
100
AcDbEntity
  8
0
  6
Continuous
 62
     7
100
AcDbPolyline
 90
        3
 70
   128
 43
0.0
 10
5300.2433776855
 20
5341.7900828717
 10
5299.9098082607
 20
5342.5009754425
 10
5299.3229357451
 20
5342.7198692953
  0
LWPOLYLINE
  5
282
330
1F
100
AcDbEntity
  8
0
  6
Continuous
 62
     7
100
AcDbPolyline
 90
        3
 70
   128
 43
0.0
 10
5295.7229614258
 20
5337.9864427989
 10
5295.6363193049
 20
5337.8905316657
 10
5295.5686701387
 20
5337.7867271921
  0
LWPOLYLINE
  5
283
330
1F
100
AcDbEntity
  8
0
  6
Continuous
 62
     7
100
AcDbPolyline
 90
        3
 70
   128
 43
0.0
 10
5295.3605651855
 20
5337.9634074664
 10
5295.5548596072
 20
5338.1900925073
 10
5295.7244705863
 20
5338.3338469821
  0
LWPOLYLINE
  5
284
330
1F
100
AcDbEntity
  8
0
  6
Continuous
 62
     7
100
AcDbPolyline
 90
        3
 70
   128
 43
0.0
 10
5295.7229614258
 20
5338.3338469821
 10
5296.4074209055
 20
5338.6063423141
 10
5297.1617607325
 20
5338.672543483
  0
LWPOLYLINE
  5
285
330
1F
100
AcDbEntity
  8
0
  6
Continuous
 62
     7
100
AcDbPolyline
 90
        3
 70
   128
 43
0.0
 10
5297.1954345703
 20
5338.6765928736
 10
5297.2187373253
 20
5338.9064244093
 10
5297.1577588203
 20
5339.0699111934
  0
LWPOLYLINE
  5
286
330
1F
100
AcDbEntity
  8
0
  6
Continuous
 62
     7
100
AcDbPolyline
 90
        3
 70
   128
 43
0.0
 10
5297.1572875977
 20
5339.0699111934
 10
5296.9424453062
 20
5339.6754139753
 10
5296.718770455
 20
5340.0628863668
  0
LWPOLYLINE
  5
287
330
1F
100
AcDbEntity
  8
0
  6
Continuous
 62
     7
100
AcDbPolyline
 90
        3
 70
   128
 43
0.0
 10
5296.7185974121
 20
5340.0628863668
 10
5297.3651314123
 20
5341.4956813616
 10
5297.51518917
 20
5342.7070792584
  0
LWPOLYLINE
  5
288
330
1F
100
AcDbEntity
  8
0
  6
Continuous
 62
     7
100
AcDbPolyline
 90
        3
 70
   128
 43
0.0
 10
5297.5120544434
 20
5342.7070792584
 10
5296.4923887496
 20
5342.5308415072
 10
5295.7279304105
 20
5342.276348499
  0
LWPOLYLINE
  5
289
330
1F
100
AcDbEntity
  8
0
  6
Continuous
 62
     7
100
AcDbPolyline
 90
        3
 70
   128
 43
0.0
 10
5295.726776123
 20
5342.276348499
 10
5295.495206751
 20
5342.174497303
 10
5295.3168127085
 20
5342.0854491855
  0
LWPOLYLINE
  5
28A
330
1F
100
AcDbEntity
  8
0
  6
Continuous
 62
     7
100
AcDbPolyline
 90
        3
 70
   128
 43
0.0
 10
5295.3147888184
 20
5342.0854491855
 10
5295.2516550009
 20
5342.0482401915
 10
5295.1964755367
 20
5342.0142883741
  0
LWPOLYLINE
  5
28B
330
1F
100
AcDbEntity
  8
0
  6
Continuous
 62
     7
100
AcDbPolyline
 90
        3
 70
   128
 43
0.0
 10
5295.1927185059
 20
5342.0142883741
 10
5295.054348985
 20
5341.9297510132
 10
5294.9483270211
 20
5341.8584110895
  0
LWPOLYLINE
  5
28C
330
1F
100
AcDbEntity
  8
0
  6
Continuous
 62
     7
100
AcDbPolyline
 90
        3
 70
   128
 43
0.0
 10
5294.9447631836
 20
5341.8584110895
 10
5294.6988424312
 20
5341.675685216
 10
5294.5222421606
 20
5341.5185126641
  0
LWPOLYLINE
  5
28D
330
1F
100
AcDbEntity
  8
0
  6
Continuous
 62
     7
100
AcDbPolyline
 90
        3
 70
   128
 43
0.0
 10
5294.5213317871
 20
5341.5185126641
 10
5294.2652969511
 20
5341.5556109811
 10
5294.0113684088
 20
5341.5619149601
  0
ARC
  5
28E
330
1F
100
AcDbEntity
  8
0
  6
Continuous
 62
     7
100
AcDbCircle
 10
5293.8567211045
 20
5339.1486299178
 30
0.0
 40
2.408528005434849
100
AcDbArc
 50
87.3470965683
 51
101.0524219655
  0
LWPOLYLINE
  5
28F
330
1F
100
AcDbEntity
  8
0
  6
Continuous
 62
     7
100
AcDbPolyline
 90
        3
 70
   128
 43
0.0
 10
5293.3349609375
 20
5341.5551358631
 10
5292.5573378091
 20
5342.0455554357
 10
5291.9203034939
 20
5342.3505895085
  0
LWPOLYLINE
  5
290
330
1F
100
AcDbEntity
  8
0
  6
Continuous
 62
     7
100
AcDbPolyline
 90
        3
 70
   128
 43
0.0
 10
5291.919708252
 20
5342.3505895085
 10
5291.1796693218
 20
5342.5930485897
 10
5290.5739722699
 20
5342.6994547045
  0
LWPOLYLINE
  5
291
330
1F
100
AcDbEntity
  8
0
  6
Continuous
 62
     7
100
AcDbPolyline
 90
        3
 70
   128
 43
0.0
 10
5290.5731201172
 20
5342.3094005121
 10
5290.8662131984
 20
5340.9395083222
 10
5291.2803218047
 20
5340.0607957076
  0
LWPOLYLINE
  5
292
330
1F
100
AcDbEntity
  8
0
  6
Continuous
 62
     7
100
AcDbPolyline
 90
        3
 70
   128
 43
0.0
 10
5291.2788391113
 20
5340.0607957076
 10
5291.0090352412
 20
5339.4527291985
 10
5290.8810255974
 20
5339.0019764921
  0
ARC
  5
293
330
1F
100
AcDbEntity
  8
0
  6
Continuous
 62
     7
100
AcDbCircle
 10
5289.9981054733
 20
5339.1468846789
 30
0.0
 40
0.8687928328222743
100
AcDbArc
 50
339.4472717644
 51
345.7453349159
  0
LWPOLYLINE
  5
294
330
1F
100
AcDbEntity
  8
0
  6
Continuous
 62
     7
100
AcDbPolyline
 90
        3
 70
   128
 43
0.0
 10
5290.8096313477
 20
5338.8418782439
 10
5290.8786955977
 20
5338.8336268166
 10
5290.9322781414
 20
5338.826428706
  0
LWPOLYLINE
  5
295
330
1F
100
AcDbEntity
  8
0
  6
Continuous
 62
     7
100
AcDbPolyline
 90
        3
 70
   128
 43
0.0
 10
5290.9622192383
 20
5338.8224277442
 10
5291.5181877441
 20
5338.7038497552
 10
5291.916928392
 20
5338.5572608568
  0
LWPOLYLINE
  5
296
330
1F
100
AcDbEntity
  8
0
  6
Continuous
 62
     7
100
AcDbPolyline
 90
        3
 70
   128
 43
0.0
 10
5291.9158935547
 20
5338.5572608568
 10
5292.6038154207
 20
5337.9285981979
 10
5292.5895684149
 20
5337.1383196603
  0
LWPOLYLINE
  5
297
330
1F
100
AcDbEntity
  8
0
  6
Continuous
 62
     7
100
AcDbPolyline
 90
        3
 70
   128
 43
0.0
 10
5292.5872802734
 20
5337.1383196603
 10
5292.2244952297
 20
5336.3439431841
 10
5291.9143836733
 20
5335.7922942019
  0
LWPOLYLINE
  5
298
330
1F
100
AcDbEntity
  8
0
  6
Continuous
 62
     7
100
AcDbPolyline
 90
        3
 70
   128
 43
0.0
 10
5291.9120788574
 20
5335.7922942019
 10
5291.5550649592
 20
5334.940680519
 10
5291.2533115965
 20
5333.8992207969
  0
LWPOLYLINE
  5
299
330
1F
100
AcDbEntity
  8
0
  6
Continuous
 62
     7
100
AcDbPolyline
 90
        3
 70
   128
 43
0.0
 10
5291.2521362305
 20
5333.8992207969
 10
5291.3026351301
 20
5332.2106219921
 10
5291.9102772275
 20
5331.182752913
  0
LWPOLYLINE
  5
29A
330
1F
100
AcDbEntity
  8
0
  6
Continuous
 62
     7
100
AcDbPolyline
 90
        3
 70
   128
 43
0.0
 10
5291.9082641602
 20
5331.182752913
 10
5292.6395857555
 20
5330.6370619278
 10
5293.3278780726
 20
5330.3877123128
  0
LWPOLYLINE
  5
29B
330
1F
100
AcDbEntity
  8
0
  6
Continuous
 62
     7
100
AcDbPolyline
 90
        3
 70
   128
 43
0.0
 10
5293.327331543
 20
5330.3877123128
 10
5293.6996245479
 20
5330.3293233535
 10
5294.0011536628
 20
5330.3159443458
  0
LWPOLYLINE
  5
29C
330
1F
100
AcDbEntity
  8
0
  6
Continuous
 62
     7
100
AcDbPolyline
 90
        3
 70
   128
 43
0.0
 10
5294.0788269043
 20
5330.3158921918
 10
5294.5707959989
 20
5330.3598749003
 10
5294.9381000243
 20
5330.4363261902
  0
LWPOLYLINE
  5
29D
330
1F
100
AcDbEntity
  8
0
  6
Continuous
 62
     7
100
AcDbPolyline
 90
        3
 70
   128
 43
0.0
 10
5294.9371337891
 20
5330.4363261902
 10
5295.0796946021
 20
5330.4727918975
 10
5295.1861788005
 20
5330.5062827112
  0
LWPOLYLINE
  5
29E
330
1F
100
AcDbEntity
  8
0
  6
Continuous
 62
     7
100
AcDbPolyline
 90
        3
 70
   128
 43
0.0
 10
5295.1850891113
 20
5330.5062827112
 10
5295.2560147247
 20
5330.5303398971
 10
5295.3065850385
 20
5330.5489867841
  0
LWPOLYLINE
  5
29F
330
1F
100
AcDbEntity
  8
0
  6
Continuous
 62
     7
100
AcDbPolyline
 90
        3
 70
   128
 43
0.0
 10
5295.3033447266
 20
5330.5489867841
 10
5295.5422149214
 20
5330.6495804296
 10
5295.7176857643
 20
5330.7328581232
  0
LWPOLYLINE
  5
2A0
330
1F
100
AcDbEntity
  8
0
  6
Continuous
 62
     7
100
AcDbPolyline
 90
        3
 70
   128
 43
0.0
 10
5295.7153320312
 20
5330.7328581232
 10
5297.0719582124
 20
5332.0792502091
 10
5297.5355207371
 20
5333.6670043165
  0
LWPOLYLINE
  5
2A1
330
1F
100
AcDbEntity
  8
0
  6
Continuous
 62
     7
100
AcDbPolyline
 90
        3
 70
   128
 43
0.0
 10
5297.534942627
 20
5333.6670043165
 10
5297.5571528867
 20
5333.9221282266
 10
5297.5642969757
 20
5334.1134205257
  0
LWPOLYLINE
  5
2A2
330
1F
100
AcDbEntity
  8
0
  6
Continuous
 62
     7
100
AcDbPolyline
 90
        3
 70
   128
 43
0.0
 10
5297.5616455078
 20
5334.3334240636
 10
5296.9237549197
 20
5336.5467162551
 10
5295.7313647419
 20
5337.993591631
  0
LWPOLYLINE
  5
2A3
330
1F
100
AcDbEntity
  8
0
  6
Continuous
 62
     7
100
AcDbPolyline
 90
        3
 70
   128
 43
0.0
 10
5262.5312805176
 20
5336.1656085634
 10
5261.3196643021
 20
5337.7104609253
 10
5261.0741258683
 20
5339.2651104189
  0
LWPOLYLINE
  5
2A4
330
1F
100
AcDbEntity
  8
0
  6
Continuous
 62
     7
100
AcDbPolyline
 90
        3
 70
   128
 43
0.0
 10
5264.1372680664
 20
5333.8460638886
 10
5263.5897201946
 20
5334.9819218238
 10
5262.5327380571
 20
5336.1656085634
  0
LWPOLYLINE
  5
2A5
330
1F
100
AcDbEntity
  8
0
  6
Continuous
 62
     7
100
AcDbPolyline
 90
        3
 70
   128
 43
0.0
 10
5263.0310058594
 20
5332.5632341003
 10
5263.9777783918
 20
5333.0079940245
 10
5264.1400646498
 20
5333.8460638886
  0
LWPOLYLINE
  5
2A6
330
1F
100
AcDbEntity
  8
0
  6
Continuous
 62
     7
100
AcDbPolyline
 90
        3
 70
   128
 43
0.0
 10
5265.3923034668
 20
5333.2419317933
 10
5264.2627061856
 20
5331.680742481
 10
5263.1377139985
 20
5331.3226034662
  0
LWPOLYLINE
  5
2A7
330
1F
100
AcDbEntity
  8
0
  6
Continuous
 62
     7
100
AcDbPolyline
 90
        3
 70
   128
 43
0.0
 10
5264.6942138672
 20
5335.6749706705
 10
5265.2926287704
 20
5334.6543432293
 10
5265.3944841261
 20
5333.2419317933
  0
LWPOLYLINE
  5
2A8
330
1F
100
AcDbEntity
  8
0
  6
Continuous
 62
     7
100
AcDbPolyline
 90
        3
 70
   128
 43
0.0
 10
5263.5383605957
 20
5336.9379124387
 10
5264.3083308657
 20
5336.1562515899
 10
5264.6948035778
 20
5335.6749706705
  0
LWPOLYLINE
  5
2A9
330
1F
100
AcDbEntity
  8
0
  6
Continuous
 62
     7
100
AcDbPolyline
 90
        3
 70
   128
 43
0.0
 10
5262.3558044434
 20
5339.1787753283
 10
5262.7511644103
 20
5337.7935075737
 10
5263.539334155
 20
5336.9379124387
  0
LWPOLYLINE
  5
2AA
330
1F
100
AcDbEntity
  8
0
  6
Continuous
 62
     7
100
AcDbPolyline
 90
        3
 70
   128
 43
0.0
 10
5263.8092041016
 20
5340.3479094414
 10
5262.6968624357
 20
5340.0012083429
 10
5262.3580459615
 20
5339.1787753283
  0
LWPOLYLINE
  5
2AB
330
1F
100
AcDbEntity
  8
0
  6
Continuous
 62
     7
100
AcDbPolyline
 90
        3
 70
   128
 43
0.0
 10
5261.0740661621
 20
5339.2651104189
 10
5262.1385265245
 20
5341.116282928
 10
5263.7282852009
 20
5341.5390835872
  0
LWPOLYLINE
  5
2AC
330
1F
100
AcDbEntity
  8
0
  6
Continuous
 62
     7
100
AcDbPolyline
 90
        3
 70
   128
 43
0.0
 10
5296.4286804199
 20
5328.4265872623
 10
5295.4432606604
 20
5327.931470122
 10
5295.1478609925
 20
5327.1007539289
  0
LWPOLYLINE
  5
2AD
330
1F
100
AcDbEntity
  8
0
  6
Continuous
 62
     7
100
AcDbPolyline
 90
        3
 70
   128
 43
0.0
 10
5295.1469421387
 20
5327.1007539289
 10
5295.4552855284
 20
5326.3797896141
 10
5296.0503609925
 20
5326.1865872623
  0
LWPOLYLINE
  5
2AE
330
1F
100
AcDbEntity
  8
0
  6
Continuous
 62
     7
100
AcDbPolyline
 90
        3
 70
   128
 43
0.0
 10
5296.0472106934
 20
5326.1865872623
 10
5297.0390660565
 20
5326.681625763
 10
5297.3345276591
 20
5327.5124205956
  0
LWPOLYLINE
  5
2AF
330
1F
100
AcDbEntity
  8
0
  6
Continuous
 62
     7
100
AcDbPolyline
 90
        3
 70
   128
 43
0.0
 10
5297.3327636719
 20
5327.5124205956
 10
5297.0262572298
 20
5328.2325218443
 10
5296.4320276591
 20
5328.4265872623
  0
LWPOLYLINE
  5
2B0
330
1F
100
AcDbEntity
  8
0
  6
Continuous
 62
     7
100
AcDbPolyline
 90
        3
 70
   128
 43
0.0
 10
5285.472869873
 20
5326.8240872623
 10
5285.5211011835
 20
5326.8071571688
 10
5285.5453609925
 20
5326.7782539289
  0
LWPOLYLINE
  5
2B1
330
1F
100
AcDbEntity
  8
0
  6
Continuous
 62
     7
100
AcDbPolyline
 90
        3
 70
   128
 43
0.0
 10
5285.5453491211
 20
5326.7782539289
 10
5285.8723005623
 20
5326.2917636114
 10
5286.3278609925
 20
5326.1865872623
  0
LWPOLYLINE
  5
2B2
330
1F
100
AcDbEntity
  8
0
  6
Continuous
 62
     7
100
AcDbPolyline
 90
        3
 70
   128
 43
0.0
 10
5286.3273620605
 20
5326.1865872623
 10
5286.8953352612
 20
5326.3283909684
 10
5287.2553609925
 20
5326.6032539289
  0
LWPOLYLINE
  5
2B3
330
1F
100
AcDbEntity
  8
0
  6
Continuous
 62
     7
100
AcDbPolyline
 90
        3
 70
   128
 43
0.0
 10
5287.2543334961
 20
5326.6032539289
 10
5287.2388821171
 20
5326.6574877156
 10
5287.1970276591
 20
5326.6724205956
  0
LWPOLYLINE
  5
2B4
330
1F
100
AcDbEntity
  8
0
  6
Continuous
 62
     7
100
AcDbPolyline
 90
        3
 70
   128
 43
0.0
 10
5287.1932983398
 20
5326.6724205956
 10
5287.1051513806
 20
5326.6418409299
 10
5287.0361943258
 20
5326.6090872623
  0
LWPOLYLINE
  5
2B5
330
1F
100
AcDbEntity
  8
0
  6
Continuous
 62
     7
100
AcDbPolyline
 90
        3
 70
   128
 43
0.0
 10
5287.0330810547
 20
5326.6090872623
 10
5286.7378574816
 20
5326.489740657
 10
5286.4886943258
 20
5326.4532539289
  0
LWPOLYLINE
  5
2B6
330
1F
100
AcDbEntity
  8
0
  6
Continuous
 62
     7
100
AcDbPolyline
 90
        3
 70
   128
 43
0.0
 10
5286.4875793457
 20
5326.4532539289
 10
5286.1349971539
 20
5326.6095183344
 10
5286.0278609925
 20
5326.8990872623
  0
LWPOLYLINE
  5
2B7
330
1F
100
AcDbEntity
  8
0
  6
Continuous
 62
     7
100
AcDbPolyline
 90
        3
 70
   128
 43
0.0
 10
5286.0260009766
 20
5326.8990872623
 10
5286.0976197733
 20
5327.0065670892
 10
5286.1936943258
 20
5327.0540872623
  0
LWPOLYLINE
  5
2B8
330
1F
100
AcDbEntity
  8
0
  6
Continuous
 62
     7
100
AcDbPolyline
 90
        3
 70
   128
 43
0.0
 10
5286.190032959
 20
5327.0540872623
 10
5286.9493672296
 20
5327.4911394979
 10
5287.3078609925
 20
5328.0490872623
  0
LWPOLYLINE
  5
2B9
330
1F
100
AcDbEntity
  8
0
  6
Continuous
 62
     7
100
AcDbPolyline
 90
        3
 70
   128
 43
0.0
 10
5287.3077392578
 20
5328.0490872623
 10
5287.1501851953
 20
5328.3644957473
 10
5286.8711943258
 20
5328.4265872623
  0
LWPOLYLINE
  5
2BA
330
1F
100
AcDbEntity
  8
0
  6
Continuous
 62
     7
100
AcDbPolyline
 90
        3
 70
   128
 43
0.0
 10
5286.8690490723
 20
5328.4265872623
 10
5285.9558134249
 20
5327.9222187882
 10
5285.6003609925
 20
5327.1632539289
  0
LWPOLYLINE
  5
2BB
330
1F
100
AcDbEntity
  8
0
  6
Continuous
 62
     7
100
AcDbPolyline
 90
        3
 70
   128
 43
0.0
 10
5285.5987548828
 20
5327.1632539289
 10
5285.5559750892
 20
5327.0927397405
 10
5285.4970276591
 20
5327.0599205956
  0
LWPOLYLINE
  5
2BC
330
1F
100
AcDbEntity
  8
0
  6
Continuous
 62
     7
100
AcDbPolyline
 90
        3
 70
   128
 43
0.0
 10
5285.4957580566
 20
5327.0599205956
 10
5285.4081595432
 20
5326.9941056432
 10
5285.3878609925
 20
5326.9099205956
  0
LWPOLYLINE
  5
2BD
330
1F
100
AcDbEntity
  8
0
  6
Continuous
 62
     7
100
AcDbPolyline
 90
        3
 70
   128
 43
0.0
 10
5285.3851318359
 20
5326.9099205956
 10
5285.4161526572
 20
5326.8404709971
 10
5285.4753609925
 20
5326.8240872623
  0
LWPOLYLINE
  5
2BE
330
1F
100
AcDbEntity
  8
0
  6
Continuous
 62
     7
100
AcDbPolyline
 90
        3
 70
   128
 43
0.0
 10
5287.6968383789
 20
5326.2399205956
 10
5287.8489245289
 20
5326.2796895302
 10
5287.9620276591
 20
5326.3299205956
  0
ARC
  5
2BF
330
1F
100
AcDbEntity
  8
0
  6
Continuous
 62
     7
100
AcDbCircle
 10
5286.8847841129
 20
5326.9453777414
 30
0.0
 40
1.238946964793738
100
AcDbArc
 50
330.2142406425
 51
0.4413188695
  0
LWPOLYLINE
  5
2C0
330
1F
100
AcDbEntity
  8
0
  6
Continuous
 62
     7
100
AcDbPolyline
 90
        3
 70
   128
 43
0.0
 10
5288.1202697754
 20
5326.9549205956
 10
5288.1552975346
 20
5327.2676487696
 10
5288.1811943258
 20
5327.5132539289
  0
LWPOLYLINE
  5
2C1
330
1F
100
AcDbEntity
  8
0
  6
Continuous
 62
     7
100
AcDbPolyline
 90
        3
 70
   128
 43
0.0
 10
5288.1774902344
 20
5327.5132539289
 10
5288.2056676677
 20
5327.7079792255
 10
5288.2445276591
 20
5327.8565872623
  0
LWPOLYLINE
  5
2C2
330
1F
100
AcDbEntity
  8
0
  6
Continuous
 62
     7
100
AcDbPolyline
 90
        3
 70
   128
 43
0.0
 10
5288.2423400879
 20
5327.8565872623
 10
5288.3458309407
 20
5327.925274288
 10
5288.4411943258
 20
5327.9465872623
  0
LWPOLYLINE
  5
2C3
330
1F
100
AcDbEntity
  8
0
  6
Continuous
 62
     7
100
AcDbPolyline
 90
        3
 70
   128
 43
0.0
 10
5288.4407043457
 20
5327.9465872623
 10
5288.6636363508
 20
5327.9745009081
 10
5288.8386943258
 20
5327.9940872623
  0
LWPOLYLINE
  5
2C4
330
1F
100
AcDbEntity
  8
0
  6
Continuous
 62
     7
100
AcDbPolyline
 90
        3
 70
   128
 43
0.0
 10
5288.8374328613
 20
5327.9940872623
 10
5288.9678885757
 20
5328.0122538208
 10
5289.0636943258
 20
5328.0415872623
  0
LWPOLYLINE
  5
2C5
330
1F
100
AcDbEntity
  8
0
  6
Continuous
 62
     7
100
AcDbPolyline
 90
        3
 70
   128
 43
0.0
 10
5289.0625
 20
5328.0415872623
 10
5289.1086691046
 20
5328.1974965387
 10
5289.1211943258
 20
5328.3257539289
  0
LWPOLYLINE
  5
2C6
330
1F
100
AcDbEntity
  8
0
  6
Continuous
 62
     7
100
AcDbPolyline
 90
        3
 70
   128
 43
0.0
 10
5289.119720459
 20
5328.3257539289
 10
5289.0942129202
 20
5328.4060077563
 10
5289.0303609925
 20
5328.4265872623
  0
LWPOLYLINE
  5
2C7
330
1F
100
AcDbEntity
  8
0
  6
Continuous
 62
     7
100
AcDbPolyline
 90
        3
 70
   128
 43
0.0
 10
5289.0281677246
 20
5328.4265872623
 10
5288.7593968265
 20
5328.3672504299
 10
5288.5578609925
 20
5328.2840872623
  0
LWPOLYLINE
  5
2C8
330
1F
100
AcDbEntity
  8
0
  6
Continuous
 62
     7
100
AcDbPolyline
 90
        3
 70
   128
 43
0.0
 10
5288.5551452637
 20
5328.2840872623
 10
5288.4482414284
 20
5328.2133095688
 10
5288.3645276591
 20
5328.1540872623
  0
LWPOLYLINE
  5
2C9
330
1F
100
AcDbEntity
  8
0
  6
Continuous
 62
     7
100
AcDbPolyline
 90
        3
 70
   128
 43
0.0
 10
5288.3644104004
 20
5328.1540872623
 10
5288.3219645703
 20
5328.1233855641
 10
5288.2845276591
 20
5328.1065872623
  0
LWPOLYLINE
  5
2CA
330
1F
100
AcDbEntity
  8
0
  6
Continuous
 62
     7
100
AcDbPolyline
 90
        5
 70
   128
 43
0.0
 10
5288.2843017578
 20
5328.1065872623
 10
5288.2721699501
 20
5328.1182809316
 10
5288.2699420688
 20
5328.1365843715
 10
5288.2686539679
 20
5328.1720469867
 10
5288.2678609925
 20
5328.2432539289
  0
LWPOLYLINE
  5
2CB
330
1F
100
AcDbEntity
  8
0
  6
Continuous
 62
     7
100
AcDbPolyline
 90
        5
 70
   128
 43
0.0
 10
5288.2652282715
 20
5328.2432539289
 10
5288.2646348263
 20
5328.3484265631
 10
5288.2552591739
 20
5328.4003461227
 10
5288.2387633098
 20
5328.4200300615
 10
5288.2128609925
 20
5328.4265872623
  0
LWPOLYLINE
  5
2CC
330
1F
100
AcDbEntity
  8
0
  6
Continuous
 62
     7
100
AcDbPolyline
 90
        3
 70
   128
 43
0.0
 10
5288.2118225098
 20
5328.4265872623
 10
5287.979266889
 20
5328.3444002105
 10
5287.8411943258
 20
5328.2140872623
  0
LWPOLYLINE
  5
2CD
330
1F
100
AcDbEntity
  8
0
  6
Continuous
 62
     7
100
AcDbPolyline
 90
        3
 70
   128
 43
0.0
 10
5287.8379821777
 20
5328.2140872623
 10
5287.7590231441
 20
5327.4926541984
 10
5287.6878609925
 20
5326.9265872623
  0
LWPOLYLINE
  5
2CE
330
1F
100
AcDbEntity
  8
0
  6
Continuous
 62
     7
100
AcDbPolyline
 90
        3
 70
   128
 43
0.0
 10
5287.6853942871
 20
5326.9265872623
 10
5287.652134225
 20
5326.6318753009
 10
5287.6278609925
 20
5326.3999205956
  0
LWPOLYLINE
  5
2CF
330
1F
100
AcDbEntity
  8
0
  6
Continuous
 62
     7
100
AcDbPolyline
 90
        4
 70
   128
 43
0.0
 10
5287.6243591309
 20
5326.3999205956
 10
5287.6367436421
 20
5326.3054330671
 10
5287.655857168
 20
5326.2609617558
 10
5287.6970276591
 20
5326.2399205956
  0
LWPOLYLINE
  5
2D0
330
1F
100
AcDbEntity
  8
0
  6
Continuous
 62
     7
100
AcDbPolyline
 90
        3
 70
   128
 43
0.0
 10
5282.2341918945
 20
5327.8640872623
 10
5282.488951424
 20
5328.1020617792
 10
5282.7545276591
 20
5328.1599205956
  0
LWPOLYLINE
  5
2D1
330
1F
100
AcDbEntity
  8
0
  6
Continuous
 62
     7
100
AcDbPolyline
 90
        3
 70
   128
 43
0.0
 10
5282.7529907227
 20
5328.1599205956
 10
5282.9711636215
 20
5328.1427076623
 10
5283.1403609925
 20
5328.1190872623
  0
LWPOLYLINE
  5
2D2
330
1F
100
AcDbEntity
  8
0
  6
Continuous
 62
     7
100
AcDbPolyline
 90
        3
 70
   128
 43
0.0
 10
5283.1382751465
 20
5328.1190872623
 10
5283.2759222729
 20
5328.1009895319
 10
5283.3828609925
 20
5328.0907539289
  0
LWPOLYLINE
  5
2D3
330
1F
100
AcDbEntity
  8
0
  6
Continuous
 62
     7
100
AcDbPolyline
 90
        3
 70
   128
 43
0.0
 10
5283.3824157715
 20
5328.0907539289
 10
5283.4815049159
 20
5328.1307867703
 10
5283.5036943258
 20
5328.2132539289
  0
LWPOLYLINE
  5
2D4
330
1F
100
AcDbEntity
  8
0
  6
Continuous
 62
     7
100
AcDbPolyline
 90
        4
 70
   128
 43
0.0
 10
5283.5006713867
 20
5328.2132539289
 10
5283.4732854816
 20
5328.3217301335
 10
5283.3812757722
 20
5328.3866506685
 10
5283.1578609925
 20
5328.4265872623
  0
LWPOLYLINE
  5
2D5
330
1F
100
AcDbEntity
  8
0
  6
Continuous
 62
     7
100
AcDbPolyline
 90
        3
 70
   128
 43
0.0
 10
5283.1573486328
 20
5328.4265872623
 10
5281.8516050897
 20
5327.8435486598
 10
5281.4411943258
 20
5326.7782539289
  0
LWPOLYLINE
  5
2D6
330
1F
100
AcDbEntity
  8
0
  6
Continuous
 62
     7
100
AcDbPolyline
 90
        3
 70
   128
 43
0.0
 10
5281.4407348633
 20
5326.7782539289
 10
5281.642922819
 20
5326.3144920192
 10
5282.0286943258
 20
5326.1865872623
  0
LWPOLYLINE
  5
2D7
330
1F
100
AcDbEntity
  8
0
  6
Continuous
 62
     7
100
AcDbPolyline
 90
        3
 70
   128
 43
0.0
 10
5282.0281982422
 20
5326.1865872623
 10
5282.6448167505
 20
5326.5319671047
 10
5282.955362454
 20
5327.0157543739
  0
LWPOLYLINE
  5
2D8
330
1F
100
AcDbEntity
  8
0
  6
Continuous
 62
     7
100
AcDbPolyline
 90
        3
 70
   128
 43
0.0
 10
5282.958984375
 20
5326.9699202647
 10
5282.908462585
 20
5326.6676445104
 10
5282.8811943258
 20
5326.4282539289
  0
LWPOLYLINE
  5
2D9
330
1F
100
AcDbEntity
  8
0
  6
Continuous
 62
     7
100
AcDbPolyline
 90
        3
 70
   128
 43
0.0
 10
5282.8788757324
 20
5326.4282539289
 10
5282.9768696349
 20
5326.2249589424
 10
5283.1553609925
 20
5326.1865872623
  0
LWPOLYLINE
  5
2DA
330
1F
100
AcDbEntity
  8
0
  6
Continuous
 62
     7
100
AcDbPolyline
 90
        5
 70
   128
 43
0.0
 10
5283.1535339355
 20
5326.1865872623
 10
5283.4207266998
 20
5326.2239850032
 10
5283.5486836484
 20
5326.2642492666
 10
5283.6078338183
 20
5326.2957342051
 10
5283.6403609925
 20
5326.3515872623
  0
LWPOLYLINE
  5
2DB
330
1F
100
AcDbEntity
  8
0
  6
Continuous
 62
     7
100
AcDbPolyline
 90
        5
 70
   128
 43
0.0
 10
5283.6380004883
 20
5326.3515872623
 10
5283.6362897094
 20
5326.3735607872
 10
5283.6210523953
 20
5326.3886093338
 10
5283.5780066093
 20
5326.3974432629
 10
5283.4903609925
 20
5326.3999205956
  0
LWPOLYLINE
  5
2DC
330
1F
100
AcDbEntity
  8
0
  6
Continuous
 62
     7
100
AcDbPolyline
 90
        4
 70
   128
 43
0.0
 10
5283.4892272949
 20
5326.3999205956
 10
5283.3343912719
 20
5326.4166462479
 10
5283.2733083579
 20
5326.4637331847
 10
5283.2545276591
 20
5326.5399205956
  0
ARC
  5
2DD
330
1F
100
AcDbEntity
  8
0
  6
Continuous
 62
     7
100
AcDbCircle
 10
5311.8486534321
 20
5323.2089310699
 30
0.0
 40
28.78928837527373
100
AcDbArc
 50
171.4248773578
 51
173.3558604161
  0
LWPOLYLINE
  5
2DE
330
1F
100
AcDbEntity
  8
0
  6
Continuous
 62
     7
100
AcDbPolyline
 90
        3
 70
   128
 43
0.0
 10
5283.3786010742
 20
5327.5015872623
 10
5283.4113363597
 20
5327.7011438968
 10
5283.4328609925
 20
5327.8582539289
  0
LWPOLYLINE
  5
2DF
330
1F
100
AcDbEntity
  8
0
  6
Continuous
 62
     7
100
AcDbPolyline
 90
        4
 70
   128
 43
0.0
 10
5283.4320068359
 20
5327.8582539289
 10
5283.4200368246
 20
5327.9150771362
 10
5283.3779928024
 20
5327.9551543837
 10
5283.2653609925
 20
5327.9857539289
  0
LWPOLYLINE
  5
2E0
330
1F
100
AcDbEntity
  8
0
  6
Continuous
 62
     7
100
AcDbPolyline
 90
        4
 70
   128
 43
0.0
 10
5283.2641601562
 20
5327.9857539289
 10
5283.1934061809
 20
5327.9596599424
 10
5283.151419381
 20
5327.8940650645
 10
5283.0928609925
 20
5327.7490872623
  0
LWPOLYLINE
  5
2E1
330
1F
100
AcDbEntity
  8
0
  6
Continuous
 62
     7
100
AcDbPolyline
 90
        3
 70
   128
 43
0.0
 10
5283.0924987793
 20
5327.7490872623
 10
5283.0521718876
 20
5327.6324119278
 10
5283.0178609925
 20
5327.5415872623
  0
LWPOLYLINE
  5
2E2
330
1F
100
AcDbEntity
  8
0
  6
Continuous
 62
     7
100
AcDbPolyline
 90
        3
 70
   128
 43
0.0
 10
5283.016204834
 20
5327.5415872623
 10
5282.8194291945
 20
5327.1108107378
 10
5282.6245276591
 20
5326.7932539289
  0
LWPOLYLINE
  5
2E3
330
1F
100
AcDbEntity
  8
0
  6
Continuous
 62
     7
100
AcDbPolyline
 90
        3
 70
   128
 43
0.0
 10
5282.6232910156
 20
5326.7932539289
 10
5282.3888605944
 20
5326.5449830843
 10
5282.1395276591
 20
5326.4532539289
  0
LWPOLYLINE
  5
2E4
330
1F
100
AcDbEntity
  8
0
  6
Continuous
 62
     7
100
AcDbPolyline
 90
        3
 70
   128
 43
0.0
 10
5282.1388244629
 20
5326.4532539289
 10
5281.9098769767
 20
5326.6126522833
 10
5281.8678609925
 20
5326.8399205956
  0
LWPOLYLINE
  5
2E5
330
1F
100
AcDbEntity
  8
0
  6
Continuous
 62
     7
100
AcDbPolyline
 90
        3
 70
   128
 43
0.0
 10
5281.8641662598
 20
5326.8399205956
 10
5281.994715402
 20
5327.4431925917
 10
5282.2361943258
 20
5327.8640872623
  0
LWPOLYLINE
  5
2E6
330
1F
100
AcDbEntity
  8
0
  6
Continuous
 62
     7
100
AcDbPolyline
 90
        3
 70
   128
 43
0.0
 10
5279.6211242676
 20
5326.6532538256
 10
5279.8606044015
 20
5326.2805672554
 10
5280.2003609925
 20
5326.1865872623
  0
LWPOLYLINE
  5
2E7
330
1F
100
AcDbEntity
  8
0
  6
Continuous
 62
     7
100
AcDbPolyline
 90
        4
 70
   128
 43
0.0
 10
5280.1971435547
 20
5326.1865872623
 10
5280.7403544562
 20
5326.4659639449
 10
5281.0298471543
 20
5327.0222948642
 10
5281.2278609925
 20
5328.2632539289
  0
LWPOLYLINE
  5
2E8
330
1F
100
AcDbEntity
  8
0
  6
Continuous
 62
     7
100
AcDbPolyline
 90
        3
 70
   128
 43
0.0
 10
5281.2271118164
 20
5328.2632539289
 10
5281.2055436171
 20
5328.3475932922
 10
5281.1428609925
 20
5328.3732539289
  0
ARC
  5
2E9
330
1F
100
AcDbEntity
  8
0
  6
Continuous
 62
     7
100
AcDbCircle
 10
5281.1249061475
 20
5327.9039816376
 30
0.0
 40
0.4694952563998931
100
AcDbArc
 50
88.2341344712
 51
138.1172558629
  0
LWPOLYLINE
  5
2EA
330
1F
100
AcDbEntity
  8
0
  6
Continuous
 62
     7
100
AcDbPolyline
 90
        3
 70
   128
 43
0.0
 10
5280.7731628418
 20
5328.2174205956
 10
5280.7896455916
 20
5328.1714925834
 10
5280.8045276591
 20
5328.1365872623
  0
LWPOLYLINE
  5
2EB
330
1F
100
AcDbEntity
  8
0
  6
Continuous
 62
     7
100
AcDbPolyline
 90
        3
 70
   128
 43
0.0
 10
5280.8036804199
 20
5328.1365872623
 10
5280.8903041098
 20
5327.8911446742
 10
5280.9078609925
 20
5327.6874205956
  0
LWPOLYLINE
  5
2EC
330
1F
100
AcDbEntity
  8
0
  6
Continuous
 62
     7
100
AcDbPolyline
 90
        4
 70
   128
 43
0.0
 10
5280.9066772461
 20
5327.6874205956
 10
5280.8157300049
 20
5326.9597932886
 10
5280.6640738921
 20
5326.6262452585
 10
5280.3553609925
 20
5326.4532539289
  0
LWPOLYLINE
  5
2ED
330
1F
100
AcDbEntity
  8
0
  6
Continuous
 62
     7
100
AcDbPolyline
 90
        3
 70
   128
 43
0.0
 10
5280.3535461426
 20
5326.4532539289
 10
5280.0419021874
 20
5326.6651820262
 10
5279.9836943258
 20
5326.9715872623
  0
LWPOLYLINE
  5
2EE
330
1F
100
AcDbEntity
  8
0
  6
Continuous
 62
     7
100
AcDbPolyline
 90
        3
 70
   128
 43
0.0
 10
5279.9835205078
 20
5326.9715872623
 10
5280.0532911313
 20
5327.5669347537
 10
5280.1636943258
 20
5328.0257539289
  0
LWPOLYLINE
  5
2EF
330
1F
100
AcDbEntity
  8
0
  6
Continuous
 62
     7
100
AcDbPolyline
 90
        3
 70
   128
 43
0.0
 10
5280.1628112793
 20
5328.0257539289
 10
5280.1854828056
 20
5328.098474539
 10
5280.1986943258
 20
5328.1565872623
  0
LWPOLYLINE
  5
2F0
330
1F
100
AcDbEntity
  8
0
  6
Continuous
 62
     7
100
AcDbPolyline
 90
        3
 70
   128
 43
0.0
 10
5280.1971435547
 20
5328.1565872623
 10
5280.0518120508
 20
5328.307541599
 10
5279.8961943258
 20
5328.3732539289
  0
ARC
  5
2F1
330
1F
100
AcDbEntity
  8
0
  6
Continuous
 62
     7
100
AcDbCircle
 10
5281.8372805808
 20
5327.2960374084
 30
0.0
 40
2.220317622281097
100
AcDbArc
 50
150.9768311397
 51
180.4374064586
  0
LWPOLYLINE
  5
2F2
330
1F
100
AcDbEntity
  8
0
  6
Continuous
 62
     7
100
AcDbPolyline
 90
        3
 70
   128
 43
0.0
 10
5279.613494873
 20
5327.2790872623
 10
5279.4098234422
 20
5326.7427173685
 10
5279.0536943258
 20
5326.4840872623
  0
LWPOLYLINE
  5
2F3
330
1F
100
AcDbEntity
  8
0
  6
Continuous
 62
     7
100
AcDbPolyline
 90
        4
 70
   128
 43
0.0
 10
5279.052734375
 20
5326.4840872623
 10
5278.9039475999
 20
5326.5419704895
 10
5278.816160376
 20
5326.6786039151
 10
5278.7745276591
 20
5327.0024205956
  0
LWPOLYLINE
  5
2F4
330
1F
100
AcDbEntity
  8
0
  6
Continuous
 62
     7
100
AcDbPolyline
 90
        3
 70
   128
 43
0.0
 10
5278.7742614746
 20
5327.0024205956
 10
5278.8303020971
 20
5327.5700379707
 10
5278.9411943258
 20
5328.0049205956
  0
LWPOLYLINE
  5
2F5
330
1F
100
AcDbEntity
  8
0
  6
Continuous
 62
     7
100
AcDbPolyline
 90
        3
 70
   128
 43
0.0
 10
5278.938293457
 20
5328.0049205956
 10
5278.963534405
 20
5328.0883283998
 10
5278.9761943258
 20
5328.1549205956
  0
LWPOLYLINE
  5
2F6
330
1F
100
AcDbEntity
  8
0
  6
Continuous
 62
     7
100
AcDbPolyline
 90
        3
 70
   128
 43
0.0
 10
5278.9726257324
 20
5328.1549205956
 10
5278.8274660209
 20
5328.3232596033
 10
5278.6811943258
 20
5328.4265872623
  0
ARC
  5
2F7
330
1F
100
AcDbEntity
  8
0
  6
Continuous
 62
     7
100
AcDbCircle
 10
5281.6796018787
 20
5327.1024918301
 30
0.0
 40
3.279859178206845
100
AcDbArc
 50
156.1900010393
 51
181.7047210062
  0
LWPOLYLINE
  5
2F8
330
1F
100
AcDbEntity
  8
0
  6
Continuous
 62
     7
100
AcDbPolyline
 90
        4
 70
   128
 43
0.0
 10
5278.4004211426
 20
5327.0049205956
 10
5278.4797173146
 20
5326.4794278976
 10
5278.6298178161
 20
5326.2624543204
 10
5278.8811943258
 20
5326.1865872623
  0
LWPOLYLINE
  5
2F9
330
1F
100
AcDbEntity
  8
0
  6
Continuous
 62
     7
100
AcDbPolyline
 90
        3
 70
   128
 43
0.0
 10
5278.881072998
 20
5326.1865872623
 10
5279.1834948597
 20
5326.2953869688
 10
5279.3720276591
 20
5326.4690872623
  0
LWPOLYLINE
  5
2FA
330
1F
100
AcDbEntity
  8
0
  6
Continuous
 62
     7
100
AcDbPolyline
 90
        3
 70
   128
 43
0.0
 10
5279.369354248
 20
5326.4690872623
 10
5279.4577804252
 20
5326.570047671
 10
5279.5203609925
 20
5326.6532539289
  0
LWPOLYLINE
  5
2FB
330
1F
100
AcDbEntity
  8
0
  6
Continuous
 62
     7
100
AcDbPolyline
 90
        3
 70
   128
 43
0.0
 10
5279.5181274414
 20
5326.6532539289
 10
5279.5559800091
 20
5326.6979144804
 10
5279.5886943258
 20
5326.7282539289
  0
LWPOLYLINE
  5
2FC
330
1F
100
AcDbEntity
  8
0
  6
Continuous
 62
     7
100
AcDbPolyline
 90
        3
 70
   128
 43
0.0
 10
5279.5867919922
 20
5326.7282539289
 10
5279.6131988754
 20
5326.6962435014
 10
5279.6228611767
 20
5326.6649214348
  0
LWPOLYLINE
  5
2FD
330
1F
100
AcDbEntity
  8
0
  6
Continuous
 62
     7
100
AcDbPolyline
 90
        3
 70
   128
 43
0.0
 10
5274.5552062988
 20
5328.4315872623
 10
5274.4353765499
 20
5328.3393768837
 10
5274.3478609925
 20
5328.2549205956
  0
LWPOLYLINE
  5
2FE
330
1F
100
AcDbEntity
  8
0
  6
Continuous
 62
     7
100
AcDbPolyline
 90
        3
 70
   128
 43
0.0
 10
5274.3453979492
 20
5328.2549205956
 10
5273.8588670039
 20
5327.8087405342
 10
5273.4678609925
 20
5327.4657539289
  0
LWPOLYLINE
  5
2FF
330
1F
100
AcDbEntity
  8
0
  6
Continuous
 62
     7
100
AcDbPolyline
 90
        3
 70
   128
 43
0.0
 10
5273.4642028809
 20
5327.4657539289
 10
5273.5371164549
 20
5327.9841326129
 10
5273.5903609925
 20
5328.3915872623
  0
ARC
  5
300
330
1F
100
AcDbEntity
  8
0
  6
Continuous
 62
     7
100
AcDbCircle
 10
5201.8626960091
 20
5338.0048663181
 30
0.0
 40
72.36873551704002
100
AcDbArc
 50
352.366410752
 51
353.828534322
  0
LWPOLYLINE
  5
301
330
1F
100
AcDbEntity
  8
0
  6
Continuous
 62
     7
100
AcDbPolyline
 90
        3
 70
   128
 43
0.0
 10
5273.811340332
 20
5330.2249205956
 10
5273.7981959069
 20
5330.2772130755
 10
5273.7595276591
 20
5330.2932539289
  0
LWPOLYLINE
  5
302
330
1F
100
AcDbEntity
  8
0
  6
Continuous
 62
     7
100
AcDbPolyline
 90
        3
 70
   128
 43
0.0
 10
5273.7579345703
 20
5330.2932539289
 10
5273.5968173396
 20
5330.223329955
 10
5273.4736943258
 20
5330.1574205956
  0
LWPOLYLINE
  5
303
330
1F
100
AcDbEntity
  8
0
  6
Continuous
 62
     7
100
AcDbPolyline
 90
        3
 70
   128
 43
0.0
 10
5273.4718322754
 20
5330.1574205956
 10
5273.4642733807
 20
5330.1503266782
 10
5273.4561943258
 20
5330.1457539289
  0
LWPOLYLINE
  5
304
330
1F
100
AcDbEntity
  8
0
  6
Continuous
 62
     7
100
AcDbPolyline
 90
        3
 70
   128
 43
0.0
 10
5273.4527587891
 20
5330.1457539289
 10
5273.3939616776
 20
5330.0529471589
 10
5273.3803609925
 20
5329.9640872623
  0
LWPOLYLINE
  5
305
330
1F
100
AcDbEntity
  8
0
  6
Continuous
 62
     7
100
AcDbPolyline
 90
        3
 70
   128
 43
0.0
 10
5273.380279541
 20
5329.9640872623
 10
5273.3766059721
 20
5329.951607663
 10
5273.3745276591
 20
5329.9415872623
  0
ARC
  5
306
330
1F
100
AcDbEntity
  8
0
  6
Continuous
 62
     7
100
AcDbCircle
 10
5357.1838277571
 20
5317.3325513987
 30
0.0
 40
84.75435845949796
100
AcDbArc
 50
171.4442581666
 51
173.9095004322
  0
LWPOLYLINE
  5
307
330
1F
100
AcDbEntity
  8
0
  6
Continuous
 62
     7
100
AcDbPolyline
 90
        3
 70
   128
 43
0.0
 10
5272.9072570801
 20
5326.3249205956
 10
5272.9234584682
 20
5326.2591636878
 10
5272.9720276591
 20
5326.2399205956
  0
LWPOLYLINE
  5
308
330
1F
100
AcDbEntity
  8
0
  6
Continuous
 62
     7
100
AcDbPolyline
 90
        3
 70
   128
 43
0.0
 10
5272.9682922363
 20
5326.2399205956
 10
5273.1701808707
 20
5326.3286213396
 10
5273.3045276591
 20
5326.4332539289
  0
LWPOLYLINE
  5
309
330
1F
100
AcDbEntity
  8
0
  6
Continuous
 62
     7
100
AcDbPolyline
 90
        3
 70
   128
 43
0.0
 10
5273.3039855957
 20
5326.4332539289
 10
5273.3426389056
 20
5326.6222674726
 10
5273.3628609925
 20
5326.7732539289
  0
LWPOLYLINE
  5
30A
330
1F
100
AcDbEntity
  8
0
  6
Continuous
 62
     7
100
AcDbPolyline
 90
        3
 70
   128
 43
0.0
 10
5273.3612060547
 20
5326.7732539289
 10
5273.3851492849
 20
5326.9656691782
 10
5273.4270276591
 20
5327.1082539289
  0
ARC
  5
30B
330
1F
100
AcDbEntity
  8
0
  6
Continuous
 62
     7
100
AcDbCircle
 10
5266.8258070741
 20
5320.9449651813
 30
0.0
 40
9.030471353083795
100
AcDbArc
 50
36.7444750679
 51
43.0392430817
  0
LWPOLYLINE
  5
30C
330
1F
100
AcDbEntity
  8
0
  6
Continuous
 62
     7
100
AcDbPolyline
 90
        3
 70
   128
 43
0.0
 10
5274.0592956543
 20
5326.3474205956
 10
5274.2272266309
 20
5326.1308898016
 10
5274.3536943258
 20
5325.9582539289
  0
LWPOLYLINE
  5
30D
330
1F
100
AcDbEntity
  8
0
  6
Continuous
 62
     7
100
AcDbPolyline
 90
        3
 70
   128
 43
0.0
 10
5274.3530273438
 20
5325.9582539289
 10
5274.5227015537
 20
5325.7220839614
 10
5274.6745276591
 20
5325.5549205956
  0
LWPOLYLINE
  5
30E
330
1F
100
AcDbEntity
  8
0
  6
Continuous
 62
     7
100
AcDbPolyline
 90
        3
 70
   128
 43
0.0
 10
5274.6734619141
 20
5325.5549205956
 10
5274.7137569266
 20
5325.6020977111
 10
5274.7211943258
 20
5325.6524205956
  0
ARC
  5
30F
330
1F
100
AcDbEntity
  8
0
  6
Continuous
 62
     7
100
AcDbCircle
 10
5271.412023549
 20
5324.6991544073
 30
0.0
 40
3.441857886493002
100
AcDbArc
 50
16.079011352
 51
42.6050198154
  0
ARC
  5
310
330
1F
100
AcDbEntity
  8
0
  6
Continuous
 62
     7
100
AcDbCircle
 10
5275.3591074403
 20
5328.3211645622
 30
0.0
 40
1.915613337718826
100
AcDbArc
 50
209.0012376809
 51
222.4151765091
  0
LWPOLYLINE
  5
311
330
1F
100
AcDbEntity
  8
0
  6
Continuous
 62
     7
100
AcDbPolyline
 90
        3
 70
   128
 43
0.0
 10
5273.681640625
 20
5327.3924205956
 10
5273.7335865371
 20
5327.4537981227
 10
5273.7828609925
 20
5327.4949205956
  0
LWPOLYLINE
  5
312
330
1F
100
AcDbEntity
  8
0
  6
Continuous
 62
     7
100
AcDbPolyline
 90
        3
 70
   128
 43
0.0
 10
5273.7808227539
 20
5327.4949205956
 10
5273.8702504376
 20
5327.5681352866
 10
5273.9395276591
 20
5327.6249205956
  0
ARC
  5
313
330
1F
100
AcDbEntity
  8
0
  6
Continuous
 62
     7
100
AcDbCircle
 10
5272.5815953503
 20
5329.6616748025
 30
0.0
 40
2.446650848276605
100
AcDbArc
 50
303.6470807777
 51
326.5086927523
  0
LWPOLYLINE
  5
314
330
1F
100
AcDbEntity
  8
0
  6
Continuous
 62
     7
100
AcDbPolyline
 90
        3
 70
   128
 43
0.0
 10
5274.6200561523
 20
5328.3115872623
 10
5274.6022826294
 20
5328.389334716
 10
5274.5578609925
 20
5328.4315872623
  0
LWPOLYLINE
  5
315
330
1F
100
AcDbEntity
  8
0
  6
Continuous
 62
     7
100
AcDbPolyline
 90
        3
 70
   128
 43
0.0
 10
5263.2865905762
 20
5326.8240872623
 10
5263.3344345168
 20
5326.8071571688
 10
5263.3586943258
 20
5326.7782539289
  0
LWPOLYLINE
  5
316
330
1F
100
AcDbEntity
  8
0
  6
Continuous
 62
     7
100
AcDbPolyline
 90
        3
 70
   128
 43
0.0
 10
5263.355255127
 20
5326.7782539289
 10
5263.6856338957
 20
5326.2917636114
 10
5264.1411943258
 20
5326.1865872623
  0
LWPOLYLINE
  5
317
330
1F
100
AcDbEntity
  8
0
  6
Continuous
 62
     7
100
AcDbPolyline
 90
        3
 70
   128
 43
0.0
 10
5264.1410827637
 20
5326.1865872623
 10
5264.7086685946
 20
5326.3283909684
 10
5265.0686943258
 20
5326.6032539289
  0
LWPOLYLINE
  5
318
330
1F
100
AcDbEntity
  8
0
  6
Continuous
 62
     7
100
AcDbPolyline
 90
        3
 70
   128
 43
0.0
 10
5265.0680541992
 20
5326.6032539289
 10
5265.0522154505
 20
5326.6574877156
 10
5265.0103609925
 20
5326.6724205956
  0
LWPOLYLINE
  5
319
330
1F
100
AcDbEntity
  8
0
  6
Continuous
 62
     7
100
AcDbPolyline
 90
        3
 70
   128
 43
0.0
 10
5265.007019043
 20
5326.6724205956
 10
5264.9184847139
 20
5326.6418409299
 10
5264.8495276591
 20
5326.6090872623
  0
LWPOLYLINE
  5
31A
330
1F
100
AcDbEntity
  8
0
  6
Continuous
 62
     7
100
AcDbPolyline
 90
        3
 70
   128
 43
0.0
 10
5264.8468017578
 20
5326.6090872623
 10
5264.5511908149
 20
5326.489740657
 10
5264.3020276591
 20
5326.4532539289
  0
LWPOLYLINE
  5
31B
330
1F
100
AcDbEntity
  8
0
  6
Continuous
 62
     7
100
AcDbPolyline
 90
        3
 70
   128
 43
0.0
 10
5264.3013000488
 20
5326.4532539289
 10
5263.9483304873
 20
5326.6095183344
 10
5263.8411943258
 20
5326.8990872623
  0
LWPOLYLINE
  5
31C
330
1F
100
AcDbEntity
  8
0
  6
Continuous
 62
     7
100
AcDbPolyline
 90
        3
 70
   128
 43
0.0
 10
5263.8397216797
 20
5326.8990872623
 10
5263.9109531066
 20
5327.0065670892
 10
5264.0070276591
 20
5327.0540872623
  0
LWPOLYLINE
  5
31D
330
1F
100
AcDbEntity
  8
0
  6
Continuous
 62
     7
100
AcDbPolyline
 90
        3
 70
   128
 43
0.0
 10
5264.0037536621
 20
5327.0540872623
 10
5264.7627005629
 20
5327.4911394979
 10
5265.1211943258
 20
5328.0490872623
  0
LWPOLYLINE
  5
31E
330
1F
100
AcDbEntity
  8
0
  6
Continuous
 62
     7
100
AcDbPolyline
 90
        3
 70
   128
 43
0.0
 10
5265.1176452637
 20
5328.0490872623
 10
5264.9635185286
 20
5328.3644957473
 10
5264.6845276591
 20
5328.4265872623
  0
LWPOLYLINE
  5
31F
330
1F
100
AcDbEntity
  8
0
  6
Continuous
 62
     7
100
AcDbPolyline
 90
        3
 70
   128
 43
0.0
 10
5264.6827697754
 20
5328.4265872623
 10
5263.7691467582
 20
5327.9222187882
 10
5263.4136943258
 20
5327.1632539289
  0
LWPOLYLINE
  5
320
330
1F
100
AcDbEntity
  8
0
  6
Continuous
 62
     7
100
AcDbPolyline
 90
        3
 70
   128
 43
0.0
 10
5263.4124755859
 20
5327.1632539289
 10
5263.3693084226
 20
5327.0927397405
 10
5263.3103609925
 20
5327.0599205956
  0
LWPOLYLINE
  5
321
330
1F
100
AcDbEntity
  8
0
  6
Continuous
 62
     7
100
AcDbPolyline
 90
        3
 70
   128
 43
0.0
 10
5263.3094787598
 20
5327.0599205956
 10
5263.2214928766
 20
5326.9941056432
 10
5263.2011943258
 20
5326.9099205956
  0
LWPOLYLINE
  5
322
330
1F
100
AcDbEntity
  8
0
  6
Continuous
 62
     7
100
AcDbPolyline
 90
        3
 70
   128
 43
0.0
 10
5263.1988525391
 20
5326.9099205956
 10
5263.2294859906
 20
5326.8404709971
 10
5263.2886943258
 20
5326.8240872623
  0
LWPOLYLINE
  5
323
330
1F
100
AcDbEntity
  8
0
  6
Continuous
 62
     7
100
AcDbPolyline
 90
        3
 70
   128
 43
0.0
 10
5299.4346618652
 20
5341.762752345
 10
5299.5512889388
 20
5341.7982297768
 10
5299.6136444204
 20
5341.8400448791
  0
LWPOLYLINE
  5
324
330
1F
100
AcDbEntity
  8
0
  6
Continuous
 62
     7
100
AcDbPolyline
 90
        3
 70
   128
 43
0.0
 10
5299.6101379395
 20
5341.8400448791
 10
5299.6648108356
 20
5341.9197327897
 10
5299.6772746594
 20
5341.9965745785
  0
LWPOLYLINE
  5
325
330
1F
100
AcDbEntity
  8
0
  6
Continuous
 62
     7
100
AcDbPolyline
 90
        3
 70
   128
 43
0.0
 10
5299.674987793
 20
5341.9965745785
 10
5299.6654398783
 20
5342.0707204232
 10
5299.6423040549
 20
5342.1237834452
  0
LWPOLYLINE
  5
326
330
1F
100
AcDbEntity
  8
0
  6
Continuous
 62
     7
100
AcDbPolyline
 90
        3
 70
   128
 43
0.0
 10
5299.6406555176
 20
5342.1237834452
 10
5299.5919927487
 20
5342.175540837
 10
5299.5429987234
 20
5342.2021583133
  0
LWPOLYLINE
  5
327
330
1F
100
AcDbEntity
  8
0
  6
Continuous
 62
     7
100
AcDbPolyline
 90
        3
 70
   128
 43
0.0
 10
5299.5414733887
 20
5342.2021583133
 10
5299.4631718342
 20
5342.2234053507
 10
5299.3726050406
 20
5342.2305440327
  0
LWPOLYLINE
  5
328
330
1F
100
AcDbEntity
  8
0
  6
Continuous
 62
     7
100
AcDbPolyline
 90
        3
 70
   128
 43
0.0
 10
5299.4041442871
 20
5341.677314209
 10
5299.450151086
 20
5341.6241040839
 10
5299.4923992008
 20
5341.563626731
  0
LWPOLYLINE
  5
329
330
1F
100
AcDbEntity
  8
0
  6
Continuous
 62
     7
100
AcDbPolyline
 90
        3
 70
   128
 43
0.0
 10
5299.5986938477
 20
5341.62055848
 10
5299.5471377437
 20
5341.6855115683
 10
5299.5067117661
 20
5341.7268903723
  0
LWPOLYLINE
  5
32A
330
1F
100
AcDbEntity
  8
0
  6
Continuous
 62
     7
100
AcDbPolyline
 90
        3
 70
   128
 43
0.0
 10
5298.5038757324
 20
5341.7917293042
 10
5298.8008403798
 20
5342.4236197563
 10
5299.3229530322
 20
5342.6130020026
  0
LWPOLYLINE
  5
32B
330
1F
100
AcDbEntity
  8
0
  6
Continuous
 62
     7
100
AcDbPolyline
 90
        3
 70
   128
 43
0.0
 10
5299.3202209473
 20
5342.6130020026
 10
5299.9491868445
 20
5342.315561655
 10
5300.1381445718
 20
5341.7902020421
  0
LWPOLYLINE
  5
32C
330
1F
100
AcDbEntity
  8
0
  6
Continuous
 62
     7
100
AcDbPolyline
 90
        3
 70
   128
 43
0.0
 10
5300.1365661621
 20
5341.7902020421
 10
5299.8416165611
 20
5341.1708936404
 10
5299.3214950047
 20
5340.9825059761
  0
LWPOLYLINE
  5
32D
330
1F
100
AcDbEntity
  8
0
  6
Continuous
 62
     7
100
AcDbPolyline
 90
        3
 70
   128
 43
0.0
 10
5299.3202209473
 20
5340.9825059761
 10
5298.6940200682
 20
5341.2747927979
 10
5298.5075109083
 20
5341.7917293042
  0
LWPOLYLINE
  5
32E
330
1F
100
AcDbEntity
  8
0
  6
Continuous
 62
     7
100
AcDbPolyline
 90
        3
 70
   128
 43
0.0
 10
5299.3774414062
 20
5342.1314461885
 10
5299.4680847255
 20
5342.1190722171
 10
5299.5142157765
 20
5342.0955673718
  0
LWPOLYLINE
  5
32F
330
1F
100
AcDbEntity
  8
0
  6
Continuous
 62
     7
100
AcDbPolyline
 90
        3
 70
   128
 43
0.0
 10
5299.4689941406
 20
5341.8684998324
 10
5299.4118499836
 20
5341.8581205643
 10
5299.3510244339
 20
5341.8546664325
  0
LWPOLYLINE
  5
330
330
1F
100
AcDbEntity
  8
0
  6
Continuous
 62
     7
100
AcDbPolyline
 90
        3
 70
   128
 43
0.0
 10
5299.5109558105
 20
5342.0955673718
 10
5299.5485226983
 20
5342.0456071004
 10
5299.5565598756
 20
5341.9967285154
  0
LWPOLYLINE
  5
331
330
1F
100
AcDbEntity
  8
0
  6
Continuous
 62
     7
100
AcDbPolyline
 90
        3
 70
   128
 43
0.0
 10
5296.6537475586
 20
5340.1907156836
 10
5296.5841420868
 20
5340.309360539
 10
5296.5133000898
 20
5340.4034146021
  0
LWPOLYLINE
  5
332
330
1F
100
AcDbEntity
  8
0
  6
Continuous
 62
     7
100
AcDbPolyline
 90
        3
 70
   128
 43
0.0
 10
5296.5126037598
 20
5340.4034146021
 10
5297.0254908817
 20
5341.4572674017
 10
5297.1893055315
 20
5342.3173981769
  0
LWPOLYLINE
  5
333
330
1F
100
AcDbEntity
  8
0
  6
Continuous
 62
     7
100
AcDbPolyline
 90
        3
 70
   128
 43
0.0
 10
5297.1878051758
 20
5342.3173981769
 10
5296.334174327
 20
5341.9898533999
 10
5295.7273363783
 20
5341.5740307191
  0
LWPOLYLINE
  5
334
330
1F
100
AcDbEntity
  8
0
  6
Continuous
 62
     7
100
AcDbPolyline
 90
        3
 70
   128
 43
0.0
 10
5295.726776123
 20
5341.5740307191
 10
5295.5171776559
 20
5341.3956465059
 10
5295.3515676707
 20
5341.2411767786
  0
LWPOLYLINE
  5
335
330
1F
100
AcDbEntity
  8
0
  6
Continuous
 62
     7
100
AcDbPolyline
 90
        3
 70
   128
 43
0.0
 10
5295.3147888184
 20
5341.262759248
 10
5295.2457645507
 20
5341.2943885485
 10
5295.1957611292
 20
5341.3193436136
  0
LWPOLYLINE
  5
336
330
1F
100
AcDbEntity
  8
0
  6
Continuous
 62
     7
100
AcDbPolyline
 90
        3
 70
   128
 43
0.0
 10
5295.1927185059
 20
5341.397478318
 10
5295.2657682551
 20
5341.4611196258
 10
5295.3165270781
 20
5341.510806272
  0
LWPOLYLINE
  5
337
330
1F
100
AcDbEntity
  8
0
  6
Continuous
 62
     7
100
AcDbPolyline
 90
        3
 70
   128
 43
0.0
 10
5295.3147888184
 20
5341.510806272
 10
5295.5439331958
 20
5341.6999854927
 10
5295.7275737242
 20
5341.8434373988
  0
LWPOLYLINE
  5
338
330
1F
100
AcDbEntity
  8
0
  6
Continuous
 62
     7
100
AcDbPolyline
 90
        3
 70
   128
 43
0.0
 10
5297.435760498
 20
5342.5791098175
 10
5297.1882594462
 20
5341.2684746884
 10
5296.6551380711
 20
5340.1907156836
  0
LWPOLYLINE
  5
339
330
1F
100
AcDbEntity
  8
0
  6
Continuous
 62
     7
100
AcDbPolyline
 90
        3
 70
   128
 43
0.0
 10
5295.726776123
 20
5341.8434373988
 10
5296.6190014186
 20
5342.3681868951
 10
5297.4371584758
 20
5342.5791098175
  0
LWPOLYLINE
  5
33A
330
1F
100
AcDbEntity
  8
0
  6
Continuous
 62
     7
100
AcDbPolyline
 90
        3
 70
   128
 43
0.0
 10
5295.7153320312
 20
5330.9033216163
 10
5295.4955740977
 20
5330.7896866981
 10
5295.3066865707
 20
5330.7051187217
  0
LWPOLYLINE
  5
33B
330
1F
100
AcDbEntity
  8
0
  6
Continuous
 62
     7
100
AcDbPolyline
 90
        3
 70
   128
 43
0.0
 10
5295.3033447266
 20
5330.7051187217
 10
5295.2414491051
 20
5330.6770617698
 10
5295.1864011597
 20
5330.6553863417
  0
LWPOLYLINE
  5
33C
330
1F
100
AcDbEntity
  8
0
  6
Continuous
 62
     7
100
AcDbPolyline
 90
        3
 70
   128
 43
0.0
 10
5295.1850891113
 20
5330.6553863417
 10
5295.0497713237
 20
5330.6078930356
 10
5294.9382866003
 20
5330.5706159534
  0
LWPOLYLINE
  5
33D
330
1F
100
AcDbEntity
  8
0
  6
Continuous
 62
     7
100
AcDbPolyline
 90
        3
 70
   128
 43
0.0
 10
5294.9371337891
 20
5330.5706159534
 10
5294.7932914224
 20
5330.5270789129
 10
5294.6751679454
 20
5330.4927031168
  0
LWPOLYLINE
  5
33E
330
1F
100
AcDbEntity
  8
0
  6
Continuous
 62
     7
100
AcDbPolyline
 90
        3
 70
   128
 43
0.0
 10
5294.6739196777
 20
5330.4927031168
 10
5294.5700825581
 20
5333.9283407879
 10
5294.8728448735
 20
5336.9094237065
  0
LWPOLYLINE
  5
33F
330
1F
100
AcDbEntity
  8
0
  6
Continuous
 62
     7
100
AcDbPolyline
 90
        3
 70
   128
 43
0.0
 10
5294.8722839355
 20
5336.9094237065
 10
5294.9149259418
 20
5337.0220357342
 10
5294.9440018776
 20
5337.1012820077
  0
LWPOLYLINE
  5
340
330
1F
100
AcDbEntity
  8
0
  6
Continuous
 62
     7
100
AcDbPolyline
 90
        3
 70
   128
 43
0.0
 10
5294.9409484863
 20
5337.1012820077
 10
5295.0803483567
 20
5337.4476061944
 10
5295.1926255767
 20
5337.6820774613
  0
LWPOLYLINE
  5
341
330
1F
100
AcDbEntity
  8
0
  6
Continuous
 62
     7
100
AcDbPolyline
 90
        3
 70
   128
 43
0.0
 10
5295.1889038086
 20
5337.6820774613
 10
5295.2594856261
 20
5337.8065223509
 10
5295.3131673783
 20
5337.8948313912
  0
LWPOLYLINE
  5
342
330
1F
100
AcDbEntity
  8
0
  6
Continuous
 62
     7
100
AcDbPolyline
 90
        3
 70
   128
 43
0.0
 10
5295.3147888184
 20
5337.9021916335
 10
5295.438177181
 20
5337.8013086478
 10
5295.5324067001
 20
5337.7208754253
  0
LWPOLYLINE
  5
343
330
1F
100
AcDbEntity
  8
0
  6
Continuous
 62
     7
100
AcDbPolyline
 90
        3
 70
   128
 43
0.0
 10
5295.5322265625
 20
5337.7208754253
 10
5295.4087980885
 20
5337.448492462
 10
5295.3126940944
 20
5337.1856233335
  0
LWPOLYLINE
  5
344
330
1F
100
AcDbEntity
  8
0
  6
Continuous
 62
     7
100
AcDbPolyline
 90
        3
 70
   128
 43
0.0
 10
5295.3109741211
 20
5337.1856233335
 10
5295.2447092782
 20
5336.9514301704
 10
5295.1916222801
 20
5336.7532794321
  0
LWPOLYLINE
  5
345
330
1F
100
AcDbEntity
  8
0
  6
Continuous
 62
     7
100
AcDbPolyline
 90
        3
 70
   128
 43
0.0
 10
5295.1889038086
 20
5336.7532794321
 10
5295.038612087
 20
5336.0474638334
 10
5294.9424394961
 20
5335.4275846098
  0
LWPOLYLINE
  5
346
330
1F
100
AcDbEntity
  8
0
  6
Continuous
 62
     7
100
AcDbPolyline
 90
        3
 70
   128
 43
0.0
 10
5294.9409484863
 20
5335.4275846098
 10
5294.8074290733
 20
5333.3541275898
 10
5294.9391830653
 20
5331.740433824
  0
LWPOLYLINE
  5
347
330
1F
100
AcDbEntity
  8
0
  6
Continuous
 62
     7
100
AcDbPolyline
 90
        3
 70
   128
 43
0.0
 10
5294.9371337891
 20
5331.740433824
 10
5294.9742879719
 20
5331.5458022926
 10
5295.0021472213
 20
5331.3930150944
  0
LWPOLYLINE
  5
348
330
1F
100
AcDbEntity
  8
0
  6
Continuous
 62
     7
100
AcDbPolyline
 90
        3
 70
   128
 43
0.0
 10
5295.0019836426
 20
5331.3930150944
 10
5294.9694365908
 20
5332.02802118
 10
5294.9398100551
 20
5332.5134450898
  0
LWPOLYLINE
  5
349
330
1F
100
AcDbEntity
  8
0
  6
Continuous
 62
     7
100
AcDbPolyline
 90
        3
 70
   128
 43
0.0
 10
5294.9371337891
 20
5332.5134450898
 10
5294.9110026397
 20
5333.0390120338
 10
5294.8980247527
 20
5333.4703208676
  0
LWPOLYLINE
  5
34A
330
1F
100
AcDbEntity
  8
0
  6
Continuous
 62
     7
100
AcDbPolyline
 90
        3
 70
   128
 43
0.0
 10
5294.9371337891
 20
5333.4637401422
 10
5295.0822876007
 20
5333.4288830441
 10
5295.1886361527
 20
5333.406228812
  0
LWPOLYLINE
  5
34B
330
1F
100
AcDbEntity
  8
0
  6
Continuous
 62
     7
100
AcDbPolyline
 90
        3
 70
   128
 43
0.0
 10
5295.1850891113
 20
5333.406228812
 10
5295.2585621225
 20
5333.3902760335
 10
5295.3092845407
 20
5333.378032028
  0
LWPOLYLINE
  5
34C
330
1F
100
AcDbEntity
  8
0
  6
Continuous
 62
     7
100
AcDbPolyline
 90
        3
 70
   128
 43
0.0
 10
5295.3071594238
 20
5333.378032028
 10
5295.5417668143
 20
5333.3413594229
 10
5295.7200796865
 20
5333.3212979346
  0
LWPOLYLINE
  5
34D
330
1F
100
AcDbEntity
  8
0
  6
Continuous
 62
     7
100
AcDbPolyline
 90
        3
 70
   128
 43
0.0
 10
5295.7191467285
 20
5333.3212979346
 10
5296.5418983126
 20
5333.3351742845
 10
5297.4005783928
 20
5333.4826037141
  0
LWPOLYLINE
  5
34E
330
1F
100
AcDbEntity
  8
0
  6
Continuous
 62
     7
100
AcDbPolyline
 90
        3
 70
   128
 43
0.0
 10
5297.3976135254
 20
5333.4826037141
 10
5296.7463585019
 20
5331.8614852185
 10
5295.7178219146
 20
5330.9033216163
  0
LWPOLYLINE
  5
34F
330
1F
100
AcDbEntity
  8
0
  6
Continuous
 62
     7
100
AcDbPolyline
 90
        3
 70
   128
 43
0.0
 10
5295.7191467285
 20
5334.3632335681
 10
5295.4882506772
 20
5334.3938732542
 10
5295.3100277163
 20
5334.4273404772
  0
LWPOLYLINE
  5
350
330
1F
100
AcDbEntity
  8
0
  6
Continuous
 62
     7
100
AcDbPolyline
 90
        3
 70
   128
 43
0.0
 10
5295.3071594238
 20
5334.4273404772
 10
5295.2425358358
 20
5334.4408704004
 10
5295.1897937372
 20
5334.4559496729
  0
LWPOLYLINE
  5
351
330
1F
100
AcDbEntity
  8
0
  6
Continuous
 62
     7
100
AcDbPolyline
 90
        3
 70
   128
 43
0.0
 10
5295.1889038086
 20
5334.4559496729
 10
5295.0597936488
 20
5334.4895312179
 10
5294.9624334141
 20
5334.5198888093
  0
LWPOLYLINE
  5
352
330
1F
100
AcDbEntity
  8
0
  6
Continuous
 62
     7
100
AcDbPolyline
 90
        3
 70
   128
 43
0.0
 10
5294.9600219727
 20
5334.5198888093
 10
5294.9984965061
 20
5335.0392649281
 10
5295.0695634797
 20
5335.398889869
  0
LWPOLYLINE
  5
353
330
1F
100
AcDbEntity
  8
0
  6
Continuous
 62
     7
100
AcDbPolyline
 90
        3
 70
   128
 43
0.0
 10
5295.0668334961
 20
5335.398889869
 10
5295.1371229972
 20
5335.3819244048
 10
5295.1906084681
 20
5335.3637330138
  0
LWPOLYLINE
  5
354
330
1F
100
AcDbEntity
  8
0
  6
Continuous
 62
     7
100
AcDbPolyline
 90
        3
 70
   128
 43
0.0
 10
5295.1889038086
 20
5335.3637330138
 10
5295.2574375616
 20
5335.347397419
 10
5295.3108422808
 20
5335.3350549165
  0
LWPOLYLINE
  5
355
330
1F
100
AcDbEntity
  8
0
  6
Continuous
 62
     7
100
AcDbPolyline
 90
        3
 70
   128
 43
0.0
 10
5295.3071594238
 20
5335.3350549165
 10
5295.53600833
 20
5335.2993106559
 10
5295.7219295104
 20
5335.2851414265
  0
LWPOLYLINE
  5
356
330
1F
100
AcDbEntity
  8
0
  6
Continuous
 62
     7
100
AcDbPolyline
 90
        3
 70
   128
 43
0.0
 10
5295.7191467285
 20
5335.2851414265
 10
5296.7153552954
 20
5335.3269375581
 10
5297.2392333573
 20
5335.4891473032
  0
LWPOLYLINE
  5
357
330
1F
100
AcDbEntity
  8
0
  6
Continuous
 62
     7
100
AcDbPolyline
 90
        3
 70
   128
 43
0.0
 10
5297.2373962402
 20
5335.4891473032
 10
5297.3650117646
 20
5334.9326340091
 10
5297.3942930986
 20
5334.5887733822
  0
LWPOLYLINE
  5
358
330
1F
100
AcDbEntity
  8
0
  6
Continuous
 62
     7
100
AcDbPolyline
 90
        3
 70
   128
 43
0.0
 10
5297.3937988281
 20
5334.5887733822
 10
5296.5606383834
 20
5334.3579055198
 10
5295.7209428571
 20
5334.3632335681
  0
LWPOLYLINE
  5
359
330
1F
100
AcDbEntity
  8
0
  6
Continuous
 62
     7
100
AcDbPolyline
 90
        3
 70
   128
 43
0.0
 10
5290.8554077148
 20
5338.8638898405
 10
5290.8917905624
 20
5338.9563565274
 10
5290.9624529928
 20
5339.0534562787
  0
LWPOLYLINE
  5
35A
330
1F
100
AcDbEntity
  8
0
  6
Continuous
 62
     7
100
AcDbPolyline
 90
        3
 70
   128
 43
0.0
 10
5290.9545898438
 20
5339.0509174934
 10
5291.5035023843
 20
5339.517909218
 10
5291.9179440272
 20
5339.8334632985
  0
LWPOLYLINE
  5
35B
330
1F
100
AcDbEntity
  8
0
  6
Continuous
 62
     7
100
AcDbPolyline
 90
        3
 70
   128
 43
0.0
 10
5291.9158935547
 20
5339.8334632985
 10
5292.4760087499
 20
5340.1993073672
 10
5292.9332580117
 20
5340.4496139326
  0
LWPOLYLINE
  5
35C
330
1F
100
AcDbEntity
  8
0
  6
Continuous
 62
     7
100
AcDbPolyline
 90
        3
 70
   128
 43
0.0
 10
5292.9306030273
 20
5340.4496139326
 10
5293.1328391257
 20
5340.273276014
 10
5293.3364243573
 20
5340.144161647
  0
LWPOLYLINE
  5
35D
330
1F
100
AcDbEntity
  8
0
  6
Continuous
 62
     7
100
AcDbPolyline
 90
        3
 70
   128
 43
0.0
 10
5293.3349609375
 20
5340.144161647
 10
5293.6848835005
 20
5339.9963490606
 10
5294.0099267214
 20
5339.938033445
  0
LWPOLYLINE
  5
35E
330
1F
100
AcDbEntity
  8
0
  6
Continuous
 62
     7
100
AcDbPolyline
 90
        3
 70
   128
 43
0.0
 10
5294.0940856934
 20
5339.9307993969
 10
5294.663753883
 20
5340.0016892945
 10
5294.9466456394
 20
5340.1354489699
  0
LWPOLYLINE
  5
35F
330
1F
100
AcDbEntity
  8
0
  6
Continuous
 62
     7
100
AcDbPolyline
 90
        3
 70
   128
 43
0.0
 10
5294.9447631836
 20
5340.1354489699
 10
5295.0853003377
 20
5340.2450683971
 10
5295.1949154883
 20
5340.3410046158
  0
LWPOLYLINE
  5
360
330
1F
100
AcDbEntity
  8
0
  6
Continuous
 62
     7
100
AcDbPolyline
 90
        3
 70
   128
 43
0.0
 10
5295.2270507812
 20
5340.3693075089
 10
5295.2828572924
 20
5340.3520338067
 10
5295.3154755007
 20
5340.3338229565
  0
LWPOLYLINE
  5
361
330
1F
100
AcDbEntity
  8
0
  6
Continuous
 62
     7
100
AcDbPolyline
 90
        3
 70
   128
 43
0.0
 10
5295.3147888184
 20
5340.3338229565
 10
5295.5531162895
 20
5340.2197924428
 10
5295.7262022347
 20
5340.1346683654
  0
LWPOLYLINE
  5
362
330
1F
100
AcDbEntity
  8
0
  6
Continuous
 62
     7
100
AcDbPolyline
 90
        3
 70
   128
 43
0.0
 10
5295.7229614258
 20
5340.1346683654
 10
5296.6146075733
 20
5339.5747845217
 10
5297.1532757099
 20
5338.982485244
  0
LWPOLYLINE
  5
363
330
1F
100
AcDbEntity
  8
0
  6
Continuous
 62
     7
100
AcDbPolyline
 90
        3
 70
   128
 43
0.0
 10
5297.1496582031
 20
5338.982485244
 10
5297.1857438421
 20
5338.8314997991
 10
5297.1618526233
 20
5338.7109213078
  0
LWPOLYLINE
  5
364
330
1F
100
AcDbEntity
  8
0
  6
Continuous
 62
     7
100
AcDbPolyline
 90
        3
 70
   128
 43
0.0
 10
5297.1611022949
 20
5338.7109213078
 10
5296.4972519448
 20
5339.1766942448
 10
5295.7256092049
 20
5339.4898149436
  0
LWPOLYLINE
  5
365
330
1F
100
AcDbEntity
  8
0
  6
Continuous
 62
     7
100
AcDbPolyline
 90
        3
 70
   128
 43
0.0
 10
5295.7229614258
 20
5339.4898149436
 10
5295.500438771
 20
5339.5558961195
 10
5295.3148142293
 20
5339.6036688864
  0
LWPOLYLINE
  5
366
330
1F
100
AcDbEntity
  8
0
  6
Continuous
 62
     7
100
AcDbPolyline
 90
        3
 70
   128
 43
0.0
 10
5295.3147888184
 20
5339.6036688864
 10
5295.2495439138
 20
5339.6156845466
 10
5295.1942871677
 20
5339.6250440683
  0
LWPOLYLINE
  5
367
330
1F
100
AcDbEntity
  8
0
  6
Continuous
 62
     7
100
AcDbPolyline
 90
        3
 70
   128
 43
0.0
 10
5295.1927185059
 20
5339.6250440683
 10
5295.0578003664
 20
5339.6517425603
 10
5294.9462047376
 20
5339.6676736051
  0
LWPOLYLINE
  5
368
330
1F
100
AcDbEntity
  8
0
  6
Continuous
 62
     7
100
AcDbPolyline
 90
        3
 70
   128
 43
0.0
 10
5294.9447631836
 20
5339.6676736051
 10
5294.4787686403
 20
5339.7195699842
 10
5294.087841168
 20
5339.7323792597
  0
LWPOLYLINE
  5
369
330
1F
100
AcDbEntity
  8
0
  6
Continuous
 62
     7
100
AcDbPolyline
 90
        3
 70
   128
 43
0.0
 10
5294.0063476562
 20
5339.7324295511
 10
5293.6171416385
 20
5339.724646436
 10
5293.3360511939
 20
5339.7044292777
  0
LWPOLYLINE
  5
36A
330
1F
100
AcDbEntity
  8
0
  6
Continuous
 62
     7
100
AcDbPolyline
 90
        3
 70
   128
 43
0.0
 10
5293.3349609375
 20
5339.7044292777
 10
5292.5051472063
 20
5339.5618413714
 10
5291.9176405959
 20
5339.3655497974
  0
LWPOLYLINE
  5
36B
330
1F
100
AcDbEntity
  8
0
  6
Continuous
 62
     7
100
AcDbPolyline
 90
        3
 70
   128
 43
0.0
 10
5291.9158935547
 20
5339.3655497974
 10
5291.3546613843
 20
5339.1112787822
 10
5290.8554741228
 20
5338.8638898405
  0
LWPOLYLINE
  5
36C
330
1F
100
AcDbEntity
  8
0
  6
Continuous
 62
     7
100
AcDbPolyline
 90
        3
 70
   128
 43
0.0
 10
5291.9158935547
 20
5338.6779084144
 10
5291.4305701674
 20
5338.8197117434
 10
5291.0386305093
 20
5338.8699242201
  0
LWPOLYLINE
  5
36D
330
1F
100
AcDbEntity
  8
0
  6
Continuous
 62
     7
100
AcDbPolyline
 90
        3
 70
   128
 43
0.0
 10
5291.0385131836
 20
5338.8699242201
 10
5291.48101249
 20
5338.9123371845
 10
5291.9170785303
 20
5338.8476139887
  0
LWPOLYLINE
  5
36E
330
1F
100
AcDbEntity
  8
0
  6
Continuous
 62
     7
100
AcDbPolyline
 90
        3
 70
   128
 43
0.0
 10
5291.9158935547
 20
5338.8476139887
 10
5292.587925887
 20
5338.641287852
 10
5293.1647794346
 20
5338.40011262
  0
LWPOLYLINE
  5
36F
330
1F
100
AcDbEntity
  8
0
  6
Continuous
 62
     7
100
AcDbPolyline
 90
        3
 70
   128
 43
0.0
 10
5293.1632995605
 20
5338.40011262
 10
5293.2655014117
 20
5338.5471570507
 10
5293.3351529058
 20
5338.6479553836
  0
LWPOLYLINE
  5
370
330
1F
100
AcDbEntity
  8
0
  6
Continuous
 62
     7
100
AcDbPolyline
 90
        3
 70
   128
 43
0.0
 10
5293.3349609375
 20
5338.6479553836
 10
5293.7178887258
 20
5339.0141843167
 10
5294.0090765562
 20
5339.1296069091
  0
LWPOLYLINE
  5
371
330
1F
100
AcDbEntity
  8
0
  6
Continuous
 62
     7
100
AcDbPolyline
 90
        3
 70
   128
 43
0.0
 10
5294.0063476562
 20
5339.1296069091
 10
5294.5388733646
 20
5338.9993257958
 10
5294.9454960137
 20
5338.6326278096
  0
LWPOLYLINE
  5
372
330
1F
100
AcDbEntity
  8
0
  6
Continuous
 62
     7
100
AcDbPolyline
 90
        3
 70
   128
 43
0.0
 10
5294.9447631836
 20
5338.6326278096
 10
5295.0086921343
 20
5338.549007013
 10
5295.0579973492
 20
5338.4834585986
  0
LWPOLYLINE
  5
373
330
1F
100
AcDbEntity
  8
0
  6
Continuous
 62
     7
100
AcDbPolyline
 90
        3
 70
   128
 43
0.0
 10
5295.0553894043
 20
5338.4834585986
 10
5295.1363055576
 20
5338.5191561936
 10
5295.1934744228
 20
5338.5469347049
  0
LWPOLYLINE
  5
374
330
1F
100
AcDbEntity
  8
0
  6
Continuous
 62
     7
100
AcDbPolyline
 90
        3
 70
   128
 43
0.0
 10
5295.1927185059
 20
5338.5469347049
 10
5295.2631994486
 20
5338.5772708629
 10
5295.3137596673
 20
5338.5965981832
  0
LWPOLYLINE
  5
375
330
1F
100
AcDbEntity
  8
0
  6
Continuous
 62
     7
100
AcDbPolyline
 90
        3
 70
   128
 43
0.0
 10
5295.3109741211
 20
5338.5965981832
 10
5295.5440603851
 20
5338.6838650324
 10
5295.7247580362
 20
5338.7380949715
  0
LWPOLYLINE
  5
376
330
1F
100
AcDbEntity
  8
0
  6
Continuous
 62
     7
100
AcDbPolyline
 90
        3
 70
   128
 43
0.0
 10
5295.7229614258
 20
5338.4830198472
 10
5295.4918057491
 20
5338.3704463547
 10
5295.3134019898
 20
5338.2773755681
  0
LWPOLYLINE
  5
377
330
1F
100
AcDbEntity
  8
0
  6
Continuous
 62
     7
100
AcDbPolyline
 90
        3
 70
   128
 43
0.0
 10
5295.3109741211
 20
5338.2773755681
 10
5295.248222868
 20
5338.2313013561
 10
5295.1930496725
 20
5338.1999447012
  0
LWPOLYLINE
  5
378
330
1F
100
AcDbEntity
  8
0
  6
Continuous
 62
     7
100
AcDbPolyline
 90
        3
 70
   128
 43
0.0
 10
5295.1927185059
 20
5338.1999447012
 10
5295.0539772848
 20
5338.1045483897
 10
5294.9448667051
 20
5338.0298047629
  0
LWPOLYLINE
  5
379
330
1F
100
AcDbEntity
  8
0
  6
Continuous
 62
     7
100
AcDbPolyline
 90
        3
 70
   128
 43
0.0
 10
5294.9447631836
 20
5338.0298047629
 10
5294.4211634125
 20
5337.8038140482
 10
5294.2211406173
 20
5337.8105838721
  0
LWPOLYLINE
  5
37A
330
1F
100
AcDbEntity
  8
0
  6
Continuous
 62
     7
100
AcDbPolyline
 90
        7
 70
   128
 43
0.0
 10
5294.2199707031
 20
5337.8105838721
 10
5294.1950014703
 20
5337.8218610987
 10
5294.1757232627
 20
5337.8515589836
 10
5294.1609781484
 20
5337.941643155
 10
5294.1833622399
 20
5338.0316892395
 10
5294.2104955394
 20
5338.0613395157
 10
5294.2493325025
 20
5338.0725500902
  0
LWPOLYLINE
  5
37B
330
1F
100
AcDbEntity
  8
0
  6
Continuous
 62
     7
100
AcDbPolyline
 90
        3
 70
   128
 43
0.0
 10
5294.4107055664
 20
5338.0724318122
 10
5294.4848870926
 20
5338.102162194
 10
5294.5117813619
 20
5338.1576996771
  0
LWPOLYLINE
  5
37C
330
1F
100
AcDbEntity
  8
0
  6
Continuous
 62
     7
100
AcDbPolyline
 90
        3
 70
   128
 43
0.0
 10
5294.5098876953
 20
5338.1576996771
 10
5294.4710723562
 20
5338.2242142904
 10
5294.4127684384
 20
5338.2430333441
  0
LWPOLYLINE
  5
37D
330
1F
100
AcDbEntity
  8
0
  6
Continuous
 62
     7
100
AcDbPolyline
 90
        3
 70
   128
 43
0.0
 10
5293.758392334
 20
5338.2434375381
 10
5293.6901394708
 20
5338.2111264851
 10
5293.6608420971
 20
5338.1584460019
  0
LWPOLYLINE
  5
37E
330
1F
100
AcDbEntity
  8
0
  6
Continuous
 62
     7
100
AcDbPolyline
 90
        3
 70
   128
 43
0.0
 10
5293.6592102051
 20
5338.1584460019
 10
5293.6962288151
 20
5338.0918939138
 10
5293.7604067772
 20
5338.0728360062
  0
LWPOLYLINE
  5
37F
330
1F
100
AcDbEntity
  8
0
  6
Continuous
 62
     7
100
AcDbPolyline
 90
        7
 70
   128
 43
0.0
 10
5293.9147949219
 20
5338.0727344921
 10
5293.9489945577
 20
5338.0617784964
 10
5293.9721615568
 20
5338.0329156086
 10
5293.9906440755
 20
5337.9453533705
 10
5293.9720228533
 20
5337.8578162059
 10
5293.9488101763
 20
5337.8289846598
 10
5293.9163357685
 20
5337.8180725426
  0
LWPOLYLINE
  5
380
330
1F
100
AcDbEntity
  8
0
  6
Continuous
 62
     7
100
AcDbPolyline
 90
        3
 70
   128
 43
0.0
 10
5293.9147949219
 20
5337.8180725426
 10
5293.6059779074
 20
5337.8720439651
 10
5293.3346284429
 20
5337.974438518
  0
LWPOLYLINE
  5
381
330
1F
100
AcDbEntity
  8
0
  6
Continuous
 62
     7
100
AcDbPolyline
 90
        3
 70
   128
 43
0.0
 10
5293.3311462402
 20
5337.974438518
 10
5292.857725462
 20
5338.2145789572
 10
5292.4839238722
 20
5338.4146419381
  0
LWPOLYLINE
  5
382
330
1F
100
AcDbEntity
  8
0
  6
Continuous
 62
     7
100
AcDbPolyline
 90
        3
 70
   128
 43
0.0
 10
5292.48046875
 20
5338.4146419381
 10
5292.1669355628
 20
5338.5750495311
 10
5291.9169442107
 20
5338.6779084144
  0
LWPOLYLINE
  5
383
330
1F
100
AcDbEntity
  8
0
  6
Continuous
 62
     7
100
AcDbPolyline
 90
        3
 70
   128
 43
0.0
 10
5295.7229614258
 20
5338.7380949715
 10
5296.410929065
 20
5338.8276741159
 10
5296.9727795146
 20
5338.7656039798
  0
LWPOLYLINE
  5
384
330
1F
100
AcDbEntity
  8
0
  6
Continuous
 62
     7
100
AcDbPolyline
 90
        3
 70
   128
 43
0.0
 10
5296.9703674316
 20
5338.7656039798
 10
5296.2425835564
 20
5338.6615937637
 10
5295.7245553086
 20
5338.4830198472
  0
LWPOLYLINE
  5
385
330
1F
100
AcDbEntity
  8
0
  6
Continuous
 62
     7
100
AcDbPolyline
 90
        3
 70
   128
 43
0.0
 10
5291.9158935547
 20
5340.6915678417
 10
5292.6615518757
 20
5341.1750996982
 10
5293.3376129097
 20
5341.3778510687
  0
LWPOLYLINE
  5
386
330
1F
100
AcDbEntity
  8
0
  6
Continuous
 62
     7
100
AcDbPolyline
 90
        3
 70
   128
 43
0.0
 10
5293.3349609375
 20
5341.3778510687
 10
5293.7019998703
 20
5341.4303430547
 10
5293.9973128885
 20
5341.4483979141
  0
LWPOLYLINE
  5
387
330
1F
100
AcDbEntity
  8
0
  6
Continuous
 62
     7
100
AcDbPolyline
 90
        3
 70
   128
 43
0.0
 10
5294.0101623535
 20
5341.4483639209
 10
5294.543958703
 20
5341.4139029297
 10
5294.947835686
 20
5341.3127075593
  0
LWPOLYLINE
  5
388
330
1F
100
AcDbEntity
  8
0
  6
Continuous
 62
     7
100
AcDbPolyline
 90
        3
 70
   128
 43
0.0
 10
5294.9447631836
 20
5341.3127075593
 10
5295.0893051215
 20
5341.2637312827
 10
5295.1956596483
 20
5341.2201246166
  0
LWPOLYLINE
  5
389
330
1F
100
AcDbEntity
  8
0
  6
Continuous
 62
     7
100
AcDbPolyline
 90
        3
 70
   128
 43
0.0
 10
5295.1927185059
 20
5341.2201246166
 10
5295.2655535722
 20
5341.1909052186
 10
5295.3162391327
 20
5341.1634025252
  0
LWPOLYLINE
  5
38A
330
1F
100
AcDbEntity
  8
0
  6
Continuous
 62
     7
100
AcDbPolyline
 90
        3
 70
   128
 43
0.0
 10
5295.3147888184
 20
5341.1634025252
 10
5295.5515934008
 20
5341.0440330238
 10
5295.7268981282
 20
5340.9362049387
  0
LWPOLYLINE
  5
38B
330
1F
100
AcDbEntity
  8
0
  6
Continuous
 62
     7
100
AcDbPolyline
 90
        3
 70
   128
 43
0.0
 10
5296.8940734863
 20
5339.446061283
 10
5296.3489783558
 20
5339.9104957443
 10
5295.7262528381
 20
5340.2697163803
  0
LWPOLYLINE
  5
38C
330
1F
100
AcDbEntity
  8
0
  6
Continuous
 62
     7
100
AcDbPolyline
 90
        3
 70
   128
 43
0.0
 10
5295.7229614258
 20
5340.2697163803
 10
5295.4989257477
 20
5340.3756844098
 10
5295.3154909866
 20
5340.4543327108
  0
LWPOLYLINE
  5
38D
330
1F
100
AcDbEntity
  8
0
  6
Continuous
 62
     7
100
AcDbPolyline
 90
        3
 70
   128
 43
0.0
 10
5295.3147888184
 20
5340.4543327108
 10
5295.2621373499
 20
5340.4781836643
 10
5295.2162353247
 20
5340.4967403768
  0
LWPOLYLINE
  5
38E
330
1F
100
AcDbEntity
  8
0
  6
Continuous
 62
     7
100
AcDbPolyline
 90
        3
 70
   128
 43
0.0
 10
5295.1927185059
 20
5340.4757767713
 10
5295.0584486672
 20
5340.3526179767
 10
5294.9466962428
 20
5340.2704969847
  0
LWPOLYLINE
  5
38F
330
1F
100
AcDbEntity
  8
0
  6
Continuous
 62
     7
100
AcDbPolyline
 90
        3
 70
   128
 43
0.0
 10
5294.9447631836
 20
5340.2704969847
 10
5294.5151701894
 20
5340.0821886587
 10
5294.0953290015
 20
5340.0373217447
  0
LWPOLYLINE
  5
390
330
1F
100
AcDbEntity
  8
0
  6
Continuous
 62
     7
100
AcDbPolyline
 90
        3
 70
   128
 43
0.0
 10
5294.0063476562
 20
5340.044417957
 10
5293.6116524642
 20
5340.1330866913
 10
5293.3365949556
 20
5340.2718368461
  0
LWPOLYLINE
  5
391
330
1F
100
AcDbEntity
  8
0
  6
Continuous
 62
     7
100
AcDbPolyline
 90
        3
 70
   128
 43
0.0
 10
5293.3349609375
 20
5340.2718368461
 10
5293.1132370166
 20
5340.4363337011
 10
5292.9751647378
 20
5340.5696090849
  0
LWPOLYLINE
  5
392
330
1F
100
AcDbEntity
  8
0
  6
Continuous
 62
     7
100
AcDbPolyline
 90
        3
 70
   128
 43
0.0
 10
5292.9725646973
 20
5340.5696090849
 10
5292.4169861984
 20
5340.2926665383
 10
5291.918132434
 20
5339.9685109804
  0
LWPOLYLINE
  5
393
330
1F
100
AcDbEntity
  8
0
  6
Continuous
 62
     7
100
AcDbPolyline
 90
        3
 70
   128
 43
0.0
 10
5291.9158935547
 20
5339.9685109804
 10
5291.4361091633
 20
5339.5964809208
 10
5291.0526809918
 20
5339.266973145
  0
LWPOLYLINE
  5
394
330
1F
100
AcDbEntity
  8
0
  6
Continuous
 62
     7
100
AcDbPolyline
 90
        3
 70
   128
 43
0.0
 10
5291.0499572754
 20
5339.266973145
 10
5291.4754813229
 20
5340.1668063401
 10
5291.9189143662
 20
5340.6915678417
  0
LWPOLYLINE
  5
395
330
1F
100
AcDbEntity
  8
0
  6
Continuous
 62
     7
100
AcDbPolyline
 90
        3
 70
   128
 43
0.0
 10
5295.726776123
 20
5340.9362049387
 10
5296.5350916553
 20
5340.1702421697
 10
5296.8954613571
 20
5339.446061283
  0
LWPOLYLINE
  5
396
330
1F
100
AcDbEntity
  8
0
  6
Continuous
 62
     7
100
AcDbPolyline
 90
        3
 70
   128
 43
0.0
 10
5295.7191467285
 20
5336.2917993851
 10
5295.4871121451
 20
5336.3149535206
 10
5295.3118963435
 20
5336.3419189145
  0
LWPOLYLINE
  5
397
330
1F
100
AcDbEntity
  8
0
  6
Continuous
 62
     7
100
AcDbPolyline
 90
        3
 70
   128
 43
0.0
 10
5295.3109741211
 20
5336.3419189145
 10
5295.2585040291
 20
5336.3496665137
 10
5295.2125741984
 20
5336.3562837623
  0
LWPOLYLINE
  5
398
330
1F
100
AcDbEntity
  8
0
  6
Continuous
 62
     7
100
AcDbPolyline
 90
        3
 70
   128
 43
0.0
 10
5295.2117919922
 20
5336.3562837623
 10
5295.2628315597
 20
5336.6206345241
 10
5295.3123723629
 20
5336.8242325398
  0
LWPOLYLINE
  5
399
330
1F
100
AcDbEntity
  8
0
  6
Continuous
 62
     7
100
AcDbPolyline
 90
        3
 70
   128
 43
0.0
 10
5295.3109741211
 20
5336.8242325398
 10
5295.3611151187
 20
5336.9723073965
 10
5295.4043874504
 20
5337.0936931365
  0
LWPOLYLINE
  5
39A
330
1F
100
AcDbEntity
  8
0
  6
Continuous
 62
     7
100
AcDbPolyline
 90
        3
 70
   128
 43
0.0
 10
5295.4025268555
 20
5337.0936931365
 10
5295.5853052021
 20
5337.0881397301
 10
5295.7234033604
 20
5337.0933359584
  0
LWPOLYLINE
  5
39B
330
1F
100
AcDbEntity
  8
0
  6
Continuous
 62
     7
100
AcDbPolyline
 90
        3
 70
   128
 43
0.0
 10
5295.7229614258
 20
5337.0933359584
 10
5296.0513481829
 20
5337.1224370056
 10
5296.3329431633
 20
5337.163521795
  0
LWPOLYLINE
  5
39C
330
1F
100
AcDbEntity
  8
0
  6
Continuous
 62
     7
100
AcDbPolyline
 90
        3
 70
   128
 43
0.0
 10
5296.8063354492
 20
5336.4825182449
 10
5296.1888760051
 20
5336.3058633374
 10
5295.7227074669
 20
5336.2917993851
  0
LWPOLYLINE
  5
39D
330
1F
100
AcDbEntity
  8
0
  6
Continuous
 62
     7
100
AcDbPolyline
 90
        3
 70
   128
 43
0.0
 10
5296.329498291
 20
5337.163521795
 10
5296.6557017986
 20
5336.7568187639
 10
5296.8075495718
 20
5336.4825182449
  0
LWPOLYLINE
  5
39E
330
1F
100
AcDbEntity
  8
0
  6
Continuous
 62
     7
100
AcDbPolyline
 90
        4
 70
   128
 43
0.0
 10
5296.1044311523
 20
5326.3465872623
 10
5295.8890159311
 20
5326.4141364632
 10
5295.7547456415
 20
5326.5977107637
 10
5295.6811943258
 20
5327.0490872623
  0
LWPOLYLINE
  5
39F
330
1F
100
AcDbEntity
  8
0
  6
Continuous
 62
     7
100
AcDbPolyline
 90
        4
 70
   128
 43
0.0
 10
5295.6809997559
 20
5327.0490872623
 10
5295.8171508715
 20
5327.8071454137
 10
5296.0260971335
 20
5328.1295157817
 10
5296.3778609925
 20
5328.2665872623
  0
LWPOLYLINE
  5
3A0
330
1F
100
AcDbEntity
  8
0
  6
Continuous
 62
     7
100
AcDbPolyline
 90
        4
 70
   128
 43
0.0
 10
5296.3752746582
 20
5328.2665872623
 10
5296.592566581
 20
5328.19554729
 10
5296.7266027764
 20
5328.0108361871
 10
5296.8011943258
 20
5327.5582539289
  0
LWPOLYLINE
  5
3A1
330
1F
100
AcDbEntity
  8
0
  6
Continuous
 62
     7
100
AcDbPolyline
 90
        4
 70
   128
 43
0.0
 10
5296.7987060547
 20
5327.5582539289
 10
5296.6642908441
 20
5326.8024883779
 10
5296.4568137442
 20
5326.4805292531
 10
5296.1045276591
 20
5326.3465872623
  0
LWPOLYLINE
  5
3A2
330
1F
100
AcDbEntity
  8
0
  6
Continuous
 62
     7
100
AcDbPolyline
 90
        3
 70
   128
 43
0.0
 10
5295.1927185059
 20
5341.9011514356
 10
5295.266168764
 20
5341.9407764325
 10
5295.3168138661
 20
5341.9718296022
  0
LWPOLYLINE
  5
3A3
330
1F
100
AcDbEntity
  8
0
  6
Continuous
 62
     7
100
AcDbPolyline
 90
        3
 70
   128
 43
0.0
 10
5295.3147888184
 20
5341.9718296022
 10
5295.5494641224
 20
5342.0905241173
 10
5295.7279497093
 20
5342.1702392018
  0
LWPOLYLINE
  5
3A4
330
1F
100
AcDbEntity
  8
0
  6
Continuous
 62
     7
100
AcDbPolyline
 90
        3
 70
   128
 43
0.0
 10
5295.726776123
 20
5342.1702392018
 10
5296.0605477635
 20
5342.2883006973
 10
5296.3166790402
 20
5342.3536814747
  0
LWPOLYLINE
  5
3A5
330
1F
100
AcDbEntity
  8
0
  6
Continuous
 62
     7
100
AcDbPolyline
 90
        3
 70
   128
 43
0.0
 10
5296.314239502
 20
5342.3536814747
 10
5295.9736184081
 20
5342.1619081664
 10
5295.7276579472
 20
5341.9924035588
  0
LWPOLYLINE
  5
3A6
330
1F
100
AcDbEntity
  8
0
  6
Continuous
 62
     7
100
AcDbPolyline
 90
        3
 70
   128
 43
0.0
 10
5295.726776123
 20
5341.9924035588
 10
5295.4896987546
 20
5341.8116087379
 10
5295.3164736642
 20
5341.6598416665
  0
LWPOLYLINE
  5
3A7
330
1F
100
AcDbEntity
  8
0
  6
Continuous
 62
     7
100
AcDbPolyline
 90
        3
 70
   128
 43
0.0
 10
5295.3147888184
 20
5341.6598416665
 10
5295.24885532
 20
5341.5924430874
 10
5295.19601666
 20
5341.5390716248
  0
LWPOLYLINE
  5
3A8
330
1F
100
AcDbEntity
  8
0
  6
Continuous
 62
     7
100
AcDbPolyline
 90
        3
 70
   128
 43
0.0
 10
5295.1927185059
 20
5341.5390716248
 10
5295.1120664094
 20
5341.4481328751
 10
5295.0465192472
 20
5341.3762725413
  0
LWPOLYLINE
  5
3A9
330
1F
100
AcDbEntity
  8
0
  6
Continuous
 62
     7
100
AcDbPolyline
 90
        3
 70
   128
 43
0.0
 10
5295.0439453125
 20
5341.3762725413
 10
5294.9937781053
 20
5341.3960233746
 10
5294.9479368815
 20
5341.4116507459
  0
LWPOLYLINE
  5
3AA
330
1F
100
AcDbEntity
  8
0
  6
Continuous
 62
     7
100
AcDbPolyline
 90
        3
 70
   128
 43
0.0
 10
5294.9447631836
 20
5341.4116507459
 10
5294.7795160214
 20
5341.462588972
 10
5294.6424944474
 20
5341.4974826564
  0
LWPOLYLINE
  5
3AB
330
1F
100
AcDbEntity
  8
0
  6
Continuous
 62
     7
100
AcDbPolyline
 90
        3
 70
   128
 43
0.0
 10
5294.6395874023
 20
5341.4974826564
 10
5294.8138073338
 20
5341.6346735445
 10
5294.9481740647
 20
5341.7380394716
  0
LWPOLYLINE
  5
3AC
330
1F
100
AcDbEntity
  8
0
  6
Continuous
 62
     7
100
AcDbPolyline
 90
        3
 70
   128
 43
0.0
 10
5294.9447631836
 20
5341.7380394716
 10
5295.086631877
 20
5341.8320339399
 10
5295.1963400559
 20
5341.9011514356
  0
LWPOLYLINE
  5
3AD
330
1F
100
AcDbEntity
  8
0
  6
Continuous
 62
     7
100
AcDbPolyline
 90
        3
 70
   128
 43
0.0
 10
5294.0711975098
 20
5330.4222935987
 10
5294.0212190187
 20
5332.0352468362
 10
5294.0112417489
 20
5333.2940755209
  0
LWPOLYLINE
  5
3AE
330
1F
100
AcDbEntity
  8
0
  6
Continuous
 62
     7
100
AcDbPolyline
 90
        3
 70
   128
 43
0.0
 10
5294.002532959
 20
5333.2442767715
 10
5293.9136549214
 20
5331.7469459048
 10
5293.9520951027
 20
5330.4298195372
  0
LWPOLYLINE
  5
3AF
330
1F
100
AcDbEntity
  8
0
  6
Continuous
 62
     7
100
AcDbPolyline
 90
        3
 70
   128
 43
0.0
 10
5293.9491271973
 20
5330.4298195372
 10
5293.6857944626
 20
5330.4486662324
 10
5293.455448095
 20
5330.4866232037
  0
LWPOLYLINE
  5
3B0
330
1F
100
AcDbEntity
  8
0
  6
Continuous
 62
     7
100
AcDbPolyline
 90
        3
 70
   128
 43
0.0
 10
5293.4532165527
 20
5330.4866232037
 10
5293.4814139749
 20
5334.0842224803
 10
5293.3328119095
 20
5336.0814263156
  0
LWPOLYLINE
  5
3B1
330
1F
100
AcDbEntity
  8
0
  6
Continuous
 62
     7
100
AcDbPolyline
 90
        3
 70
   128
 43
0.0
 10
5293.3311462402
 20
5336.0814263156
 10
5293.0066301919
 20
5337.5767307984
 10
5292.6330664332
 20
5338.202338788
  0
LWPOLYLINE
  5
3B2
330
1F
100
AcDbEntity
  8
0
  6
Continuous
 62
     7
100
AcDbPolyline
 90
        3
 70
   128
 43
0.0
 10
5292.6330566406
 20
5338.202338788
 10
5293.0056684595
 20
5338.0371513262
 10
5293.3345274101
 20
5337.8185132855
  0
LWPOLYLINE
  5
3B3
330
1F
100
AcDbEntity
  8
0
  6
Continuous
 62
     7
100
AcDbPolyline
 90
        3
 70
   128
 43
0.0
 10
5293.3311462402
 20
5337.8185132855
 10
5293.7175339673
 20
5337.5975207097
 10
5294.0076356679
 20
5337.5057257509
  0
LWPOLYLINE
  5
3B4
330
1F
100
AcDbEntity
  8
0
  6
Continuous
 62
     7
100
AcDbPolyline
 90
        3
 70
   128
 43
0.0
 10
5294.0559387207
 20
5337.4989215081
 10
5294.5599601942
 20
5337.6533216079
 10
5294.9448174332
 20
5337.8953079618
  0
LWPOLYLINE
  5
3B5
330
1F
100
AcDbEntity
  8
0
  6
Continuous
 62
     7
100
AcDbPolyline
 90
        3
 70
   128
 43
0.0
 10
5294.9447631836
 20
5337.8953079618
 10
5295.0863670107
 20
5337.9889494856
 10
5295.1929822593
 20
5338.0579376138
  0
LWPOLYLINE
  5
3B6
330
1F
100
AcDbEntity
  8
0
  6
Continuous
 62
     7
100
AcDbPolyline
 90
        3
 70
   128
 43
0.0
 10
5295.1927185059
 20
5338.0579376138
 10
5295.2627358871
 20
5338.1001146617
 10
5295.3133194311
 20
5338.1290984252
  0
LWPOLYLINE
  5
3B7
330
1F
100
AcDbEntity
  8
0
  6
Continuous
 62
     7
100
AcDbPolyline
 90
        3
 70
   128
 43
0.0
 10
5295.3109741211
 20
5338.0714962639
 10
5295.2456142851
 20
5337.9872706773
 10
5295.192777542
 20
5337.9161375644
  0
LWPOLYLINE
  5
3B8
330
1F
100
AcDbEntity
  8
0
  6
Continuous
 62
     7
100
AcDbPolyline
 90
        3
 70
   128
 43
0.0
 10
5295.1927185059
 20
5337.9161375644
 10
5295.045420551
 20
5337.6740016297
 10
5294.944443937
 20
5337.455437789
  0
LWPOLYLINE
  5
3B9
330
1F
100
AcDbEntity
  8
0
  6
Continuous
 62
     7
100
AcDbPolyline
 90
        3
 70
   128
 43
0.0
 10
5294.9409484863
 20
5337.455437789
 10
5294.4740355325
 20
5334.3203380667
 10
5294.5832196128
 20
5330.479075896
  0
LWPOLYLINE
  5
3BA
330
1F
100
AcDbEntity
  8
0
  6
Continuous
 62
     7
100
AcDbPolyline
 90
        3
 70
   128
 43
0.0
 10
5294.5823669434
 20
5330.479075896
 10
5294.3316805206
 20
5330.4369023441
 10
5294.0726556174
 20
5330.4222935987
  0
LWPOLYLINE
  5
3BB
330
1F
100
AcDbEntity
  8
0
  6
Continuous
 62
     7
100
AcDbPolyline
 90
        3
 70
   128
 43
0.0
 10
5295.3109741211
 20
5338.1290984252
 10
5295.3713828203
 20
5338.1554385339
 10
5295.4123644752
 20
5338.1711650755
  0
LWPOLYLINE
  5
3BC
330
1F
100
AcDbEntity
  8
0
  6
Continuous
 62
     7
100
AcDbPolyline
 90
        3
 70
   128
 43
0.0
 10
5295.41015625
 20
5338.1711650755
 10
5295.3592519272
 20
5338.1180239026
 10
5295.3133180959
 20
5338.0714962639
  0
LWPOLYLINE
  5
3BD
330
1F
100
AcDbEntity
  8
0
  6
Continuous
 62
     7
100
AcDbPolyline
 90
        3
 70
   128
 43
0.0
 10
5295.1774597168
 20
5339.3057182681
 10
5295.0973787524
 20
5339.1253249296
 10
5294.9457121938
 20
5339.0651257506
  0
LWPOLYLINE
  5
3BE
330
1F
100
AcDbEntity
  8
0
  6
Continuous
 62
     7
100
AcDbPolyline
 90
        3
 70
   128
 43
0.0
 10
5294.9371337891
 20
5339.0650065413
 10
5294.758638586
 20
5339.1516305843
 10
5294.7040363442
 20
5339.306177977
  0
LWPOLYLINE
  5
3BF
330
1F
100
AcDbEntity
  8
0
  6
Continuous
 62
     7
100
AcDbPolyline
 90
        3
 70
   128
 43
0.0
 10
5294.7006225586
 20
5339.306177977
 10
5294.7895472049
 20
5339.4921797621
 10
5294.9384702295
 20
5339.547045136
  0
LWPOLYLINE
  5
3C0
330
1F
100
AcDbEntity
  8
0
  6
Continuous
 62
     7
100
AcDbPolyline
 90
        3
 70
   128
 43
0.0
 10
5294.9447631836
 20
5339.5471643453
 10
5295.1275654642
 20
5339.4606578241
 10
5295.179597602
 20
5339.3057182681
  0
LWPOLYLINE
  5
3C1
330
1F
100
AcDbEntity
  8
0
  6
Continuous
 62
     7
100
AcDbPolyline
 90
        5
 70
   128
 43
0.0
 10
5295.0210571289
 20
5339.2916261891
 10
5294.9967084835
 20
5339.3595891294
 10
5294.9314764371
 20
5339.3822992212
 10
5294.8661608196
 20
5339.3597149897
 10
5294.8393251806
 20
5339.2917949605
  0
LWPOLYLINE
  5
3C2
330
1F
100
AcDbEntity
  8
0
  6
Continuous
 62
     7
100
AcDbPolyline
 90
        5
 70
   128
 43
0.0
 10
5294.8379516602
 20
5339.2917949605
 10
5294.8660655091
 20
5339.2239866746
 10
5294.9313493565
 20
5339.2013281343
 10
5294.996613173
 20
5339.2238608143
 10
5295.0232934086
 20
5339.2916261891
  0
LWPOLYLINE
  5
3C3
330
1F
100
AcDbEntity
  8
0
  6
Continuous
 62
     7
100
AcDbPolyline
 90
        4
 70
   128
 43
0.0
 10
5293.6477661133
 20
5326.3465872623
 10
5293.4356825978
 20
5326.4141364632
 10
5293.3014123081
 20
5326.5977107637
 10
5293.2278609925
 20
5327.0490872623
  0
LWPOLYLINE
  5
3C4
330
1F
100
AcDbEntity
  8
0
  6
Continuous
 62
     7
100
AcDbPolyline
 90
        4
 70
   128
 43
0.0
 10
5293.2243347168
 20
5327.0490872623
 10
5293.3638175381
 20
5327.8071454137
 10
5293.5727638002
 20
5328.1295157817
 10
5293.9245276591
 20
5328.2665872623
  0
LWPOLYLINE
  5
3C5
330
1F
100
AcDbEntity
  8
0
  6
Continuous
 62
     7
100
AcDbPolyline
 90
        4
 70
   128
 43
0.0
 10
5293.9224243164
 20
5328.2665872623
 10
5294.1392332477
 20
5328.19554729
 10
5294.2732694431
 20
5328.0108361871
 10
5294.3478609925
 20
5327.5582539289
  0
LWPOLYLINE
  5
3C6
330
1F
100
AcDbEntity
  8
0
  6
Continuous
 62
     7
100
AcDbPolyline
 90
        4
 70
   128
 43
0.0
 10
5294.3458557129
 20
5327.5582539289
 10
5294.2109575108
 20
5326.8024883779
 10
5294.0034804108
 20
5326.4805292531
 10
5293.6511943258
 20
5326.3465872623
  0
LWPOLYLINE
  5
3C7
330
1F
100
AcDbEntity
  8
0
  6
Continuous
 62
     7
100
AcDbPolyline
 90
        3
 70
   128
 43
0.0
 10
5293.0908203125
 20
5339.3076546432
 10
5293.1841828512
 20
5339.4870596948
 10
5293.3359331849
 20
5339.5414760709
  0
LWPOLYLINE
  5
3C8
330
1F
100
AcDbEntity
  8
0
  6
Continuous
 62
     7
100
AcDbPolyline
 90
        5
 70
   128
 43
0.0
 10
5293.5752868652
 20
5339.3070404875
 10
5293.5039948902
 20
5339.1389143316
 10
5293.3356126109
 20
5339.0664656938
 10
5293.1672711371
 20
5339.1392712196
 10
5293.0943488001
 20
5339.3076546432
  0
LWPOLYLINE
  5
3C9
330
1F
100
AcDbEntity
  8
0
  6
Continuous
 62
     7
100
AcDbPolyline
 90
        5
 70
   128
 43
0.0
 10
5293.4188842773
 20
5339.2930852134
 10
5293.3963614273
 20
5339.3610432335
 10
5293.3358792925
 20
5339.3837418517
 10
5293.2753652627
 20
5339.3611460219
 10
5293.2507215594
 20
5339.293220698
  0
LWPOLYLINE
  5
3CA
330
1F
100
AcDbEntity
  8
0
  6
Continuous
 62
     7
100
AcDbPolyline
 90
        5
 70
   128
 43
0.0
 10
5293.2472229004
 20
5339.293220698
 10
5293.2752699523
 20
5339.2254177067
 10
5293.3357522119
 20
5339.2027707648
 10
5293.3962661168
 20
5339.2253149183
 10
5293.4209094457
 20
5339.2930852134
  0
LWPOLYLINE
  5
3CB
330
1F
100
AcDbEntity
  8
0
  6
Continuous
 62
     7
100
AcDbPolyline
 90
        3
 70
   128
 43
0.0
 10
5293.3349609375
 20
5339.5414760709
 10
5293.5195272034
 20
5339.456129637
 10
5293.5767998959
 20
5339.3070404875
  0
LWPOLYLINE
  5
3CC
330
1F
100
AcDbEntity
  8
0
  6
Continuous
 62
     7
100
AcDbPolyline
 90
        3
 70
   128
 43
0.0
 10
5293.327331543
 20
5330.5152492395
 10
5292.411541999
 20
5330.9699485799
 10
5291.9104137145
 20
5331.4104051571
  0
LWPOLYLINE
  5
3CD
330
1F
100
AcDbEntity
  8
0
  6
Continuous
 62
     7
100
AcDbPolyline
 90
        3
 70
   128
 43
0.0
 10
5291.9082641602
 20
5331.4104051571
 10
5291.3687959868
 20
5333.6519819569
 10
5291.9140790807
 20
5335.3809493366
  0
LWPOLYLINE
  5
3CE
330
1F
100
AcDbEntity
  8
0
  6
Continuous
 62
     7
100
AcDbPolyline
 90
        3
 70
   128
 43
0.0
 10
5291.9120788574
 20
5335.3809493366
 10
5292.3342269444
 20
5336.2238269002
 10
5292.5324736614
 20
5336.6067399856
  0
LWPOLYLINE
  5
3CF
330
1F
100
AcDbEntity
  8
0
  6
Continuous
 62
     7
100
AcDbPolyline
 90
        3
 70
   128
 43
0.0
 10
5292.5300598145
 20
5336.6067399856
 10
5292.7890385795
 20
5337.2748823872
 10
5292.830873883
 20
5337.6560184579
  0
LWPOLYLINE
  5
3D0
330
1F
100
AcDbEntity
  8
0
  6
Continuous
 62
     7
100
AcDbPolyline
 90
        3
 70
   128
 43
0.0
 10
5292.8276062012
 20
5337.6560184579
 10
5293.2096028113
 20
5336.114452133
 10
5293.3317616598
 20
5334.8479432661
  0
LWPOLYLINE
  5
3D1
330
1F
100
AcDbEntity
  8
0
  6
Continuous
 62
     7
100
AcDbPolyline
 90
        3
 70
   128
 43
0.0
 10
5293.3311462402
 20
5334.8479432661
 10
5293.3533774919
 20
5332.4781154695
 10
5293.3349190205
 20
5330.507929044
  0
LWPOLYLINE
  5
3D2
330
1F
100
AcDbEntity
  8
0
  6
Continuous
 62
     7
100
AcDbPolyline
 90
        3
 70
   128
 43
0.0
 10
5293.3082580566
 20
5341.4841674058
 10
5293.0387168863
 20
5341.4234399797
 10
5292.8487710957
 20
5341.3570521049
  0
LWPOLYLINE
  5
3D3
330
1F
100
AcDbEntity
  8
0
  6
Continuous
 62
     7
100
AcDbPolyline
 90
        3
 70
   128
 43
0.0
 10
5292.8466796875
 20
5341.3570521049
 10
5292.375553499
 20
5341.8499007796
 10
5291.9201676764
 20
5342.1802638189
  0
LWPOLYLINE
  5
3D4
330
1F
100
AcDbEntity
  8
0
  6
Continuous
 62
     7
100
AcDbPolyline
 90
        3
 70
   128
 43
0.0
 10
5291.919708252
 20
5342.1802638189
 10
5291.6226005317
 20
5342.3407385882
 10
5291.3750987582
 20
5342.4434773692
  0
LWPOLYLINE
  5
3D5
330
1F
100
AcDbEntity
  8
0
  6
Continuous
 62
     7
100
AcDbPolyline
 90
        3
 70
   128
 43
0.0
 10
5291.374206543
 20
5342.4434773692
 10
5291.6545092954
 20
5342.3737998552
 10
5291.9201145915
 20
5342.2723860691
  0
LWPOLYLINE
  5
3D6
330
1F
100
AcDbEntity
  8
0
  6
Continuous
 62
     7
100
AcDbPolyline
 90
        3
 70
   128
 43
0.0
 10
5291.919708252
 20
5342.2723860691
 10
5292.6632941092
 20
5341.901443501
 10
5293.3089308329
 20
5341.4841674058
  0
LWPOLYLINE
  5
3D7
330
1F
100
AcDbEntity
  8
0
  6
Continuous
 62
     7
100
AcDbPolyline
 90
        3
 70
   128
 43
0.0
 10
5290.699005127
 20
5342.5642368117
 10
5291.3969685871
 20
5342.3643690913
 10
5291.9202032857
 20
5342.0809068892
  0
LWPOLYLINE
  5
3D8
330
1F
100
AcDbEntity
  8
0
  6
Continuous
 62
     7
100
AcDbPolyline
 90
        3
 70
   128
 43
0.0
 10
5292.5415039062
 20
5341.2155063795
 10
5292.1972146501
 20
5341.5487791345
 10
5291.9198975356
 20
5341.7831816072
  0
LWPOLYLINE
  5
3D9
330
1F
100
AcDbEntity
  8
0
  6
Continuous
 62
     7
100
AcDbPolyline
 90
        3
 70
   128
 43
0.0
 10
5291.919708252
 20
5341.7831816072
 10
5291.3704341505
 20
5342.1433378308
 10
5290.8857057268
 20
5342.3656287892
  0
LWPOLYLINE
  5
3DA
330
1F
100
AcDbEntity
  8
0
  6
Continuous
 62
     7
100
AcDbPolyline
 90
        3
 70
   128
 43
0.0
 10
5290.8821105957
 20
5342.3656287892
 10
5291.0569499202
 20
5341.1694377427
 10
5291.4299396723
 20
5340.2734795382
  0
LWPOLYLINE
  5
3DB
330
1F
100
AcDbEntity
  8
0
  6
Continuous
 62
     7
100
AcDbPolyline
 90
        3
 70
   128
 43
0.0
 10
5291.3436889648
 20
5340.1530399715
 10
5290.7922360999
 20
5341.5416875312
 10
5290.7012522042
 20
5342.5642368117
  0
LWPOLYLINE
  5
3DC
330
1F
100
AcDbEntity
  8
0
  6
Continuous
 62
     7
100
AcDbPolyline
 90
        3
 70
   128
 43
0.0
 10
5291.919708252
 20
5342.0809068892
 10
5292.4112499879
 20
5341.6950079064
 10
5292.7778539265
 20
5341.3215321137
  0
LWPOLYLINE
  5
3DD
330
1F
100
AcDbEntity
  8
0
  6
Continuous
 62
     7
100
AcDbPolyline
 90
        3
 70
   128
 43
0.0
 10
5292.7742004395
 20
5341.3215321137
 10
5292.6436372661
 20
5341.2645425671
 10
5292.5436062506
 20
5341.2155063795
  0
LWPOLYLINE
  5
3DE
330
1F
100
AcDbEntity
  8
0
  6
Continuous
 62
     7
100
AcDbPolyline
 90
        4
 70
   128
 43
0.0
 10
5286.3388061523
 20
5336.5624375438
 10
5286.5181890184
 20
5337.9080747286
 10
5286.783727057
 20
5338.3531168116
 10
5287.2088914662
 20
5338.5190233385
  0
LWPOLYLINE
  5
3DF
330
1F
100
AcDbEntity
  8
0
  6
Continuous
 62
     7
100
AcDbPolyline
 90
        4
 70
   128
 43
0.0
 10
5287.5823974609
 20
5338.5039917922
 10
5287.9322585085
 20
5338.3630775679
 10
5288.1239936009
 20
5337.9251679555
 10
5288.2216041833
 20
5336.5748474171
  0
LWPOLYLINE
  5
3E0
330
1F
100
AcDbEntity
  8
0
  6
Continuous
 62
     7
100
AcDbPolyline
 90
        3
 70
   128
 43
0.0
 10
5286.1251831055
 20
5327.2549205956
 10
5286.0905795333
 20
5327.2704234457
 10
5286.0828609925
 20
5327.3007539289
  0
LWPOLYLINE
  5
3E1
330
1F
100
AcDbEntity
  8
0
  6
Continuous
 62
     7
100
AcDbPolyline
 90
        3
 70
   128
 43
0.0
 10
5286.0794067383
 20
5327.3007539289
 10
5286.3444843381
 20
5327.9638091201
 10
5286.7970276591
 20
5328.2665872623
  0
LWPOLYLINE
  5
3E2
330
1F
100
AcDbEntity
  8
0
  6
Continuous
 62
     7
100
AcDbPolyline
 90
        3
 70
   128
 43
0.0
 10
5286.9873046875
 20
5328.0474205956
 10
5286.6031821649
 20
5327.5055009242
 10
5286.1261943258
 20
5327.2549205956
  0
LWPOLYLINE
  5
3E3
330
1F
100
AcDbEntity
  8
0
  6
Continuous
 62
     7
100
AcDbPolyline
 90
        3
 70
   128
 43
0.0
 10
5286.7965698242
 20
5328.2665872623
 10
5286.9566448642
 20
5328.1888637398
 10
5286.9878609925
 20
5328.0474205956
  0
LWPOLYLINE
  5
3E4
330
1F
100
AcDbEntity
  8
0
  6
Continuous
 62
     7
100
AcDbPolyline
 90
        3
 70
   128
 43
0.0
 10
5275.4058837891
 20
5327.2549205956
 10
5275.3705795333
 20
5327.2704234457
 10
5275.3628609925
 20
5327.3007539289
  0
LWPOLYLINE
  5
3E5
330
1F
100
AcDbEntity
  8
0
  6
Continuous
 62
     7
100
AcDbPolyline
 90
        3
 70
   128
 43
0.0
 10
5275.3601074219
 20
5327.3007539289
 10
5275.6244843381
 20
5327.9638091201
 10
5276.0770276591
 20
5328.2665872623
  0
LWPOLYLINE
  5
3E6
330
1F
100
AcDbEntity
  8
0
  6
Continuous
 62
     7
100
AcDbPolyline
 90
        3
 70
   128
 43
0.0
 10
5276.2641906738
 20
5328.0474205956
 10
5275.8831821649
 20
5327.5055009242
 10
5275.4061943258
 20
5327.2549205956
  0
LWPOLYLINE
  5
3E7
330
1F
100
AcDbEntity
  8
0
  6
Continuous
 62
     7
100
AcDbPolyline
 90
        3
 70
   128
 43
0.0
 10
5276.0734558105
 20
5328.2665872623
 10
5276.2366448642
 20
5328.1888637398
 10
5276.2678609925
 20
5328.0474205956
  0
LWPOLYLINE
  5
3E8
330
1F
100
AcDbEntity
  8
0
  6
Continuous
 62
     7
100
AcDbPolyline
 90
        4
 70
   128
 43
0.0
 10
5267.4217224121
 20
5336.6011041945
 10
5267.5973391708
 20
5337.9461733961
 10
5267.8704029271
 20
5338.3915128481
 10
5268.3057608008
 20
5338.5575875437
  0
LWPOLYLINE
  5
3E9
330
1F
100
AcDbEntity
  8
0
  6
Continuous
 62
     7
100
AcDbPolyline
 90
        4
 70
   128
 43
0.0
 10
5268.6653137207
 20
5338.5355617648
 10
5269.0140064906
 20
5338.3985483993
 10
5269.2040980178
 20
5337.962403014
 10
5269.3043472171
 20
5336.6134451499
  0
LWPOLYLINE
  5
3EA
330
1F
100
AcDbEntity
  8
0
  6
Continuous
 62
     7
100
AcDbPolyline
 90
        3
 70
   128
 43
0.0
 10
5264.6102905273
 20
5328.2665872623
 10
5264.7699781975
 20
5328.1888637398
 10
5264.8011943258
 20
5328.0474205956
  0
LWPOLYLINE
  5
3EB
330
1F
100
AcDbEntity
  8
0
  6
Continuous
 62
     7
100
AcDbPolyline
 90
        3
 70
   128
 43
0.0
 10
5263.9389038086
 20
5327.2549205956
 10
5263.9039128666
 20
5327.2704234457
 10
5263.8961943258
 20
5327.3007539289
  0
LWPOLYLINE
  5
3EC
330
1F
100
AcDbEntity
  8
0
  6
Continuous
 62
     7
100
AcDbPolyline
 90
        3
 70
   128
 43
0.0
 10
5263.8931274414
 20
5327.3007539289
 10
5264.1578176714
 20
5327.9638091201
 10
5264.6103609925
 20
5328.2665872623
  0
LWPOLYLINE
  5
3ED
330
1F
100
AcDbEntity
  8
0
  6
Continuous
 62
     7
100
AcDbPolyline
 90
        3
 70
   128
 43
0.0
 10
5264.8010253906
 20
5328.0474205956
 10
5264.4165154982
 20
5327.5055009242
 10
5263.9395276591
 20
5327.2549205956
  0
LWPOLYLINE
  5
3EE
330
1F
100
AcDbEntity
  8
0
  6
Continuous
 62
     7
100
AcDbPolyline
 90
        3
 70
   128
 43
0.0
 10
5307.6095581055
 20
5092.1996077445
 10
5307.7977674912
 20
5091.5003054972
 10
5307.6446899838
 20
5090.9495311686
  0
LWPOLYLINE
  5
3EF
330
1F
100
AcDbEntity
  8
0
  6
Continuous
 62
     7
100
AcDbPolyline
 90
        3
 70
   128
 43
0.0
 10
5307.6438903809
 20
5090.9495311686
 10
5307.8111681438
 20
5089.542497679
 10
5307.6446899839
 20
5088.4493780168
  0
LWPOLYLINE
  5
3F0
330
1F
100
AcDbEntity
  8
0
  6
Continuous
 62
     7
100
AcDbPolyline
 90
        3
 70
   128
 43
0.0
 10
5307.6438903809
 20
5088.4493780168
 10
5307.793857271
 20
5087.7475404024
 10
5307.6122982413
 20
5087.1993014409
  0
LWPOLYLINE
  5
3F1
330
1F
100
AcDbEntity
  8
0
  6
Continuous
 62
     7
100
AcDbPolyline
 90
        3
 70
   128
 43
0.0
 10
5194.8432922363
 20
5090.9495311686
 10
5194.6778901421
 20
5089.542497679
 10
5194.8443683021
 20
5088.4493780168
  0
LWPOLYLINE
  5
3F2
330
1F
100
AcDbEntity
  8
0
  6
Continuous
 62
     7
100
AcDbPolyline
 90
        3
 70
   128
 43
0.0
 10
5194.8738098145
 20
5092.1996077445
 10
5194.6912907948
 20
5091.5003054972
 10
5194.8443683021
 20
5090.9495311686
  0
LWPOLYLINE
  5
3F3
330
1F
100
AcDbEntity
  8
0
  6
Continuous
 62
     7
100
AcDbPolyline
 90
        3
 70
   128
 43
0.0
 10
5194.8432922363
 20
5088.4493780168
 10
5194.6952010149
 20
5087.7475404024
 10
5194.8767600446
 20
5087.1993014409
  0
LWPOLYLINE
  5
3F4
330
1F
100
AcDbEntity
  8
0
  6
Continuous
 62
     7
100
AcDbPolyline
 90
       16
 70
   128
 43
0.0
 10
5194.8432922363
 20
4852.6422048772
 10
5194.6649899141
 20
4852.6422035802
 10
5194.662544511
 20
4852.6422035802
 10
5194.6619381874
 20
4852.6422035802
 10
5194.6619367774
 20
4852.6422035802
 10
5194.6619378353
 20
4852.6422035802
 10
5194.6619473803
 20
4852.6422035802
 10
5194.66221531
 20
4852.6422035802
 10
5194.6670858886
 20
4852.6422035802
 10
5194.6730423126
 20
4852.6422035802
 10
5194.6749106023
 20
4852.6422035802
 10
5194.67537867
 20
4852.6422035802
 10
5194.6753793182
 20
4852.6422035802
 10
5194.6753776001
 20
4852.6422035802
 10
5194.6753660276
 20
4852.6422035802
 10
5194.6749598618
 20
4852.6422035802
  0
LWPOLYLINE
  5
3F5
330
1F
100
AcDbEntity
  8
0
  6
Continuous
 62
     7
100
AcDbPolyline
 90
        3
 70
   128
 43
0.0
 10
5194.8738098145
 20
4854.80740102
 10
5194.6912907948
 20
4853.5961739977
 10
5194.8443683021
 20
4852.6422048772
  0
LWPOLYLINE
  5
3F6
330
1F
100
AcDbEntity
  8
0
  6
Continuous
 62
     7
100
AcDbPolyline
 90
        3
 70
   128
 43
0.0
 10
5194.9081420898
 20
4856.9726002324
 10
5194.7224823704
 20
4855.7618250111
 10
5194.8767600446
 20
4854.80740102
  0
LWPOLYLINE
  5
3F7
330
1F
100
AcDbEntity
  8
0
  6
Continuous
 62
     7
100
AcDbPolyline
 90
        3
 70
   128
 43
0.0
 10
5307.5790405273
 20
4856.9726002324
 10
5307.7665759155
 20
4855.7618250111
 10
5307.6122982413
 20
4854.80740102
  0
LWPOLYLINE
  5
3F8
330
1F
100
AcDbEntity
  8
0
  6
Continuous
 62
     7
100
AcDbPolyline
 90
        3
 70
   128
 43
0.0
 10
5307.6095581055
 20
4854.80740102
 10
5307.7977674918
 20
4853.5961739955
 10
5307.6446903795
 20
4852.6422035802
  0
LINE
  5
3F9
330
1F
100
AcDbEntity
  8
0
  6
Continuous
 62
     7
100
AcDbLine
 10
5307.6438903809
 20
4852.6422035802
 30
0.0
 11
5307.8269404338
 21
4852.6422035802
 31
0.0
  0
ENDSEC
  0
SECTION
  2
OBJECTS
  0
DICTIONARY
  5
C
330
0
100
AcDbDictionary
281
     1
  3
ACAD_GROUP
350
D
  3
ACAD_LAYOUT
350
1A
  3
ACAD_MLINESTYLE
350
17
  3
ACAD_PLOTSETTINGS
350
19
  3
ACAD_PLOTSTYLENAME
350
E
  3
ACAD_SCALELIST
350
47
  3
DWGPROPS
350
3FA
  0
DICTIONARY
  5
D
102
{ACAD_REACTORS
330
C
102
}
330
C
100
AcDbDictionary
281
     1
  0
DICTIONARY
  5
1A
102
{ACAD_REACTORS
330
C
102
}
330
C
100
AcDbDictionary
281
     1
  3
Layout1
350
1E
  3
Layout2
350
26
  3
Model
350
22
  0
DICTIONARY
  5
17
102
{ACAD_REACTORS
330
C
102
}
330
C
100
AcDbDictionary
281
     1
  3
Standard
350
18
  0
DICTIONARY
  5
19
102
{ACAD_REACTORS
330
C
102
}
330
C
100
AcDbDictionary
281
     1
  0
ACDBDICTIONARYWDFLT
  5
E
102
{ACAD_REACTORS
330
C
102
}
330
C
100
AcDbDictionary
281
     1
  3
Normal
350
F
100
AcDbDictionaryWithDefault
340
F
  0
DICTIONARY
  5
47
102
{ACAD_REACTORS
330
C
102
}
330
C
100
AcDbDictionary
281
     1
  3
A0
350
48
  3
A1
350
49
  3
A2
350
4A
  3
A3
350
4B
  3
A4
350
4C
  3
A5
350
4D
  3
A6
350
4E
  3
A7
350
4F
  3
A8
350
50
  3
A9
350
51
  3
B0
350
52
  3
B1
350
53
  3
B2
350
54
  3
B3
350
55
  3
B4
350
56
  3
B5
350
57
  3
B6
350
58
  3
B7
350
59
  3
B8
350
5A
  3
B9
350
5B
  3
C0
350
5C
  3
C1
350
5D
  3
C2
350
5E
  3
C3
350
5F
  3
C4
350
60
  3
C5
350
61
  3
C6
350
62
  3
C7
350
63
  3
C8
350
64
  3
C9
350
65
  3
D0
350
66
  3
D1
350
67
  3
D2
350
68
  0
XRECORD
  5
3FA
102
{ACAD_REACTORS
330
C
102
}
330
C
100
AcDbXrecord
280
     1
  1
DWGPROPS COOKIE
  2

  3

  4

  6

  7

  8
radek.stransky
  9

300
=
301
=
302
=
303
=
304
=
305
=
306
=
307
=
308
=
309
=
 40
0.0
 41
2459101.188010416
 42
2459101.18805912
  1

 90
        0
  0
LAYOUT
  5
1E
102
{ACAD_REACTORS
330
1A
102
}
330
1A
100
AcDbPlotSettings
  1

  2
none_device
  4

  6

 40
0.0
 41
0.0
 42
0.0
 43
0.0
 44
0.0
 45
0.0
 46
0.0
 47
0.0
 48
0.0
 49
0.0
140
0.0
141
0.0
142
1.0
143
1.0
 70
   688
 72
     1
 73
     0
 74
     5
  7

 75
    16
147
1.0
148
0.0
149
0.0
100
AcDbLayout
  1
Layout1
 70
     1
 71
     1
 10
0.0
 20
0.0
 11
420.0
 21
297.0
 12
0.0
 22
0.0
 32
0.0
 14
1.0000000000E+20
 24
1.0000000000E+20
 34
1.0000000000E+20
 15
-1.0000000000E+20
 25
-1.0000000000E+20
 35
-1.0000000000E+20
146
0.0
 13
0.0
 23
0.0
 33
0.0
 16
1.0
 26
0.0
 36
0.0
 17
0.0
 27
1.0
 37
0.0
 76
     0
330
1B
  0
LAYOUT
  5
26
102
{ACAD_REACTORS
330
1A
102
}
330
1A
100
AcDbPlotSettings
  1

  2
none_device
  4

  6

 40
0.0
 41
0.0
 42
0.0
 43
0.0
 44
0.0
 45
0.0
 46
0.0
 47
0.0
 48
0.0
 49
0.0
140
0.0
141
0.0
142
1.0
143
1.0
 70
   688
 72
     1
 73
     0
 74
     5
  7

 75
    16
147
1.0
148
0.0
149
0.0
100
AcDbLayout
  1
Layout2
 70
     1
 71
     2
 10
0.0
 20
0.0
 11
0.0
 21
0.0
 12
0.0
 22
0.0
 32
0.0
 14
0.0
 24
0.0
 34
0.0
 15
0.0
 25
0.0
 35
0.0
146
0.0
 13
0.0
 23
0.0
 33
0.0
 16
1.0
 26
0.0
 36
0.0
 17
0.0
 27
1.0
 37
0.0
 76
     0
330
23
  0
LAYOUT
  5
22
102
{ACAD_REACTORS
330
1A
102
}
330
1A
100
AcDbPlotSettings
  1

  2
none_device
  4
ANSI_A_(11.00_x_8.50_Inches)
  6

 40
6.35
 41
19.05
 42
6.35000508
 43
19.05000254
 44
279.4
 45
215.9
 46
-1817.0178382168
 47
-1731.886738818
 48
0.0
 49
0.0
140
0.0
141
0.0
142
0.0141915263
143
1.0
 70
  1696
 72
     0
 73
     0
 74
     0
  7

 75
     0
147
0.0179189148
148
-1300.4909072572
149
0.0
100
AcDbLayout
  1
Model
 70
     1
 71
     0
 10
0.0
 20
0.0
 11
420.0
 21
297.0
 12
0.0
 22
0.0
 32
0.0
 14
5194.6619367774
 24
4754.7399766199
 34
0.0
 15
5626.744283953
 25
5347.6994544977
 35
0.0
146
0.0
 13
0.0
 23
0.0
 33
0.0
 16
1.0
 26
0.0
 36
0.0
 17
0.0
 27
1.0
 37
0.0
 76
     0
330
1F
331
29
  0
MLINESTYLE
  5
18
102
{ACAD_REACTORS
330
17
102
}
330
17
100
AcDbMlineStyle
  2
Standard
 70
     0
  3

 62
   256
 51
90.0
 52
90.0
 71
     2
 49
0.5
 62
   256
  6
BYLAYER
 49
-0.5
 62
   256
  6
BYLAYER
  0
ACDBPLACEHOLDER
  5
F
102
{ACAD_REACTORS
330
E
102
}
330
E
  0
SCALE
  5
48
102
{ACAD_REACTORS
330
47
102
}
330
47
100
AcDbScale
 70
     0
300
1:1
140
1.0
141
1.0
290
     1
  0
SCALE
  5
49
102
{ACAD_REACTORS
330
47
102
}
330
47
100
AcDbScale
 70
     0
300
1:2
140
1.0
141
2.0
290
     0
  0
SCALE
  5
4A
102
{ACAD_REACTORS
330
47
102
}
330
47
100
AcDbScale
 70
     0
300
1:4
140
1.0
141
4.0
290
     0
  0
SCALE
  5
4B
102
{ACAD_REACTORS
330
47
102
}
330
47
100
AcDbScale
 70
     0
300
1:5
140
1.0
141
5.0
290
     0
  0
SCALE
  5
4C
102
{ACAD_REACTORS
330
47
102
}
330
47
100
AcDbScale
 70
     0
300
1:8
140
1.0
141
8.0
290
     0
  0
SCALE
  5
4D
102
{ACAD_REACTORS
330
47
102
}
330
47
100
AcDbScale
 70
     0
300
1:10
140
1.0
141
10.0
290
     0
  0
SCALE
  5
4E
102
{ACAD_REACTORS
330
47
102
}
330
47
100
AcDbScale
 70
     0
300
1:16
140
1.0
141
16.0
290
     0
  0
SCALE
  5
4F
102
{ACAD_REACTORS
330
47
102
}
330
47
100
AcDbScale
 70
     0
300
1:20
140
1.0
141
20.0
290
     0
  0
SCALE
  5
50
102
{ACAD_REACTORS
330
47
102
}
330
47
100
AcDbScale
 70
     0
300
1:30
140
1.0
141
30.0
290
     0
  0
SCALE
  5
51
102
{ACAD_REACTORS
330
47
102
}
330
47
100
AcDbScale
 70
     0
300
1:40
140
1.0
141
40.0
290
     0
  0
SCALE
  5
52
102
{ACAD_REACTORS
330
47
102
}
330
47
100
AcDbScale
 70
     0
300
1:50
140
1.0
141
50.0
290
     0
  0
SCALE
  5
53
102
{ACAD_REACTORS
330
47
102
}
330
47
100
AcDbScale
 70
     0
300
1:100
140
1.0
141
100.0
290
     0
  0
SCALE
  5
54
102
{ACAD_REACTORS
330
47
102
}
330
47
100
AcDbScale
 70
     0
300
2:1
140
2.0
141
1.0
290
     0
  0
SCALE
  5
55
102
{ACAD_REACTORS
330
47
102
}
330
47
100
AcDbScale
 70
     0
300
4:1
140
4.0
141
1.0
290
     0
  0
SCALE
  5
56
102
{ACAD_REACTORS
330
47
102
}
330
47
100
AcDbScale
 70
     0
300
8:1
140
8.0
141
1.0
290
     0
  0
SCALE
  5
57
102
{ACAD_REACTORS
330
47
102
}
330
47
100
AcDbScale
 70
     0
300
10:1
140
10.0
141
1.0
290
     0
  0
SCALE
  5
58
102
{ACAD_REACTORS
330
47
102
}
330
47
100
AcDbScale
 70
     0
300
100:1
140
100.0
141
1.0
290
     0
  0
SCALE
  5
59
102
{ACAD_REACTORS
330
47
102
}
330
47
100
AcDbScale
 70
     0
300
1/128" = 1'-0"
140
0.0078125
141
12.0
290
     0
  0
SCALE
  5
5A
102
{ACAD_REACTORS
330
47
102
}
330
47
100
AcDbScale
 70
     0
300
1/64" = 1'-0"
140
0.015625
141
12.0
290
     0
  0
SCALE
  5
5B
102
{ACAD_REACTORS
330
47
102
}
330
47
100
AcDbScale
 70
     0
300
1/32" = 1'-0"
140
0.03125
141
12.0
290
     0
  0
SCALE
  5
5C
102
{ACAD_REACTORS
330
47
102
}
330
47
100
AcDbScale
 70
     0
300
1/16" = 1'-0"
140
0.0625
141
12.0
290
     0
  0
SCALE
  5
5D
102
{ACAD_REACTORS
330
47
102
}
330
47
100
AcDbScale
 70
     0
300
3/32" = 1'-0"
140
0.09375
141
12.0
290
     0
  0
SCALE
  5
5E
102
{ACAD_REACTORS
330
47
102
}
330
47
100
AcDbScale
 70
     0
300
1/8" = 1'-0"
140
0.125
141
12.0
290
     0
  0
SCALE
  5
5F
102
{ACAD_REACTORS
330
47
102
}
330
47
100
AcDbScale
 70
     0
300
3/16" = 1'-0"
140
0.1875
141
12.0
290
     0
  0
SCALE
  5
60
102
{ACAD_REACTORS
330
47
102
}
330
47
100
AcDbScale
 70
     0
300
1/4" = 1'-0"
140
0.25
141
12.0
290
     0
  0
SCALE
  5
61
102
{ACAD_REACTORS
330
47
102
}
330
47
100
AcDbScale
 70
     0
300
3/8" = 1'-0"
140
0.375
141
12.0
290
     0
  0
SCALE
  5
62
102
{ACAD_REACTORS
330
47
102
}
330
47
100
AcDbScale
 70
     0
300
1/2" = 1'-0"
140
0.5
141
12.0
290
     0
  0
SCALE
  5
63
102
{ACAD_REACTORS
330
47
102
}
330
47
100
AcDbScale
 70
     0
300
3/4" = 1'-0"
140
0.75
141
12.0
290
     0
  0
SCALE
  5
64
102
{ACAD_REACTORS
330
47
102
}
330
47
100
AcDbScale
 70
     0
300
1" = 1'-0"
140
1.0
141
12.0
290
     0
  0
SCALE
  5
65
102
{ACAD_REACTORS
330
47
102
}
330
47
100
AcDbScale
 70
     0
300
1-1/2" = 1'-0"
140
1.5
141
12.0
290
     0
  0
SCALE
  5
66
102
{ACAD_REACTORS
330
47
102
}
330
47
100
AcDbScale
 70
     0
300
3" = 1'-0"
140
3.0
141
12.0
290
     0
  0
SCALE
  5
67
102
{ACAD_REACTORS
330
47
102
}
330
47
100
AcDbScale
 70
     0
300
6" = 1'-0"
140
6.0
141
12.0
290
     0
  0
SCALE
  5
68
102
{ACAD_REACTORS
330
47
102
}
330
47
100
AcDbScale
 70
     0
300
1'-0" = 1'-0"
140
12.0
141
12.0
290
     0
  0
ENDSEC
  0
EOF
