  0
SECTION
  2
HEADER
  9
$ACADVER
  1
AC1015
  9
$ACADMAINTVER
 70
     6
  9
$DWGCODEPAGE
  3
ANSI_1250
  9
$INSBASE
 10
0.0
 20
0.0
 30
0.0
  9
$EXTMIN
 10
0.0
 20
0.0
 30
0.0
  9
$EXTMAX
 10
20000.0
 20
10000.0
 30
0.0
  9
$LIMMIN
 10
0.0
 20
0.0
  9
$LIMMAX
 10
20000.0
 20
10000.0
  9
$ORTHOMODE
 70
     0
  9
$REGENMODE
 70
     1
  9
$FILLMODE
 70
     1
  9
$QTEXTMODE
 70
     0
  9
$MIRRTEXT
 70
     1
  9
$LTSCALE
 40
1.0
  9
$ATTMODE
 70
     1
  9
$TEXTSIZE
 40
2.0
  9
$TRACEWID
 40
1.0
  9
$TEXTSTYLE
  7
Standard
  9
$CLAYER
  8
0
  9
$CELTYPE
  6
ByLayer
  9
$CECOLOR
 62
   256
  9
$CELTSCALE
 40
1.0
  9
$DISPSILH
 70
     0
  9
$DIMSCALE
 40
1.0
  9
$DIMASZ
 40
2.0
  9
$DIMEXO
 40
1.0
  9
$DIMDLI
 40
3.75
  9
$DIMRND
 40
0.0
  9
$DIMDLE
 40
0.0
  9
$DIMEXE
 40
1.0
  9
$DIMTP
 40
0.0
  9
$DIMTM
 40
0.0
  9
$DIMTXT
 40
2.0
  9
$DIMCEN
 40
2.5
  9
$DIMTSZ
 40
0.0
  9
$DIMTOL
 70
     0
  9
$DIMLIM
 70
     0
  9
$DIMTIH
 70
     1
  9
$DIMTOH
 70
     1
  9
$DIMSE1
 70
     0
  9
$DIMSE2
 70
     0
  9
$DIMTAD
 70
     1
  9
$DIMZIN
 70
     0
  9
$DIMBLK
  1

  9
$DIMASO
 70
     1
  9
$DIMSHO
 70
     1
  9
$DIMPOST
  1

  9
$DIMAPOST
  1

  9
$DIMALT
 70
     0
  9
$DIMALTD
 70
     3
  9
$DIMALTF
 40
0.0393700787
  9
$DIMLFAC
 40
1.0
  9
$DIMTOFL
 70
     1
  9
$DIMTVP
 40
0.0
  9
$DIMTIX
 70
     0
  9
$DIMSOXD
 70
     0
  9
$DIMSAH
 70
     0
  9
$DIMBLK1
  1

  9
$DIMBLK2
  1

  9
$DIMSTYLE
  2
ISO-25
  9
$DIMCLRD
 70
     0
  9
$DIMCLRE
 70
     0
  9
$DIMCLRT
 70
     0
  9
$DIMTFAC
 40
1.0
  9
$DIMGAP
 40
1.524
  9
$DIMJUST
 70
     0
  9
$DIMSD1
 70
     0
  9
$DIMSD2
 70
     0
  9
$DIMTOLJ
 70
     0
  9
$DIMTZIN
 70
     0
  9
$DIMALTZ
 70
     0
  9
$DIMALTTZ
 70
     0
  9
$DIMUPT
 70
     0
  9
$DIMDEC
 70
     2
  9
$DIMTDEC
 70
     0
  9
$DIMALTU
 70
     2
  9
$DIMALTTD
 70
     3
  9
$DIMTXSTY
  7
Standard
  9
$DIMAUNIT
 70
     0
  9
$DIMADEC
 70
     2
  9
$DIMALTRND
 40
0.0
  9
$DIMAZIN
 70
     0
  9
$DIMDSEP
 70
    44
  9
$DIMATFIT
 70
     3
  9
$DIMFRAC
 70
     0
  9
$DIMLDRBLK
  1

  9
$DIMLUNIT
 70
     2
  9
$DIMLWD
 70
    -2
  9
$DIMLWE
 70
    -2
  9
$DIMTMOVE
 70
     0
  9
$LUNITS
 70
     2
  9
$LUPREC
 70
     3
  9
$SKETCHINC
 40
1.0
  9
$FILLETRAD
 40
10.0
  9
$AUNITS
 70
     0
  9
$AUPREC
 70
     2
  9
$MENU
  1
.
  9
$ELEVATION
 40
0.0
  9
$PELEVATION
 40
0.0
  9
$THICKNESS
 40
0.0
  9
$LIMCHECK
 70
     0
  9
$CHAMFERA
 40
0.0
  9
$CHAMFERB
 40
0.0
  9
$CHAMFERC
 40
0.0
  9
$CHAMFERD
 40
0.0
  9
$SKPOLY
 70
     0
  9
$TDCREATE
 40
2459093.517999595
  9
$TDUCREATE
 40
2459093.434666262
  9
$TDUPDATE
 40
2459093.517999942
  9
$TDUUPDATE
 40
2459093.434666609
  9
$TDINDWG
 40
0.0000000116
  9
$TDUSRTIMER
 40
0.0000000116
  9
$USRTIMER
 70
     1
  9
$ANGBASE
 50
0.0
  9
$ANGDIR
 70
     0
  9
$PDMODE
 70
     0
  9
$PDSIZE
 40
-1.0
  9
$PLINEWID
 40
0.0
  9
$SPLFRAME
 70
     0
  9
$SPLINETYPE
 70
     6
  9
$SPLINESEGS
 70
     8
  9
$HANDSEED
  5
213
  9
$SURFTAB1
 70
     6
  9
$SURFTAB2
 70
     6
  9
$SURFTYPE
 70
     6
  9
$SURFU
 70
     6
  9
$SURFV
 70
     6
  9
$UCSBASE
  2

  9
$UCSNAME
  2

  9
$UCSORG
 10
0.0
 20
0.0
 30
0.0
  9
$UCSXDIR
 10
1.0
 20
0.0
 30
0.0
  9
$UCSYDIR
 10
0.0
 20
1.0
 30
0.0
  9
$UCSORTHOREF
  2

  9
$UCSORTHOVIEW
 70
     0
  9
$UCSORGTOP
 10
0.0
 20
0.0
 30
0.0
  9
$UCSORGBOTTOM
 10
0.0
 20
0.0
 30
0.0
  9
$UCSORGLEFT
 10
0.0
 20
0.0
 30
0.0
  9
$UCSORGRIGHT
 10
0.0
 20
0.0
 30
0.0
  9
$UCSORGFRONT
 10
0.0
 20
0.0
 30
0.0
  9
$UCSORGBACK
 10
0.0
 20
0.0
 30
0.0
  9
$PUCSBASE
  2

  9
$PUCSNAME
  2

  9
$PUCSORG
 10
0.0
 20
0.0
 30
0.0
  9
$PUCSXDIR
 10
1.0
 20
0.0
 30
0.0
  9
$PUCSYDIR
 10
0.0
 20
1.0
 30
0.0
  9
$PUCSORTHOREF
  2

  9
$PUCSORTHOVIEW
 70
     0
  9
$PUCSORGTOP
 10
0.0
 20
0.0
 30
0.0
  9
$PUCSORGBOTTOM
 10
0.0
 20
0.0
 30
0.0
  9
$PUCSORGLEFT
 10
0.0
 20
0.0
 30
0.0
  9
$PUCSORGRIGHT
 10
0.0
 20
0.0
 30
0.0
  9
$PUCSORGFRONT
 10
0.0
 20
0.0
 30
0.0
  9
$PUCSORGBACK
 10
0.0
 20
0.0
 30
0.0
  9
$USERI1
 70
     0
  9
$USERI2
 70
     0
  9
$USERI3
 70
     0
  9
$USERI4
 70
     0
  9
$USERI5
 70
     0
  9
$USERR1
 40
0.0
  9
$USERR2
 40
0.0
  9
$USERR3
 40
0.0
  9
$USERR4
 40
0.0
  9
$USERR5
 40
0.0
  9
$WORLDVIEW
 70
     1
  9
$SHADEDGE
 70
     3
  9
$SHADEDIF
 70
    70
  9
$TILEMODE
 70
     1
  9
$MAXACTVP
 70
    64
  9
$PINSBASE
 10
0.0
 20
0.0
 30
0.0
  9
$PLIMCHECK
 70
     0
  9
$PEXTMIN
 10
1.0000000000E+20
 20
1.0000000000E+20
 30
1.0000000000E+20
  9
$PEXTMAX
 10
-1.0000000000E+20
 20
-1.0000000000E+20
 30
-1.0000000000E+20
  9
$PLIMMIN
 10
0.0
 20
0.0
  9
$PLIMMAX
 10
420.0
 20
297.0
  9
$UNITMODE
 70
     0
  9
$VISRETAIN
 70
     1
  9
$PLINEGEN
 70
     0
  9
$PSLTSCALE
 70
     1
  9
$TREEDEPTH
 70
  3020
  9
$CMLSTYLE
  2
Standard
  9
$CMLJUST
 70
     0
  9
$CMLSCALE
 40
20.0
  9
$PROXYGRAPHICS
 70
     1
  9
$MEASUREMENT
 70
     1
  9
$CELWEIGHT
370
    -1
  9
$ENDCAPS
280
     0
  9
$JOINSTYLE
280
     0
  9
$LWDISPLAY
290
     1
  9
$INSUNITS
 70
     4
  9
$HYPERLINKBASE
  1

  9
$STYLESHEET
  1

  9
$XEDIT
290
     1
  9
$CEPSNTYPE
380
     0
  9
$PSTYLEMODE
290
     1
  9
$FINGERPRINTGUID
  2
{a3db5f5e-13b0-461e-944e-ba7176a039f7}
  9
$VERSIONGUID
  2
{FAEB1C32-E019-11D5-929B-00C0DF256EC4}
  9
$EXTNAMES
290
     1
  9
$PSVPSCALE
 40
0.0
  9
$OLESTARTUP
290
     0
  0
ENDSEC
  0
SECTION
  2
CLASSES
  0
CLASS
  1
ACDBDICTIONARYWDFLT
  2
AcDbDictionaryWithDefault
  3
ObjectDBX Classes
 90
        0
280
     0
281
     0
  0
CLASS
  1
VISUALSTYLE
  2
AcDbVisualStyle
  3
ObjectDBX Classes
 90
     4095
280
     0
281
     0
  0
CLASS
  1
MATERIAL
  2
AcDbMaterial
  3
ObjectDBX Classes
 90
     1153
280
     0
281
     0
  0
CLASS
  1
SCALE
  2
AcDbScale
  3
ObjectDBX Classes
 90
     1153
280
     0
281
     0
  0
CLASS
  1
TABLESTYLE
  2
AcDbTableStyle
  3
ObjectDBX Classes
 90
     4095
280
     0
281
     0
  0
CLASS
  1
MLEADERSTYLE
  2
AcDbMLeaderStyle
  3
ACDB_MLEADERSTYLE_CLASS
 90
     4095
280
     0
281
     0
  0
CLASS
  1
SUN
  2
AcDbSun
  3
SCENEOE
 90
     1153
280
     0
281
     0
  0
CLASS
  1
ACDBPLACEHOLDER
  2
AcDbPlaceHolder
  3
ObjectDBX Classes
 90
        0
280
     0
281
     0
  0
CLASS
  1
LAYOUT
  2
AcDbLayout
  3
ObjectDBX Classes
 90
        0
280
     0
281
     0
  0
ENDSEC
  0
SECTION
  2
TABLES
  0
TABLE
  2
VPORT
  5
8
330
0
100
AcDbSymbolTable
 70
     1
  0
VPORT
  5
29
330
8
100
AcDbSymbolTableRecord
100
AcDbViewportTableRecord
  2
*Active
 70
     0
 10
0.0
 20
0.0
 11
1.0
 21
1.0
 12
10000.0
 22
5000.0
 13
0.0
 23
0.0
 14
10.0
 24
10.0
 15
10.0
 25
10.0
 16
0.0
 26
0.0
 36
1.0
 17
0.0
 27
0.0
 37
0.0
 40
10000.0
 41
2.0
 42
50.0
 43
0.0
 44
0.0
 50
0.0
 51
0.0
 71
     0
 72
  2000
 73
     1
 74
     3
 75
     0
 76
     0
 77
     0
 78
     0
281
     0
 65
     1
110
0.0
120
0.0
130
0.0
111
1.0
121
0.0
131
0.0
112
0.0
122
1.0
132
0.0
 79
     0
146
0.0
  0
ENDTAB
  0
TABLE
  2
LTYPE
  5
5
330
0
100
AcDbSymbolTable
 70
     6
  0
LTYPE
  5
14
330
5
100
AcDbSymbolTableRecord
100
AcDbLinetypeTableRecord
  2
ByBlock
 70
     0
  3

 72
    65
 73
     0
 40
0.0
  0
LTYPE
  5
15
330
5
100
AcDbSymbolTableRecord
100
AcDbLinetypeTableRecord
  2
ByLayer
 70
     0
  3

 72
    65
 73
     0
 40
0.0
  0
LTYPE
  5
16
330
5
100
AcDbSymbolTableRecord
100
AcDbLinetypeTableRecord
  2
Continuous
 70
     0
  3
Solid line
 72
    65
 73
     0
 40
0.0
  0
LTYPE
  5
6E
330
5
100
AcDbSymbolTableRecord
100
AcDbLinetypeTableRecord
  2
HIDDEN
 70
     0
  3
Hidden __ __ __ __ __ __ __ __ __ __ __ __ __ __
 72
    65
 73
     2
 40
1.905
 49
1.27
 74
     0
 49
-0.635
 74
     0
  0
LTYPE
  5
6F
330
5
100
AcDbSymbolTableRecord
100
AcDbLinetypeTableRecord
  2
PHANTOM
 70
     0
  3
Phantom ______  __  __  ______  __  __  ______
 72
    65
 73
     6
 40
12.7
 49
6.35
 74
     0
 49
-1.27
 74
     0
 49
1.27
 74
     0
 49
-1.27
 74
     0
 49
1.27
 74
     0
 49
-1.27
 74
     0
  0
LTYPE
  5
70
330
5
100
AcDbSymbolTableRecord
100
AcDbLinetypeTableRecord
  2
CENTER
 70
     0
  3
Center ____ _ ____ _ ____ _ ____ _ ____ _ ____
 72
    65
 73
     4
 40
10.16
 49
6.35
 74
     0
 49
-1.27
 74
     0
 49
1.27
 74
     0
 49
-1.27
 74
     0
  0
LTYPE
  5
71
330
5
100
AcDbSymbolTableRecord
100
AcDbLinetypeTableRecord
  2
CENTERX2
 70
     0
  3
Center (2x) ________  __  ________  __  _____
 72
    65
 73
     4
 40
20.32
 49
12.7
 74
     0
 49
-2.54
 74
     0
 49
2.54
 74
     0
 49
-2.54
 74
     0
  0
LTYPE
  5
72
330
5
100
AcDbSymbolTableRecord
100
AcDbLinetypeTableRecord
  2
DOT2
 70
     0
  3
Dot (.5x) ........................................
 72
    65
 73
     2
 40
0.635
 49
0.0
 74
     0
 49
-0.635
 74
     0
  0
ENDTAB
  0
TABLE
  2
LAYER
  5
2
330
0
100
AcDbSymbolTable
 70
    13
  0
LAYER
  5
10
330
2
100
AcDbSymbolTableRecord
100
AcDbLayerTableRecord
  2
0
 70
     0
 62
     7
  6
Continuous
370
    -3
390
F
  0
LAYER
  5
73
330
2
100
AcDbSymbolTableRecord
100
AcDbLayerTableRecord
  2
FORMAT
 70
     0
 62
     7
  6
Continuous
370
    -3
390
F
  0
LAYER
  5
74
330
2
100
AcDbSymbolTableRecord
100
AcDbLayerTableRecord
  2
OSA
 70
     0
 62
     7
  6
CENTER
370
    -3
390
F
  0
LAYER
  5
75
330
2
100
AcDbSymbolTableRecord
100
AcDbLayerTableRecord
  2
0_35
 70
     0
 62
     7
  6
Continuous
370
    35
390
F
  0
LAYER
  5
76
330
2
100
AcDbSymbolTableRecord
100
AcDbLayerTableRecord
  2
0_5
 70
     0
 62
     7
  6
Continuous
370
    50
390
F
  0
LAYER
  5
77
330
2
100
AcDbSymbolTableRecord
100
AcDbLayerTableRecord
  2
0_25
 70
     0
 62
     7
  6
Continuous
370
    25
390
F
  0
LAYER
  5
78
330
2
100
AcDbSymbolTableRecord
100
AcDbLayerTableRecord
  2
0_18
 70
     0
 62
     7
  6
Continuous
370
    -3
390
F
  0
LAYER
  5
79
330
2
100
AcDbSymbolTableRecord
100
AcDbLayerTableRecord
  2
SLD-0
 70
     0
 62
   179
  6
Continuous
370
    -3
390
F
  0
LAYER
  5
7A
330
2
100
AcDbSymbolTableRecord
100
AcDbLayerTableRecord
  2
KOTY
 70
     0
 62
     7
  6
Continuous
370
    -3
390
F
  0
LAYER
  5
7B
330
2
100
AcDbSymbolTableRecord
100
AcDbLayerTableRecord
  2
SILNA
 70
     0
 62
   179
  6
Continuous
370
    -3
390
F
  0
LAYER
  5
7C
330
2
100
AcDbSymbolTableRecord
100
AcDbLayerTableRecord
  2
0_18_1
 70
     0
 62
   179
  6
Continuous
370
    -3
390
F
  0
LAYER
  5
7D
330
2
100
AcDbSymbolTableRecord
100
AcDbLayerTableRecord
  2
0_35_1
 70
     0
 62
   179
  6
Continuous
370
    35
390
F
  0
LAYER
  5
7E
330
2
100
AcDbSymbolTableRecord
100
AcDbLayerTableRecord
  2
0_5_1
 70
     0
 62
   179
  6
Continuous
370
    50
390
F
  0
ENDTAB
  0
TABLE
  2
STYLE
  5
3
330
0
100
AcDbSymbolTable
 70
     1
  0
STYLE
  5
11
330
3
100
AcDbSymbolTableRecord
100
AcDbTextStyleTableRecord
  2
Standard
 70
     0
 40
0.0
 41
1.0
 50
0.0
 71
     0
 42
2.0
  3
txt
  4

  0
ENDTAB
  0
TABLE
  2
VIEW
  5
6
330
0
100
AcDbSymbolTable
 70
     0
  0
ENDTAB
  0
TABLE
  2
UCS
  5
7
330
0
100
AcDbSymbolTable
 70
     0
  0
ENDTAB
  0
TABLE
  2
APPID
  5
9
330
0
100
AcDbSymbolTable
 70
     1
  0
APPID
  5
12
330
9
100
AcDbSymbolTableRecord
100
AcDbRegAppTableRecord
  2
ACAD
 70
     0
  0
ENDTAB
  0
TABLE
  2
DIMSTYLE
  5
A
330
0
100
AcDbSymbolTable
 70
     1
100
AcDbDimStyleTable
  0
DIMSTYLE
105
27
330
A
100
AcDbSymbolTableRecord
100
AcDbDimStyleTableRecord
  2
ISO-25
 70
     0
 41
2.5
 42
0.625
 43
3.75
 44
1.25
 73
     0
 74
     0
 77
     1
 78
     8
140
2.5
141
2.5
143
0.0393700787
147
0.625
171
     3
172
     1
178
     0
271
     2
272
     2
274
     3
278
    44
283
     0
284
     8
340
11
  0
ENDTAB
  0
TABLE
  2
BLOCK_RECORD
  5
1
330
0
100
AcDbSymbolTable
 70
     1
  0
BLOCK_RECORD
  5
1F
330
1
100
AcDbSymbolTableRecord
100
AcDbBlockTableRecord
  2
*Model_Space
340
22
  0
BLOCK_RECORD
  5
1B
330
1
100
AcDbSymbolTableRecord
100
AcDbBlockTableRecord
  2
*Paper_Space
340
1E
  0
BLOCK_RECORD
  5
23
330
1
100
AcDbSymbolTableRecord
100
AcDbBlockTableRecord
  2
*Paper_Space0
340
26
  0
ENDTAB
  0
ENDSEC
  0
SECTION
  2
BLOCKS
  0
BLOCK
  5
20
330
1F
100
AcDbEntity
  8
0
100
AcDbBlockBegin
  2
*Model_Space
 70
     0
 10
0.0
 20
0.0
 30
0.0
  3
*Model_Space
  1

  0
ENDBLK
  5
21
330
1F
100
AcDbEntity
  8
0
100
AcDbBlockEnd
  0
BLOCK
  5
1C
330
1B
100
AcDbEntity
 67
     1
  8
0
100
AcDbBlockBegin
  2
*Paper_Space
 70
     0
 10
0.0
 20
0.0
 30
0.0
  3
*Paper_Space
  1

  0
ENDBLK
  5
1D
330
1B
100
AcDbEntity
 67
     1
  8
0
100
AcDbBlockEnd
  0
BLOCK
  5
24
330
23
100
AcDbEntity
  8
0
100
AcDbBlockBegin
  2
*Paper_Space0
 70
     0
 10
0.0
 20
0.0
 30
0.0
  3
*Paper_Space0
  1

  0
ENDBLK
  5
25
330
23
100
AcDbEntity
  8
0
100
AcDbBlockEnd
  0
ENDSEC
  0
SECTION
  2
ENTITIES
  0
LINE
  5
7F
330
1F
100
AcDbEntity
  8
0
  6
Continuous
 62
     7
370
    25
100
AcDbLine
 10
2803.7329031136
 20
7907.410191358
 30
0.0
 11
2803.7329031136
 21
7904.1238043
 31
0.0
  0
LINE
  5
80
330
1F
100
AcDbEntity
  8
0
  6
Continuous
 62
     7
370
    25
100
AcDbLine
 10
2896.2329031136
 20
7904.1238043
 30
0.0
 11
2896.2329031136
 21
7907.410191358
 31
0.0
  0
LINE
  5
81
330
1F
100
AcDbEntity
  8
0
  6
Continuous
 62
     7
370
    25
100
AcDbLine
 10
2887.4829031136
 20
7908.9534334315
 30
0.0
 11
2887.4829031136
 21
7912.7047242206
 31
0.0
  0
LINE
  5
82
330
1F
100
AcDbEntity
  8
0
  6
Continuous
 62
     7
370
    25
100
AcDbLine
 10
2812.4829031136
 20
7909.9562126637
 30
0.0
 11
2812.4829031136
 21
7908.9534334315
 31
0.0
  0
LINE
  5
83
330
1F
100
AcDbEntity
  8
0
  6
Continuous
 62
     7
370
    25
100
AcDbLine
 10
2842.0043544413
 20
7878.6846367559
 30
0.0
 11
2842.4829031136
 21
7878.2060880836
 31
0.0
  0
LINE
  5
84
330
1F
100
AcDbEntity
  8
0
  6
Continuous
 62
     7
370
    25
100
AcDbLine
 10
2857.4829031136
 20
7878.2060880836
 30
0.0
 11
2857.9614517858
 21
7878.6846367559
 31
0.0
  0
LINE
  5
85
330
1F
100
AcDbEntity
  8
0
  6
Continuous
 62
     7
370
    25
100
AcDbLine
 10
2841.7329031136
 20
7878.7178815862
 30
0.0
 11
2841.7329031136
 21
7878.7176811599
 31
0.0
  0
LINE
  5
86
330
1F
100
AcDbEntity
  8
0
  6
Continuous
 62
     7
370
    25
100
AcDbLine
 10
2858.2329031136
 20
7878.7051010366
 30
0.0
 11
2858.2329031136
 21
7878.7178815862
 31
0.0
  0
CIRCLE
  5
87
330
1F
100
AcDbEntity
  8
0
  6
Continuous
 62
     7
370
    25
100
AcDbCircle
 10
2849.9829031136
 20
7462.5342963117
 30
0.0
 40
170.0000000000009
  0
CIRCLE
  5
88
330
1F
100
AcDbEntity
  8
0
  6
Continuous
 62
     7
370
    25
100
AcDbCircle
 10
2849.9829031136
 20
7462.5342963117
 30
0.0
 40
175.0000000000012
  0
ARC
  5
89
330
1F
100
AcDbEntity
  8
0
  6
Continuous
 62
     7
370
    25
100
AcDbCircle
 10
2853.3796245369
 20
8028.8207159653
 30
0.0
 40
131.7142408476218
100
AcDbArc
 50
273.2755663794
 51
280.6784991017
  0
ARC
  5
8A
330
1F
100
AcDbEntity
  8
0
  6
Continuous
 62
     7
370
    25
100
AcDbCircle
 10
2868.5879625526
 20
7949.5762318511
 30
0.0
 40
55.74349353582917
100
AcDbArc
 50
281.5079852122
 51
292.016777691
  0
LINE
  5
8B
330
1F
100
AcDbEntity
  8
0
  6
Continuous
 62
     7
370
    25
100
AcDbLine
 10
2889.4849764289
 20
7902.7275107512
 30
0.0
 11
2889.4849764289
 21
7897.8978816197
 31
0.0
  0
ARC
  5
8C
330
1F
100
AcDbEntity
  8
0
  6
Continuous
 62
     7
370
    25
100
AcDbCircle
 10
2881.7856492702
 20
7921.7509192973
 30
0.0
 40
20.52241972596394
100
AcDbArc
 50
292.0346122935
 51
304.9029336649
  0
ARC
  5
8D
330
1F
100
AcDbEntity
  8
0
  6
Continuous
 62
     7
370
    25
100
AcDbCircle
 10
2892.4348896372
 20
7904.1216757396
 30
0.0
 40
3.768644855654208
100
AcDbArc
 50
343.9475088277
 51
48.6509558696
  0
LINE
  5
8E
330
1F
100
AcDbEntity
  8
0
  6
Continuous
 62
     7
370
    25
100
AcDbLine
 10
2894.9246241122
 20
7909.6840786172
 30
0.0
 11
2894.9246241122
 21
7906.9507933214
 31
0.0
  0
LINE
  5
8F
330
1F
100
AcDbEntity
  8
0
  6
Continuous
 62
     7
370
    25
100
AcDbLine
 10
2885.4147991253
 20
7913.2917047333
 30
0.0
 11
2885.4147991253
 21
7911.8174947977
 31
0.0
  0
ARC
  5
90
330
1F
100
AcDbEntity
  8
0
  6
Continuous
 62
     7
370
    25
100
AcDbCircle
 10
2861.7468570099
 20
7832.2393746525
 30
0.0
 40
83.02318164118915
100
AcDbArc
 50
73.4365900544
 51
81.4863535391
  0
LINE
  5
91
330
1F
100
AcDbEntity
  8
0
  6
Continuous
 62
     7
370
    25
100
AcDbLine
 10
2874.038021151
 20
7915.5516728297
 30
0.0
 11
2874.038021151
 21
7914.3476931951
 31
0.0
  0
LINE
  5
92
330
1F
100
AcDbEntity
  8
0
  6
Continuous
 62
     7
370
    25
100
AcDbLine
 10
2854.0174837163
 20
7917.1281286032
 30
0.0
 11
2854.0174837163
 21
7916.0485520456
 31
0.0
  0
ARC
  5
93
330
1F
100
AcDbEntity
  8
0
  6
Continuous
 62
     7
370
    25
100
AcDbCircle
 10
2849.9823522016
 20
7740.1019236579
 30
0.0
 40
175.9928928318475
100
AcDbArc
 50
88.686218161
 51
93.5580550128
  0
LINE
  5
94
330
1F
100
AcDbEntity
  8
0
  6
Continuous
 62
     7
370
    25
100
AcDbLine
 10
2839.0602562878
 20
7916.8542506982
 30
0.0
 11
2839.0602562878
 21
7915.7555776142
 31
0.0
  0
LINE
  5
95
330
1F
100
AcDbEntity
  8
0
  6
Continuous
 62
     7
370
    25
100
AcDbLine
 10
2820.2567657087
 20
7914.5953407551
 30
0.0
 11
2820.2567657087
 21
7913.2942537919
 31
0.0
  0
ARC
  5
96
330
1F
100
AcDbEntity
  8
0
  6
Continuous
 62
     7
370
    25
100
AcDbCircle
 10
2831.3778436745
 20
7858.6713767488
 30
0.0
 40
55.74349353592129
100
AcDbArc
 50
101.5079852122
 51
112.016777691
  0
LINE
  5
97
330
1F
100
AcDbEntity
  8
0
  6
Continuous
 62
     7
370
    25
100
AcDbLine
 10
2810.4808297983
 20
7912.0584718252
 30
0.0
 11
2810.4808297983
 21
7910.3497269803
 31
0.0
  0
LINE
  5
98
330
1F
100
AcDbEntity
  8
0
  6
Continuous
 62
     7
370
    25
100
AcDbLine
 10
2803.9092158359
 20
7908.9860280845
 30
0.0
 11
2803.9092158359
 21
7905.168030599
 31
0.0
  0
ARC
  5
99
330
1F
100
AcDbEntity
  8
0
  6
Continuous
 62
     7
370
    25
100
AcDbCircle
 10
2807.5309165899
 20
7904.1259328605
 30
0.0
 40
3.768644855661309
100
AcDbArc
 50
163.9475088278
 51
228.6509558696
  0
ARC
  5
9A
330
1F
100
AcDbEntity
  8
0
  6
Continuous
 62
     7
370
    25
100
AcDbCircle
 10
2823.212499198
 20
7931.7735374518
 30
0.0
 40
31.71928595072878
100
AcDbArc
 50
240.450734955
 51
254.1531434989
  0
LINE
  5
9B
330
1F
100
AcDbEntity
  8
0
  6
Continuous
 62
     7
370
    25
100
AcDbLine
 10
2814.5510071019
 20
7901.2597429337
 30
0.0
 11
2814.5510071019
 21
7896.4301138023
 31
0.0
  0
ARC
  5
9C
330
1F
100
AcDbEntity
  8
0
  6
Continuous
 62
     7
370
    25
100
AcDbCircle
 10
2838.2189492171
 20
7976.0082339469
 30
0.0
 40
83.02318164055733
100
AcDbArc
 50
253.4365900543
 51
261.4863535391
  0
ARC
  5
9D
330
1F
100
AcDbEntity
  8
0
  6
Continuous
 62
     7
370
    25
100
AcDbCircle
 10
2848.9474328169
 20
8051.8337482706
 30
0.0
 40
154.8341114369573
100
AcDbArc
 50
262.067836201
 51
268.8901211221
  0
ARC
  5
9E
330
1F
100
AcDbEntity
  8
0
  6
Continuous
 62
     7
370
    25
100
AcDbCircle
 10
2849.9834540256
 20
8068.1456849404
 30
0.0
 40
175.9928928300919
100
AcDbArc
 50
268.686218161
 51
273.5580550128
  0
LINE
  5
9F
330
1F
100
AcDbEntity
  8
0
  6
Continuous
 62
     7
370
    25
100
AcDbLine
 10
2860.9055499393
 20
7897.3216601173
 30
0.0
 11
2860.9055499393
 21
7892.4920309859
 31
0.0
  0
LWPOLYLINE
  5
A0
330
1F
100
AcDbEntity
  8
0
  6
Continuous
 62
     7
370
    25
100
AcDbPolyline
 90
        7
 70
   128
 43
0.0
 10
2823.09907936
 20
7900.8559846994
 10
2817.1818012626
 20
7902.4795924061
 10
2812.6980887132
 20
7904.3861380305
 10
2809.8439014655
 20
7906.4922963803
 10
2808.7439811981
 20
7908.706018229
 10
2809.4463997047
 20
7910.9305533093
 10
2810.5400503674
 20
7912.0788688997
  0
LWPOLYLINE
  5
A1
330
1F
100
AcDbEntity
  8
0
  6
Continuous
 62
     7
370
    25
100
AcDbPolyline
 90
        6
 70
   128
 43
0.0
 10
2889.4257558598
 20
7912.0788688997
 10
2890.1219047617
 20
7911.4145704827
 10
2891.2218250291
 20
7909.2008486339
 10
2890.5194065224
 20
7906.9763135536
 10
2888.0453483011
 20
7904.8381880992
 10
2885.732080117
 20
7903.6267963572
  0
LINE
  5
A2
330
1F
100
AcDbEntity
  8
0
  6
Continuous
 62
     7
370
    25
100
AcDbLine
 10
2824.1781710499
 20
7900.6241302652
 30
0.0
 11
2823.09907936
 21
7900.8559846994
 31
0.0
  0
LINE
  5
A3
330
1F
100
AcDbEntity
  8
0
  6
Continuous
 62
     7
370
    25
100
AcDbLine
 10
2889.4849764289
 20
7902.7275107512
 30
0.0
 11
2887.5619281456
 21
7903.1551971924
 31
0.0
  0
ARC
  5
A4
330
1F
100
AcDbEntity
  8
0
  6
Continuous
 62
     7
370
    25
100
AcDbCircle
 10
2867.5574072742
 20
7951.8704382474
 30
0.0
 40
52.66265817768276
100
AcDbArc
 50
281.1996536464
 51
292.3251092568
  0
LINE
  5
A5
330
1F
100
AcDbEntity
  8
0
  6
Continuous
 62
     7
370
    25
100
AcDbLine
 10
2860.7142105448
 20
7897.9760223623
 30
0.0
 11
2860.9055499393
 21
7897.3216601173
 31
0.0
  0
ARC
  5
A6
330
1F
100
AcDbEntity
  8
0
  6
Continuous
 62
     7
370
    25
100
AcDbCircle
 10
2849.9814090843
 20
8063.965624151
 30
0.0
 40
166.3362285527952
100
AcDbArc
 50
268.5447078601
 51
273.6995653137
  0
ARC
  5
A7
330
1F
100
AcDbEntity
  8
0
  6
Continuous
 62
     7
370
    25
100
AcDbCircle
 10
2838.8751649084
 20
7976.8561032433
 30
0.0
 40
78.44623460315445
100
AcDbArc
 50
253.2013365699
 51
261.7216070235
  0
LINE
  5
A8
330
1F
100
AcDbEntity
  8
0
  6
Continuous
 62
     7
370
    25
100
AcDbLine
 10
2814.5510071019
 20
7901.2597429337
 30
0.0
 11
2816.2034606183
 21
7901.7574644541
 31
0.0
  0
ARC
  5
A9
330
1F
100
AcDbEntity
  8
0
  6
Continuous
 62
     7
370
    25
100
AcDbCircle
 10
2810.9478214613
 20
7909.6696256074
 30
0.0
 40
4.859947432285372
100
AcDbArc
 50
201.8649315471
 51
225.9610692727
  0
LINE
  5
AA
330
1F
100
AcDbEntity
  8
0
  6
Continuous
 62
     7
370
    25
100
AcDbLine
 10
2806.4374774046
 20
7910.0471820098
 30
0.0
 11
2805.6780060881
 21
7910.0323058787
 31
0.0
  0
LINE
  5
AB
330
1F
100
AcDbEntity
  8
0
  6
Continuous
 62
     7
370
    25
100
AcDbLine
 10
2812.4829031136
 20
7909.3353455674
 30
0.0
 11
2811.112712773
 21
7910.2091960414
 31
0.0
  0
LWPOLYLINE
  5
AC
330
1F
100
AcDbEntity
  8
0
  6
Continuous
 62
     7
370
    25
100
AcDbPolyline
 90
        3
 70
   128
 43
0.0
 10
2810.4808297983
 20
7910.708136499
 10
2809.8439014655
 20
7911.3219255117
 10
2809.8019221672
 20
7911.3682479972
  0
LWPOLYLINE
  5
AD
330
1F
100
AcDbEntity
  8
0
  6
Continuous
 62
     7
370
    25
100
AcDbPolyline
 90
        3
 70
   128
 43
0.0
 10
2890.1638840599
 20
7911.3682479972
 10
2888.0453483011
 20
7909.6678172307
 10
2887.4829031136
 20
7909.3353455674
  0
LINE
  5
AE
330
1F
100
AcDbEntity
  8
0
  6
Continuous
 62
     7
370
    25
100
AcDbLine
 10
2854.2088231109
 20
7915.3941898006
 30
0.0
 11
2854.0174837163
 21
7916.0485520456
 31
0.0
  0
ARC
  5
AF
330
1F
100
AcDbEntity
  8
0
  6
Continuous
 62
     7
370
    25
100
AcDbCircle
 10
2849.9843971429
 20
7749.1116135794
 30
0.0
 40
166.3362285538925
100
AcDbArc
 50
88.5447078601
 51
93.6995653137
  0
LINE
  5
B0
330
1F
100
AcDbEntity
  8
0
  6
Continuous
 62
     7
370
    25
100
AcDbLine
 10
2839.2515956824
 20
7915.1012153692
 30
0.0
 11
2839.0602562878
 21
7915.7555776142
 31
0.0
  0
LWPOLYLINE
  5
B1
330
1F
100
AcDbEntity
  8
0
  6
Continuous
 62
     7
370
    25
100
AcDbPolyline
 90
        6
 70
   128
 43
0.0
 10
2825.5430633376
 20
7901.5921164023
 10
2820.0002757868
 20
7903.1240145619
 10
2815.8594425666
 20
7904.928489869
 10
2813.3141844359
 20
7906.9211670636
 10
2812.4835148363
 20
7909.0088707748
 10
2812.7275664275
 20
7910.060316536
  0
LWPOLYLINE
  5
B2
330
1F
100
AcDbEntity
  8
0
  6
Continuous
 62
     7
370
    25
100
AcDbPolyline
 90
       14
 70
   128
 43
0.0
 10
2885.4147991253
 20
7912.1320721464
 10
2885.5877096272
 20
7911.999896896
 10
2887.2856267553
 20
7909.9476762377
 10
2887.2393099848
 20
7907.8489658907
 10
2885.4509250366
 20
7905.8018992185
 10
2882.0040948032
 20
7903.9021947833
 10
2877.0599892353
 20
7902.2386806533
 10
2870.8497892144
 20
7900.8891409003
 10
2863.6638767914
 20
7899.9166785032
 10
2855.8382572444
 20
7899.3667647229
 10
2847.7388478461
 20
7899.2651129167
 10
2839.7443679779
 20
7899.6164762099
 10
2832.2286306334
 20
7900.4044252455
 10
2825.5430633376
 20
7901.5921164023
  0
LINE
  5
B3
330
1F
100
AcDbEntity
  8
0
  6
Continuous
 62
     7
370
    25
100
AcDbLine
 10
2854.2088231108
 20
7917.1239714547
 30
0.0
 11
2854.2088231109
 21
7915.3941898006
 31
0.0
  0
LINE
  5
B4
330
1F
100
AcDbEntity
  8
0
  6
Continuous
 62
     7
370
    25
100
AcDbLine
 10
2874.038021151
 20
7914.3476931951
 30
0.0
 11
2872.3855676345
 21
7913.8499716747
 31
0.0
  0
LINE
  5
B5
330
1F
100
AcDbEntity
  8
0
  6
Continuous
 62
     7
370
    25
100
AcDbLine
 10
2885.4147991253
 20
7911.8174947977
 30
0.0
 11
2883.7623456088
 21
7911.3197732774
 31
0.0
  0
ARC
  5
B6
330
1F
100
AcDbEntity
  8
0
  6
Continuous
 62
     7
370
    25
100
AcDbCircle
 10
2861.0906413187
 20
7836.221134488
 30
0.0
 40
78.44623460329794
100
AcDbArc
 50
73.2013365699
 51
81.7216070235
  0
LINE
  5
B7
330
1F
100
AcDbEntity
  8
0
  6
Continuous
 62
     7
370
    25
100
AcDbLine
 10
2872.3855676345
 20
7915.7797442153
 30
0.0
 11
2872.3855676345
 21
7913.8499716747
 31
0.0
  0
LINE
  5
B8
330
1F
100
AcDbEntity
  8
0
  6
Continuous
 62
     7
370
    25
100
AcDbLine
 10
2820.2567657087
 20
7913.2942537919
 30
0.0
 11
2822.1798139919
 21
7912.8665673507
 31
0.0
  0
ARC
  5
B9
330
1F
100
AcDbEntity
  8
0
  6
Continuous
 62
     7
370
    25
100
AcDbCircle
 10
2832.4083989529
 20
7861.206799484
 30
0.0
 40
52.66265817781714
100
AcDbArc
 50
101.1996536464
 51
112.3251092567
  0
LINE
  5
BA
330
1F
100
AcDbEntity
  8
0
  6
Continuous
 62
     7
370
    25
100
AcDbLine
 10
2810.4808297983
 20
7910.3497269803
 30
0.0
 11
2812.4038780815
 21
7909.9220405391
 31
0.0
  0
LINE
  5
BB
330
1F
100
AcDbEntity
  8
0
  6
Continuous
 62
     7
370
    25
100
AcDbLine
 10
2822.1798139919
 20
7914.9522477815
 30
0.0
 11
2822.1798139919
 21
7912.8665673507
 31
0.0
  0
LINE
  5
BC
330
1F
100
AcDbEntity
  8
0
  6
Continuous
 62
     7
370
    25
100
AcDbLine
 10
2892.3963625435
 20
7910.9341613832
 30
0.0
 11
2892.3963625435
 21
7906.9012710421
 31
0.0
  0
LINE
  5
BD
330
1F
100
AcDbEntity
  8
0
  6
Continuous
 62
     7
370
    25
100
AcDbLine
 10
2892.3963625435
 20
7906.9012710421
 30
0.0
 11
2894.9246241122
 21
7906.9507933214
 31
0.0
  0
ARC
  5
BE
330
1F
100
AcDbEntity
  8
0
  6
Continuous
 62
     7
370
    25
100
AcDbCircle
 10
2890.1030102946
 20
7904.1295767857
 30
0.0
 40
3.597464883500794
100
AcDbArc
 50
342.2034635644
 51
50.395001133
  0
LINE
  5
BF
330
1F
100
AcDbEntity
  8
0
  6
Continuous
 62
     7
370
    25
100
AcDbLine
 10
2893.5283288226
 20
7903.0300557216
 30
0.0
 11
2896.0565903912
 21
7903.079578001
 31
0.0
  0
LINE
  5
C0
330
1F
100
AcDbEntity
  8
0
  6
Continuous
 62
     7
370
    25
100
AcDbLine
 10
2893.5283288226
 20
7905.2175528784
 30
0.0
 11
2893.5283288226
 21
7903.0300557216
 31
0.0
  0
LINE
  5
C1
330
1F
100
AcDbEntity
  8
0
  6
Continuous
 62
     7
370
    25
100
AcDbLine
 10
2806.4374774046
 20
7910.0471820098
 30
0.0
 11
2806.4374774046
 21
7905.2175528784
 31
0.0
  0
LINE
  5
C2
330
1F
100
AcDbEntity
  8
0
  6
Continuous
 62
     7
370
    25
100
AcDbLine
 10
2806.4374774046
 20
7905.2175528784
 30
0.0
 11
2803.9092158359
 21
7905.168030599
 31
0.0
  0
ARC
  5
C3
330
1F
100
AcDbEntity
  8
0
  6
Continuous
 62
     7
370
    25
100
AcDbCircle
 10
2809.8627959325
 20
7904.1180318143
 30
0.0
 40
3.597464883488763
100
AcDbArc
 50
162.2034635643
 51
230.3950011331
  0
LINE
  5
C4
330
1F
100
AcDbEntity
  8
0
  6
Continuous
 62
     7
370
    25
100
AcDbLine
 10
2807.5694436836
 20
7901.346337558
 30
0.0
 11
2805.0411821149
 21
7901.2968152786
 31
0.0
  0
LINE
  5
C5
330
1F
100
AcDbEntity
  8
0
  6
Continuous
 62
     7
370
    25
100
AcDbLine
 10
2807.5694436836
 20
7906.1759666894
 30
0.0
 11
2807.5694436836
 21
7901.346337558
 31
0.0
  0
LINE
  5
C6
330
1F
100
AcDbEntity
  8
0
  6
Continuous
 62
     7
370
    25
100
AcDbLine
 10
2887.5619281456
 20
7903.1551971924
 30
0.0
 11
2887.5619281456
 21
7898.3255680609
 31
0.0
  0
LINE
  5
C7
330
1F
100
AcDbEntity
  8
0
  6
Continuous
 62
     7
370
    25
100
AcDbLine
 10
2889.4849764289
 20
7897.8978816197
 30
0.0
 11
2887.5619281456
 21
7898.3255680609
 31
0.0
  0
ARC
  5
C8
330
1F
100
AcDbEntity
  8
0
  6
Continuous
 62
     7
370
    25
100
AcDbCircle
 10
2867.5574072742
 20
7947.0408091161
 30
0.0
 40
52.66265817783068
100
AcDbArc
 50
281.1996536464
 51
292.3251092567
  0
LINE
  5
C9
330
1F
100
AcDbEntity
  8
0
  6
Continuous
 62
     7
370
    25
100
AcDbLine
 10
2877.7859922353
 20
7900.2106703807
 30
0.0
 11
2877.7859922353
 21
7895.3810412493
 31
0.0
  0
LINE
  5
CA
330
1F
100
AcDbEntity
  8
0
  6
Continuous
 62
     7
370
    25
100
AcDbLine
 10
2879.7090405185
 20
7894.9533548081
 30
0.0
 11
2877.7859922353
 21
7895.3810412493
 31
0.0
  0
LINE
  5
CB
330
1F
100
AcDbEntity
  8
0
  6
Continuous
 62
     7
370
    25
100
AcDbLine
 10
2816.2034606183
 20
7901.7574644541
 30
0.0
 11
2816.2034606183
 21
7896.9278353226
 31
0.0
  0
LINE
  5
CC
330
1F
100
AcDbEntity
  8
0
  6
Continuous
 62
     7
370
    25
100
AcDbLine
 10
2814.5510071019
 20
7896.4301138023
 30
0.0
 11
2816.2034606183
 21
7896.9278353226
 31
0.0
  0
ARC
  5
CD
330
1F
100
AcDbEntity
  8
0
  6
Continuous
 62
     7
370
    25
100
AcDbCircle
 10
2838.8751649084
 20
7972.0264741118
 30
0.0
 40
78.44623460310191
100
AcDbArc
 50
253.2013365699
 51
261.7216070235
  0
LINE
  5
CE
330
1F
100
AcDbEntity
  8
0
  6
Continuous
 62
     7
370
    25
100
AcDbLine
 10
2827.5802385926
 20
7899.2272660568
 30
0.0
 11
2827.5802385926
 21
7894.3976369253
 31
0.0
  0
LINE
  5
CF
330
1F
100
AcDbEntity
  8
0
  6
Continuous
 62
     7
370
    25
100
AcDbLine
 10
2825.9277850762
 20
7893.899915405
 30
0.0
 11
2827.5802385926
 21
7894.3976369253
 31
0.0
  0
LINE
  5
D0
330
1F
100
AcDbEntity
  8
0
  6
Continuous
 62
     7
370
    25
100
AcDbLine
 10
2845.7569831163
 20
7897.6830479309
 30
0.0
 11
2845.7569831163
 21
7892.8534187994
 31
0.0
  0
LINE
  5
D1
330
1F
100
AcDbEntity
  8
0
  6
Continuous
 62
     7
370
    25
100
AcDbLine
 10
2860.7142105448
 20
7897.9760223623
 30
0.0
 11
2860.7142105448
 21
7893.1463932309
 31
0.0
  0
ARC
  5
D2
330
1F
100
AcDbEntity
  8
0
  6
Continuous
 62
     7
370
    25
100
AcDbCircle
 10
2849.9814090843
 20
8059.1359950205
 30
0.0
 40
166.3362285536919
100
AcDbArc
 50
268.5447078601
 51
273.6995653137
  0
LINE
  5
D3
330
1F
100
AcDbEntity
  8
0
  6
Continuous
 62
     7
370
    25
100
AcDbLine
 10
2845.7569831163
 20
7892.8534187994
 30
0.0
 11
2845.9483225108
 21
7892.1990565545
 31
0.0
  0
LINE
  5
D4
330
1F
100
AcDbEntity
  8
0
  6
Continuous
 62
     7
370
    25
100
AcDbLine
 10
2860.7142105448
 20
7893.1463932309
 30
0.0
 11
2860.9055499393
 21
7892.4920309859
 31
0.0
  0
SPLINE
  5
D5
330
1F
100
AcDbEntity
  8
0
  6
Continuous
 62
     7
370
    25
100
AcDbSpline
210
0.0
220
0.0
230
1.0
 70
     8
 71
     3
 72
    17
 73
    13
 74
     0
 42
0.00000001
 43
0.00000001
 40
0.0
 40
0.0
 40
0.0
 40
0.0
 40
0.1142586022315222
 40
0.2283809705062741
 40
0.3451750489305403
 40
0.4549582701051851
 40
0.5510731736677967
 40
0.6410574904873404
 40
0.7361898798205476
 40
0.8425349369226637
 40
0.9580514690868417
 40
1.0
 40
1.0
 40
1.0
 40
1.0
 10
2812.232903113579
 20
7429.019296311747
 30
0.0
 10
2809.094690406428
 20
7429.34832550197
 30
0.0
 10
2802.822006777216
 20
7430.005991571052
 30
0.0
 10
2794.664045656104
 20
7434.982475282661
 30
0.0
 10
2788.603413886394
 20
7442.282273749783
 30
0.0
 10
2785.575782430109
 20
7451.167153146364
 30
0.0
 10
2785.674696339995
 20
7459.872509423114
 30
0.0
 10
2788.202217476119
 20
7467.575973488078
 30
0.0
 10
2792.885561010261
 20
7474.25901375534
 30
0.0
 10
2799.814711374561
 20
7479.489795304909
 30
0.0
 10
2806.75454282489
 20
7481.798469577113
 30
0.0
 10
2811.080478339898
 20
7481.972843324671
 30
0.0
 10
2812.232903113579
 20
7482.019296311746
 30
0.0
  0
LINE
  5
D6
330
1F
100
AcDbEntity
  8
0
  6
Continuous
 62
     7
370
    25
100
AcDbLine
 10
2887.7329031136
 20
7482.0192963117
 30
0.0
 11
2812.2329031136
 21
7482.0192963117
 31
0.0
  0
SPLINE
  5
D7
330
1F
100
AcDbEntity
  8
0
  6
Continuous
 62
     7
370
    25
100
AcDbSpline
210
0.0
220
0.0
230
1.0
 70
     8
 71
     3
 72
    18
 73
    14
 74
     0
 42
0.00000001
 43
0.00000001
 40
0.0
 40
0.0
 40
0.0
 40
0.0
 40
0.0277181976543632
 40
0.1359351264770177
 40
0.2504581734021367
 40
0.3668615381484429
 40
0.474146644080872
 40
0.5682057276410207
 40
0.6583880045114321
 40
0.7553671964110622
 40
0.863859930582072
 40
0.9801613742944828
 40
1.0
 40
1.0
 40
1.0
 40
1.0
 10
2887.732903113579
 20
7482.019296311739
 30
0.0
 10
2888.494957187044
 20
7481.998654933187
 30
0.0
 10
2892.232210169742
 20
7481.897425825897
 30
0.0
 10
2898.929858377892
 20
7480.093175247202
 30
0.0
 10
2906.637837402503
 20
7474.891514148268
 30
0.0
 10
2912.183033611455
 20
7467.144178167969
 30
0.0
 10
2914.591762413364
 20
7458.180425735586
 30
0.0
 10
2913.982965788445
 20
7449.637611693058
 30
0.0
 10
2911.050747643449
 20
7442.127158120589
 30
0.0
 10
2905.949026905457
 20
7435.661402844138
 30
0.0
 10
2898.611562488596
 20
7430.786724598776
 30
0.0
 10
2892.022820274511
 20
7429.103615958151
 30
0.0
 10
2888.278529301796
 20
7429.030020762945
 30
0.0
 10
2887.732903113577
 20
7429.019296311742
 30
0.0
  0
LINE
  5
D8
330
1F
100
AcDbEntity
  8
0
  6
Continuous
 62
     7
370
    25
100
AcDbLine
 10
2887.7329031136
 20
7429.0192963117
 30
0.0
 11
2812.2329031136
 21
7429.0192963117
 31
0.0
  0
CIRCLE
  5
D9
330
1F
100
AcDbEntity
  8
0
  6
Continuous
 62
     7
370
    25
100
AcDbCircle
 10
2849.9829031136
 20
7944.9560880836
 30
0.0
 40
200.0000000000004
  0
CIRCLE
  5
DA
330
1F
100
AcDbEntity
  8
0
  6
Continuous
 62
     7
370
    25
100
AcDbCircle
 10
2849.9829031136
 20
7462.5342963117
 30
0.0
 40
199.9999999999995
  0
ARC
  5
DB
330
1F
100
AcDbEntity
  8
0
  6
Continuous
 62
     7
370
    25
100
AcDbCircle
 10
2849.9829031136
 20
7462.5342963117
 30
0.0
 40
100.0000000000001
100
AcDbArc
 50
24.7216586433
 51
155.2783413567
  0
SPLINE
  5
DC
330
1F
100
AcDbEntity
  8
0
  6
Continuous
 62
     7
370
    25
100
AcDbSpline
210
0.0
220
0.0
230
1.0
 70
     8
 71
     3
 72
    16
 73
    12
 74
     0
 42
0.00000001
 43
0.00000001
 40
0.0
 40
0.0
 40
0.0
 40
0.0
 40
0.1087889141777963
 40
0.2175739445976592
 40
0.326396359155876
 40
0.4352156871054261
 40
0.5434549869750589
 40
0.6516951561373371
 40
0.7596490267417249
 40
0.8676066328463546
 40
1.0
 40
1.0
 40
1.0
 40
1.0
 10
2940.817918388525
 20
7504.355343644377
 30
0.0
 10
2935.35855270186
 20
7503.772724137735
 30
0.0
 10
2924.440016227569
 20
7502.607505923933
 30
0.0
 10
2905.282123703774
 20
7501.230704425358
 30
0.0
 10
2884.69524844684
 20
7500.238298548706
 30
0.0
 10
2863.114714005693
 20
7499.694041445741
 30
0.0
 10
2841.20668264255
 20
7499.652251302057
 30
0.0
 10
2819.585009980673
 20
7500.085233101545
 30
0.0
 10
2798.915898947399
 20
7500.993097623686
 30
0.0
 10
2778.021425080902
 20
7502.370084965701
 30
0.0
 10
2765.851493701143
 20
7503.650208642594
 30
0.0
 10
2759.147887838629
 20
7504.355343644377
 30
0.0
  0
ARC
  5
DD
330
1F
100
AcDbEntity
  8
0
  6
Continuous
 62
     7
370
    25
100
AcDbCircle
 10
2849.9829031136
 20
7462.5342963117
 30
0.0
 40
100.0000000000005
100
AcDbArc
 50
204.7216586433
 51
335.2783413567
  0
SPLINE
  5
DE
330
1F
100
AcDbEntity
  8
0
  6
Continuous
 62
     7
370
    25
100
AcDbSpline
210
0.0
220
0.0
230
1.0
 70
     8
 71
     3
 72
    16
 73
    12
 74
     0
 42
0.00000001
 43
0.00000001
 40
0.0
 40
0.0
 40
0.0
 40
0.0
 40
0.1087889141777963
 40
0.2175739445976592
 40
0.326396359155876
 40
0.4352156871054262
 40
0.5434549869750589
 40
0.6516951561373371
 40
0.759649026741725
 40
0.8676066328463546
 40
1.0
 40
1.0
 40
1.0
 40
1.0
 10
2759.147887838629
 20
7420.713248979071
 30
0.0
 10
2764.607253525294
 20
7421.295868485713
 30
0.0
 10
2775.525789999585
 20
7422.461086699515
 30
0.0
 10
2794.68368252338
 20
7423.837888198091
 30
0.0
 10
2815.270557780314
 20
7424.830294074744
 30
0.0
 10
2836.85109222146
 20
7425.374551177708
 30
0.0
 10
2858.759123584604
 20
7425.416341321391
 30
0.0
 10
2880.38079624648
 20
7424.983359521904
 30
0.0
 10
2901.049907279755
 20
7424.075494999763
 30
0.0
 10
2921.944381146252
 20
7422.698507657747
 30
0.0
 10
2934.114312526011
 20
7421.418383980854
 30
0.0
 10
2940.817918388525
 20
7420.713248979071
 30
0.0
  0
SPLINE
  5
DF
330
1F
100
AcDbEntity
  8
0
  6
Continuous
 62
     7
370
    25
100
AcDbSpline
210
0.0
220
0.0
230
1.0
 70
     8
 71
     3
 72
    14
 73
    10
 74
     0
 42
0.00000001
 43
0.00000001
 40
0.0
 40
0.0
 40
0.0
 40
0.0
 40
0.143076735019734
 40
0.2859714082460139
 40
0.4305969883211205
 40
0.5751097355711028
 40
0.700410460827294
 40
0.8258432749720696
 40
1.0
 40
1.0
 40
1.0
 40
1.0
 10
2940.817918388525
 20
7420.713248979071
 30
0.0
 10
2942.350196196021
 20
7424.365193339593
 30
0.0
 10
2945.4128020234
 20
7431.664435046993
 30
0.0
 10
2948.444570308154
 20
7443.663694875748
 30
0.0
 10
2950.049066415016
 20
7456.308427157606
 30
0.0
 10
2950.044826525256
 20
7468.700382503735
 30
0.0
 10
2948.582082933619
 20
7480.252786938709
 30
0.0
 10
2945.833512485694
 20
7492.209252310087
 30
0.0
 10
2942.661731222609
 20
7499.890245661517
 30
0.0
 10
2940.817918388525
 20
7504.355343644377
 30
0.0
  0
SPLINE
  5
E0
330
1F
100
AcDbEntity
  8
0
  6
Continuous
 62
     7
370
    25
100
AcDbSpline
210
0.0
220
0.0
230
1.0
 70
     8
 71
     3
 72
    14
 73
    10
 74
     0
 42
0.00000001
 43
0.00000001
 40
0.0
 40
0.0
 40
0.0
 40
0.0
 40
0.1430767350197332
 40
0.285971408246014
 40
0.43059698832112
 40
0.5751097355711023
 40
0.7004104608272945
 40
0.8258432749720694
 40
1.0
 40
1.0
 40
1.0
 40
1.0
 10
2759.147887838629
 20
7504.355343644377
 30
0.0
 10
2757.615610031133
 20
7500.703399283854
 30
0.0
 10
2754.553004203754
 20
7493.404157576455
 30
0.0
 10
2751.521235919
 20
7481.4048977477
 30
0.0
 10
2749.916739812138
 20
7468.760165465843
 30
0.0
 10
2749.920979701898
 20
7456.368210119713
 30
0.0
 10
2751.383723293534
 20
7444.81580568474
 30
0.0
 10
2754.132293741459
 20
7432.859340313361
 30
0.0
 10
2757.304075004545
 20
7425.178346961932
 30
0.0
 10
2759.147887838629
 20
7420.713248979071
 30
0.0
  0
LINE
  5
E1
330
1F
100
AcDbEntity
  8
0
  6
Continuous
 62
     7
370
    25
100
AcDbLine
 10
2887.4829031136
 20
7484.0342963117
 30
0.0
 11
2812.4829031136
 21
7484.0342963117
 31
0.0
  0
SPLINE
  5
E2
330
1F
100
AcDbEntity
  8
0
  6
Continuous
 62
     7
370
    25
100
AcDbSpline
210
0.0
220
0.0
230
1.0
 70
     8
 71
     3
 72
    17
 73
    13
 74
     0
 42
0.00000001
 43
0.00000001
 40
0.0
 40
0.0
 40
0.0
 40
0.0
 40
0.1140849617555893
 40
0.2280233117541607
 40
0.3449304224588298
 40
0.4549406763939257
 40
0.5509093488830343
 40
0.6405265239945007
 40
0.7354303373669719
 40
0.8418248240166922
 40
0.9575119257844884
 40
1.0
 40
1.0
 40
1.0
 40
1.0
 10
2812.482903113577
 20
7484.034296311724
 30
0.0
 10
2809.228493070142
 20
7483.69312184981
 30
0.0
 10
2802.72385525907
 20
7483.011211372788
 30
0.0
 10
2794.265761388412
 20
7477.856694296453
 30
0.0
 10
2787.971441058848
 20
7470.29067259958
 30
0.0
 10
2784.821338147687
 20
7461.066066296891
 30
0.0
 10
2784.921450102569
 20
7452.035588916503
 30
0.0
 10
2787.52982117612
 20
7444.059917494248
 30
0.0
 10
2792.364593866279
 20
7437.131544836983
 30
0.0
 10
2799.537877488174
 20
7431.688871046329
 30
0.0
 10
2806.756701853392
 20
7429.268229188434
 30
0.0
 10
2811.270447599801
 20
7429.083828836575
 30
0.0
 10
2812.482903113577
 20
7429.034296311725
 30
0.0
  0
LINE
  5
E3
330
1F
100
AcDbEntity
  8
0
  6
Continuous
 62
     7
370
    25
100
AcDbLine
 10
2812.4829031136
 20
7429.0342963117
 30
0.0
 11
2887.4829031136
 21
7429.0342963117
 31
0.0
  0
SPLINE
  5
E4
330
1F
100
AcDbEntity
  8
0
  6
Continuous
 62
     7
370
    25
100
AcDbSpline
210
0.0
220
0.0
230
1.0
 70
     8
 71
     3
 72
    17
 73
    13
 74
     0
 42
0.00000001
 43
0.00000001
 40
0.0
 40
0.0
 40
0.0
 40
0.0
 40
0.114084961755589
 40
0.2280233117541605
 40
0.34493042245883
 40
0.454940676393926
 40
0.5509093488830339
 40
0.6405265239945003
 40
0.7354303373669715
 40
0.8418248240166922
 40
0.957511925784488
 40
1.0
 40
1.0
 40
1.0
 40
1.0
 10
2887.482903113577
 20
7429.034296311725
 30
0.0
 10
2890.737313157012
 20
7429.375470773639
 30
0.0
 10
2897.241950968084
 20
7430.05738125066
 30
0.0
 10
2905.700044838742
 20
7435.211898326995
 30
0.0
 10
2911.994365168305
 20
7442.777920023868
 30
0.0
 10
2915.144468079467
 20
7452.002526326557
 30
0.0
 10
2915.044356124584
 20
7461.033003706945
 30
0.0
 10
2912.435985051035
 20
7469.0086751292
 30
0.0
 10
2907.601212360875
 20
7475.937047786465
 30
0.0
 10
2900.42792873898
 20
7481.379721577119
 30
0.0
 10
2893.209104373762
 20
7483.800363435015
 30
0.0
 10
2888.695358627353
 20
7483.984763786873
 30
0.0
 10
2887.482903113577
 20
7484.034296311724
 30
0.0
  0
LINE
  5
E5
330
1F
100
AcDbEntity
  8
0
  6
Continuous
 62
     7
370
    25
100
AcDbLine
 10
2857.4829031136
 20
7878.2060880836
 30
0.0
 11
2842.4829031136
 21
7878.2060880836
 31
0.0
  0
CIRCLE
  5
E6
330
1F
100
AcDbEntity
  8
0
  6
Continuous
 62
     7
370
    25
100
AcDbCircle
 10
2849.9829031136
 20
7944.9560880836
 30
0.0
 40
170.0000000000001
  0
CIRCLE
  5
E7
330
1F
100
AcDbEntity
  8
0
  6
Continuous
 62
     7
370
    25
100
AcDbCircle
 10
2849.9829031136
 20
7944.9560880836
 30
0.0
 40
175.0
  0
LINE
  5
E8
330
1F
100
AcDbEntity
  8
0
  6
Continuous
 62
     7
370
    25
100
AcDbLine
 10
2791.5133645883
 20
7925.0971967591
 30
0.0
 11
2908.4524416389
 21
7925.0971967591
 31
0.0
  0
LINE
  5
E9
330
1F
100
AcDbEntity
  8
0
  6
Continuous
 62
     7
370
    25
100
AcDbLine
 10
2913.2772968399
 20
7923.7574507969
 30
0.0
 11
2908.4524416389
 21
7925.0971967591
 31
0.0
  0
ARC
  5
EA
330
1F
100
AcDbEntity
  8
0
  6
Continuous
 62
     7
370
    25
100
AcDbCircle
 10
2849.9829031136
 20
7944.9560880836
 30
0.0
 40
66.75000000000013
100
AcDbArc
 50
198.5167924648
 51
341.4832075352
  0
LINE
  5
EB
330
1F
100
AcDbEntity
  8
0
  6
Continuous
 62
     7
370
    25
100
AcDbLine
 10
2791.5133645883
 20
7925.0971967591
 30
0.0
 11
2786.6885093872
 21
7923.7574507969
 31
0.0
  0
LWPOLYLINE
  5
EC
330
1F
100
AcDbEntity
  8
0
  6
Continuous
 62
     7
370
    25
100
AcDbPolyline
 90
       34
 70
   128
 43
0.0
 10
2849.9829031136
 20
7917.1708635028
 10
2859.3271833039
 20
7916.9399268852
 10
2868.3337368618
 20
7916.2554636835
 10
2876.6770434754
 20
7915.1422121812
 10
2884.0555543055
 20
7913.640408188
 10
2890.2025907461
 20
7911.8043308133
 10
2894.8959828842
 20
7909.7003406771
 10
2897.9660992996
 20
7907.4044814649
 10
2899.3019779857
 20
7904.9997315105
 10
2898.8553368064
 20
7902.5730047427
 10
2896.6423185376
 20
7900.2120093896
 10
2892.7429074254
 20
7898.0020779749
 10
2887.2980383473
 20
7896.0230831778
 10
2880.5045030582
 20
7894.3465510264
 10
2872.6078376239
 20
7893.033075761
 10
2863.8934481076
 20
7892.1301297997
 10
2854.6762952517
 20
7891.6703479623
 10
2845.2895109754
 20
7891.6703479623
 10
2836.0723581195
 20
7892.1301297997
 10
2827.3579686033
 20
7893.033075761
 10
2819.4613031689
 20
7894.3465510264
 10
2812.6677678798
 20
7896.0230831778
 10
2807.2228988017
 20
7898.0020779749
 10
2803.3234876895
 20
7900.2120093896
 10
2801.1104694207
 20
7902.5730047427
 10
2800.6638282414
 20
7904.9997315105
 10
2801.9997069276
 20
7907.4044814649
 10
2805.0698233429
 20
7909.7003406771
 10
2809.7632154811
 20
7911.8043308133
 10
2815.9102519216
 20
7913.640408188
 10
2823.2887627517
 20
7915.1422121812
 10
2831.6320693653
 20
7916.2554636835
 10
2840.6386229233
 20
7916.9399268852
 10
2849.9829031136
 20
7917.1708635028
  0
ARC
  5
ED
330
1F
100
AcDbEntity
  8
0
  6
Continuous
 62
     7
370
    25
100
AcDbCircle
 10
2849.9829031136
 20
7944.9560880836
 30
0.0
 40
61.75000000000002
100
AcDbArc
 50
341.240196777
 51
198.759803223
  0
ARC
  5
EE
330
1F
100
AcDbEntity
  8
0
  6
Continuous
 62
     7
370
    25
100
AcDbCircle
 10
2849.9829031136
 20
7944.9560880836
 30
0.0
 40
66.75000000000013
100
AcDbArc
 50
341.4832075352
 51
198.5167924648
  0
LWPOLYLINE
  5
EF
330
1F
100
AcDbEntity
  8
0
  6
Continuous
 62
     7
370
    25
100
AcDbPolyline
 90
        3
 70
   128
 43
0.0
 10
2896.2329031136
 20
7908.7810433844
 10
2896.8579031136
 20
7906.8064877166
 10
2896.2329031136
 20
7904.8319320488
  0
LWPOLYLINE
  5
F0
330
1F
100
AcDbEntity
  8
0
  6
Continuous
 62
     7
370
    25
100
AcDbPolyline
 90
        3
 70
   128
 43
0.0
 10
2894.5545114101
 20
7903.0501560552
 10
2893.2897562
 20
7902.1637176912
 10
2889.4849764289
 20
7900.2749501254
  0
ARC
  5
F1
330
1F
100
AcDbEntity
  8
0
  6
Continuous
 62
     7
370
    25
100
AcDbCircle
 10
2853.5026164318
 20
8027.7326202122
 30
0.0
 40
132.9306067295929
100
AcDbArc
 50
273.1924656754
 51
280.5257314509
  0
ARC
  5
F2
330
1F
100
AcDbEntity
  8
0
  6
Continuous
 62
     7
370
    25
100
AcDbCircle
 10
2849.0209446582
 20
8052.9045235761
 30
0.0
 40
158.214446997179
100
AcDbArc
 50
262.2114984932
 51
268.8179051146
  0
LWPOLYLINE
  5
F3
330
1F
100
AcDbEntity
  8
0
  6
Continuous
 62
     7
370
    25
100
AcDbPolyline
 90
        3
 70
   128
 43
0.0
 10
2814.5510071019
 20
7898.8634565849
 10
2811.0077650369
 20
7900.066230348
 10
2807.5694436836
 20
7901.6407028138
  0
LWPOLYLINE
  5
F4
330
1F
100
AcDbEntity
  8
0
  6
Continuous
 62
     7
370
    25
100
AcDbPolyline
 90
        3
 70
   128
 43
0.0
 10
2803.7329031136
 20
7904.8319320488
 10
2803.1079031136
 20
7906.8064877166
 10
2803.8360411732
 20
7908.9365662258
  0
LINE
  5
F5
330
1F
100
AcDbEntity
  8
0
  6
Continuous
 62
     7
370
    25
100
AcDbLine
 10
5673.5240159615
 20
7287.5342963117
 30
0.0
 11
5683.5240159615
 21
7287.5342963117
 31
0.0
  0
LINE
  5
F6
330
1F
100
AcDbEntity
  8
0
  6
Continuous
 62
     7
370
    25
100
AcDbLine
 10
5683.5240159615
 20
7637.5342963117
 30
0.0
 11
5673.5240159615
 21
7637.5342963117
 31
0.0
  0
LINE
  5
F7
330
1F
100
AcDbEntity
  8
0
  6
Continuous
 62
     7
370
    25
100
AcDbLine
 10
5683.5240159615
 20
7287.5342963117
 30
0.0
 11
5688.5240159615
 21
7292.5342963117
 31
0.0
  0
LINE
  5
F8
330
1F
100
AcDbEntity
  8
0
  6
Continuous
 62
     7
370
    25
100
AcDbLine
 10
5688.5240159615
 20
7632.5342963117
 30
0.0
 11
5683.5240159615
 21
7637.5342963117
 31
0.0
  0
LINE
  5
F9
330
1F
100
AcDbEntity
  8
0
  6
Continuous
 62
     7
370
    25
100
AcDbLine
 10
6396.5758803925
 20
7892.4212923149
 30
0.0
 11
6396.6476556347
 21
7892.153423464
 31
0.0
  0
LINE
  5
FA
330
1F
100
AcDbEntity
  8
0
  6
Continuous
 62
     7
370
    25
100
AcDbLine
 10
6485.9957945665
 20
7916.094185136
 30
0.0
 11
6485.9240193242
 21
7916.3620539869
 31
0.0
  0
LINE
  5
FB
330
1F
100
AcDbEntity
  8
0
  6
Continuous
 62
     7
370
    25
100
AcDbLine
 10
5663.5240159615
 20
7777.4560880836
 30
0.0
 11
5673.5240159615
 21
7777.4560880836
 31
0.0
  0
LINE
  5
FC
330
1F
100
AcDbEntity
  8
0
  6
Continuous
 62
     7
370
    25
100
AcDbLine
 10
5673.5240159615
 20
8112.4560880836
 30
0.0
 11
5663.5240159615
 21
8112.4560880836
 31
0.0
  0
LINE
  5
FD
330
1F
100
AcDbEntity
  8
0
  6
Continuous
 62
     7
370
    25
100
AcDbLine
 10
5663.5240159615
 20
7295.0342963117
 30
0.0
 11
5673.5240159615
 21
7295.0342963117
 31
0.0
  0
LINE
  5
FE
330
1F
100
AcDbEntity
  8
0
  6
Continuous
 62
     7
370
    25
100
AcDbLine
 10
5673.5240159615
 20
7630.0342963117
 30
0.0
 11
5663.5240159615
 21
7630.0342963117
 31
0.0
  0
ARC
  5
FF
330
1F
100
AcDbEntity
  8
0
  6
Continuous
 62
     7
370
    25
100
AcDbCircle
 10
4959.8260443382
 20
7833.6131061953
 30
0.0
 40
14.99999999999971
100
AcDbArc
 50
334.7428083217
 51
335.9511167513
  0
ARC
  5
100
330
1F
100
AcDbEntity
  8
0
  6
Continuous
 62
     7
370
    25
100
AcDbCircle
 10
4961.2219875847
 20
7833.6131061953
 30
0.0
 40
15.00000000000045
100
AcDbArc
 50
204.0488832487
 51
205.6157107751
  0
ARC
  5
101
330
1F
100
AcDbEntity
  8
0
  6
Continuous
 62
     7
370
    25
100
AcDbCircle
 10
4961.2219875847
 20
7871.3876289598
 30
0.0
 40
15.00000000000025
100
AcDbArc
 50
154.4671053945
 51
155.9511167513
  0
ARC
  5
102
330
1F
100
AcDbEntity
  8
0
  6
Continuous
 62
     7
370
    25
100
AcDbCircle
 10
4959.8260443382
 20
7871.3876289598
 30
0.0
 40
14.9999999999999
100
AcDbArc
 50
24.0488832487
 51
25.3130324942
  0
ARC
  5
103
330
1F
100
AcDbEntity
  8
0
  6
Continuous
 62
     7
370
    25
100
AcDbCircle
 10
4959.8260443382
 20
8018.5245472075
 30
0.0
 40
14.99999999999949
100
AcDbArc
 50
334.7428083217
 51
335.9511167513
  0
ARC
  5
104
330
1F
100
AcDbEntity
  8
0
  6
Continuous
 62
     7
370
    25
100
AcDbCircle
 10
4961.2219875847
 20
8018.5245472075
 30
0.0
 40
15.00000000000137
100
AcDbArc
 50
204.0488832487
 51
205.6157107751
  0
ARC
  5
105
330
1F
100
AcDbEntity
  8
0
  6
Continuous
 62
     7
370
    25
100
AcDbCircle
 10
4961.2219875847
 20
8056.299069972
 30
0.0
 40
15.00000000000025
100
AcDbArc
 50
154.4671053945
 51
155.9511167513
  0
ARC
  5
106
330
1F
100
AcDbEntity
  8
0
  6
Continuous
 62
     7
370
    25
100
AcDbCircle
 10
4959.8260443382
 20
8056.299069972
 30
0.0
 40
14.99999999999923
100
AcDbArc
 50
24.0488832487
 51
25.3130324941
  0
LINE
  5
107
330
1F
100
AcDbEntity
  8
0
  6
Continuous
 62
     7
370
    25
100
AcDbLine
 10
5736.2740159615
 20
7429.0192963117
 30
0.0
 11
5736.2740159615
 21
7482.0192963117
 31
0.0
  0
LINE
  5
108
330
1F
100
AcDbEntity
  8
0
  6
Continuous
 62
     7
370
    25
100
AcDbLine
 10
4988.5240159615
 20
7337.5342963117
 30
0.0
 11
5663.5240159615
 21
7337.5342963117
 31
0.0
  0
LINE
  5
109
330
1F
100
AcDbEntity
  8
0
  6
Continuous
 62
     7
370
    25
100
AcDbLine
 10
5663.5240159615
 20
7587.5342963117
 30
0.0
 11
4988.5240159615
 21
7587.5342963117
 31
0.0
  0
LINE
  5
10A
330
1F
100
AcDbEntity
  8
0
  6
Continuous
 62
     7
370
    25
100
AcDbLine
 10
4988.5240159615
 20
7819.9560880836
 30
0.0
 11
5663.5240159615
 21
7819.9560880836
 31
0.0
  0
LINE
  5
10B
330
1F
100
AcDbEntity
  8
0
  6
Continuous
 62
     7
370
    25
100
AcDbLine
 10
5663.5240159615
 20
8069.9560880836
 30
0.0
 11
4988.5240159615
 21
8069.9560880836
 31
0.0
  0
LINE
  5
10C
330
1F
100
AcDbEntity
  8
0
  6
Continuous
 62
     7
370
    25
100
AcDbLine
 10
4018.5240159615
 20
7867.5003675775
 30
0.0
 11
4013.5240159615
 21
7862.5003675775
 31
0.0
  0
LINE
  5
10D
330
1F
100
AcDbEntity
  8
0
  6
Continuous
 62
     7
370
    25
100
AcDbLine
 10
4013.5240159615
 20
7842.5003675775
 30
0.0
 11
4018.5240159615
 21
7837.5003675775
 31
0.0
  0
LINE
  5
10E
330
1F
100
AcDbEntity
  8
0
  6
Continuous
 62
     7
370
    25
100
AcDbLine
 10
4018.5240159615
 20
7837.5003675775
 30
0.0
 11
4947.5240159615
 21
7837.5003675775
 31
0.0
  0
LINE
  5
10F
330
1F
100
AcDbEntity
  8
0
  6
Continuous
 62
     7
370
    25
100
AcDbLine
 10
4947.5240159615
 20
7867.5003675775
 30
0.0
 11
4018.5240159615
 21
7867.5003675775
 31
0.0
  0
LINE
  5
110
330
1F
100
AcDbEntity
  8
0
  6
Continuous
 62
     7
370
    25
100
AcDbLine
 10
4018.5240159615
 20
8052.4118085898
 30
0.0
 11
4013.5240159615
 21
8047.4118085898
 31
0.0
  0
LINE
  5
111
330
1F
100
AcDbEntity
  8
0
  6
Continuous
 62
     7
370
    25
100
AcDbLine
 10
4013.5240159615
 20
8027.4118085898
 30
0.0
 11
4018.5240159615
 21
8022.4118085898
 31
0.0
  0
LINE
  5
112
330
1F
100
AcDbEntity
  8
0
  6
Continuous
 62
     7
370
    25
100
AcDbLine
 10
4018.5240159615
 20
8022.4118085898
 30
0.0
 11
4947.5240159615
 21
8022.4118085898
 31
0.0
  0
LINE
  5
113
330
1F
100
AcDbEntity
  8
0
  6
Continuous
 62
     7
370
    25
100
AcDbLine
 10
4947.5240159615
 20
8052.4118085898
 30
0.0
 11
4018.5240159615
 21
8052.4118085898
 31
0.0
  0
LINE
  5
114
330
1F
100
AcDbEntity
  8
0
  6
Continuous
 62
     7
370
    25
100
AcDbLine
 10
4011.2283345574
 20
7407.5342963117
 30
0.0
 11
4006.2283345574
 21
7402.5342963117
 31
0.0
  0
LINE
  5
115
330
1F
100
AcDbEntity
  8
0
  6
Continuous
 62
     7
370
    25
100
AcDbLine
 10
4006.2283345574
 20
7392.5342963117
 30
0.0
 11
4011.2283345574
 21
7387.5342963117
 31
0.0
  0
LINE
  5
116
330
1F
100
AcDbEntity
  8
0
  6
Continuous
 62
     7
370
    25
100
AcDbLine
 10
4011.2283345574
 20
7387.5342963117
 30
0.0
 11
4957.5240159615
 21
7387.5342963117
 31
0.0
  0
LINE
  5
117
330
1F
100
AcDbEntity
  8
0
  6
Continuous
 62
     7
370
    25
100
AcDbLine
 10
4957.5240159615
 20
7407.5342963117
 30
0.0
 11
4011.2283345574
 21
7407.5342963117
 31
0.0
  0
LINE
  5
118
330
1F
100
AcDbEntity
  8
0
  6
Continuous
 62
     7
370
    25
100
AcDbLine
 10
4011.2283345574
 20
7536.2842963117
 30
0.0
 11
4006.2283345574
 21
7531.2842963117
 31
0.0
  0
LINE
  5
119
330
1F
100
AcDbEntity
  8
0
  6
Continuous
 62
     7
370
    25
100
AcDbLine
 10
4006.2283345574
 20
7521.2842963117
 30
0.0
 11
4011.2283345574
 21
7516.2842963117
 31
0.0
  0
LINE
  5
11A
330
1F
100
AcDbEntity
  8
0
  6
Continuous
 62
     7
370
    25
100
AcDbLine
 10
4011.2283345574
 20
7516.2842963117
 30
0.0
 11
4957.5240159615
 21
7516.2842963117
 31
0.0
  0
LINE
  5
11B
330
1F
100
AcDbEntity
  8
0
  6
Continuous
 62
     7
370
    25
100
AcDbLine
 10
4957.5240159615
 20
7536.2842963117
 30
0.0
 11
4011.2283345574
 21
7536.2842963117
 31
0.0
  0
LINE
  5
11C
330
1F
100
AcDbEntity
  8
0
  6
Continuous
 62
     7
370
    25
100
AcDbLine
 10
4973.5240159615
 20
7744.9560880836
 30
0.0
 11
4988.5240159615
 21
7744.9560880836
 31
0.0
  0
LINE
  5
11D
330
1F
100
AcDbEntity
  8
0
  6
Continuous
 62
     7
370
    25
100
AcDbLine
 10
4988.5240159615
 20
8144.9560880836
 30
0.0
 11
4973.5240159615
 21
8144.9560880836
 31
0.0
  0
LINE
  5
11E
330
1F
100
AcDbEntity
  8
0
  6
Continuous
 62
     7
370
    25
100
AcDbLine
 10
4973.5240159615
 20
7262.5342963117
 30
0.0
 11
4988.5240159615
 21
7262.5342963117
 31
0.0
  0
LINE
  5
11F
330
1F
100
AcDbEntity
  8
0
  6
Continuous
 62
     7
370
    25
100
AcDbLine
 10
4988.5240159615
 20
7662.5342963117
 30
0.0
 11
4973.5240159615
 21
7662.5342963117
 31
0.0
  0
LINE
  5
120
330
1F
100
AcDbEntity
  8
0
  6
Continuous
 62
     7
370
    25
100
AcDbLine
 10
5688.5240159615
 20
7362.5342963117
 30
0.0
 11
5698.5240159615
 21
7362.5342963117
 31
0.0
  0
LINE
  5
121
330
1F
100
AcDbEntity
  8
0
  6
Continuous
 62
     7
370
    25
100
AcDbLine
 10
5698.5240159615
 20
7562.5342963117
 30
0.0
 11
5688.5240159615
 21
7562.5342963117
 31
0.0
  0
LINE
  5
122
330
1F
100
AcDbEntity
  8
0
  6
Continuous
 62
     7
370
    25
100
AcDbLine
 10
5735.5240159615
 20
7484.0342963117
 30
0.0
 11
5735.5240159615
 21
7499.7461575862
 31
0.0
  0
LINE
  5
123
330
1F
100
AcDbEntity
  8
0
  6
Continuous
 62
     7
370
    25
100
AcDbLine
 10
5735.5240159615
 20
7425.3224350373
 30
0.0
 11
5735.5240159615
 21
7429.0192963117
 31
0.0
  0
ARC
  5
124
330
1F
100
AcDbEntity
  8
0
  6
Continuous
 62
     7
370
    25
100
AcDbCircle
 10
5600.5444262501
 20
7462.5342963117
 30
0.0
 40
139.9999999999998
100
AcDbArc
 50
15.4643502915
 51
45.5846914028
  0
ARC
  5
125
330
1F
100
AcDbEntity
  8
0
  6
Continuous
 62
     7
370
    25
100
AcDbCircle
 10
5600.5444262501
 20
7462.5342963117
 30
0.0
 40
140.0000000000007
100
AcDbArc
 50
314.4153085972
 51
344.5317933461
  0
LINE
  5
126
330
1F
100
AcDbEntity
  8
0
  6
Continuous
 62
     7
370
    25
100
AcDbLine
 10
5683.5240159615
 20
8119.9560880836
 30
0.0
 11
5673.5240159615
 21
8119.9560880836
 31
0.0
  0
LINE
  5
127
330
1F
100
AcDbEntity
  8
0
  6
Continuous
 62
     7
370
    25
100
AcDbLine
 10
5673.5240159615
 20
7769.9560880836
 30
0.0
 11
5683.5240159615
 21
7769.9560880836
 31
0.0
  0
LINE
  5
128
330
1F
100
AcDbEntity
  8
0
  6
Continuous
 62
     7
370
    25
100
AcDbLine
 10
5683.5240159615
 20
7769.9560880836
 30
0.0
 11
5688.5240159615
 21
7774.9560880836
 31
0.0
  0
LINE
  5
129
330
1F
100
AcDbEntity
  8
0
  6
Continuous
 62
     7
370
    25
100
AcDbLine
 10
5688.5240159615
 20
8114.9560880836
 30
0.0
 11
5683.5240159615
 21
8119.9560880836
 31
0.0
  0
LINE
  5
12A
330
1F
100
AcDbEntity
  8
0
  6
Continuous
 62
     7
370
    25
100
AcDbLine
 10
5731.7740159615
 20
7878.2060880836
 30
0.0
 11
6343.5240159615
 21
7878.2060880836
 31
0.0
  0
LINE
  5
12B
330
1F
100
AcDbEntity
  8
0
  6
Continuous
 62
     7
370
    25
100
AcDbLine
 10
5688.5240159615
 20
7878.2060880836
 30
0.0
 11
5715.3777136074
 21
7878.2060880836
 31
0.0
  0
LINE
  5
12C
330
1F
100
AcDbEntity
  8
0
  6
Continuous
 62
     7
370
    25
100
AcDbLine
 10
6513.5240159615
 20
8011.7060880836
 30
0.0
 11
5688.5240159615
 21
8011.7060880836
 31
0.0
  0
LINE
  5
12D
330
1F
100
AcDbEntity
  8
0
  6
Continuous
 62
     7
370
    25
100
AcDbLine
 10
6518.5240159615
 20
8006.7060880836
 30
0.0
 11
6513.5240159615
 21
8011.7060880836
 31
0.0
  0
LINE
  5
12E
330
1F
100
AcDbEntity
  8
0
  6
Continuous
 62
     7
370
    25
100
AcDbLine
 10
5683.5240159615
 20
7287.5342963117
 30
0.0
 11
5683.5240159615
 21
7637.5342963117
 31
0.0
  0
LINE
  5
12F
330
1F
100
AcDbEntity
  8
0
  6
Continuous
 62
     7
370
    25
100
AcDbLine
 10
5673.5240159615
 20
7637.5342963117
 30
0.0
 11
5673.5240159615
 21
7287.5342963117
 31
0.0
  0
LINE
  5
130
330
1F
100
AcDbEntity
  8
0
  6
Continuous
 62
     7
370
    25
100
AcDbLine
 10
5688.5240159615
 20
7632.5342963117
 30
0.0
 11
5688.5240159615
 21
7292.5342963117
 31
0.0
  0
LINE
  5
131
330
1F
100
AcDbEntity
  8
0
  6
Continuous
 62
     7
370
    25
100
AcDbLine
 10
6451.8004165187
 20
7907.2186621723
 30
0.0
 11
6451.872191761
 21
7906.9507933214
 31
0.0
  0
LINE
  5
132
330
1F
100
AcDbEntity
  8
0
  6
Continuous
 62
     7
370
    25
100
AcDbLine
 10
6479.4060226655
 20
7914.6155620459
 30
0.0
 11
6479.4777979078
 21
7914.3476931951
 31
0.0
  0
LINE
  5
133
330
1F
100
AcDbEntity
  8
0
  6
Continuous
 62
     7
370
    25
100
AcDbLine
 10
6484.7320940911
 20
7915.7555776142
 30
0.0
 11
6485.9957945665
 21
7916.094185136
 31
0.0
  0
LINE
  5
134
330
1F
100
AcDbEntity
  8
0
  6
Continuous
 62
     7
370
    25
100
AcDbLine
 10
6484.6603188488
 20
7916.023446465
 30
0.0
 11
6484.7320940911
 21
7915.7555776142
 31
0.0
  0
LINE
  5
135
330
1F
100
AcDbEntity
  8
0
  6
Continuous
 62
     7
370
    25
100
AcDbLine
 10
6475.4745332904
 20
7913.5621226428
 30
0.0
 11
6475.5463085327
 21
7913.2942537919
 31
0.0
  0
LINE
  5
136
330
1F
100
AcDbEntity
  8
0
  6
Continuous
 62
     7
370
    25
100
AcDbLine
 10
6464.5571848674
 20
7910.3497269803
 30
0.0
 11
6475.5463085327
 21
7913.2942537919
 31
0.0
  0
LINE
  5
137
330
1F
100
AcDbEntity
  8
0
  6
Continuous
 62
     7
370
    25
100
AcDbLine
 10
6464.4854096251
 20
7910.6175958312
 30
0.0
 11
6464.5571848674
 21
7910.3497269803
 31
0.0
  0
LINE
  5
138
330
1F
100
AcDbEntity
  8
0
  6
Continuous
 62
     7
370
    25
100
AcDbLine
 10
6445.1470554608
 20
7905.4358994499
 30
0.0
 11
6445.218830703
 21
7905.168030599
 31
0.0
  0
LINE
  5
139
330
1F
100
AcDbEntity
  8
0
  6
Continuous
 62
     7
370
    25
100
AcDbLine
 10
6430.7712584402
 20
7901.2968152786
 30
0.0
 11
6445.218830703
 21
7905.168030599
 31
0.0
  0
LINE
  5
13A
330
1F
100
AcDbEntity
  8
0
  6
Continuous
 62
     7
370
    25
100
AcDbLine
 10
6430.6994831979
 20
7901.5646841295
 30
0.0
 11
6430.7712584402
 21
7901.2968152786
 31
0.0
  0
LINE
  5
13B
330
1F
100
AcDbEntity
  8
0
  6
Continuous
 62
     7
370
    25
100
AcDbLine
 10
6412.5367060231
 20
7896.6979826532
 30
0.0
 11
6412.6084812654
 21
7896.4301138023
 31
0.0
  0
LINE
  5
13C
330
1F
100
AcDbEntity
  8
0
  6
Continuous
 62
     7
370
    25
100
AcDbLine
 10
6403.1656522934
 20
7893.899915405
 30
0.0
 11
6412.6084812654
 21
7896.4301138023
 31
0.0
  0
LINE
  5
13D
330
1F
100
AcDbEntity
  8
0
  6
Continuous
 62
     7
370
    25
100
AcDbLine
 10
6403.0938770511
 20
7894.1677842559
 30
0.0
 11
6403.1656522934
 21
7893.899915405
 31
0.0
  0
LINE
  5
13E
330
1F
100
AcDbEntity
  8
0
  6
Continuous
 62
     7
370
    25
100
AcDbLine
 10
6396.7461854045
 20
7892.4669254053
 30
0.0
 11
6396.8179606467
 21
7892.1990565545
 31
0.0
  0
LINE
  5
13F
330
1F
100
AcDbEntity
  8
0
  6
Continuous
 62
     7
370
    25
100
AcDbLine
 10
6396.6476556347
 20
7892.153423464
 30
0.0
 11
6396.8179606467
 21
7892.1990565545
 31
0.0
  0
LINE
  5
140
330
1F
100
AcDbEntity
  8
0
  6
Continuous
 62
     7
370
    25
100
AcDbLine
 10
6445.3318751235
 20
7905.4854217293
 30
0.0
 11
6445.4036503658
 21
7905.2175528784
 31
0.0
  0
LINE
  5
141
330
1F
100
AcDbEntity
  8
0
  6
Continuous
 62
     7
370
    25
100
AcDbLine
 10
6445.4036503658
 20
7905.2175528784
 30
0.0
 11
6445.218830703
 21
7905.168030599
 31
0.0
  0
LINE
  5
142
330
1F
100
AcDbEntity
  8
0
  6
Continuous
 62
     7
370
    25
100
AcDbLine
 10
6462.8892620968
 20
7910.18990939
 30
0.0
 11
6462.9610373391
 21
7909.9220405391
 31
0.0
  0
LINE
  5
143
330
1F
100
AcDbEntity
  8
0
  6
Continuous
 62
     7
370
    25
100
AcDbLine
 10
6464.5571848674
 20
7910.3497269803
 30
0.0
 11
6462.9610373391
 21
7909.9220405391
 31
0.0
  0
LINE
  5
144
330
1F
100
AcDbEntity
  8
0
  6
Continuous
 62
     7
370
    25
100
AcDbLine
 10
6414.3942280251
 20
7897.1957041735
 30
0.0
 11
6414.4660032673
 21
7896.9278353226
 31
0.0
  0
LINE
  5
145
330
1F
100
AcDbEntity
  8
0
  6
Continuous
 62
     7
370
    25
100
AcDbLine
 10
6412.6084812654
 20
7896.4301138023
 30
0.0
 11
6414.4660032673
 21
7896.9278353226
 31
0.0
  0
LINE
  5
146
330
1F
100
AcDbEntity
  8
0
  6
Continuous
 62
     7
370
    25
100
AcDbLine
 10
6482.218205704
 20
7915.36908422
 30
0.0
 11
6482.2899809463
 21
7915.1012153692
 31
0.0
  0
LINE
  5
147
330
1F
100
AcDbEntity
  8
0
  6
Continuous
 62
     7
370
    25
100
AcDbLine
 10
6482.2899809463
 20
7915.1012153692
 30
0.0
 11
6484.7320940911
 21
7915.7555776142
 31
0.0
  0
LINE
  5
148
330
1F
100
AcDbEntity
  8
0
  6
Continuous
 62
     7
370
    25
100
AcDbLine
 10
6399.1882985493
 20
7893.1212876503
 30
0.0
 11
6399.2600737915
 21
7892.8534187994
 31
0.0
  0
LINE
  5
149
330
1F
100
AcDbEntity
  8
0
  6
Continuous
 62
     7
370
    25
100
AcDbLine
 10
6399.2600737915
 20
7892.8534187994
 30
0.0
 11
6396.8179606467
 21
7892.1990565545
 31
0.0
  0
LINE
  5
14A
330
1F
100
AcDbEntity
  8
0
  6
Continuous
 62
     7
370
    25
100
AcDbLine
 10
6400.2816940127
 20
7893.4142620817
 30
0.0
 11
6400.3534692549
 21
7893.1463932309
 31
0.0
  0
LINE
  5
14B
330
1F
100
AcDbEntity
  8
0
  6
Continuous
 62
     7
370
    25
100
AcDbLine
 10
6400.3534692549
 20
7893.1463932309
 30
0.0
 11
6399.2600737915
 21
7892.8534187994
 31
0.0
  0
LINE
  5
14C
330
1F
100
AcDbEntity
  8
0
  6
Continuous
 62
     7
370
    25
100
AcDbLine
 10
6477.5485006636
 20
7914.1178405256
 30
0.0
 11
6477.6202759058
 21
7913.8499716747
 31
0.0
  0
LINE
  5
14D
330
1F
100
AcDbEntity
  8
0
  6
Continuous
 62
     7
370
    25
100
AcDbLine
 10
6479.4777979078
 20
7914.3476931951
 30
0.0
 11
6477.6202759058
 21
7913.8499716747
 31
0.0
  0
LINE
  5
14E
330
1F
100
AcDbEntity
  8
0
  6
Continuous
 62
     7
370
    25
100
AcDbLine
 10
6477.6202759058
 20
7913.8499716747
 30
0.0
 11
6475.5463085327
 21
7913.2942537919
 31
0.0
  0
LINE
  5
14F
330
1F
100
AcDbEntity
  8
0
  6
Continuous
 62
     7
370
    25
100
AcDbLine
 10
6419.6106376198
 20
7898.5934369118
 30
0.0
 11
6419.6824128621
 21
7898.3255680609
 31
0.0
  0
LINE
  5
150
330
1F
100
AcDbEntity
  8
0
  6
Continuous
 62
     7
370
    25
100
AcDbLine
 10
6419.6824128621
 20
7898.3255680609
 30
0.0
 11
6414.4660032673
 21
7896.9278353226
 31
0.0
  0
LINE
  5
151
330
1F
100
AcDbEntity
  8
0
  6
Continuous
 62
     7
370
    25
100
AcDbLine
 10
6451.615596856
 20
7907.1691398929
 30
0.0
 11
6451.6873720982
 21
7906.9012710421
 31
0.0
  0
LINE
  5
152
330
1F
100
AcDbEntity
  8
0
  6
Continuous
 62
     7
370
    25
100
AcDbLine
 10
6451.6873720982
 20
7906.9012710421
 30
0.0
 11
6445.218830703
 21
7905.168030599
 31
0.0
  0
LINE
  5
153
330
1F
100
AcDbEntity
  8
0
  6
Continuous
 62
     7
370
    25
100
AcDbLine
 10
6451.6873720982
 20
7906.9012710421
 30
0.0
 11
6451.872191761
 21
7906.9507933214
 31
0.0
  0
LINE
  5
154
330
1F
100
AcDbEntity
  8
0
  6
Continuous
 62
     7
370
    25
100
AcDbLine
 10
5663.5240159615
 20
8112.4560880836
 30
0.0
 11
5663.5240159615
 21
7777.4560880836
 31
0.0
  0
LINE
  5
155
330
1F
100
AcDbEntity
  8
0
  6
Continuous
 62
     7
370
    25
100
AcDbLine
 10
5663.5240159615
 20
7630.0342963117
 30
0.0
 11
5663.5240159615
 21
7295.0342963117
 31
0.0
  0
SPLINE
  5
156
330
1F
100
AcDbEntity
  8
0
  6
Continuous
 62
     7
370
    25
100
AcDbSpline
210
0.0
220
0.0
230
1.0
 70
     8
 71
     3
 72
     9
 73
     5
 74
     0
 42
0.00000001
 43
0.00000001
 40
0.0
 40
0.0
 40
0.0
 40
0.0
 40
0.8174449610226439
 40
1.0
 40
1.0
 40
1.0
 40
1.0
 10
4957.524015961467
 20
7535.034296311738
 30
0.0
 10
4957.644358254285
 20
7537.470235768345
 30
0.0
 10
4957.791575863491
 20
7540.450178850456
 30
0.0
 10
4958.833759996453
 20
7543.269597271918
 30
0.0
 10
4959.024015961468
 20
7543.784296311742
 30
0.0
  0
LINE
  5
157
330
1F
100
AcDbEntity
  8
0
  6
Continuous
 62
     7
370
    25
100
AcDbLine
 10
4972.0240159615
 20
7543.7842963117
 30
0.0
 11
4959.0240159615
 21
7543.7842963117
 31
0.0
  0
LINE
  5
158
330
1F
100
AcDbEntity
  8
0
  6
Continuous
 62
     7
370
    25
100
AcDbLine
 10
4972.0240159615
 20
7526.2842963117
 30
0.0
 11
4959.0240159615
 21
7526.2842963117
 31
0.0
  0
SPLINE
  5
159
330
1F
100
AcDbEntity
  8
0
  6
Continuous
 62
     7
370
    25
100
AcDbSpline
210
0.0
220
0.0
230
1.0
 70
     8
 71
     3
 72
     9
 73
     5
 74
     0
 42
0.00000001
 43
0.00000001
 40
0.0
 40
0.0
 40
0.0
 40
0.0
 40
0.8609388207239843
 40
1.0
 40
1.0
 40
1.0
 40
1.0
 10
4959.024015961474
 20
7526.284296311738
 30
0.0
 10
4958.342516763597
 20
7528.775124086408
 30
0.0
 10
4957.550939962235
 20
7531.668277135977
 30
0.0
 10
4957.527302951987
 20
7534.623359125428
 30
0.0
 10
4957.524015961467
 20
7535.034296311738
 30
0.0
  0
SPLINE
  5
15A
330
1F
100
AcDbEntity
  8
0
  6
Continuous
 62
     7
370
    25
100
AcDbSpline
210
0.0
220
0.0
230
1.0
 70
     8
 71
     3
 72
     9
 73
     5
 74
     0
 42
0.00000001
 43
0.00000001
 40
0.0
 40
0.0
 40
0.0
 40
0.0
 40
0.8174449610221959
 40
1.0
 40
1.0
 40
1.0
 40
1.0
 10
4957.524015961477
 20
7517.534296311739
 30
0.0
 10
4957.644358254292
 20
7519.970235768348
 30
0.0
 10
4957.791575863494
 20
7522.950178850464
 30
0.0
 10
4958.833759996458
 20
7525.769597271916
 30
0.0
 10
4959.024015961474
 20
7526.284296311738
 30
0.0
  0
LINE
  5
15B
330
1F
100
AcDbEntity
  8
0
  6
Continuous
 62
     7
370
    25
100
AcDbLine
 10
4957.5240159615
 20
7535.0342963117
 30
0.0
 11
4957.5240159615
 21
7517.5342963117
 31
0.0
  0
LINE
  5
15C
330
1F
100
AcDbEntity
  8
0
  6
Continuous
 62
     7
370
    25
100
AcDbLine
 10
4972.0240159615
 20
7508.7842963117
 30
0.0
 11
4959.0240159615
 21
7508.7842963117
 31
0.0
  0
SPLINE
  5
15D
330
1F
100
AcDbEntity
  8
0
  6
Continuous
 62
     7
370
    25
100
AcDbSpline
210
0.0
220
0.0
230
1.0
 70
     8
 71
     3
 72
     9
 73
     5
 74
     0
 42
0.00000001
 43
0.00000001
 40
0.0
 40
0.0
 40
0.0
 40
0.0
 40
0.8609388207235816
 40
1.0
 40
1.0
 40
1.0
 40
1.0
 10
4959.024015961472
 20
7508.784296311744
 30
0.0
 10
4958.342516763601
 20
7511.275124086412
 30
0.0
 10
4957.550939962246
 20
7514.168277135979
 30
0.0
 10
4957.527302951997
 20
7517.123359125428
 30
0.0
 10
4957.524015961477
 20
7517.534296311739
 30
0.0
  0
SPLINE
  5
15E
330
1F
100
AcDbEntity
  8
0
  6
Continuous
 62
     7
370
    25
100
AcDbSpline
210
0.0
220
0.0
230
1.0
 70
    24
 71
     3
 72
     9
 73
     5
 74
     0
 42
0.00000001
 43
0.00000001
 40
0.0
 40
0.0
 40
0.0
 40
0.0
 40
0.8983996305435361
 40
1.0
 40
1.0
 40
1.0
 40
1.0
 10
4957.524015961477
 20
7508.784296311738
 30
0.0
 10
4957.672400398994
 20
7508.784296311735
 30
0.0
 10
4957.837565691221
 20
7508.784296311733
 30
0.0
 10
4958.914589903583
 20
7508.784296311743
 30
0.0
 10
4959.024015961472
 20
7508.784296311744
 30
0.0
  0
LINE
  5
15F
330
1F
100
AcDbEntity
  8
0
  6
Continuous
 62
     7
370
    25
100
AcDbLine
 10
4957.5240159615
 20
7517.5342963117
 30
0.0
 11
4957.5240159615
 21
7508.7842963117
 31
0.0
  0
SPLINE
  5
160
330
1F
100
AcDbEntity
  8
0
  6
Continuous
 62
     7
370
    25
100
AcDbSpline
210
0.0
220
0.0
230
1.0
 70
    24
 71
     3
 72
     9
 73
     5
 74
     0
 42
0.00000001
 43
0.00000001
 40
0.0
 40
0.0
 40
0.0
 40
0.0
 40
0.3800404321936964
 40
1.0
 40
1.0
 40
1.0
 40
1.0
 10
4959.024015961468
 20
7543.784296311742
 30
0.0
 10
4958.658776117955
 20
7543.784296311742
 30
0.0
 10
4957.697720891794
 20
7543.784296311741
 30
0.0
 10
4957.59049294995
 20
7543.784296311743
 30
0.0
 10
4957.524015961468
 20
7543.784296311744
 30
0.0
  0
LINE
  5
161
330
1F
100
AcDbEntity
  8
0
  6
Continuous
 62
     7
370
    25
100
AcDbLine
 10
4957.5240159615
 20
7543.7842963117
 30
0.0
 11
4957.5240159615
 21
7535.0342963117
 31
0.0
  0
SPLINE
  5
162
330
1F
100
AcDbEntity
  8
0
  6
Continuous
 62
     7
370
    25
100
AcDbSpline
210
0.0
220
0.0
230
1.0
 70
     8
 71
     3
 72
     9
 73
     5
 74
     0
 42
0.00000001
 43
0.00000001
 40
0.0
 40
0.0
 40
0.0
 40
0.0
 40
0.8174449610226439
 40
1.0
 40
1.0
 40
1.0
 40
1.0
 10
4957.524015961467
 20
7406.284296311724
 30
0.0
 10
4957.644358254285
 20
7408.72023576833
 30
0.0
 10
4957.791575863491
 20
7411.700178850442
 30
0.0
 10
4958.833759996453
 20
7414.519597271904
 30
0.0
 10
4959.024015961468
 20
7415.034296311727
 30
0.0
  0
LINE
  5
163
330
1F
100
AcDbEntity
  8
0
  6
Continuous
 62
     7
370
    25
100
AcDbLine
 10
4972.0240159615
 20
7415.0342963117
 30
0.0
 11
4959.0240159615
 21
7415.0342963117
 31
0.0
  0
LINE
  5
164
330
1F
100
AcDbEntity
  8
0
  6
Continuous
 62
     7
370
    25
100
AcDbLine
 10
4972.0240159615
 20
7397.5342963117
 30
0.0
 11
4959.0240159615
 21
7397.5342963117
 31
0.0
  0
SPLINE
  5
165
330
1F
100
AcDbEntity
  8
0
  6
Continuous
 62
     7
370
    25
100
AcDbSpline
210
0.0
220
0.0
230
1.0
 70
     8
 71
     3
 72
     9
 73
     5
 74
     0
 42
0.00000001
 43
0.00000001
 40
0.0
 40
0.0
 40
0.0
 40
0.0
 40
0.8609388207239843
 40
1.0
 40
1.0
 40
1.0
 40
1.0
 10
4959.024015961474
 20
7397.534296311724
 30
0.0
 10
4958.342516763597
 20
7400.025124086394
 30
0.0
 10
4957.550939962235
 20
7402.918277135962
 30
0.0
 10
4957.527302951987
 20
7405.873359125413
 30
0.0
 10
4957.524015961467
 20
7406.284296311724
 30
0.0
  0
SPLINE
  5
166
330
1F
100
AcDbEntity
  8
0
  6
Continuous
 62
     7
370
    25
100
AcDbSpline
210
0.0
220
0.0
230
1.0
 70
     8
 71
     3
 72
     9
 73
     5
 74
     0
 42
0.00000001
 43
0.00000001
 40
0.0
 40
0.0
 40
0.0
 40
0.0
 40
0.8174449610221961
 40
1.0
 40
1.0
 40
1.0
 40
1.0
 10
4957.524015961477
 20
7388.784296311725
 30
0.0
 10
4957.644358254292
 20
7391.220235768334
 30
0.0
 10
4957.791575863494
 20
7394.200178850449
 30
0.0
 10
4958.833759996459
 20
7397.019597271901
 30
0.0
 10
4959.024015961474
 20
7397.534296311724
 30
0.0
  0
LINE
  5
167
330
1F
100
AcDbEntity
  8
0
  6
Continuous
 62
     7
370
    25
100
AcDbLine
 10
4957.5240159615
 20
7406.2842963117
 30
0.0
 11
4957.5240159615
 21
7388.7842963117
 31
0.0
  0
LINE
  5
168
330
1F
100
AcDbEntity
  8
0
  6
Continuous
 62
     7
370
    25
100
AcDbLine
 10
4972.0240159615
 20
7380.0342963117
 30
0.0
 11
4959.0240159615
 21
7380.0342963117
 31
0.0
  0
SPLINE
  5
169
330
1F
100
AcDbEntity
  8
0
  6
Continuous
 62
     7
370
    25
100
AcDbSpline
210
0.0
220
0.0
230
1.0
 70
     8
 71
     3
 72
     9
 73
     5
 74
     0
 42
0.00000001
 43
0.00000001
 40
0.0
 40
0.0
 40
0.0
 40
0.0
 40
0.8609388207235816
 40
1.0
 40
1.0
 40
1.0
 40
1.0
 10
4959.024015961473
 20
7380.034296311729
 30
0.0
 10
4958.342516763601
 20
7382.525124086397
 30
0.0
 10
4957.550939962246
 20
7385.418277135966
 30
0.0
 10
4957.527302951997
 20
7388.373359125413
 30
0.0
 10
4957.524015961477
 20
7388.784296311725
 30
0.0
  0
SPLINE
  5
16A
330
1F
100
AcDbEntity
  8
0
  6
Continuous
 62
     7
370
    25
100
AcDbSpline
210
0.0
220
0.0
230
1.0
 70
    24
 71
     3
 72
     9
 73
     5
 74
     0
 42
0.00000001
 43
0.00000001
 40
0.0
 40
0.0
 40
0.0
 40
0.0
 40
0.898399630543536
 40
1.0
 40
1.0
 40
1.0
 40
1.0
 10
4957.524015961478
 20
7380.034296311724
 30
0.0
 10
4957.672400398994
 20
7380.034296311722
 30
0.0
 10
4957.837565691221
 20
7380.034296311719
 30
0.0
 10
4958.914589903583
 20
7380.034296311728
 30
0.0
 10
4959.024015961472
 20
7380.034296311729
 30
0.0
  0
LINE
  5
16B
330
1F
100
AcDbEntity
  8
0
  6
Continuous
 62
     7
370
    25
100
AcDbLine
 10
4957.5240159615
 20
7388.7842963117
 30
0.0
 11
4957.5240159615
 21
7380.0342963117
 31
0.0
  0
SPLINE
  5
16C
330
1F
100
AcDbEntity
  8
0
  6
Continuous
 62
     7
370
    25
100
AcDbSpline
210
0.0
220
0.0
230
1.0
 70
    24
 71
     3
 72
     9
 73
     5
 74
     0
 42
0.00000001
 43
0.00000001
 40
0.0
 40
0.0
 40
0.0
 40
0.0
 40
0.3800404321936967
 40
1.0
 40
1.0
 40
1.0
 40
1.0
 10
4959.024015961468
 20
7415.034296311727
 30
0.0
 10
4958.658776117955
 20
7415.034296311727
 30
0.0
 10
4957.697720891794
 20
7415.034296311726
 30
0.0
 10
4957.590492949951
 20
7415.034296311728
 30
0.0
 10
4957.524015961468
 20
7415.034296311729
 30
0.0
  0
LINE
  5
16D
330
1F
100
AcDbEntity
  8
0
  6
Continuous
 62
     7
370
    25
100
AcDbLine
 10
4957.5240159615
 20
7415.0342963117
 30
0.0
 11
4957.5240159615
 21
7406.2842963117
 31
0.0
  0
SPLINE
  5
16E
330
1F
100
AcDbEntity
  8
0
  6
Continuous
 62
     7
370
    25
100
AcDbSpline
210
0.0
220
0.0
230
1.0
 70
     8
 71
     3
 72
     9
 73
     5
 74
     0
 42
0.00000001
 43
0.00000001
 40
0.0
 40
0.0
 40
0.0
 40
0.0
 40
0.6081419703454968
 40
1.0
 40
1.0
 40
1.0
 40
1.0
 10
4973.524015961473
 20
7862.270824826033
 30
0.0
 10
4973.444210208234
 20
7859.500274989994
 30
0.0
 10
4973.312981388105
 20
7854.94451338968
 30
0.0
 10
4971.668441946681
 20
7850.662828424819
 30
0.0
 10
4971.024015961476
 20
7848.985015790887
 30
0.0
  0
LINE
  5
16F
330
1F
100
AcDbEntity
  8
0
  6
Continuous
 62
     7
370
    25
100
AcDbLine
 10
4950.0240159615
 20
7848.9850157909
 30
0.0
 11
4971.0240159615
 21
7848.9850157909
 31
0.0
  0
SPLINE
  5
170
330
1F
100
AcDbEntity
  8
0
  6
Continuous
 62
     7
370
    25
100
AcDbSpline
210
0.0
220
0.0
230
1.0
 70
     8
 71
     3
 72
     9
 73
     5
 74
     0
 42
0.00000001
 43
0.00000001
 40
0.0
 40
0.0
 40
0.0
 40
0.0
 40
0.6360037752867576
 40
1.0
 40
1.0
 40
1.0
 40
1.0
 10
4950.024015961477
 20
7848.985015790887
 30
0.0
 10
4949.092241183744
 20
7851.747460560538
 30
0.0
 10
4947.627195198265
 20
7856.090901396884
 30
0.0
 10
4947.551550387142
 20
7860.621649588983
 30
0.0
 10
4947.524015961474
 20
7862.270824826033
 30
0.0
  0
SPLINE
  5
171
330
1F
100
AcDbEntity
  8
0
  6
Continuous
 62
     7
370
    25
100
AcDbSpline
210
0.0
220
0.0
230
1.0
 70
     8
 71
     3
 72
     9
 73
     5
 74
     0
 42
0.00000001
 43
0.00000001
 40
0.0
 40
0.0
 40
0.0
 40
0.0
 40
0.6081419703453698
 40
1.0
 40
1.0
 40
1.0
 40
1.0
 10
4947.524015961474
 20
7862.270824826033
 30
0.0
 10
4947.603821714716
 20
7865.041374662071
 30
0.0
 10
4947.735050534849
 20
7869.597136262383
 30
0.0
 10
4949.379589976266
 20
7873.878821227246
 30
0.0
 10
4950.02401596147
 20
7875.556633861179
 30
0.0
  0
LINE
  5
172
330
1F
100
AcDbEntity
  8
0
  6
Continuous
 62
     7
370
    25
100
AcDbLine
 10
4950.0240159615
 20
7875.5566338612
 30
0.0
 11
4971.0240159615
 21
7875.5566338612
 31
0.0
  0
SPLINE
  5
173
330
1F
100
AcDbEntity
  8
0
  6
Continuous
 62
     7
370
    25
100
AcDbSpline
210
0.0
220
0.0
230
1.0
 70
     8
 71
     3
 72
     9
 73
     5
 74
     0
 42
0.00000001
 43
0.00000001
 40
0.0
 40
0.0
 40
0.0
 40
0.0
 40
0.6360037752866258
 40
1.0
 40
1.0
 40
1.0
 40
1.0
 10
4971.024015961471
 20
7875.556633861178
 30
0.0
 10
4971.955790739205
 20
7872.794189091528
 30
0.0
 10
4973.420836724686
 20
7868.450748255183
 30
0.0
 10
4973.496481535806
 20
7863.920000063084
 30
0.0
 10
4973.524015961473
 20
7862.270824826033
 30
0.0
  0
LINE
  5
174
330
1F
100
AcDbEntity
  8
0
  6
Continuous
 62
     7
370
    25
100
AcDbLine
 10
4947.5240159615
 20
7837.4568826491
 30
0.0
 11
4947.5240159615
 21
7862.270824826
 31
0.0
  0
SPLINE
  5
175
330
1F
100
AcDbEntity
  8
0
  6
Continuous
 62
     7
370
    25
100
AcDbSpline
210
0.0
220
0.0
230
1.0
 70
     8
 71
     3
 72
     9
 73
     5
 74
     0
 42
0.00000001
 43
0.00000001
 40
0.0
 40
0.0
 40
0.0
 40
0.0
 40
0.6081419703452926
 40
1.0
 40
1.0
 40
1.0
 40
1.0
 10
4947.524015961475
 20
7837.456882649064
 30
0.0
 10
4947.603821714718
 20
7839.860896382922
 30
0.0
 10
4947.735050534851
 20
7843.813943288226
 30
0.0
 10
4949.379589976272
 20
7847.529173141046
 30
0.0
 10
4950.024015961477
 20
7848.985015790887
 30
0.0
  0
SPLINE
  5
176
330
1F
100
AcDbEntity
  8
0
  6
Continuous
 62
     7
370
    25
100
AcDbSpline
210
0.0
220
0.0
230
1.0
 70
     8
 71
     3
 72
     9
 73
     5
 74
     0
 42
0.00000001
 43
0.00000001
 40
0.0
 40
0.0
 40
0.0
 40
0.0
 40
0.6360037752865447
 40
1.0
 40
1.0
 40
1.0
 40
1.0
 10
4971.024015961476
 20
7848.985015790887
 30
0.0
 10
4971.955790739208
 20
7846.588034845487
 30
0.0
 10
4973.420836724687
 20
7842.819219252656
 30
0.0
 10
4973.496481535804
 20
7838.887876550647
 30
0.0
 10
4973.52401596147
 20
7837.456882649061
 30
0.0
  0
SPLINE
  5
177
330
1F
100
AcDbEntity
  8
0
  6
Continuous
 62
     7
370
    25
100
AcDbSpline
210
0.0
220
0.0
230
1.0
 70
     8
 71
     3
 72
     9
 73
     5
 74
     0
 42
0.00000001
 43
0.00000001
 40
0.0
 40
0.0
 40
0.0
 40
0.0
 40
0.6081419703453744
 40
1.0
 40
1.0
 40
1.0
 40
1.0
 10
4973.52401596147
 20
7837.456882649061
 30
0.0
 10
4973.444210208229
 20
7835.052868915201
 30
0.0
 10
4973.312981388099
 20
7831.099822009895
 30
0.0
 10
4971.668441946676
 20
7827.384592157073
 30
0.0
 10
4971.02401596147
 20
7825.928749507232
 30
0.0
  0
LINE
  5
178
330
1F
100
AcDbEntity
  8
0
  6
Continuous
 62
     7
370
    25
100
AcDbLine
 10
4950.0240159615
 20
7825.9287495072
 30
0.0
 11
4971.0240159615
 21
7825.9287495072
 31
0.0
  0
SPLINE
  5
179
330
1F
100
AcDbEntity
  8
0
  6
Continuous
 62
     7
370
    25
100
AcDbSpline
210
0.0
220
0.0
230
1.0
 70
     8
 71
     3
 72
     9
 73
     5
 74
     0
 42
0.00000001
 43
0.00000001
 40
0.0
 40
0.0
 40
0.0
 40
0.0
 40
0.6360037752861956
 40
1.0
 40
1.0
 40
1.0
 40
1.0
 10
4950.024015961474
 20
7825.928749507233
 30
0.0
 10
4949.092241183739
 20
7828.325730452632
 30
0.0
 10
4947.627195198256
 20
7832.094546045465
 30
0.0
 10
4947.55155038714
 20
7836.025888747476
 30
0.0
 10
4947.524015961475
 20
7837.456882649064
 30
0.0
  0
SPLINE
  5
17A
330
1F
100
AcDbEntity
  8
0
  6
Continuous
 62
     7
370
    25
100
AcDbSpline
210
0.0
220
0.0
230
1.0
 70
     8
 71
     3
 72
     9
 73
     5
 74
     0
 42
0.00000001
 43
0.00000001
 40
0.0
 40
0.0
 40
0.0
 40
0.0
 40
0.8995915963004438
 40
1.0
 40
1.0
 40
1.0
 40
1.0
 10
4973.524015961467
 20
7877.314309754499
 30
0.0
 10
4973.327426692171
 20
7876.768864852945
 30
0.0
 10
4973.108895005009
 20
7876.162539823012
 30
0.0
 10
4971.214253854934
 20
7875.611920653078
 30
0.0
 10
4971.024015961471
 20
7875.556633861178
 30
0.0
  0
SPLINE
  5
17B
330
1F
100
AcDbEntity
  8
0
  6
Continuous
 62
     7
370
    25
100
AcDbSpline
210
0.0
220
0.0
230
1.0
 70
     8
 71
     3
 72
     9
 73
     5
 74
     0
 42
0.00000001
 43
0.00000001
 40
0.0
 40
0.0
 40
0.0
 40
0.0
 40
0.3221204093176306
 40
1.0
 40
1.0
 40
1.0
 40
1.0
 10
4950.02401596147
 20
7875.556633861179
 30
0.0
 10
4949.476049750967
 20
7875.738104728418
 30
0.0
 10
4947.774927454295
 20
7876.301468185032
 30
0.0
 10
4947.625386632524
 20
7876.905111959645
 30
0.0
 10
4947.52401596147
 20
7877.314309754498
 30
0.0
  0
LINE
  5
17C
330
1F
100
AcDbEntity
  8
0
  6
Continuous
 62
     7
370
    25
100
AcDbLine
 10
4947.5240159615
 20
7877.3143097545
 30
0.0
 11
4947.5240159615
 21
7862.270824826
 31
0.0
  0
SPLINE
  5
17D
330
1F
100
AcDbEntity
  8
0
  6
Continuous
 62
     7
370
    25
100
AcDbSpline
210
0.0
220
0.0
230
1.0
 70
     8
 71
     3
 72
     9
 73
     5
 74
     0
 42
0.00000001
 43
0.00000001
 40
0.0
 40
0.0
 40
0.0
 40
0.0
 40
0.4074641962137951
 40
1.0
 40
1.0
 40
1.0
 40
1.0
 10
4971.02401596147
 20
7825.928749507232
 30
0.0
 10
4971.586200334781
 20
7826.109851259393
 30
0.0
 10
4972.96591511349
 20
7826.554311788302
 30
0.0
 10
4973.119028722252
 20
7827.030615881973
 30
0.0
 10
4973.20975401749
 20
7827.312843110963
 30
0.0
  0
SPLINE
  5
17E
330
1F
100
AcDbEntity
  8
0
  6
Continuous
 62
     7
370
    25
100
AcDbSpline
210
0.0
220
0.0
230
1.0
 70
     8
 71
     3
 72
     9
 73
     5
 74
     0
 42
0.00000001
 43
0.00000001
 40
0.0
 40
0.0
 40
0.0
 40
0.0
 40
0.8728453386470543
 40
1.0
 40
1.0
 40
1.0
 40
1.0
 10
4947.97907671357
 20
7827.314355250335
 30
0.0
 10
4948.139998662126
 20
7826.89678966854
 30
0.0
 10
4948.324363453266
 20
7826.418393825305
 30
0.0
 10
4949.832277643292
 20
7825.983986432194
 30
0.0
 10
4950.024015961474
 20
7825.928749507233
 30
0.0
  0
LINE
  5
17F
330
1F
100
AcDbEntity
  8
0
  6
Continuous
 62
     7
370
    25
100
AcDbLine
 10
4947.5240159615
 20
7827.5003675775
 30
0.0
 11
4947.5240159615
 21
7837.4568826491
 31
0.0
  0
LINE
  5
180
330
1F
100
AcDbEntity
  8
0
  6
Continuous
 62
     7
370
    25
100
AcDbLine
 10
4947.5240159615
 20
7877.3143097545
 30
0.0
 11
4947.9798508979
 21
7877.687012899
 31
0.0
  0
SPLINE
  5
181
330
1F
100
AcDbEntity
  8
0
  6
Continuous
 62
     7
370
    25
100
AcDbSpline
210
0.0
220
0.0
230
1.0
 70
     8
 71
     3
 72
     9
 73
     5
 74
     0
 42
0.00000001
 43
0.00000001
 40
0.0
 40
0.0
 40
0.0
 40
0.0
 40
0.3842509395289319
 40
1.0
 40
1.0
 40
1.0
 40
1.0
 10
4949.334644205422
 20
7878.794729060289
 30
0.0
 10
4949.366377953264
 20
7878.832120995193
 30
0.0
 10
4949.448963952612
 20
7878.92943223391
 30
0.0
 10
4949.804868234363
 20
7879.017659680484
 30
0.0
 10
4950.024015961469
 20
7879.071985647819
 30
0.0
  0
LINE
  5
182
330
1F
100
AcDbEntity
  8
0
  6
Continuous
 62
     7
370
    25
100
AcDbLine
 10
4950.0240159615
 20
7879.0719856478
 30
0.0
 11
4971.0240159615
 21
7879.0719856478
 31
0.0
  0
LINE
  5
183
330
1F
100
AcDbEntity
  8
0
  6
Continuous
 62
     7
370
    25
100
AcDbLine
 10
4971.0240159615
 20
7879.0719856478
 30
0.0
 11
4972.5069200816
 21
7878.5233934975
 31
0.0
  0
LINE
  5
184
330
1F
100
AcDbEntity
  8
0
  6
Continuous
 62
     7
370
    25
100
AcDbLine
 10
4947.5240159615
 20
7877.3143097545
 30
0.0
 11
4947.5240159615
 21
7877.5003675775
 31
0.0
  0
SPLINE
  5
185
330
1F
100
AcDbEntity
  8
0
  6
Continuous
 62
     7
370
    25
100
AcDbSpline
210
0.0
220
0.0
230
1.0
 70
     8
 71
     3
 72
     9
 73
     5
 74
     0
 42
0.00000001
 43
0.00000001
 40
0.0
 40
0.0
 40
0.0
 40
0.0
 40
0.6081419703454968
 40
1.0
 40
1.0
 40
1.0
 40
1.0
 10
4973.524015961473
 20
8047.182265838284
 30
0.0
 10
4973.444210208235
 20
8044.411716002246
 30
0.0
 10
4973.312981388106
 20
8039.855954401931
 30
0.0
 10
4971.668441946682
 20
8035.57426943707
 30
0.0
 10
4971.024015961477
 20
8033.896456803138
 30
0.0
  0
LINE
  5
186
330
1F
100
AcDbEntity
  8
0
  6
Continuous
 62
     7
370
    25
100
AcDbLine
 10
4950.0240159615
 20
8033.8964568031
 30
0.0
 11
4971.0240159615
 21
8033.8964568031
 31
0.0
  0
SPLINE
  5
187
330
1F
100
AcDbEntity
  8
0
  6
Continuous
 62
     7
370
    25
100
AcDbSpline
210
0.0
220
0.0
230
1.0
 70
     8
 71
     3
 72
     9
 73
     5
 74
     0
 42
0.00000001
 43
0.00000001
 40
0.0
 40
0.0
 40
0.0
 40
0.0
 40
0.6360037752867576
 40
1.0
 40
1.0
 40
1.0
 40
1.0
 10
4950.024015961478
 20
8033.896456803138
 30
0.0
 10
4949.092241183745
 20
8036.658901572789
 30
0.0
 10
4947.627195198266
 20
8041.002342409136
 30
0.0
 10
4947.551550387143
 20
8045.533090601234
 30
0.0
 10
4947.524015961475
 20
8047.182265838284
 30
0.0
  0
SPLINE
  5
188
330
1F
100
AcDbEntity
  8
0
  6
Continuous
 62
     7
370
    25
100
AcDbSpline
210
0.0
220
0.0
230
1.0
 70
     8
 71
     3
 72
     9
 73
     5
 74
     0
 42
0.00000001
 43
0.00000001
 40
0.0
 40
0.0
 40
0.0
 40
0.0
 40
0.6081419703453694
 40
1.0
 40
1.0
 40
1.0
 40
1.0
 10
4947.524015961475
 20
8047.182265838284
 30
0.0
 10
4947.603821714717
 20
8049.952815674322
 30
0.0
 10
4947.73505053485
 20
8054.508577274635
 30
0.0
 10
4949.379589976267
 20
8058.790262239498
 30
0.0
 10
4950.02401596147
 20
8060.46807487343
 30
0.0
  0
LINE
  5
189
330
1F
100
AcDbEntity
  8
0
  6
Continuous
 62
     7
370
    25
100
AcDbLine
 10
4950.0240159615
 20
8060.4680748734
 30
0.0
 11
4971.0240159615
 21
8060.4680748734
 31
0.0
  0
SPLINE
  5
18A
330
1F
100
AcDbEntity
  8
0
  6
Continuous
 62
     7
370
    25
100
AcDbSpline
210
0.0
220
0.0
230
1.0
 70
     8
 71
     3
 72
     9
 73
     5
 74
     0
 42
0.00000001
 43
0.00000001
 40
0.0
 40
0.0
 40
0.0
 40
0.0
 40
0.6360037752866258
 40
1.0
 40
1.0
 40
1.0
 40
1.0
 10
4971.024015961472
 20
8060.46807487343
 30
0.0
 10
4971.955790739206
 20
8057.705630103779
 30
0.0
 10
4973.420836724687
 20
8053.362189267434
 30
0.0
 10
4973.496481535807
 20
8048.831441075336
 30
0.0
 10
4973.524015961473
 20
8047.182265838284
 30
0.0
  0
LINE
  5
18B
330
1F
100
AcDbEntity
  8
0
  6
Continuous
 62
     7
370
    25
100
AcDbLine
 10
4947.5240159615
 20
8022.3683236613
 30
0.0
 11
4947.5240159615
 21
8047.1822658383
 31
0.0
  0
SPLINE
  5
18C
330
1F
100
AcDbEntity
  8
0
  6
Continuous
 62
     7
370
    25
100
AcDbSpline
210
0.0
220
0.0
230
1.0
 70
     8
 71
     3
 72
     9
 73
     5
 74
     0
 42
0.00000001
 43
0.00000001
 40
0.0
 40
0.0
 40
0.0
 40
0.0
 40
0.6081419703452926
 40
1.0
 40
1.0
 40
1.0
 40
1.0
 10
4947.524015961476
 20
8022.368323661315
 30
0.0
 10
4947.603821714719
 20
8024.772337395174
 30
0.0
 10
4947.735050534852
 20
8028.725384300477
 30
0.0
 10
4949.379589976273
 20
8032.440614153298
 30
0.0
 10
4950.024015961478
 20
8033.896456803138
 30
0.0
  0
SPLINE
  5
18D
330
1F
100
AcDbEntity
  8
0
  6
Continuous
 62
     7
370
    25
100
AcDbSpline
210
0.0
220
0.0
230
1.0
 70
     8
 71
     3
 72
     9
 73
     5
 74
     0
 42
0.00000001
 43
0.00000001
 40
0.0
 40
0.0
 40
0.0
 40
0.0
 40
0.6360037752865446
 40
1.0
 40
1.0
 40
1.0
 40
1.0
 10
4971.024015961477
 20
8033.896456803138
 30
0.0
 10
4971.955790739209
 20
8031.49947585774
 30
0.0
 10
4973.420836724687
 20
8027.730660264908
 30
0.0
 10
4973.496481535805
 20
8023.799317562899
 30
0.0
 10
4973.52401596147
 20
8022.368323661311
 30
0.0
  0
SPLINE
  5
18E
330
1F
100
AcDbEntity
  8
0
  6
Continuous
 62
     7
370
    25
100
AcDbSpline
210
0.0
220
0.0
230
1.0
 70
     8
 71
     3
 72
     9
 73
     5
 74
     0
 42
0.00000001
 43
0.00000001
 40
0.0
 40
0.0
 40
0.0
 40
0.0
 40
0.608141970345374
 40
1.0
 40
1.0
 40
1.0
 40
1.0
 10
4973.52401596147
 20
8022.368323661311
 30
0.0
 10
4973.44421020823
 20
8019.964309927453
 30
0.0
 10
4973.3129813881
 20
8016.011263022147
 30
0.0
 10
4971.668441946676
 20
8012.296033169324
 30
0.0
 10
4971.024015961471
 20
8010.840190519483
 30
0.0
  0
LINE
  5
18F
330
1F
100
AcDbEntity
  8
0
  6
Continuous
 62
     7
370
    25
100
AcDbLine
 10
4950.0240159615
 20
8010.8401905195
 30
0.0
 11
4971.0240159615
 21
8010.8401905195
 31
0.0
  0
SPLINE
  5
190
330
1F
100
AcDbEntity
  8
0
  6
Continuous
 62
     7
370
    25
100
AcDbSpline
210
0.0
220
0.0
230
1.0
 70
     8
 71
     3
 72
     9
 73
     5
 74
     0
 42
0.00000001
 43
0.00000001
 40
0.0
 40
0.0
 40
0.0
 40
0.0
 40
0.6360037752861956
 40
1.0
 40
1.0
 40
1.0
 40
1.0
 10
4950.024015961475
 20
8010.840190519484
 30
0.0
 10
4949.09224118374
 20
8013.237171464883
 30
0.0
 10
4947.627195198257
 20
8017.005987057717
 30
0.0
 10
4947.551550387141
 20
8020.937329759727
 30
0.0
 10
4947.524015961476
 20
8022.368323661315
 30
0.0
  0
SPLINE
  5
191
330
1F
100
AcDbEntity
  8
0
  6
Continuous
 62
     7
370
    25
100
AcDbSpline
210
0.0
220
0.0
230
1.0
 70
     8
 71
     3
 72
     9
 73
     5
 74
     0
 42
0.00000001
 43
0.00000001
 40
0.0
 40
0.0
 40
0.0
 40
0.0
 40
0.899591596300444
 40
1.0
 40
1.0
 40
1.0
 40
1.0
 10
4973.524015961468
 20
8062.22575076675
 30
0.0
 10
4973.327426692171
 20
8061.680305865195
 30
0.0
 10
4973.108895005009
 20
8061.073980835264
 30
0.0
 10
4971.214253854935
 20
8060.523361665329
 30
0.0
 10
4971.024015961472
 20
8060.46807487343
 30
0.0
  0
SPLINE
  5
192
330
1F
100
AcDbEntity
  8
0
  6
Continuous
 62
     7
370
    25
100
AcDbSpline
210
0.0
220
0.0
230
1.0
 70
     8
 71
     3
 72
     9
 73
     5
 74
     0
 42
0.00000001
 43
0.00000001
 40
0.0
 40
0.0
 40
0.0
 40
0.0
 40
0.3221204093176306
 40
1.0
 40
1.0
 40
1.0
 40
1.0
 10
4950.02401596147
 20
8060.46807487343
 30
0.0
 10
4949.476049750967
 20
8060.64954574067
 30
0.0
 10
4947.774927454296
 20
8061.212909197284
 30
0.0
 10
4947.625386632524
 20
8061.816552971896
 30
0.0
 10
4947.524015961471
 20
8062.22575076675
 30
0.0
  0
LINE
  5
193
330
1F
100
AcDbEntity
  8
0
  6
Continuous
 62
     7
370
    25
100
AcDbLine
 10
4947.5240159615
 20
8062.2257507668
 30
0.0
 11
4947.5240159615
 21
8047.1822658383
 31
0.0
  0
SPLINE
  5
194
330
1F
100
AcDbEntity
  8
0
  6
Continuous
 62
     7
370
    25
100
AcDbSpline
210
0.0
220
0.0
230
1.0
 70
     8
 71
     3
 72
     9
 73
     5
 74
     0
 42
0.00000001
 43
0.00000001
 40
0.0
 40
0.0
 40
0.0
 40
0.0
 40
0.407464196213795
 40
1.0
 40
1.0
 40
1.0
 40
1.0
 10
4971.024015961471
 20
8010.840190519483
 30
0.0
 10
4971.586200334782
 20
8011.021292271645
 30
0.0
 10
4972.965915113491
 20
8011.465752800554
 30
0.0
 10
4973.119028722253
 20
8011.942056894224
 30
0.0
 10
4973.209754017491
 20
8012.224284123214
 30
0.0
  0
SPLINE
  5
195
330
1F
100
AcDbEntity
  8
0
  6
Continuous
 62
     7
370
    25
100
AcDbSpline
210
0.0
220
0.0
230
1.0
 70
     8
 71
     3
 72
     9
 73
     5
 74
     0
 42
0.00000001
 43
0.00000001
 40
0.0
 40
0.0
 40
0.0
 40
0.0
 40
0.8728453386470543
 40
1.0
 40
1.0
 40
1.0
 40
1.0
 10
4947.979076713571
 20
8012.225796262587
 30
0.0
 10
4948.139998662127
 20
8011.808230680792
 30
0.0
 10
4948.324363453267
 20
8011.329834837557
 30
0.0
 10
4949.832277643293
 20
8010.895427444446
 30
0.0
 10
4950.024015961475
 20
8010.840190519484
 30
0.0
  0
LINE
  5
196
330
1F
100
AcDbEntity
  8
0
  6
Continuous
 62
     7
370
    25
100
AcDbLine
 10
4947.5240159615
 20
8012.4118085898
 30
0.0
 11
4947.5240159615
 21
8022.3683236613
 31
0.0
  0
LINE
  5
197
330
1F
100
AcDbEntity
  8
0
  6
Continuous
 62
     7
370
    25
100
AcDbLine
 10
4947.5240159615
 20
8062.2257507668
 30
0.0
 11
4947.9798508979
 21
8062.5984539113
 31
0.0
  0
SPLINE
  5
198
330
1F
100
AcDbEntity
  8
0
  6
Continuous
 62
     7
370
    25
100
AcDbSpline
210
0.0
220
0.0
230
1.0
 70
     8
 71
     3
 72
     9
 73
     5
 74
     0
 42
0.00000001
 43
0.00000001
 40
0.0
 40
0.0
 40
0.0
 40
0.0
 40
0.3842509395289319
 40
1.0
 40
1.0
 40
1.0
 40
1.0
 10
4949.334644205423
 20
8063.706170072541
 30
0.0
 10
4949.366377953264
 20
8063.743562007444
 30
0.0
 10
4949.448963952613
 20
8063.840873246162
 30
0.0
 10
4949.804868234364
 20
8063.929100692736
 30
0.0
 10
4950.02401596147
 20
8063.983426660071
 30
0.0
  0
LINE
  5
199
330
1F
100
AcDbEntity
  8
0
  6
Continuous
 62
     7
370
    25
100
AcDbLine
 10
4950.0240159615
 20
8063.9834266601
 30
0.0
 11
4971.0240159615
 21
8063.9834266601
 31
0.0
  0
LINE
  5
19A
330
1F
100
AcDbEntity
  8
0
  6
Continuous
 62
     7
370
    25
100
AcDbLine
 10
4971.0240159615
 20
8063.9834266601
 30
0.0
 11
4972.5069200816
 21
8063.4348345098
 31
0.0
  0
LINE
  5
19B
330
1F
100
AcDbEntity
  8
0
  6
Continuous
 62
     7
370
    25
100
AcDbLine
 10
4947.5240159615
 20
8062.2257507668
 30
0.0
 11
4947.5240159615
 21
8062.4118085898
 31
0.0
  0
LINE
  5
19C
330
1F
100
AcDbEntity
  8
0
  6
Continuous
 62
     7
370
    25
100
AcDbLine
 10
5730.6723177988
 20
7482.0192963117
 30
0.0
 11
5726.4904468987
 21
7482.0192963117
 31
0.0
  0
SPLINE
  5
19D
330
1F
100
AcDbEntity
  8
0
  6
Continuous
 62
     7
370
    25
100
AcDbSpline
210
0.0
220
0.0
230
1.0
 70
     8
 71
     3
 72
    17
 73
    13
 74
     0
 42
0.00000001
 43
0.00000001
 40
0.0
 40
0.0
 40
0.0
 40
0.0
 40
0.1142586022315222
 40
0.2283809705062741
 40
0.3451750489305403
 40
0.4549582701051851
 40
0.5510731736677967
 40
0.6410574904873404
 40
0.7361898798205476
 40
0.8425349369226637
 40
0.9580514690868417
 40
1.0
 40
1.0
 40
1.0
 40
1.0
 10
5730.67231779876
 20
7429.019296311745
 30
0.0
 10
5729.641119887238
 20
7429.348325501969
 30
0.0
 10
5727.579953592382
 20
7430.005991571051
 30
0.0
 10
5723.998565233861
 20
7434.98247528266
 30
0.0
 10
5720.913241985696
 20
7442.282273749782
 30
0.0
 10
5719.197495643032
 20
7451.167153146363
 30
0.0
 10
5719.256202236714
 20
7459.872509423113
 30
0.0
 10
5720.677667571397
 20
7467.575973488078
 30
0.0
 10
5723.122815438593
 20
7474.25901375534
 30
0.0
 10
5726.306249234141
 20
7479.489795304909
 30
0.0
 10
5728.958772786667
 20
7481.798469577112
 30
0.0
 10
5730.311857438597
 20
7481.97284332467
 30
0.0
 10
5730.672317798757
 20
7482.019296311746
 30
0.0
  0
LINE
  5
19E
330
1F
100
AcDbEntity
  8
0
  6
Continuous
 62
     7
370
    25
100
AcDbLine
 10
5730.6723177988
 20
7429.0192963117
 30
0.0
 11
5729.9223177988
 21
7429.0192963117
 31
0.0
  0
LINE
  5
19F
330
1F
100
AcDbEntity
  8
0
  6
Continuous
 62
     7
370
    25
100
AcDbLine
 10
5736.2740159615
 20
7482.0192963117
 30
0.0
 11
5730.6723177988
 21
7482.0192963117
 31
0.0
  0
LINE
  5
1A0
330
1F
100
AcDbEntity
  8
0
  6
Continuous
 62
     7
370
    25
100
AcDbLine
 10
5736.2740159615
 20
7429.0192963117
 30
0.0
 11
5730.6723177988
 21
7429.0192963117
 31
0.0
  0
LINE
  5
1A1
330
1F
100
AcDbEntity
  8
0
  6
Continuous
 62
     7
370
    25
100
AcDbLine
 10
4018.5240159615
 20
7867.5003675775
 30
0.0
 11
4018.5240159615
 21
7837.5003675775
 31
0.0
  0
LINE
  5
1A2
330
1F
100
AcDbEntity
  8
0
  6
Continuous
 62
     7
370
    25
100
AcDbLine
 10
4013.5240159615
 20
7842.5003675775
 30
0.0
 11
4013.5240159615
 21
7862.5003675775
 31
0.0
  0
LINE
  5
1A3
330
1F
100
AcDbEntity
  8
0
  6
Continuous
 62
     7
370
    25
100
AcDbLine
 10
4018.5240159615
 20
8022.5592936718
 30
0.0
 11
4018.5240159615
 21
8022.4118085898
 31
0.0
  0
LINE
  5
1A4
330
1F
100
AcDbEntity
  8
0
  6
Continuous
 62
     7
370
    25
100
AcDbLine
 10
4018.5240159615
 20
8052.4118085898
 30
0.0
 11
4018.5240159615
 21
8022.5592936718
 31
0.0
  0
LINE
  5
1A5
330
1F
100
AcDbEntity
  8
0
  6
Continuous
 62
     7
370
    25
100
AcDbLine
 10
4013.5240159615
 20
8027.4118085898
 30
0.0
 11
4013.5240159615
 21
8047.4118085898
 31
0.0
  0
LINE
  5
1A6
330
1F
100
AcDbEntity
  8
0
  6
Continuous
 62
     7
370
    25
100
AcDbLine
 10
4011.2283345574
 20
7407.5342963117
 30
0.0
 11
4011.2283345574
 21
7387.5342963117
 31
0.0
  0
LINE
  5
1A7
330
1F
100
AcDbEntity
  8
0
  6
Continuous
 62
     7
370
    25
100
AcDbLine
 10
4006.2283345574
 20
7392.5342963117
 30
0.0
 11
4006.2283345574
 21
7402.5342963117
 31
0.0
  0
LINE
  5
1A8
330
1F
100
AcDbEntity
  8
0
  6
Continuous
 62
     7
370
    25
100
AcDbLine
 10
4011.2283345574
 20
7536.2842963117
 30
0.0
 11
4011.2283345574
 21
7516.2842963117
 31
0.0
  0
LINE
  5
1A9
330
1F
100
AcDbEntity
  8
0
  6
Continuous
 62
     7
370
    25
100
AcDbLine
 10
4006.2283345574
 20
7521.2842963117
 30
0.0
 11
4006.2283345574
 21
7531.2842963117
 31
0.0
  0
LINE
  5
1AA
330
1F
100
AcDbEntity
  8
0
  6
Continuous
 62
     7
370
    25
100
AcDbLine
 10
4973.5240159615
 20
8064.6850611281
 30
0.0
 11
4973.5240159615
 21
7744.9560880836
 31
0.0
  0
LINE
  5
1AB
330
1F
100
AcDbEntity
  8
0
  6
Continuous
 62
     7
370
    25
100
AcDbLine
 10
4973.5240159615
 20
8144.9560880836
 30
0.0
 11
4973.5240159615
 21
8064.6850611281
 31
0.0
  0
LINE
  5
1AC
330
1F
100
AcDbEntity
  8
0
  6
Continuous
 62
     7
370
    25
100
AcDbLine
 10
4988.5240159615
 20
8064.6850611281
 30
0.0
 11
4988.5240159615
 21
7744.9560880836
 31
0.0
  0
LINE
  5
1AD
330
1F
100
AcDbEntity
  8
0
  6
Continuous
 62
     7
370
    25
100
AcDbLine
 10
4988.5240159615
 20
8144.9560880836
 30
0.0
 11
4988.5240159615
 21
8064.6850611281
 31
0.0
  0
LINE
  5
1AE
330
1F
100
AcDbEntity
  8
0
  6
Continuous
 62
     7
370
    25
100
AcDbLine
 10
4988.5240159615
 20
7662.5342963117
 30
0.0
 11
4988.5240159615
 21
7262.5342963117
 31
0.0
  0
LINE
  5
1AF
330
1F
100
AcDbEntity
  8
0
  6
Continuous
 62
     7
370
    25
100
AcDbLine
 10
4973.5240159615
 20
7662.5342963117
 30
0.0
 11
4973.5240159615
 21
7262.5342963117
 31
0.0
  0
LINE
  5
1B0
330
1F
100
AcDbEntity
  8
0
  6
Continuous
 62
     7
370
    25
100
AcDbLine
 10
5698.5240159615
 20
7420.7132489791
 30
0.0
 11
5698.5240159615
 21
7362.5342963117
 31
0.0
  0
LINE
  5
1B1
330
1F
100
AcDbEntity
  8
0
  6
Continuous
 62
     7
370
    25
100
AcDbLine
 10
5698.5240159615
 20
7562.5342963117
 30
0.0
 11
5698.5240159615
 21
7504.3553436444
 31
0.0
  0
SPLINE
  5
1B2
330
1F
100
AcDbEntity
  8
0
  6
Continuous
 62
     7
370
    25
100
AcDbSpline
210
0.0
220
0.0
230
1.0
 70
     8
 71
     3
 72
    14
 73
    10
 74
     0
 42
0.00000001
 43
0.00000001
 40
0.0
 40
0.0
 40
0.0
 40
0.0
 40
0.1430767350197332
 40
0.285971408246014
 40
0.43059698832112
 40
0.5751097355711023
 40
0.7004104608272945
 40
0.8258432749720694
 40
1.0
 40
1.0
 40
1.0
 40
1.0
 10
5698.524015961472
 20
7504.355343644376
 30
0.0
 10
5696.977744033495
 20
7500.703399283853
 30
0.0
 10
5693.887167772343
 20
7493.404157576454
 30
0.0
 10
5690.420906967923
 20
7481.4048977477
 30
0.0
 10
5688.528264092582
 20
7468.760165465842
 30
0.0
 10
5688.515157219221
 20
7456.368210119712
 30
0.0
 10
5690.262084093144
 20
7444.815805684739
 30
0.0
 10
5693.42666849244
 20
7432.85934031336
 30
0.0
 10
5696.650149276667
 20
7425.178346961931
 30
0.0
 10
5698.524015961472
 20
7420.71324897907
 30
0.0
  0
SPLINE
  5
1B3
330
1F
100
AcDbEntity
  8
0
  6
Continuous
 62
     7
370
    25
100
AcDbSpline
210
0.0
220
0.0
230
1.0
 70
     8
 71
     3
 72
    12
 73
     8
 74
     0
 42
0.00000001
 43
0.00000001
 40
0.0
 40
0.0
 40
0.0
 40
0.0
 40
0.0837170009005042
 40
0.3033308020457349
 40
0.5162062422199943
 40
0.7351986825089671
 40
1.0
 40
1.0
 40
1.0
 40
1.0
 10
5735.10100125642
 20
7499.746157586157
 30
0.0
 10
5735.20731230826
 20
7499.731917631877
 30
0.0
 10
5735.592507863214
 20
7499.680322176871
 30
0.0
 10
5732.466537897833
 20
7500.099530764361
 30
0.0
 10
5725.759522308973
 20
7500.979499366779
 30
0.0
 10
5714.977244506423
 20
7502.364585426549
 30
0.0
 10
5704.344033671456
 20
7503.65115066168
 30
0.0
 10
5698.524015961472
 20
7504.355343644376
 30
0.0
  0
SPLINE
  5
1B4
330
1F
100
AcDbEntity
  8
0
  6
Continuous
 62
     7
370
    25
100
AcDbSpline
210
0.0
220
0.0
230
1.0
 70
     8
 71
     3
 72
    12
 73
     8
 74
     0
 42
0.00000001
 43
0.00000001
 40
0.0
 40
0.0
 40
0.0
 40
0.0
 40
0.2144616470625414
 40
0.4351073389130782
 40
0.6495873106307375
 40
0.870351375599698
 40
1.0
 40
1.0
 40
1.0
 40
1.0
 10
5698.524015961472
 20
7420.71324897907
 30
0.0
 10
5703.289795014979
 20
7421.288138022654
 30
0.0
 10
5712.958775320881
 20
7422.454493151179
 30
0.0
 10
5723.750488901132
 20
7423.828595165781
 30
0.0
 10
5731.326296348589
 20
7424.817583500126
 30
0.0
 10
5735.242828756125
 20
7425.341384783303
 30
0.0
 10
5735.139304155887
 20
7425.327552734619
 30
0.0
 10
5735.10100125642
 20
7425.322435037289
 30
0.0
  0
LINE
  5
1B5
330
1F
100
AcDbEntity
  8
0
  6
Continuous
 62
     7
370
    25
100
AcDbLine
 10
5735.5240159615
 20
7484.0342963117
 30
0.0
 11
5729.9979088065
 21
7484.0342963117
 31
0.0
  0
SPLINE
  5
1B6
330
1F
100
AcDbEntity
  8
0
  6
Continuous
 62
     7
370
    25
100
AcDbSpline
210
0.0
220
0.0
230
1.0
 70
     8
 71
     3
 72
    17
 73
    13
 74
     0
 42
0.00000001
 43
0.00000001
 40
0.0
 40
0.0
 40
0.0
 40
0.0
 40
0.1140849617555893
 40
0.2280233117541607
 40
0.3449304224588298
 40
0.4549406763939257
 40
0.5509093488830343
 40
0.6405265239945007
 40
0.7354303373669719
 40
0.8418248240166922
 40
0.9575119257844884
 40
1.0
 40
1.0
 40
1.0
 40
1.0
 10
5729.997908806518
 20
7484.034296311723
 30
0.0
 10
5728.932751158046
 20
7483.693121849809
 30
0.0
 10
5726.803804706146
 20
7483.011211372787
 30
0.0
 10
5723.067175156714
 20
7477.856694296453
 30
0.0
 10
5719.82638428995
 20
7470.29067259958
 30
0.0
 10
5718.013855836222
 20
7461.06606629689
 30
0.0
 10
5718.074303979539
 20
7452.035588916502
 30
0.0
 10
5719.563543495939
 20
7444.059917494247
 30
0.0
 10
5722.121115098159
 20
7437.131544836983
 30
0.0
 10
5725.448101061593
 20
7431.688871046328
 30
0.0
 10
5728.21672886162
 20
7429.268229188432
 30
0.0
 10
5729.620764981652
 20
7429.083828836574
 30
0.0
 10
5729.997908806518
 20
7429.034296311724
 30
0.0
  0
LINE
  5
1B7
330
1F
100
AcDbEntity
  8
0
  6
Continuous
 62
     7
370
    25
100
AcDbLine
 10
5717.9668772701
 20
7878.2060880836
 30
0.0
 11
5716.0240159615
 21
7878.2060880836
 31
0.0
  0
LINE
  5
1B8
330
1F
100
AcDbEntity
  8
0
  6
Continuous
 62
     7
370
    25
100
AcDbLine
 10
5731.0240159615
 20
7878.2060880836
 30
0.0
 11
5717.9668772701
 21
7878.2060880836
 31
0.0
  0
LINE
  5
1B9
330
1F
100
AcDbEntity
  8
0
  6
Continuous
 62
     7
370
    25
100
AcDbLine
 10
5683.5240159615
 20
7769.9560880836
 30
0.0
 11
5683.5240159615
 21
8119.9560880836
 31
0.0
  0
LINE
  5
1BA
330
1F
100
AcDbEntity
  8
0
  6
Continuous
 62
     7
370
    25
100
AcDbLine
 10
5673.5240159615
 20
8119.9560880836
 30
0.0
 11
5673.5240159615
 21
7769.9560880836
 31
0.0
  0
LINE
  5
1BB
330
1F
100
AcDbEntity
  8
0
  6
Continuous
 62
     7
370
    25
100
AcDbLine
 10
5688.5240159615
 20
8114.9560880836
 30
0.0
 11
5688.5240159615
 21
7774.9560880836
 31
0.0
  0
LINE
  5
1BC
330
1F
100
AcDbEntity
  8
0
  6
Continuous
 62
     7
370
    25
100
AcDbLine
 10
6513.5240159615
 20
7923.7574507969
 30
0.0
 11
6513.5240159615
 21
8011.7060880836
 31
0.0
  0
LINE
  5
1BD
330
1F
100
AcDbEntity
  8
0
  6
Continuous
 62
     7
370
    25
100
AcDbLine
 10
6343.5240159615
 20
7878.2060880836
 30
0.0
 11
6513.5240159615
 21
7923.7574507969
 31
0.0
  0
ARC
  5
1BE
330
1F
100
AcDbEntity
  8
0
  6
Continuous
 62
     7
370
    25
100
AcDbCircle
 10
5723.5243732005
 20
7811.7286607771
 30
0.0
 40
66.98734915625701
100
AcDbArc
 50
82.9259369657
 51
96.985312064
  0
LINE
  5
1BF
330
1F
100
AcDbEntity
  8
0
  6
Continuous
 62
     7
370
    25
100
AcDbLine
 10
6518.5240159615
 20
8006.7060880836
 30
0.0
 11
6518.5240159615
 21
7925.0971967591
 31
0.0
  0
LINE
  5
1C0
330
1F
100
AcDbEntity
  8
0
  6
Continuous
 62
     7
370
    25
100
AcDbLine
 10
6518.5240159615
 20
7925.0971967591
 30
0.0
 11
6513.5240159615
 21
7923.7574507969
 31
0.0
  0
LINE
  5
1C1
330
1F
100
AcDbEntity
  8
0
  6
Continuous
 62
     7
370
    25
100
AcDbLine
 10
2682.4829031136
 20
4768.4020836343
 30
0.0
 11
2682.4829031136
 21
4758.4020836343
 31
0.0
  0
LINE
  5
1C2
330
1F
100
AcDbEntity
  8
0
  6
Continuous
 62
     7
370
    25
100
AcDbLine
 10
3017.4829031136
 20
4758.4020836343
 30
0.0
 11
3017.4829031136
 21
4768.4020836343
 31
0.0
  0
ARC
  5
1C3
330
1F
100
AcDbEntity
  8
0
  6
Continuous
 62
     7
370
    25
100
AcDbCircle
 10
2828.2338685584
 20
5472.1000552575
 30
0.0
 40
15.00000000000018
100
AcDbArc
 50
236.2189207421
 51
245.9511167513
  0
ARC
  5
1C4
330
1F
100
AcDbEntity
  8
0
  6
Continuous
 62
     7
370
    25
100
AcDbCircle
 10
2828.2338685584
 20
5470.704112011
 30
0.0
 40
15.00000000000066
100
AcDbArc
 50
114.0488832487
 51
124.2824550572
  0
ARC
  5
1C5
330
1F
100
AcDbEntity
  8
0
  6
Continuous
 62
     7
370
    25
100
AcDbCircle
 10
2871.7319376687
 20
5472.1000552575
 30
0.0
 40
14.99999999999918
100
AcDbArc
 50
294.0488832487
 51
303.7755783099
  0
ARC
  5
1C6
330
1F
100
AcDbEntity
  8
0
  6
Continuous
 62
     7
370
    25
100
AcDbCircle
 10
2871.7319376687
 20
5470.704112011
 30
0.0
 40
14.99999999999998
100
AcDbArc
 50
55.7729917695
 51
65.9511167513
  0
ARC
  5
1C7
330
1F
100
AcDbEntity
  8
0
  6
Continuous
 62
     7
370
    25
100
AcDbCircle
 10
2833.9574149042
 20
5472.1000552575
 30
0.0
 40
14.99999999999993
100
AcDbArc
 50
236.2189207421
 51
245.9511167513
  0
ARC
  5
1C8
330
1F
100
AcDbEntity
  8
0
  6
Continuous
 62
     7
370
    25
100
AcDbCircle
 10
2833.9574149042
 20
5470.704112011
 30
0.0
 40
15.00000000000066
100
AcDbArc
 50
114.0488832487
 51
124.2824550572
  0
LINE
  5
1C9
330
1F
100
AcDbEntity
  8
0
  6
Continuous
 62
     7
370
    25
100
AcDbLine
 10
2724.9829031136
 20
5443.4020836343
 30
0.0
 11
2724.9829031136
 21
4768.4020836343
 31
0.0
  0
LINE
  5
1CA
330
1F
100
AcDbEntity
  8
0
  6
Continuous
 62
     7
370
    25
100
AcDbLine
 10
2974.9829031136
 20
4768.4020836343
 30
0.0
 11
2974.9829031136
 21
5443.4020836343
 31
0.0
  0
LINE
  5
1CB
330
1F
100
AcDbEntity
  8
0
  6
Continuous
 62
     7
370
    25
100
AcDbLine
 10
2837.1211299407
 20
6418.4020836343
 30
0.0
 11
2832.1211299407
 21
6413.4020836343
 31
0.0
  0
LINE
  5
1CC
330
1F
100
AcDbEntity
  8
0
  6
Continuous
 62
     7
370
    25
100
AcDbLine
 10
2832.1211299407
 20
6413.4020836343
 30
0.0
 11
2832.1211299407
 21
5484.4020836343
 31
0.0
  0
LINE
  5
1CD
330
1F
100
AcDbEntity
  8
0
  6
Continuous
 62
     7
370
    25
100
AcDbLine
 10
2867.8446762865
 20
6413.4020836343
 30
0.0
 11
2862.8446762865
 21
6418.4020836343
 31
0.0
  0
LINE
  5
1CE
330
1F
100
AcDbEntity
  8
0
  6
Continuous
 62
     7
370
    25
100
AcDbLine
 10
2842.8446762865
 20
6418.4020836343
 30
0.0
 11
2837.8446762865
 21
6413.4020836343
 31
0.0
  0
LINE
  5
1CF
330
1F
100
AcDbEntity
  8
0
  6
Continuous
 62
     7
370
    25
100
AcDbLine
 10
2837.8446762865
 20
6413.4020836343
 30
0.0
 11
2837.8446762865
 21
5484.4020836343
 31
0.0
  0
LINE
  5
1D0
330
1F
100
AcDbEntity
  8
0
  6
Continuous
 62
     7
370
    25
100
AcDbLine
 10
2867.8446762865
 20
5484.4020836343
 30
0.0
 11
2867.8446762865
 21
6413.4020836343
 31
0.0
  0
LINE
  5
1D1
330
1F
100
AcDbEntity
  8
0
  6
Continuous
 62
     7
370
    25
100
AcDbLine
 10
2859.9829031136
 20
6420.6977650383
 30
0.0
 11
2854.9829031136
 21
6425.6977650383
 31
0.0
  0
LINE
  5
1D2
330
1F
100
AcDbEntity
  8
0
  6
Continuous
 62
     7
370
    25
100
AcDbLine
 10
2844.9829031136
 20
6425.6977650383
 30
0.0
 11
2839.9829031136
 21
6420.6977650383
 31
0.0
  0
LINE
  5
1D3
330
1F
100
AcDbEntity
  8
0
  6
Continuous
 62
     7
370
    25
100
AcDbLine
 10
2839.9829031136
 20
6420.6977650383
 30
0.0
 11
2839.9829031136
 21
6418.4020836343
 31
0.0
  0
LINE
  5
1D4
330
1F
100
AcDbEntity
  8
0
  6
Continuous
 62
     7
370
    25
100
AcDbLine
 10
2859.9829031136
 20
6418.4020836343
 30
0.0
 11
2859.9829031136
 21
6420.6977650383
 31
0.0
  0
LINE
  5
1D5
330
1F
100
AcDbEntity
  8
0
  6
Continuous
 62
     7
370
    25
100
AcDbLine
 10
2649.9829031136
 20
5458.4020836343
 30
0.0
 11
2649.9829031136
 21
5443.4020836343
 31
0.0
  0
LINE
  5
1D6
330
1F
100
AcDbEntity
  8
0
  6
Continuous
 62
     7
370
    25
100
AcDbLine
 10
3049.9829031136
 20
5443.4020836343
 30
0.0
 11
3049.9829031136
 21
5458.4020836343
 31
0.0
  0
LINE
  5
1D7
330
1F
100
AcDbEntity
  8
0
  6
Continuous
 62
     7
370
    25
100
AcDbLine
 10
3024.9829031136
 20
4748.4020836343
 30
0.0
 11
3024.9829031136
 21
4758.4020836343
 31
0.0
  0
LINE
  5
1D8
330
1F
100
AcDbEntity
  8
0
  6
Continuous
 62
     7
370
    25
100
AcDbLine
 10
2674.9829031136
 20
4758.4020836343
 30
0.0
 11
2674.9829031136
 21
4748.4020836343
 31
0.0
  0
LINE
  5
1D9
330
1F
100
AcDbEntity
  8
0
  6
Continuous
 62
     7
370
    25
100
AcDbLine
 10
2674.9829031136
 20
4748.4020836343
 30
0.0
 11
2679.9829031136
 21
4743.4020836343
 31
0.0
  0
LINE
  5
1DA
330
1F
100
AcDbEntity
  8
0
  6
Continuous
 62
     7
370
    25
100
AcDbLine
 10
3019.9829031136
 20
4743.4020836343
 30
0.0
 11
3024.9829031136
 21
4748.4020836343
 31
0.0
  0
LINE
  5
1DB
330
1F
100
AcDbEntity
  8
0
  6
Continuous
 62
     7
370
    25
100
AcDbLine
 10
2783.2329031136
 20
4743.4020836343
 30
0.0
 11
2783.2329031136
 21
3918.4020836343
 31
0.0
  0
LINE
  5
1DC
330
1F
100
AcDbEntity
  8
0
  6
Continuous
 62
     7
370
    25
100
AcDbLine
 10
2916.7329031136
 20
3918.4020836343
 30
0.0
 11
2916.7329031136
 21
4743.4020836343
 31
0.0
  0
LINE
  5
1DD
330
1F
100
AcDbEntity
  8
0
  6
Continuous
 62
     7
370
    25
100
AcDbLine
 10
2783.2329031136
 20
3918.4020836343
 30
0.0
 11
2788.2329031136
 21
3913.4020836343
 31
0.0
  0
LINE
  5
1DE
330
1F
100
AcDbEntity
  8
0
  6
Continuous
 62
     7
370
    25
100
AcDbLine
 10
2911.7329031136
 20
3913.4020836343
 30
0.0
 11
2916.7329031136
 21
3918.4020836343
 31
0.0
  0
LINE
  5
1DF
330
1F
100
AcDbEntity
  8
0
  6
Continuous
 62
     7
370
    25
100
AcDbLine
 10
3017.4829031136
 20
4768.4020836343
 30
0.0
 11
2682.4829031136
 21
4768.4020836343
 31
0.0
  0
LINE
  5
1E0
330
1F
100
AcDbEntity
  8
0
  6
Continuous
 62
     7
370
    25
100
AcDbLine
 10
2826.1995497085
 20
5458.6687731906
 30
0.0
 11
2824.1094336721
 21
5458.4020836343
 31
0.0
  0
LINE
  5
1E1
330
1F
100
AcDbEntity
  8
0
  6
Continuous
 62
     7
370
    25
100
AcDbLine
 10
2824.1094336721
 20
5484.4020836342
 30
0.0
 11
2826.9806089327
 21
5483.7439204598
 31
0.0
  0
LINE
  5
1E2
330
1F
100
AcDbEntity
  8
0
  6
Continuous
 62
     7
370
    25
100
AcDbLine
 10
2827.8446762865
 20
5484.4020836343
 30
0.0
 11
2824.1094336721
 21
5484.4020836342
 31
0.0
  0
LINE
  5
1E3
330
1F
100
AcDbEntity
  8
0
  6
Continuous
 62
     7
370
    25
100
AcDbLine
 10
2819.9560665766
 20
5459.72793846
 30
0.0
 11
2818.4684575496
 21
5460.9020836342
 31
0.0
  0
LINE
  5
1E4
330
1F
100
AcDbEntity
  8
0
  6
Continuous
 62
     7
370
    25
100
AcDbLine
 10
2818.4684575496
 20
5481.9020836342
 30
0.0
 11
2818.4684575496
 21
5460.9020836342
 31
0.0
  0
SPLINE
  5
1E5
330
1F
100
AcDbEntity
  8
0
  6
Continuous
 62
     7
370
    25
100
AcDbSpline
210
0.0
220
0.0
230
1.0
 70
     8
 71
     3
 72
     9
 73
     5
 74
     0
 42
0.00000001
 43
0.00000001
 40
0.0
 40
0.0
 40
0.0
 40
0.0
 40
0.6360037752867576
 40
1.0
 40
1.0
 40
1.0
 40
1.0
 10
2818.46845754961
 20
5481.902083634247
 30
0.0
 10
2819.641354506371
 20
5482.83385841198
 30
0.0
 10
2821.485521164394
 20
5484.298904397459
 30
0.0
 10
2823.409216010619
 20
5484.374549208582
 30
0.0
 10
2824.109433672145
 20
5484.40208363425
 30
0.0
  0
LINE
  5
1E6
330
1F
100
AcDbEntity
  8
0
  6
Continuous
 62
     7
370
    25
100
AcDbLine
 10
2822.1211299407
 20
5484.4020836343
 30
0.0
 11
2824.1094336721
 21
5484.4020836342
 31
0.0
  0
SPLINE
  5
1E7
330
1F
100
AcDbEntity
  8
0
  6
Continuous
 62
     7
370
    25
100
AcDbSpline
210
0.0
220
0.0
230
1.0
 70
     8
 71
     3
 72
     9
 73
     5
 74
     0
 42
0.00000001
 43
0.00000001
 40
0.0
 40
0.0
 40
0.0
 40
0.0
 40
0.6081419703453556
 40
1.0
 40
1.0
 40
1.0
 40
1.0
 10
2872.811988604543
 20
5458.402083634253
 30
0.0
 10
2871.000791193641
 20
5458.481889387495
 30
0.0
 10
2868.022543515927
 20
5458.613118207627
 30
0.0
 10
2865.223468537461
 20
5460.257657649044
 30
0.0
 10
2864.126628531543
 20
5460.902083634248
 30
0.0
  0
LINE
  5
1E8
330
1F
100
AcDbEntity
  8
0
  6
Continuous
 62
     7
370
    25
100
AcDbLine
 10
2864.1266285315
 20
5481.9020836343
 30
0.0
 11
2864.1266285315
 21
5460.9020836342
 31
0.0
  0
SPLINE
  5
1E9
330
1F
100
AcDbEntity
  8
0
  6
Continuous
 62
     7
370
    25
100
AcDbSpline
210
0.0
220
0.0
230
1.0
 70
     8
 71
     3
 72
     9
 73
     5
 74
     0
 42
0.00000001
 43
0.00000001
 40
0.0
 40
0.0
 40
0.0
 40
0.0
 40
0.636003775286217
 40
1.0
 40
1.0
 40
1.0
 40
1.0
 10
2864.126628531543
 20
5481.902083634254
 30
0.0
 10
2865.932527400231
 20
5482.833858411984
 30
0.0
 10
2868.771974175331
 20
5484.298904397457
 30
0.0
 10
2871.733869784729
 20
5484.374549208584
 30
0.0
 10
2872.811988604546
 20
5484.402083634252
 30
0.0
  0
SPLINE
  5
1EA
330
1F
100
AcDbEntity
  8
0
  6
Continuous
 62
     7
370
    25
100
AcDbSpline
210
0.0
220
0.0
230
1.0
 70
     8
 71
     3
 72
     9
 73
     5
 74
     0
 42
0.00000001
 43
0.00000001
 40
0.0
 40
0.0
 40
0.0
 40
0.0
 40
0.6081419703452422
 40
1.0
 40
1.0
 40
1.0
 40
1.0
 10
2872.811988604546
 20
5484.402083634252
 30
0.0
 10
2874.623186015445
 20
5484.32227788101
 30
0.0
 10
2877.601433693156
 20
5484.191049060878
 30
0.0
 10
2880.400508671625
 20
5482.546509619458
 30
0.0
 10
2881.497348677544
 20
5481.902083634253
 30
0.0
  0
LINE
  5
1EB
330
1F
100
AcDbEntity
  8
0
  6
Continuous
 62
     7
370
    25
100
AcDbLine
 10
2881.4973486775
 20
5481.9020836343
 30
0.0
 11
2881.4973486775
 21
5460.9020836343
 31
0.0
  0
SPLINE
  5
1EC
330
1F
100
AcDbEntity
  8
0
  6
Continuous
 62
     7
370
    25
100
AcDbSpline
210
0.0
220
0.0
230
1.0
 70
     8
 71
     3
 72
     9
 73
     5
 74
     0
 42
0.00000001
 43
0.00000001
 40
0.0
 40
0.0
 40
0.0
 40
0.0
 40
0.6360037752867054
 40
1.0
 40
1.0
 40
1.0
 40
1.0
 10
2881.497348677545
 20
5460.902083634255
 30
0.0
 10
2879.691449808855
 20
5459.970308856518
 30
0.0
 10
2876.852003033755
 20
5458.505262871034
 30
0.0
 10
2873.890107424358
 20
5458.429618059919
 30
0.0
 10
2872.811988604543
 20
5458.402083634253
 30
0.0
  0
SPLINE
  5
1ED
330
1F
100
AcDbEntity
  8
0
  6
Continuous
 62
     7
370
    25
100
AcDbSpline
210
0.0
220
0.0
230
1.0
 70
     8
 71
     3
 72
     9
 73
     5
 74
     0
 42
0.00000001
 43
0.00000001
 40
0.0
 40
0.0
 40
0.0
 40
0.0
 40
0.8995915963006004
 40
1.0
 40
1.0
 40
1.0
 40
1.0
 10
2849.800292336012
 20
5484.402083634252
 30
0.0
 10
2854.246064770779
 20
5484.20549436496
 30
0.0
 10
2859.188054505953
 20
5483.986962677804
 30
0.0
 10
2863.676000989266
 20
5482.092321527718
 30
0.0
 10
2864.126628531543
 20
5481.902083634254
 30
0.0
  0
LINE
  5
1EE
330
1F
100
AcDbEntity
  8
0
  6
Continuous
 62
     7
370
    25
100
AcDbLine
 10
2849.800292336
 20
5484.4020836343
 30
0.0
 11
2872.8119886045
 21
5484.4020836343
 31
0.0
  0
SPLINE
  5
1EF
330
1F
100
AcDbEntity
  8
0
  6
Continuous
 62
     7
370
    25
100
AcDbSpline
210
0.0
220
0.0
230
1.0
 70
     8
 71
     3
 72
     9
 73
     5
 74
     0
 42
0.00000001
 43
0.00000001
 40
0.0
 40
0.0
 40
0.0
 40
0.0
 40
0.3221204093176417
 40
0.9999999999999999
 40
0.9999999999999999
 40
0.9999999999999999
 40
0.9999999999999999
 10
2864.126628531543
 20
5460.902083634248
 30
0.0
 10
2862.647509051302
 20
5460.354117423744
 30
0.0
 10
2858.055687367681
 20
5458.652995127073
 30
0.0
 10
2853.135551812357
 20
5458.503454305306
 30
0.0
 10
2849.800292336013
 20
5458.402083634256
 30
0.0
  0
LINE
  5
1F0
330
1F
100
AcDbEntity
  8
0
  6
Continuous
 62
     7
370
    25
100
AcDbLine
 10
2835.4739561405
 20
5481.9020836343
 30
0.0
 11
2835.4739561405
 21
5460.9020836343
 31
0.0
  0
SPLINE
  5
1F1
330
1F
100
AcDbEntity
  8
0
  6
Continuous
 62
     7
370
    25
100
AcDbSpline
210
0.0
220
0.0
230
1.0
 70
     8
 71
     3
 72
     9
 73
     5
 74
     0
 42
0.00000001
 43
0.00000001
 40
0.0
 40
0.0
 40
0.0
 40
0.0
 40
0.3221204093176306
 40
1.0
 40
1.0
 40
1.0
 40
1.0
 10
2835.473956140484
 20
5481.902083634253
 30
0.0
 10
2836.953075620725
 20
5482.450049844757
 30
0.0
 10
2841.544897304345
 20
5484.151172141429
 30
0.0
 10
2846.465032859668
 20
5484.300712963199
 30
0.0
 10
2849.800292336012
 20
5484.402083634252
 30
0.0
  0
SPLINE
  5
1F2
330
1F
100
AcDbEntity
  8
0
  6
Continuous
 62
     7
370
    25
100
AcDbSpline
210
0.0
220
0.0
230
1.0
 70
     8
 71
     3
 72
     9
 73
     5
 74
     0
 42
0.00000001
 43
0.00000001
 40
0.0
 40
0.0
 40
0.0
 40
0.0
 40
0.899591596300444
 40
1.0
 40
1.0
 40
1.0
 40
1.0
 10
2849.800292336013
 20
5458.402083634256
 30
0.0
 10
2845.354519901251
 20
5458.598672903553
 30
0.0
 10
2840.41253016608
 20
5458.817204590715
 30
0.0
 10
2835.924583682764
 20
5460.71184574079
 30
0.0
 10
2835.473956140484
 20
5460.902083634252
 30
0.0
  0
SPLINE
  5
1F3
330
1F
100
AcDbEntity
  8
0
  6
Continuous
 62
     7
370
    25
100
AcDbSpline
210
0.0
220
0.0
230
1.0
 70
     8
 71
     3
 72
     9
 73
     5
 74
     0
 42
0.00000001
 43
0.00000001
 40
0.0
 40
0.0
 40
0.0
 40
0.0
 40
0.6360037752866258
 40
1.0
 40
1.0
 40
1.0
 40
1.0
 10
2835.473956140484
 20
5460.902083634252
 30
0.0
 10
2834.301059183724
 20
5459.970308856517
 30
0.0
 10
2832.456892525699
 20
5458.505262871036
 30
0.0
 10
2830.533197679476
 20
5458.429618059917
 30
0.0
 10
2829.832980017949
 20
5458.40208363425
 30
0.0
  0
SPLINE
  5
1F4
330
1F
100
AcDbEntity
  8
0
  6
Continuous
 62
     7
370
    25
100
AcDbSpline
210
0.0
220
0.0
230
1.0
 70
     8
 71
     3
 72
     9
 73
     5
 74
     0
 42
0.00000001
 43
0.00000001
 40
0.0
 40
0.0
 40
0.0
 40
0.0
 40
0.6081419703453694
 40
1.0
 40
1.0
 40
1.0
 40
1.0
 10
2829.832980017952
 20
5484.402083634249
 30
0.0
 10
2831.009318277071
 20
5484.322277881007
 30
0.0
 10
2832.94363348056
 20
5484.191049060873
 30
0.0
 10
2834.761579424768
 20
5482.546509619456
 30
0.0
 10
2835.473956140484
 20
5481.902083634253
 30
0.0
  0
LINE
  5
1F5
330
1F
100
AcDbEntity
  8
0
  6
Continuous
 62
     7
370
    25
100
AcDbLine
 10
2849.800292336
 20
5484.4020836343
 30
0.0
 11
2829.832980018
 21
5484.4020836342
 31
0.0
  0
LINE
  5
1F6
330
1F
100
AcDbEntity
  8
0
  6
Continuous
 62
     7
370
    25
100
AcDbLine
 10
2825.6796129225
 20
5459.72793846
 30
0.0
 11
2824.1920038954
 21
5460.9020836342
 31
0.0
  0
LINE
  5
1F7
330
1F
100
AcDbEntity
  8
0
  6
Continuous
 62
     7
370
    25
100
AcDbLine
 10
2824.1920038954
 20
5481.9020836342
 30
0.0
 11
2824.1920038954
 21
5460.9020836342
 31
0.0
  0
SPLINE
  5
1F8
330
1F
100
AcDbEntity
  8
0
  6
Continuous
 62
     7
370
    25
100
AcDbSpline
210
0.0
220
0.0
230
1.0
 70
     8
 71
     3
 72
     9
 73
     5
 74
     0
 42
0.00000001
 43
0.00000001
 40
0.0
 40
0.0
 40
0.0
 40
0.0
 40
0.6360037752867576
 40
1.0
 40
1.0
 40
1.0
 40
1.0
 10
2824.192003895417
 20
5481.902083634246
 30
0.0
 10
2825.364900852177
 20
5482.833858411979
 30
0.0
 10
2827.2090675102
 20
5484.298904397458
 30
0.0
 10
2829.132762356426
 20
5484.374549208581
 30
0.0
 10
2829.832980017952
 20
5484.402083634249
 30
0.0
  0
LINE
  5
1F9
330
1F
100
AcDbEntity
  8
0
  6
Continuous
 62
     7
370
    25
100
AcDbLine
 10
2880.0076316893
 20
5459.7262746812
 30
0.0
 11
2881.4973486775
 21
5460.9020836343
 31
0.0
  0
LINE
  5
1FA
330
1F
100
AcDbEntity
  8
0
  6
Continuous
 62
     7
370
    25
100
AcDbLine
 10
2881.4973486775
 20
5481.9020836343
 30
0.0
 11
2880.0045751641
 21
5482.8409622712
 31
0.0
  0
LINE
  5
1FB
330
1F
100
AcDbEntity
  8
0
  6
Continuous
 62
     7
370
    25
100
AcDbLine
 10
2872.8119886045
 20
5484.4020836343
 30
0.0
 11
2877.8446762865
 21
5484.4020836343
 31
0.0
  0
LINE
  5
1FC
330
1F
100
AcDbEntity
  8
0
  6
Continuous
 62
     7
370
    25
100
AcDbLine
 10
2827.8446762865
 20
5484.4020836343
 30
0.0
 11
2829.832980018
 21
5484.4020836342
 31
0.0
  0
LINE
  5
1FD
330
1F
100
AcDbEntity
  8
0
  6
Continuous
 62
     7
370
    25
100
AcDbLine
 10
2837.8446762865
 20
6413.4020836343
 30
0.0
 11
2832.1211299407
 21
6413.4020836343
 31
0.0
  0
LINE
  5
1FE
330
1F
100
AcDbEntity
  8
0
  6
Continuous
 62
     7
370
    25
100
AcDbLine
 10
2837.1211299407
 20
6418.4020836343
 30
0.0
 11
2842.8446762865
 21
6418.4020836343
 31
0.0
  0
LINE
  5
1FF
330
1F
100
AcDbEntity
  8
0
  6
Continuous
 62
     7
370
    25
100
AcDbLine
 10
2867.8446762865
 20
6413.4020836343
 30
0.0
 11
2837.8446762865
 21
6413.4020836343
 31
0.0
  0
LINE
  5
200
330
1F
100
AcDbEntity
  8
0
  6
Continuous
 62
     7
370
    25
100
AcDbLine
 10
2842.8446762865
 20
6418.4020836343
 30
0.0
 11
2862.8446762865
 21
6418.4020836343
 31
0.0
  0
LINE
  5
201
330
1F
100
AcDbEntity
  8
0
  6
Continuous
 62
     7
370
    25
100
AcDbLine
 10
2859.9829031136
 20
6420.6977650383
 30
0.0
 11
2839.9829031136
 21
6420.6977650383
 31
0.0
  0
LINE
  5
202
330
1F
100
AcDbEntity
  8
0
  6
Continuous
 62
     7
370
    25
100
AcDbLine
 10
2844.9829031136
 20
6425.6977650383
 30
0.0
 11
2854.9829031136
 21
6425.6977650383
 31
0.0
  0
LINE
  5
203
330
1F
100
AcDbEntity
  8
0
  6
Continuous
 62
     7
370
    25
100
AcDbLine
 10
2689.7799911122
 20
5458.4020836343
 30
0.0
 11
2649.9829031136
 21
5458.4020836343
 31
0.0
  0
LINE
  5
204
330
1F
100
AcDbEntity
  8
0
  6
Continuous
 62
     7
370
    25
100
AcDbLine
 10
3049.9829031136
 20
5458.4020836343
 30
0.0
 11
2689.7799911122
 21
5458.4020836343
 31
0.0
  0
LINE
  5
205
330
1F
100
AcDbEntity
  8
0
  6
Continuous
 62
     7
370
    25
100
AcDbLine
 10
2689.7799911122
 20
5443.4020836343
 30
0.0
 11
2649.9829031136
 21
5443.4020836343
 31
0.0
  0
LINE
  5
206
330
1F
100
AcDbEntity
  8
0
  6
Continuous
 62
     7
370
    25
100
AcDbLine
 10
3049.9829031136
 20
5443.4020836343
 30
0.0
 11
2689.7799911122
 21
5443.4020836343
 31
0.0
  0
SPLINE
  5
207
330
1F
100
AcDbEntity
  8
0
  6
Continuous
 62
     7
370
    25
100
AcDbSpline
210
0.0
220
0.0
230
1.0
 70
     8
 71
     3
 72
    11
 73
     7
 74
     0
 42
0.00000001
 43
0.00000001
 40
0.0
 40
0.0
 40
0.0
 40
0.0
 40
0.1502555044004902
 40
0.397882518144801
 40
0.6517130067850072
 40
1.0
 40
1.0
 40
1.0
 40
1.0
 10
2949.767773792065
 20
4743.077541016188
 30
0.0
 10
2949.809813224351
 20
4743.127475758548
 30
0.0
 10
2949.921135303673
 20
4743.259704931198
 30
0.0
 10
2948.553845032517
 20
4741.634643713164
 30
0.0
 10
2945.862219116397
 20
4738.529529787778
 30
0.0
 10
2942.666462223773
 20
4735.281097096969
 30
0.0
 10
2940.817918388525
 20
4733.402083634252
 30
0.0
  0
LINE
  5
208
330
1F
100
AcDbEntity
  8
0
  6
Continuous
 62
     7
370
    25
100
AcDbLine
 10
2940.8179183885
 20
4733.4020836343
 30
0.0
 11
2916.7329031136
 21
4733.4020836343
 31
0.0
  0
LINE
  5
209
330
1F
100
AcDbEntity
  8
0
  6
Continuous
 62
     7
370
    25
100
AcDbLine
 10
2783.2329031136
 20
4733.4020836343
 30
0.0
 11
2759.1478878386
 21
4733.4020836343
 31
0.0
  0
SPLINE
  5
20A
330
1F
100
AcDbEntity
  8
0
  6
Continuous
 62
     7
370
    25
100
AcDbSpline
210
0.0
220
0.0
230
1.0
 70
     8
 71
     3
 72
    11
 73
     7
 74
     0
 42
0.00000001
 43
0.00000001
 40
0.0
 40
0.0
 40
0.0
 40
0.0
 40
0.2831524400274558
 40
0.5719124721708002
 40
0.8556550846905886
 40
1.0
 40
1.0
 40
1.0
 40
1.0
 10
2759.147887838629
 20
4733.402083634252
 30
0.0
 10
2757.624533894282
 20
4734.93958512768
 30
0.0
 10
2754.547657282452
 20
4738.045037017791
 30
0.0
 10
2751.608171402608
 20
4741.399175042436
 30
0.0
 10
2750.025392964081
 20
4743.283121432315
 30
0.0
 10
2750.154499560389
 20
4743.129380299776
 30
0.0
 10
2750.198032435088
 20
4743.077541016188
 30
0.0
  0
SPLINE
  5
20B
330
1F
100
AcDbEntity
  8
0
  6
Continuous
 62
     7
370
    25
100
AcDbSpline
210
0.0
220
0.0
230
1.0
 70
     8
 71
     3
 72
     9
 73
     5
 74
     0
 42
0.00000001
 43
0.00000001
 40
0.0
 40
0.0
 40
0.0
 40
0.0
 40
0.7232494329764132
 40
0.9999999999999999
 40
0.9999999999999999
 40
0.9999999999999999
 40
0.9999999999999999
 10
2940.817918388525
 20
4733.402083634252
 30
0.0
 10
2935.456123597523
 20
4728.418941308307
 30
0.0
 10
2928.042644171847
 20
4721.529005279684
 30
0.0
 10
2919.184421312674
 20
4716.699508384802
 30
0.0
 10
2916.732903113576
 20
4715.362942380705
 30
0.0
  0
SPLINE
  5
20C
330
1F
100
AcDbEntity
  8
0
  6
Continuous
 62
     7
370
    25
100
AcDbSpline
210
0.0
220
0.0
230
1.0
 70
     8
 71
     3
 72
     9
 73
     5
 74
     0
 42
0.00000001
 43
0.00000001
 40
0.0
 40
0.0
 40
0.0
 40
0.0
 40
0.1227796420361097
 40
1.0
 40
1.0
 40
1.0
 40
1.0
 10
2783.232903113577
 20
4715.149897671063
 30
0.0
 10
2782.127770928459
 20
4715.716249823512
 30
0.0
 10
2773.1268309779
 20
4720.329002744578
 30
0.0
 10
2765.680212854478
 20
4727.293065772242
 30
0.0
 10
2759.147887838629
 20
4733.402083634252
 30
0.0
  0
LINE
  5
20D
330
1F
100
AcDbEntity
  8
0
  6
Continuous
 62
     7
370
    25
100
AcDbLine
 10
2674.9829031136
 20
4748.4020836343
 30
0.0
 11
3024.9829031136
 21
4748.4020836343
 31
0.0
  0
LINE
  5
20E
330
1F
100
AcDbEntity
  8
0
  6
Continuous
 62
     7
370
    25
100
AcDbLine
 10
3024.9829031136
 20
4758.4020836343
 30
0.0
 11
2674.9829031136
 21
4758.4020836343
 31
0.0
  0
LINE
  5
20F
330
1F
100
AcDbEntity
  8
0
  6
Continuous
 62
     7
370
    25
100
AcDbLine
 10
3019.9829031136
 20
4743.4020836343
 30
0.0
 11
2679.9829031136
 21
4743.4020836343
 31
0.0
  0
LINE
  5
210
330
1F
100
AcDbEntity
  8
0
  6
Continuous
 62
     7
370
    25
100
AcDbLine
 10
2783.2329031136
 20
3918.4020836343
 30
0.0
 11
2916.7329031136
 21
3918.4020836343
 31
0.0
  0
LINE
  5
211
330
1F
100
AcDbEntity
  8
0
  6
Continuous
 62
     7
370
    25
100
AcDbLine
 10
2911.7329031136
 20
3913.4020836343
 30
0.0
 11
2788.2329031136
 21
3913.4020836343
 31
0.0
  0
ENDSEC
  0
SECTION
  2
OBJECTS
  0
DICTIONARY
  5
C
330
0
100
AcDbDictionary
281
     1
  3
ACAD_GROUP
350
D
  3
ACAD_LAYOUT
350
1A
  3
ACAD_MLINESTYLE
350
17
  3
ACAD_PLOTSETTINGS
350
19
  3
ACAD_PLOTSTYLENAME
350
E
  3
ACAD_SCALELIST
350
47
  3
DWGPROPS
350
212
  0
DICTIONARY
  5
D
102
{ACAD_REACTORS
330
C
102
}
330
C
100
AcDbDictionary
281
     1
  0
DICTIONARY
  5
1A
102
{ACAD_REACTORS
330
C
102
}
330
C
100
AcDbDictionary
281
     1
  3
Layout1
350
1E
  3
Layout2
350
26
  3
Model
350
22
  0
DICTIONARY
  5
17
102
{ACAD_REACTORS
330
C
102
}
330
C
100
AcDbDictionary
281
     1
  3
Standard
350
18
  0
DICTIONARY
  5
19
102
{ACAD_REACTORS
330
C
102
}
330
C
100
AcDbDictionary
281
     1
  0
ACDBDICTIONARYWDFLT
  5
E
102
{ACAD_REACTORS
330
C
102
}
330
C
100
AcDbDictionary
281
     1
  3
Normal
350
F
100
AcDbDictionaryWithDefault
340
F
  0
DICTIONARY
  5
47
102
{ACAD_REACTORS
330
C
102
}
330
C
100
AcDbDictionary
281
     1
  3
A0
350
48
  3
A1
350
49
  3
A2
350
4A
  3
A3
350
4B
  3
A4
350
4C
  3
A5
350
4D
  3
A6
350
4E
  3
A7
350
4F
  3
A8
350
50
  3
A9
350
51
  3
B0
350
52
  3
B1
350
53
  3
B2
350
54
  3
B3
350
55
  3
B4
350
56
  3
B5
350
57
  3
B6
350
58
  3
B7
350
59
  3
B8
350
5A
  3
B9
350
5B
  3
C0
350
5C
  3
C1
350
5D
  3
C2
350
5E
  3
C3
350
5F
  3
C4
350
60
  3
C5
350
61
  3
C6
350
62
  3
C7
350
63
  3
C8
350
64
  3
C9
350
65
  3
D0
350
66
  3
D1
350
67
  3
D2
350
68
  0
XRECORD
  5
212
102
{ACAD_REACTORS
330
C
102
}
330
C
100
AcDbXrecord
280
     1
  1
DWGPROPS COOKIE
  2

  3

  4

  6

  7

  8
radek.stransky
  9

300
=
301
=
302
=
303
=
304
=
305
=
306
=
307
=
308
=
309
=
 40
0.0
 41
2459093.434666262
 42
2459093.434666609
  1

 90
        0
  0
LAYOUT
  5
1E
102
{ACAD_REACTORS
330
1A
102
}
330
1A
100
AcDbPlotSettings
  1

  2
none_device
  4

  6

 40
0.0
 41
0.0
 42
0.0
 43
0.0
 44
0.0
 45
0.0
 46
0.0
 47
0.0
 48
0.0
 49
0.0
140
0.0
141
0.0
142
1.0
143
1.0
 70
   688
 72
     1
 73
     0
 74
     5
  7

 75
    16
147
1.0
148
0.0
149
0.0
100
AcDbLayout
  1
Layout1
 70
     1
 71
     1
 10
0.0
 20
0.0
 11
420.0
 21
297.0
 12
0.0
 22
0.0
 32
0.0
 14
1.0000000000E+20
 24
1.0000000000E+20
 34
1.0000000000E+20
 15
-1.0000000000E+20
 25
-1.0000000000E+20
 35
-1.0000000000E+20
146
0.0
 13
0.0
 23
0.0
 33
0.0
 16
1.0
 26
0.0
 36
0.0
 17
0.0
 27
1.0
 37
0.0
 76
     0
330
1B
  0
LAYOUT
  5
26
102
{ACAD_REACTORS
330
1A
102
}
330
1A
100
AcDbPlotSettings
  1

  2
none_device
  4

  6

 40
0.0
 41
0.0
 42
0.0
 43
0.0
 44
0.0
 45
0.0
 46
0.0
 47
0.0
 48
0.0
 49
0.0
140
0.0
141
0.0
142
1.0
143
1.0
 70
   688
 72
     1
 73
     0
 74
     5
  7

 75
    16
147
1.0
148
0.0
149
0.0
100
AcDbLayout
  1
Layout2
 70
     1
 71
     2
 10
0.0
 20
0.0
 11
0.0
 21
0.0
 12
0.0
 22
0.0
 32
0.0
 14
0.0
 24
0.0
 34
0.0
 15
0.0
 25
0.0
 35
0.0
146
0.0
 13
0.0
 23
0.0
 33
0.0
 16
1.0
 26
0.0
 36
0.0
 17
0.0
 27
1.0
 37
0.0
 76
     0
330
23
  0
LAYOUT
  5
22
102
{ACAD_REACTORS
330
1A
102
}
330
1A
100
AcDbPlotSettings
  1

  2
none_device
  4
Letter_(8.50_x_11.00_Inches)
  6

 40
6.35
 41
6.35
 42
6.35000508
 43
6.35000508
 44
215.9
 45
279.4
 46
0.0
 47
0.0
 48
0.0
 49
0.0
140
0.0
141
0.0
142
1.0
143
1.0
 70
  1712
 72
     1
 73
     0
 74
     0
  7

 75
     0
147
1.0
148
0.0
149
0.0
100
AcDbLayout
  1
Model
 70
     1
 71
     0
 10
0.0
 20
0.0
 11
20000.0
 21
10000.0
 12
0.0
 22
0.0
 32
0.0
 14
0.0
 24
0.0
 34
0.0
 15
20000.0
 25
10000.0
 35
0.0
146
0.0
 13
0.0
 23
0.0
 33
0.0
 16
1.0
 26
0.0
 36
0.0
 17
0.0
 27
1.0
 37
0.0
 76
     0
330
1F
331
29
  0
MLINESTYLE
  5
18
102
{ACAD_REACTORS
330
17
102
}
330
17
100
AcDbMlineStyle
  2
Standard
 70
     0
  3

 62
   256
 51
90.0
 52
90.0
 71
     2
 49
0.5
 62
   256
  6
BYLAYER
 49
-0.5
 62
   256
  6
BYLAYER
  0
ACDBPLACEHOLDER
  5
F
102
{ACAD_REACTORS
330
E
102
}
330
E
  0
SCALE
  5
48
102
{ACAD_REACTORS
330
47
102
}
330
47
100
AcDbScale
 70
     0
300
1:1
140
1.0
141
1.0
290
     1
  0
SCALE
  5
49
102
{ACAD_REACTORS
330
47
102
}
330
47
100
AcDbScale
 70
     0
300
1:2
140
1.0
141
2.0
290
     0
  0
SCALE
  5
4A
102
{ACAD_REACTORS
330
47
102
}
330
47
100
AcDbScale
 70
     0
300
1:4
140
1.0
141
4.0
290
     0
  0
SCALE
  5
4B
102
{ACAD_REACTORS
330
47
102
}
330
47
100
AcDbScale
 70
     0
300
1:5
140
1.0
141
5.0
290
     0
  0
SCALE
  5
4C
102
{ACAD_REACTORS
330
47
102
}
330
47
100
AcDbScale
 70
     0
300
1:8
140
1.0
141
8.0
290
     0
  0
SCALE
  5
4D
102
{ACAD_REACTORS
330
47
102
}
330
47
100
AcDbScale
 70
     0
300
1:10
140
1.0
141
10.0
290
     0
  0
SCALE
  5
4E
102
{ACAD_REACTORS
330
47
102
}
330
47
100
AcDbScale
 70
     0
300
1:16
140
1.0
141
16.0
290
     0
  0
SCALE
  5
4F
102
{ACAD_REACTORS
330
47
102
}
330
47
100
AcDbScale
 70
     0
300
1:20
140
1.0
141
20.0
290
     0
  0
SCALE
  5
50
102
{ACAD_REACTORS
330
47
102
}
330
47
100
AcDbScale
 70
     0
300
1:30
140
1.0
141
30.0
290
     0
  0
SCALE
  5
51
102
{ACAD_REACTORS
330
47
102
}
330
47
100
AcDbScale
 70
     0
300
1:40
140
1.0
141
40.0
290
     0
  0
SCALE
  5
52
102
{ACAD_REACTORS
330
47
102
}
330
47
100
AcDbScale
 70
     0
300
1:50
140
1.0
141
50.0
290
     0
  0
SCALE
  5
53
102
{ACAD_REACTORS
330
47
102
}
330
47
100
AcDbScale
 70
     0
300
1:100
140
1.0
141
100.0
290
     0
  0
SCALE
  5
54
102
{ACAD_REACTORS
330
47
102
}
330
47
100
AcDbScale
 70
     0
300
2:1
140
2.0
141
1.0
290
     0
  0
SCALE
  5
55
102
{ACAD_REACTORS
330
47
102
}
330
47
100
AcDbScale
 70
     0
300
4:1
140
4.0
141
1.0
290
     0
  0
SCALE
  5
56
102
{ACAD_REACTORS
330
47
102
}
330
47
100
AcDbScale
 70
     0
300
8:1
140
8.0
141
1.0
290
     0
  0
SCALE
  5
57
102
{ACAD_REACTORS
330
47
102
}
330
47
100
AcDbScale
 70
     0
300
10:1
140
10.0
141
1.0
290
     0
  0
SCALE
  5
58
102
{ACAD_REACTORS
330
47
102
}
330
47
100
AcDbScale
 70
     0
300
100:1
140
100.0
141
1.0
290
     0
  0
SCALE
  5
59
102
{ACAD_REACTORS
330
47
102
}
330
47
100
AcDbScale
 70
     0
300
1/128" = 1'-0"
140
0.0078125
141
12.0
290
     0
  0
SCALE
  5
5A
102
{ACAD_REACTORS
330
47
102
}
330
47
100
AcDbScale
 70
     0
300
1/64" = 1'-0"
140
0.015625
141
12.0
290
     0
  0
SCALE
  5
5B
102
{ACAD_REACTORS
330
47
102
}
330
47
100
AcDbScale
 70
     0
300
1/32" = 1'-0"
140
0.03125
141
12.0
290
     0
  0
SCALE
  5
5C
102
{ACAD_REACTORS
330
47
102
}
330
47
100
AcDbScale
 70
     0
300
1/16" = 1'-0"
140
0.0625
141
12.0
290
     0
  0
SCALE
  5
5D
102
{ACAD_REACTORS
330
47
102
}
330
47
100
AcDbScale
 70
     0
300
3/32" = 1'-0"
140
0.09375
141
12.0
290
     0
  0
SCALE
  5
5E
102
{ACAD_REACTORS
330
47
102
}
330
47
100
AcDbScale
 70
     0
300
1/8" = 1'-0"
140
0.125
141
12.0
290
     0
  0
SCALE
  5
5F
102
{ACAD_REACTORS
330
47
102
}
330
47
100
AcDbScale
 70
     0
300
3/16" = 1'-0"
140
0.1875
141
12.0
290
     0
  0
SCALE
  5
60
102
{ACAD_REACTORS
330
47
102
}
330
47
100
AcDbScale
 70
     0
300
1/4" = 1'-0"
140
0.25
141
12.0
290
     0
  0
SCALE
  5
61
102
{ACAD_REACTORS
330
47
102
}
330
47
100
AcDbScale
 70
     0
300
3/8" = 1'-0"
140
0.375
141
12.0
290
     0
  0
SCALE
  5
62
102
{ACAD_REACTORS
330
47
102
}
330
47
100
AcDbScale
 70
     0
300
1/2" = 1'-0"
140
0.5
141
12.0
290
     0
  0
SCALE
  5
63
102
{ACAD_REACTORS
330
47
102
}
330
47
100
AcDbScale
 70
     0
300
3/4" = 1'-0"
140
0.75
141
12.0
290
     0
  0
SCALE
  5
64
102
{ACAD_REACTORS
330
47
102
}
330
47
100
AcDbScale
 70
     0
300
1" = 1'-0"
140
1.0
141
12.0
290
     0
  0
SCALE
  5
65
102
{ACAD_REACTORS
330
47
102
}
330
47
100
AcDbScale
 70
     0
300
1-1/2" = 1'-0"
140
1.5
141
12.0
290
     0
  0
SCALE
  5
66
102
{ACAD_REACTORS
330
47
102
}
330
47
100
AcDbScale
 70
     0
300
3" = 1'-0"
140
3.0
141
12.0
290
     0
  0
SCALE
  5
67
102
{ACAD_REACTORS
330
47
102
}
330
47
100
AcDbScale
 70
     0
300
6" = 1'-0"
140
6.0
141
12.0
290
     0
  0
SCALE
  5
68
102
{ACAD_REACTORS
330
47
102
}
330
47
100
AcDbScale
 70
     0
300
1'-0" = 1'-0"
140
12.0
141
12.0
290
     0
  0
ENDSEC
  0
EOF
