  0
SECTION
  2
HEADER
  9
$ACADVER
  1
AC1015
  9
$ACADMAINTVER
 70
     6
  9
$DWGCODEPAGE
  3
ANSI_1250
  9
$INSBASE
 10
0.0
 20
0.0
 30
0.0
  9
$EXTMIN
 10
0.0
 20
0.0
 30
0.0
  9
$EXTMAX
 10
20000.0
 20
10000.0
 30
0.0
  9
$LIMMIN
 10
0.0
 20
0.0
  9
$LIMMAX
 10
20000.0
 20
10000.0
  9
$ORTHOMODE
 70
     0
  9
$REGENMODE
 70
     1
  9
$FILLMODE
 70
     1
  9
$QTEXTMODE
 70
     0
  9
$MIRRTEXT
 70
     1
  9
$LTSCALE
 40
1.0
  9
$ATTMODE
 70
     1
  9
$TEXTSIZE
 40
2.0
  9
$TRACEWID
 40
1.0
  9
$TEXTSTYLE
  7
Standard
  9
$CLAYER
  8
0
  9
$CELTYPE
  6
ByLayer
  9
$CECOLOR
 62
   256
  9
$CELTSCALE
 40
1.0
  9
$DISPSILH
 70
     0
  9
$DIMSCALE
 40
1.0
  9
$DIMASZ
 40
2.0
  9
$DIMEXO
 40
1.0
  9
$DIMDLI
 40
3.75
  9
$DIMRND
 40
0.0
  9
$DIMDLE
 40
0.0
  9
$DIMEXE
 40
1.0
  9
$DIMTP
 40
0.0
  9
$DIMTM
 40
0.0
  9
$DIMTXT
 40
2.0
  9
$DIMCEN
 40
2.5
  9
$DIMTSZ
 40
0.0
  9
$DIMTOL
 70
     0
  9
$DIMLIM
 70
     0
  9
$DIMTIH
 70
     1
  9
$DIMTOH
 70
     1
  9
$DIMSE1
 70
     0
  9
$DIMSE2
 70
     0
  9
$DIMTAD
 70
     1
  9
$DIMZIN
 70
     0
  9
$DIMBLK
  1

  9
$DIMASO
 70
     1
  9
$DIMSHO
 70
     1
  9
$DIMPOST
  1

  9
$DIMAPOST
  1

  9
$DIMALT
 70
     0
  9
$DIMALTD
 70
     3
  9
$DIMALTF
 40
0.0393700787
  9
$DIMLFAC
 40
1.0
  9
$DIMTOFL
 70
     1
  9
$DIMTVP
 40
0.0
  9
$DIMTIX
 70
     0
  9
$DIMSOXD
 70
     0
  9
$DIMSAH
 70
     0
  9
$DIMBLK1
  1

  9
$DIMBLK2
  1

  9
$DIMSTYLE
  2
ISO-25
  9
$DIMCLRD
 70
     0
  9
$DIMCLRE
 70
     0
  9
$DIMCLRT
 70
     0
  9
$DIMTFAC
 40
1.0
  9
$DIMGAP
 40
1.524
  9
$DIMJUST
 70
     0
  9
$DIMSD1
 70
     0
  9
$DIMSD2
 70
     0
  9
$DIMTOLJ
 70
     0
  9
$DIMTZIN
 70
     0
  9
$DIMALTZ
 70
     0
  9
$DIMALTTZ
 70
     0
  9
$DIMUPT
 70
     0
  9
$DIMDEC
 70
     2
  9
$DIMTDEC
 70
     0
  9
$DIMALTU
 70
     2
  9
$DIMALTTD
 70
     3
  9
$DIMTXSTY
  7
Standard
  9
$DIMAUNIT
 70
     0
  9
$DIMADEC
 70
     2
  9
$DIMALTRND
 40
0.0
  9
$DIMAZIN
 70
     0
  9
$DIMDSEP
 70
    44
  9
$DIMATFIT
 70
     3
  9
$DIMFRAC
 70
     0
  9
$DIMLDRBLK
  1

  9
$DIMLUNIT
 70
     2
  9
$DIMLWD
 70
    -2
  9
$DIMLWE
 70
    -2
  9
$DIMTMOVE
 70
     0
  9
$LUNITS
 70
     2
  9
$LUPREC
 70
     3
  9
$SKETCHINC
 40
1.0
  9
$FILLETRAD
 40
10.0
  9
$AUNITS
 70
     0
  9
$AUPREC
 70
     2
  9
$MENU
  1
.
  9
$ELEVATION
 40
0.0
  9
$PELEVATION
 40
0.0
  9
$THICKNESS
 40
0.0
  9
$LIMCHECK
 70
     0
  9
$CHAMFERA
 40
0.0
  9
$CHAMFERB
 40
0.0
  9
$CHAMFERC
 40
0.0
  9
$CHAMFERD
 40
0.0
  9
$SKPOLY
 70
     0
  9
$TDCREATE
 40
2458654.57913044
  9
$TDUCREATE
 40
2458654.495797107
  9
$TDUPDATE
 40
2458654.579130613
  9
$TDUUPDATE
 40
2458654.49579728
  9
$TDINDWG
 40
0.0000000116
  9
$TDUSRTIMER
 40
0.0000000116
  9
$USRTIMER
 70
     1
  9
$ANGBASE
 50
0.0
  9
$ANGDIR
 70
     0
  9
$PDMODE
 70
     0
  9
$PDSIZE
 40
-1.0
  9
$PLINEWID
 40
0.0
  9
$SPLFRAME
 70
     0
  9
$SPLINETYPE
 70
     6
  9
$SPLINESEGS
 70
     8
  9
$HANDSEED
  5
13B
  9
$SURFTAB1
 70
     6
  9
$SURFTAB2
 70
     6
  9
$SURFTYPE
 70
     6
  9
$SURFU
 70
     6
  9
$SURFV
 70
     6
  9
$UCSBASE
  2

  9
$UCSNAME
  2

  9
$UCSORG
 10
0.0
 20
0.0
 30
0.0
  9
$UCSXDIR
 10
1.0
 20
0.0
 30
0.0
  9
$UCSYDIR
 10
0.0
 20
1.0
 30
0.0
  9
$UCSORTHOREF
  2

  9
$UCSORTHOVIEW
 70
     0
  9
$UCSORGTOP
 10
0.0
 20
0.0
 30
0.0
  9
$UCSORGBOTTOM
 10
0.0
 20
0.0
 30
0.0
  9
$UCSORGLEFT
 10
0.0
 20
0.0
 30
0.0
  9
$UCSORGRIGHT
 10
0.0
 20
0.0
 30
0.0
  9
$UCSORGFRONT
 10
0.0
 20
0.0
 30
0.0
  9
$UCSORGBACK
 10
0.0
 20
0.0
 30
0.0
  9
$PUCSBASE
  2

  9
$PUCSNAME
  2

  9
$PUCSORG
 10
0.0
 20
0.0
 30
0.0
  9
$PUCSXDIR
 10
1.0
 20
0.0
 30
0.0
  9
$PUCSYDIR
 10
0.0
 20
1.0
 30
0.0
  9
$PUCSORTHOREF
  2

  9
$PUCSORTHOVIEW
 70
     0
  9
$PUCSORGTOP
 10
0.0
 20
0.0
 30
0.0
  9
$PUCSORGBOTTOM
 10
0.0
 20
0.0
 30
0.0
  9
$PUCSORGLEFT
 10
0.0
 20
0.0
 30
0.0
  9
$PUCSORGRIGHT
 10
0.0
 20
0.0
 30
0.0
  9
$PUCSORGFRONT
 10
0.0
 20
0.0
 30
0.0
  9
$PUCSORGBACK
 10
0.0
 20
0.0
 30
0.0
  9
$USERI1
 70
     0
  9
$USERI2
 70
     0
  9
$USERI3
 70
     0
  9
$USERI4
 70
     0
  9
$USERI5
 70
     0
  9
$USERR1
 40
0.0
  9
$USERR2
 40
0.0
  9
$USERR3
 40
0.0
  9
$USERR4
 40
0.0
  9
$USERR5
 40
0.0
  9
$WORLDVIEW
 70
     1
  9
$SHADEDGE
 70
     3
  9
$SHADEDIF
 70
    70
  9
$TILEMODE
 70
     1
  9
$MAXACTVP
 70
    64
  9
$PINSBASE
 10
0.0
 20
0.0
 30
0.0
  9
$PLIMCHECK
 70
     0
  9
$PEXTMIN
 10
1.0000000000E+20
 20
1.0000000000E+20
 30
1.0000000000E+20
  9
$PEXTMAX
 10
-1.0000000000E+20
 20
-1.0000000000E+20
 30
-1.0000000000E+20
  9
$PLIMMIN
 10
0.0
 20
0.0
  9
$PLIMMAX
 10
420.0
 20
297.0
  9
$UNITMODE
 70
     0
  9
$VISRETAIN
 70
     1
  9
$PLINEGEN
 70
     0
  9
$PSLTSCALE
 70
     1
  9
$TREEDEPTH
 70
  3020
  9
$CMLSTYLE
  2
Standard
  9
$CMLJUST
 70
     0
  9
$CMLSCALE
 40
20.0
  9
$PROXYGRAPHICS
 70
     1
  9
$MEASUREMENT
 70
     1
  9
$CELWEIGHT
370
    -1
  9
$ENDCAPS
280
     0
  9
$JOINSTYLE
280
     0
  9
$LWDISPLAY
290
     1
  9
$INSUNITS
 70
     4
  9
$HYPERLINKBASE
  1

  9
$STYLESHEET
  1

  9
$XEDIT
290
     1
  9
$CEPSNTYPE
380
     0
  9
$PSTYLEMODE
290
     1
  9
$FINGERPRINTGUID
  2
{82A95DE3-8B9B-4F42-9653-E9FDCA1135A0}
  9
$VERSIONGUID
  2
{FAEB1C32-E019-11D5-929B-00C0DF256EC4}
  9
$EXTNAMES
290
     1
  9
$PSVPSCALE
 40
0.0
  9
$OLESTARTUP
290
     0
  0
ENDSEC
  0
SECTION
  2
CLASSES
  0
CLASS
  1
ACDBDICTIONARYWDFLT
  2
AcDbDictionaryWithDefault
  3
ObjectDBX Classes
 90
        0
280
     0
281
     0
  0
CLASS
  1
VISUALSTYLE
  2
AcDbVisualStyle
  3
ObjectDBX Classes
 90
     4095
280
     0
281
     0
  0
CLASS
  1
MATERIAL
  2
AcDbMaterial
  3
ObjectDBX Classes
 90
     1153
280
     0
281
     0
  0
CLASS
  1
SCALE
  2
AcDbScale
  3
ObjectDBX Classes
 90
     1153
280
     0
281
     0
  0
CLASS
  1
TABLESTYLE
  2
AcDbTableStyle
  3
ObjectDBX Classes
 90
     4095
280
     0
281
     0
  0
CLASS
  1
MLEADERSTYLE
  2
AcDbMLeaderStyle
  3
ACDB_MLEADERSTYLE_CLASS
 90
     4095
280
     0
281
     0
  0
CLASS
  1
SUN
  2
AcDbSun
  3
SCENEOE
 90
     1153
280
     0
281
     0
  0
CLASS
  1
ACDBPLACEHOLDER
  2
AcDbPlaceHolder
  3
ObjectDBX Classes
 90
        0
280
     0
281
     0
  0
CLASS
  1
LAYOUT
  2
AcDbLayout
  3
ObjectDBX Classes
 90
        0
280
     0
281
     0
  0
ENDSEC
  0
SECTION
  2
TABLES
  0
TABLE
  2
VPORT
  5
8
330
0
100
AcDbSymbolTable
 70
     1
  0
VPORT
  5
29
330
8
100
AcDbSymbolTableRecord
100
AcDbViewportTableRecord
  2
*Active
 70
     0
 10
0.0
 20
0.0
 11
1.0
 21
1.0
 12
10000.0
 22
5000.0
 13
0.0
 23
0.0
 14
10.0
 24
10.0
 15
10.0
 25
10.0
 16
0.0
 26
0.0
 36
1.0
 17
0.0
 27
0.0
 37
0.0
 40
10000.0
 41
2.0
 42
50.0
 43
0.0
 44
0.0
 50
0.0
 51
0.0
 71
     0
 72
  2000
 73
     1
 74
     3
 75
     0
 76
     0
 77
     0
 78
     0
281
     0
 65
     1
110
0.0
120
0.0
130
0.0
111
1.0
121
0.0
131
0.0
112
0.0
122
1.0
132
0.0
 79
     0
146
0.0
  0
ENDTAB
  0
TABLE
  2
LTYPE
  5
5
330
0
100
AcDbSymbolTable
 70
     6
  0
LTYPE
  5
14
330
5
100
AcDbSymbolTableRecord
100
AcDbLinetypeTableRecord
  2
ByBlock
 70
     0
  3

 72
    65
 73
     0
 40
0.0
  0
LTYPE
  5
15
330
5
100
AcDbSymbolTableRecord
100
AcDbLinetypeTableRecord
  2
ByLayer
 70
     0
  3

 72
    65
 73
     0
 40
0.0
  0
LTYPE
  5
16
330
5
100
AcDbSymbolTableRecord
100
AcDbLinetypeTableRecord
  2
Continuous
 70
     0
  3
Solid line
 72
    65
 73
     0
 40
0.0
  0
LTYPE
  5
6E
330
5
100
AcDbSymbolTableRecord
100
AcDbLinetypeTableRecord
  2
HIDDEN
 70
     0
  3
Hidden __ __ __ __ __ __ __ __ __ __ __ __ __ __
 72
    65
 73
     2
 40
1.905
 49
1.27
 74
     0
 49
-0.635
 74
     0
  0
LTYPE
  5
6F
330
5
100
AcDbSymbolTableRecord
100
AcDbLinetypeTableRecord
  2
PHANTOM
 70
     0
  3
Phantom ______  __  __  ______  __  __  ______
 72
    65
 73
     6
 40
12.7
 49
6.35
 74
     0
 49
-1.27
 74
     0
 49
1.27
 74
     0
 49
-1.27
 74
     0
 49
1.27
 74
     0
 49
-1.27
 74
     0
  0
LTYPE
  5
70
330
5
100
AcDbSymbolTableRecord
100
AcDbLinetypeTableRecord
  2
CENTER
 70
     0
  3
Center ____ _ ____ _ ____ _ ____ _ ____ _ ____
 72
    65
 73
     4
 40
10.16
 49
6.35
 74
     0
 49
-1.27
 74
     0
 49
1.27
 74
     0
 49
-1.27
 74
     0
  0
LTYPE
  5
71
330
5
100
AcDbSymbolTableRecord
100
AcDbLinetypeTableRecord
  2
CENTERX2
 70
     0
  3
Center (2x) ________  __  ________  __  _____
 72
    65
 73
     4
 40
20.32
 49
12.7
 74
     0
 49
-2.54
 74
     0
 49
2.54
 74
     0
 49
-2.54
 74
     0
  0
LTYPE
  5
72
330
5
100
AcDbSymbolTableRecord
100
AcDbLinetypeTableRecord
  2
DOT2
 70
     0
  3
Dot (.5x) ........................................
 72
    65
 73
     2
 40
0.635
 49
0.0
 74
     0
 49
-0.635
 74
     0
  0
ENDTAB
  0
TABLE
  2
LAYER
  5
2
330
0
100
AcDbSymbolTable
 70
    13
  0
LAYER
  5
10
330
2
100
AcDbSymbolTableRecord
100
AcDbLayerTableRecord
  2
0
 70
     0
 62
     7
  6
Continuous
370
    -3
390
F
  0
LAYER
  5
73
330
2
100
AcDbSymbolTableRecord
100
AcDbLayerTableRecord
  2
FORMAT
 70
     0
 62
     7
  6
Continuous
370
    -3
390
F
  0
LAYER
  5
74
330
2
100
AcDbSymbolTableRecord
100
AcDbLayerTableRecord
  2
OSA
 70
     0
 62
     7
  6
CENTER
370
    -3
390
F
  0
LAYER
  5
75
330
2
100
AcDbSymbolTableRecord
100
AcDbLayerTableRecord
  2
0_35
 70
     0
 62
     7
  6
Continuous
370
    35
390
F
  0
LAYER
  5
76
330
2
100
AcDbSymbolTableRecord
100
AcDbLayerTableRecord
  2
0_5
 70
     0
 62
     7
  6
Continuous
370
    50
390
F
  0
LAYER
  5
77
330
2
100
AcDbSymbolTableRecord
100
AcDbLayerTableRecord
  2
0_25
 70
     0
 62
     7
  6
Continuous
370
    25
390
F
  0
LAYER
  5
78
330
2
100
AcDbSymbolTableRecord
100
AcDbLayerTableRecord
  2
0_18
 70
     0
 62
     7
  6
Continuous
370
    -3
390
F
  0
LAYER
  5
79
330
2
100
AcDbSymbolTableRecord
100
AcDbLayerTableRecord
  2
SLD-0
 70
     0
 62
   179
  6
Continuous
370
    -3
390
F
  0
LAYER
  5
7A
330
2
100
AcDbSymbolTableRecord
100
AcDbLayerTableRecord
  2
KOTY
 70
     0
 62
     7
  6
Continuous
370
    -3
390
F
  0
LAYER
  5
7B
330
2
100
AcDbSymbolTableRecord
100
AcDbLayerTableRecord
  2
SILNA
 70
     0
 62
   179
  6
Continuous
370
    -3
390
F
  0
LAYER
  5
7C
330
2
100
AcDbSymbolTableRecord
100
AcDbLayerTableRecord
  2
0_18_1
 70
     0
 62
   179
  6
Continuous
370
    -3
390
F
  0
LAYER
  5
7D
330
2
100
AcDbSymbolTableRecord
100
AcDbLayerTableRecord
  2
0_35_1
 70
     0
 62
   179
  6
Continuous
370
    35
390
F
  0
LAYER
  5
7E
330
2
100
AcDbSymbolTableRecord
100
AcDbLayerTableRecord
  2
0_5_1
 70
     0
 62
   179
  6
Continuous
370
    50
390
F
  0
ENDTAB
  0
TABLE
  2
STYLE
  5
3
330
0
100
AcDbSymbolTable
 70
     1
  0
STYLE
  5
11
330
3
100
AcDbSymbolTableRecord
100
AcDbTextStyleTableRecord
  2
Standard
 70
     0
 40
0.0
 41
1.0
 50
0.0
 71
     0
 42
2.0
  3
txt
  4

  0
ENDTAB
  0
TABLE
  2
VIEW
  5
6
330
0
100
AcDbSymbolTable
 70
     0
  0
ENDTAB
  0
TABLE
  2
UCS
  5
7
330
0
100
AcDbSymbolTable
 70
     0
  0
ENDTAB
  0
TABLE
  2
APPID
  5
9
330
0
100
AcDbSymbolTable
 70
     1
  0
APPID
  5
12
330
9
100
AcDbSymbolTableRecord
100
AcDbRegAppTableRecord
  2
ACAD
 70
     0
  0
ENDTAB
  0
TABLE
  2
DIMSTYLE
  5
A
330
0
100
AcDbSymbolTable
 70
     1
100
AcDbDimStyleTable
  0
DIMSTYLE
105
27
330
A
100
AcDbSymbolTableRecord
100
AcDbDimStyleTableRecord
  2
ISO-25
 70
     0
 41
2.5
 42
0.625
 43
3.75
 44
1.25
 73
     0
 74
     0
 77
     1
 78
     8
140
2.5
141
2.5
143
0.0393700787
147
0.625
171
     3
172
     1
178
     0
271
     2
272
     2
274
     3
278
    44
283
     0
284
     8
340
11
  0
ENDTAB
  0
TABLE
  2
BLOCK_RECORD
  5
1
330
0
100
AcDbSymbolTable
 70
     1
  0
BLOCK_RECORD
  5
1F
330
1
100
AcDbSymbolTableRecord
100
AcDbBlockTableRecord
  2
*Model_Space
340
22
  0
BLOCK_RECORD
  5
1B
330
1
100
AcDbSymbolTableRecord
100
AcDbBlockTableRecord
  2
*Paper_Space
340
1E
  0
BLOCK_RECORD
  5
23
330
1
100
AcDbSymbolTableRecord
100
AcDbBlockTableRecord
  2
*Paper_Space0
340
26
  0
ENDTAB
  0
ENDSEC
  0
SECTION
  2
BLOCKS
  0
BLOCK
  5
20
330
1F
100
AcDbEntity
  8
0
100
AcDbBlockBegin
  2
*Model_Space
 70
     0
 10
0.0
 20
0.0
 30
0.0
  3
*Model_Space
  1

  0
ENDBLK
  5
21
330
1F
100
AcDbEntity
  8
0
100
AcDbBlockEnd
  0
BLOCK
  5
1C
330
1B
100
AcDbEntity
 67
     1
  8
0
100
AcDbBlockBegin
  2
*Paper_Space
 70
     0
 10
0.0
 20
0.0
 30
0.0
  3
*Paper_Space
  1

  0
ENDBLK
  5
1D
330
1B
100
AcDbEntity
 67
     1
  8
0
100
AcDbBlockEnd
  0
BLOCK
  5
24
330
23
100
AcDbEntity
  8
0
100
AcDbBlockBegin
  2
*Paper_Space0
 70
     0
 10
0.0
 20
0.0
 30
0.0
  3
*Paper_Space0
  1

  0
ENDBLK
  5
25
330
23
100
AcDbEntity
  8
0
100
AcDbBlockEnd
  0
ENDSEC
  0
SECTION
  2
ENTITIES
  0
LINE
  5
7F
330
1F
100
AcDbEntity
  8
0
  6
Continuous
 62
     7
370
    25
100
AcDbLine
 10
6272.4230456304
 20
5240.5649542875
 30
0.0
 11
6272.5187553231
 21
5240.4692450605
 31
0.0
  0
LINE
  5
80
330
1F
100
AcDbEntity
  8
0
  6
Continuous
 62
     7
370
    25
100
AcDbLine
 10
6275.5187553491
 20
5240.4692450605
 30
0.0
 11
6275.6144650418
 21
5240.5649542875
 31
0.0
  0
SPLINE
  5
81
330
1F
100
AcDbEntity
  8
0
  6
Continuous
 62
     7
370
    25
100
AcDbSpline
210
0.0
220
0.0
230
1.0
 70
     8
 71
     3
 72
    21
 73
    17
 74
     0
 42
0.000000001
 43
0.00000001
 40
0.0
 40
0.0
 40
0.0
 40
0.0
 40
0.0572232447004249
 40
0.1144622840702779
 40
0.2283806479028063
 40
0.2869258138942852
 40
0.3454337572054051
 40
0.4005005780445866
 40
0.4555261102567811
 40
0.5514693219038908
 40
0.6412927242904883
 40
0.7362550342354666
 40
0.8424099757410667
 40
0.9002739524374235
 40
0.9581264638914339
 40
1.0
 40
1.0
 40
1.0
 40
1.0
 10
6266.468755123014
 20
5150.63188486466
 30
0.0
 10
6266.153707380221
 20
5150.648603322563
 30
0.0
 10
6265.523524935656
 20
5150.682044852972
 30
0.0
 10
6264.32195241452
 20
5151.02072444407
 30
0.0
 10
6263.227131062778
 20
5151.65580255128
 30
0.0
 10
6262.342180232368
 20
5152.561369261606
 30
0.0
 10
6261.804000031842
 20
5153.354548509546
 30
0.0
 10
6261.421667902407
 20
5154.230278958466
 30
0.0
 10
6261.1410663034
 20
5155.380871358776
 30
0.0
 10
6261.157048776514
 20
5156.803102438901
 30
0.0
 10
6261.662771393181
 20
5158.343397867709
 30
0.0
 10
6262.598671980294
 20
5159.678369005315
 30
0.0
 10
6263.73560613731
 20
5160.541211473867
 30
0.0
 10
6264.847700608716
 20
5161.004644009085
 30
0.0
 10
6265.688933694089
 20
5161.20179143193
 30
0.0
 10
6266.238147942429
 20
5161.222986133531
 30
0.0
 10
6266.468755123014
 20
5161.231885484548
 30
0.0
  0
SPLINE
  5
82
330
1F
100
AcDbEntity
  8
0
  6
Continuous
 62
     7
370
    25
100
AcDbSpline
210
0.0
220
0.0
230
1.0
 70
     8
 71
     3
 72
    21
 73
    17
 74
     0
 42
0.000000001
 43
0.00000001
 40
0.0
 40
0.0
 40
0.0
 40
0.0
 40
0.0276793801803138
 40
0.1357449252145625
 40
0.2501076026220864
 40
0.3084921291833473
 40
0.3668334341409251
 40
0.4206638925519542
 40
0.4744603003586748
 40
0.568387861043476
 40
0.658443898662351
 40
0.7552873009842224
 40
0.863628268541519
 40
0.9219160342763579
 40
0.9801891352702404
 40
1.0
 40
1.0
 40
1.0
 40
1.0
 10
6281.568755549187
 20
5161.231885484548
 30
0.0
 10
6281.721172190531
 20
5161.227753805796
 30
0.0
 10
6282.468652280253
 20
5161.207491270305
 30
0.0
 10
6283.807433169507
 20
5160.847137905961
 30
0.0
 10
6285.088543334276
 20
5159.982610641496
 30
0.0
 10
6285.914934584596
 20
5159.014321016792
 30
0.0
 10
6286.396419704441
 20
5158.188611196413
 30
0.0
 10
6286.715825474309
 20
5157.297963688314
 30
0.0
 10
6286.918174022425
 20
5156.152850011519
 30
0.0
 10
6286.818830848561
 20
5154.755058371458
 30
0.0
 10
6286.232137123301
 20
5153.253383028215
 30
0.0
 10
6285.212762806629
 20
5151.961259617633
 30
0.0
 10
6284.006045387782
 20
5151.157524334739
 30
0.0
 10
6282.848435539993
 20
5150.761336511448
 30
0.0
 10
6282.108122549898
 20
5150.642159905367
 30
0.0
 10
6281.677906631438
 20
5150.633964212881
 30
0.0
 10
6281.568755549187
 20
5150.63188486466
 30
0.0
  0
LINE
  5
83
330
1F
100
AcDbEntity
  8
0
  6
Continuous
 62
     7
370
    25
100
AcDbLine
 10
6281.5687555492
 20
5161.2318854845
 30
0.0
 11
6266.468755123
 21
5161.2318854845
 31
0.0
  0
LINE
  5
84
330
1F
100
AcDbEntity
  8
0
  6
Continuous
 62
     7
370
    25
100
AcDbLine
 10
6281.5687555492
 20
5150.6318848647
 30
0.0
 11
6266.468755123
 21
5150.6318848647
 31
0.0
  0
ARC
  5
85
330
1F
100
AcDbEntity
  8
0
  6
Continuous
 62
     7
370
    25
100
AcDbCircle
 10
6274.0187553361
 20
5157.3348863798
 30
0.0
 40
20.00000000000091
100
AcDbArc
 50
24.7216586433
 51
155.2783413567
  0
SPLINE
  5
86
330
1F
100
AcDbEntity
  8
0
  6
Continuous
 62
     7
370
    25
100
AcDbSpline
210
0.0
220
0.0
230
1.0
 70
     8
 71
     3
 72
    21
 73
    17
 74
     0
 42
0.000000001
 43
0.00000001
 40
0.0
 40
0.0
 40
0.0
 40
0.0
 40
0.0724428546894775
 40
0.1451144609756573
 40
0.217554667602894
 40
0.2900193892745152
 40
0.3627167147107585
 40
0.4351793081640232
 40
0.5072558748599294
 40
0.5795637355672569
 40
0.6516408995030136
 40
0.7235278309728109
 40
0.7956429155362867
 40
0.8675324206389424
 40
0.9337659403759938
 40
1.0
 40
1.0
 40
1.0
 40
1.0
 10
6292.185757462675
 20
5165.699097148271
 30
0.0
 10
6291.469741556394
 20
5165.620474349387
 30
0.0
 10
6290.035448792322
 20
5165.462980485716
 30
0.0
 10
6287.622890870075
 20
5165.257825226868
 30
0.0
 10
6285.055906391191
 20
5165.080969635686
 30
0.0
 10
6282.340129447006
 20
5164.94026629572
 30
0.0
 10
6279.520804453749
 20
5164.837619364522
 30
0.0
 10
6276.635988960875
 20
5164.776075301027
 30
0.0
 10
6273.722288985111
 20
5164.75940743492
 30
0.0
 10
6270.818135953371
 20
5164.785648537882
 30
0.0
 10
6267.955931750522
 20
5164.85397268773
 30
0.0
 10
6265.175132341185
 20
5164.96419980281
 30
0.0
 10
6262.505986614614
 20
5165.110990164048
 30
0.0
 10
6260.049380354008
 20
5165.286631536525
 30
0.0
 10
6257.809345560241
 20
5165.482914041439
 30
0.0
 10
6256.504285766072
 20
5165.627035916866
 30
0.0
 10
6255.851753209526
 20
5165.699097148271
 30
0.0
  0
SPLINE
  5
87
330
1F
100
AcDbEntity
  8
0
  6
Continuous
 62
     7
370
    25
100
AcDbSpline
210
0.0
220
0.0
230
1.0
 70
     8
 71
     3
 72
    14
 73
    10
 74
     0
 42
0.000000001
 43
0.00000001
 40
0.0
 40
0.0
 40
0.0
 40
0.0
 40
0.143077065521666
 40
0.2859716773243115
 40
0.4305969378426858
 40
0.5751097898632104
 40
0.7004104843243906
 40
0.825843311412704
 40
1.0
 40
1.0
 40
1.0
 40
1.0
 10
6292.185757462675
 20
5148.970673612447
 30
0.0
 10
6292.492213539282
 20
5149.701064833906
 30
0.0
 10
6293.104734895755
 20
5151.160915872521
 30
0.0
 10
6293.711089379784
 20
5153.560767652092
 30
0.0
 10
6294.031989004884
 20
5156.089713070369
 30
0.0
 10
6294.031140428508
 20
5158.568103425357
 30
0.0
 10
6293.738591534113
 20
5160.878585380098
 30
0.0
 10
6293.188877633302
 20
5163.269879020188
 30
0.0
 10
6292.554520495707
 20
5164.806077676587
 30
0.0
 10
6292.185757462675
 20
5165.699097148271
 30
0.0
  0
SPLINE
  5
88
330
1F
100
AcDbEntity
  8
0
  6
Continuous
 62
     7
370
    25
100
AcDbSpline
210
0.0
220
0.0
230
1.0
 70
     8
 71
     3
 72
    21
 73
    17
 74
     0
 42
0.000000001
 43
0.00000001
 40
0.0
 40
0.0
 40
0.0
 40
0.0
 40
0.0724428543120972
 40
0.1451144602197052
 40
0.2175546664695755
 40
0.2900193966609179
 40
0.362716715245609
 40
0.4351793121846912
 40
0.5072558774268063
 40
0.5795637377574568
 40
0.6516409013177384
 40
0.7235278324130514
 40
0.7956429166008545
 40
0.8675324213290125
 40
0.9337659407210304
 40
1.0
 40
1.0
 40
1.0
 40
1.0
 10
6255.851753209526
 20
5148.970673612447
 30
0.0
 10
6256.567769119192
 20
5149.049296329263
 30
0.0
 10
6258.002061890047
 20
5149.206790028541
 30
0.0
 10
6260.414619761355
 20
5149.411946522021
 30
0.0
 10
6262.98160453833
 20
5149.588797439659
 30
0.0
 10
6265.697380799719
 20
5149.729518282575
 30
0.0
 10
6268.516706538726
 20
5149.832144477538
 30
0.0
 10
6271.401521540713
 20
5149.893709276148
 30
0.0
 10
6274.315221741187
 20
5149.910359618299
 30
0.0
 10
6277.219374708234
 20
5149.884123214118
 30
0.0
 10
6280.081578924505
 20
5149.815797808536
 30
0.0
 10
6282.862378330256
 20
5149.705571028959
 30
0.0
 10
6285.53152405779
 20
5149.558780577629
 30
0.0
 10
6287.988130318144
 20
5149.383139228821
 30
0.0
 10
6290.228165111972
 20
5149.186856718162
 30
0.0
 10
6291.533224906133
 20
5149.042734843481
 30
0.0
 10
6292.185757462675
 20
5148.970673612447
 30
0.0
  0
SPLINE
  5
89
330
1F
100
AcDbEntity
  8
0
  6
Continuous
 62
     7
370
    25
100
AcDbSpline
210
0.0
220
0.0
230
1.0
 70
     8
 71
     3
 72
    14
 73
    10
 74
     0
 42
0.000000001
 43
0.00000001
 40
0.0
 40
0.0
 40
0.0
 40
0.0
 40
0.1430766935901003
 40
0.2859712988975575
 40
0.4305969637245584
 40
0.5751098091763385
 40
0.7004104979420512
 40
0.8258433193288911
 40
1.0
 40
1.0
 40
1.0
 40
1.0
 10
6255.851753209526
 20
5165.699097148271
 30
0.0
 10
6255.545297020236
 20
5164.968708521196
 30
0.0
 10
6254.932774656826
 20
5163.508860804956
 30
0.0
 10
6254.326420657666
 20
5161.109008192658
 30
0.0
 10
6254.005522043964
 20
5158.580060066524
 30
0.0
 10
6254.006370157537
 20
5156.101667353837
 30
0.0
 10
6254.298919159463
 20
5153.791185376036
 30
0.0
 10
6254.848633031073
 20
5151.399891742209
 30
0.0
 10
6255.482990173617
 20
5149.863693084749
 30
0.0
 10
6255.851753209526
 20
5148.970673612447
 30
0.0
  0
LINE
  5
8A
330
1F
100
AcDbEntity
  8
0
  6
Continuous
 62
     7
370
    25
100
AcDbLine
 10
6281.5187551685
 20
5161.634887389
 30
0.0
 11
6266.5187555037
 21
5161.634887389
 31
0.0
  0
SPLINE
  5
8B
330
1F
100
AcDbEntity
  8
0
  6
Continuous
 62
     7
370
    25
100
AcDbSpline
210
0.0
220
0.0
230
1.0
 70
     8
 71
     3
 72
    22
 73
    18
 74
     0
 42
0.000000001
 43
0.00000001
 40
0.0
 40
0.0
 40
0.0
 40
0.0
 40
0.0571139957312256
 40
0.1142446679805215
 40
0.1712812946826628
 40
0.2283160846088793
 40
0.286894874341428
 40
0.3454363020598952
 40
0.4005982207017019
 40
0.455716914407759
 40
0.5514772296635124
 40
0.6408993774086479
 40
0.7355967708963292
 40
0.8417601729816068
 40
0.8996883266303977
 40
0.9576042608099208
 40
1.0
 40
1.0
 40
1.0
 40
1.0
 10
6266.518755503738
 20
5161.634887389036
 30
0.0
 10
6266.192076209391
 20
5161.617627977523
 30
0.0
 10
6265.538622234737
 20
5161.583104114982
 30
0.0
 10
6264.601632111655
 20
5161.318356687969
 30
0.0
 10
6263.729226326481
 20
5160.907099165778
 30
0.0
 10
6262.933233706574
 20
5160.344222905649
 30
0.0
 10
6262.239465222943
 20
5159.636543576863
 30
0.0
 10
6261.680089917539
 20
5158.81334623278
 30
0.0
 10
6261.282042489546
 20
5157.903528869136
 30
0.0
 10
6260.99023806401
 20
5156.70888153677
 30
0.0
 10
6261.006396145553
 20
5155.234556552285
 30
0.0
 10
6261.528297563376
 20
5153.639824966343
 30
0.0
 10
6262.494460278619
 20
5152.255868451349
 30
0.0
 10
6263.671064706711
 20
5151.358298519444
 30
0.0
 10
6264.825184349702
 20
5150.874264208122
 30
0.0
 10
6265.702070287208
 20
5150.666826779026
 30
0.0
 10
6266.276133394492
 20
5150.644376034388
 30
0.0
 10
6266.518755503738
 20
5150.63488744864
 30
0.0
  0
SPLINE
  5
8C
330
1F
100
AcDbEntity
  8
0
  6
Continuous
 62
     7
370
    25
100
AcDbSpline
210
0.0
220
0.0
230
1.0
 70
     8
 71
     3
 72
    22
 73
    18
 74
     0
 42
0.000000001
 43
0.00000001
 40
0.0
 40
0.0
 40
0.0
 40
0.0
 40
0.0571139929224617
 40
0.1142445598003782
 40
0.1712813500513202
 40
0.2283159121925024
 40
0.2868949792578062
 40
0.3454360742405929
 40
0.4005983611970609
 40
0.4557170521924795
 40
0.5514769480901629
 40
0.6408994804074631
 40
0.7355968692380964
 40
0.84176002933967
 40
0.899688331563546
 40
0.9576042628948673
 40
1.0
 40
1.0
 40
1.0
 40
1.0
 10
6281.518755168462
 20
5150.63488744864
 30
0.0
 10
6281.845434167396
 20
5150.652147877824
 30
0.0
 10
6282.498886964504
 20
5150.686673745007
 30
0.0
 10
6283.435881905312
 20
5150.951405817102
 30
0.0
 10
6284.308279834607
 20
5151.362679889659
 30
0.0
 10
6285.104282151931
 20
5151.925541786674
 30
0.0
 10
6285.79804017521
 20
5152.633231992168
 30
0.0
 10
6286.357425260299
 20
5153.456422612587
 30
0.0
 10
6286.755466150129
 20
5154.366244801922
 30
0.0
 10
6287.047273030799
 20
5155.560890421576
 30
0.0
 10
6287.031112739238
 20
5157.035215557465
 30
0.0
 10
6286.509214632995
 20
5158.629947442175
 30
0.0
 10
6285.543052666474
 20
5160.013908401962
 30
0.0
 10
6284.366441797551
 20
5160.911464374739
 30
0.0
 10
6283.212328050804
 20
5161.395512757414
 30
0.0
 10
6282.335440230672
 20
5161.602947654907
 30
0.0
 10
6281.761377231864
 20
5161.625398683344
 30
0.0
 10
6281.518755168462
 20
5161.634887389036
 30
0.0
  0
ARC
  5
8D
330
1F
100
AcDbEntity
  8
0
  6
Continuous
 62
     7
370
    25
100
AcDbCircle
 10
6274.0187553361
 20
5157.3348863798
 30
0.0
 40
20.00000000000053
100
AcDbArc
 50
204.7216586433
 51
335.2783413567
  0
ARC
  5
8E
330
1F
100
AcDbEntity
  8
0
  6
Continuous
 62
     7
370
    25
100
AcDbCircle
 10
6268.855515231
 20
5253.2053466834
 30
0.0
 40
6.895280699391139
100
AcDbArc
 50
242.6732266845
 51
253.1228075894
  0
ARC
  5
8F
330
1F
100
AcDbEntity
  8
0
  6
Continuous
 62
     7
370
    25
100
AcDbCircle
 10
6272.4178387242
 20
5267.0535656547
 30
0.0
 40
20.26865045564373
100
AcDbArc
 50
255.3548457906
 51
263.6967907349
  0
LINE
  5
90
330
1F
100
AcDbEntity
  8
0
  6
Continuous
 62
     7
370
    25
100
AcDbLine
 10
6270.1925438967
 20
5246.9074430942
 30
0.0
 11
6270.1925438967
 21
5245.9415167637
 31
0.0
  0
ARC
  5
91
330
1F
100
AcDbEntity
  8
0
  6
Continuous
 62
     7
370
    25
100
AcDbCircle
 10
6273.8788985154
 20
5277.8862735182
 30
0.0
 40
32.15675192681761
100
AcDbArc
 50
263.4173099054
 51
268.5923388707
  0
ARC
  5
92
330
1F
100
AcDbEntity
  8
0
  6
Continuous
 62
     7
370
    25
100
AcDbCircle
 10
6274.0260930347
 20
5281.2393303431
 30
0.0
 40
34.54676654329104
100
AcDbArc
 50
268.6647248412
 51
274.9639445225
  0
ARC
  5
93
330
1F
100
AcDbEntity
  8
0
  6
Continuous
 62
     7
370
    25
100
AcDbCircle
 10
6275.0616237099
 20
5269.6381865032
 30
0.0
 40
23.86075067323749
100
AcDbArc
 50
275.3060275798
 51
281.6230230754
  0
LINE
  5
94
330
1F
100
AcDbEntity
  8
0
  6
Continuous
 62
     7
370
    25
100
AcDbLine
 10
6279.8688855626
 20
5247.2326409138
 30
0.0
 11
6279.8688855626
 21
5246.2667155146
 31
0.0
  0
ARC
  5
95
330
1F
100
AcDbEntity
  8
0
  6
Continuous
 62
     7
370
    25
100
AcDbCircle
 10
6276.9196881097
 20
5261.3807875295
 30
0.0
 40
14.45225997118548
100
AcDbArc
 50
281.7747584583
 51
286.3806301422
  0
ARC
  5
96
330
1F
100
AcDbEntity
  8
0
  6
Continuous
 62
     7
370
    25
100
AcDbCircle
 10
6274.0187553361
 20
5272.7592824479
 30
0.0
 40
25.83419250942445
100
AcDbArc
 50
256.0362212977
 51
283.9637787023
  0
LINE
  5
97
330
1F
100
AcDbEntity
  8
0
  6
Continuous
 62
     7
370
    25
100
AcDbLine
 10
6279.6161153026
 20
5247.3464201271
 30
0.0
 11
6279.8688855626
 21
5247.2326409138
 31
0.0
  0
ARC
  5
98
330
1F
100
AcDbEntity
  8
0
  6
Continuous
 62
     7
370
    25
100
AcDbCircle
 10
6275.0022615884
 20
5269.4182631585
 30
0.0
 40
22.54892238882518
100
AcDbArc
 50
275.1220727362
 51
281.8069779189
  0
ARC
  5
99
330
1F
100
AcDbEntity
  8
0
  6
Continuous
 62
     7
370
    25
100
AcDbCircle
 10
6273.8878556964
 20
5277.2155427878
 30
0.0
 40
30.39099244272285
100
AcDbArc
 50
263.2668602305
 51
268.7427882256
  0
LINE
  5
9A
330
1F
100
AcDbEntity
  8
0
  6
Continuous
 62
     7
370
    25
100
AcDbLine
 10
6270.1925438967
 20
5246.9074430942
 30
0.0
 11
6270.324658756
 21
5247.0341569811
 31
0.0
  0
ARC
  5
9B
330
1F
100
AcDbEntity
  8
0
  6
Continuous
 62
     7
370
    25
100
AcDbCircle
 10
6274.0187553361
 20
5270.2528663932
 30
0.0
 40
23.14334108497923
100
AcDbArc
 50
255.9124959599
 51
284.0875040401
  0
LINE
  5
9C
330
1F
100
AcDbEntity
  8
0
  6
Continuous
 62
     7
370
    25
100
AcDbLine
 10
6282.0197177723
 20
5247.2043901748
 30
0.0
 11
6281.950725396
 21
5247.1650739267
 31
0.0
  0
LINE
  5
9D
330
1F
100
AcDbEntity
  8
0
  6
Continuous
 62
     7
370
    25
100
AcDbLine
 10
6281.950725396
 20
5247.2287694059
 30
0.0
 11
6281.950725396
 21
5247.1650739267
 31
0.0
  0
LINE
  5
9E
330
1F
100
AcDbEntity
  8
0
  6
Continuous
 62
     7
370
    25
100
AcDbLine
 10
6282.167853941
 20
5247.1499092012
 30
0.0
 11
6281.950725396
 21
5247.1650739267
 31
0.0
  0
ARC
  5
9F
330
1F
100
AcDbEntity
  8
0
  6
Continuous
 62
     7
370
    25
100
AcDbCircle
 10
6268.9448251589
 20
5252.4279169719
 30
0.0
 40
5.987716596895366
100
AcDbArc
 50
240.7356676263
 51
253.9889511437
  0
LINE
  5
A0
330
1F
100
AcDbEntity
  8
0
  6
Continuous
 62
     7
370
    25
100
AcDbLine
 10
6267.2932768844
 20
5246.6724727369
 30
0.0
 11
6266.8536684148
 21
5246.6070510514
 31
0.0
  0
LINE
  5
A1
330
1F
100
AcDbEntity
  8
0
  6
Continuous
 62
     7
370
    25
100
AcDbLine
 10
6267.2932768844
 20
5247.5778142057
 30
0.0
 11
6267.2932768844
 21
5246.6724727369
 31
0.0
  0
LINE
  5
A2
330
1F
100
AcDbEntity
  8
0
  6
Continuous
 62
     7
370
    25
100
AcDbLine
 10
6279.6161153026
 20
5247.3464201271
 30
0.0
 11
6279.6161153026
 21
5246.3804942622
 31
0.0
  0
ARC
  5
A3
330
1F
100
AcDbEntity
  8
0
  6
Continuous
 62
     7
370
    25
100
AcDbCircle
 10
6275.0022615884
 20
5268.4523372936
 30
0.0
 40
22.54892238882518
100
AcDbArc
 50
275.1220727362
 51
281.8069779189
  0
LINE
  5
A4
330
1F
100
AcDbEntity
  8
0
  6
Continuous
 62
     7
370
    25
100
AcDbLine
 10
6277.0153844401
 20
5246.9593843512
 30
0.0
 11
6277.0153844401
 21
5245.9934584863
 31
0.0
  0
LINE
  5
A5
330
1F
100
AcDbEntity
  8
0
  6
Continuous
 62
     7
370
    25
100
AcDbLine
 10
6279.6161153026
 20
5246.3804942622
 30
0.0
 11
6279.8688855626
 21
5246.2667155146
 31
0.0
  0
LINE
  5
A6
330
1F
100
AcDbEntity
  8
0
  6
Continuous
 62
     7
370
    25
100
AcDbLine
 10
6277.0153844401
 20
5245.9934584863
 30
0.0
 11
6277.2681547001
 21
5245.8796797387
 31
0.0
  0
LINE
  5
A7
330
1F
100
AcDbEntity
  8
0
  6
Continuous
 62
     7
370
    25
100
AcDbLine
 10
6270.1925438967
 20
5245.9415167637
 30
0.0
 11
6270.324658756
 21
5246.0682315818
 31
0.0
  0
ARC
  5
A8
330
1F
100
AcDbEntity
  8
0
  6
Continuous
 62
     7
370
    25
100
AcDbCircle
 10
6273.8878623177
 20
5276.2495723093
 30
0.0
 40
30.39094845061729
100
AcDbArc
 50
263.2668378692
 51
268.7427739194
  0
LINE
  5
A9
330
1F
100
AcDbEntity
  8
0
  6
Continuous
 62
     7
370
    25
100
AcDbLine
 10
6273.0889405727
 20
5245.7392260499
 30
0.0
 11
6273.2210553156
 21
5245.8659399367
 31
0.0
  0
LINE
  5
AA
330
1F
100
AcDbEntity
  8
0
  6
Continuous
 62
     7
370
    25
100
AcDbLine
 10
6270.324658756
 20
5247.0341569811
 30
0.0
 11
6270.324658756
 21
5246.0682315818
 31
0.0
  0
LINE
  5
AB
330
1F
100
AcDbEntity
  8
0
  6
Continuous
 62
     7
370
    25
100
AcDbLine
 10
6273.2210553156
 20
5246.8318662673
 30
0.0
 11
6273.2210553156
 21
5245.8659399367
 31
0.0
  0
LINE
  5
AC
330
1F
100
AcDbEntity
  8
0
  6
Continuous
 62
     7
370
    25
100
AcDbLine
 10
6275.5187553491
 20
5240.4692450605
 30
0.0
 11
6272.5187553231
 21
5240.4692450605
 31
0.0
  0
CIRCLE
  5
AD
330
1F
100
AcDbEntity
  8
0
  6
Continuous
 62
     7
370
    25
100
AcDbCircle
 10
6274.0187553361
 20
5253.8192447341
 30
0.0
 40
33.99999999999994
  0
CIRCLE
  5
AE
330
1F
100
AcDbEntity
  8
0
  6
Continuous
 62
     7
370
    25
100
AcDbCircle
 10
6274.0187553361
 20
5253.8192447341
 30
0.0
 40
34.99999999999961
  0
LINE
  5
AF
330
1F
100
AcDbEntity
  8
0
  6
Continuous
 62
     7
370
    25
100
AcDbLine
 10
6262.3248474345
 20
5249.8474664121
 30
0.0
 11
6285.7126632377
 21
5249.8474664121
 31
0.0
  0
LINE
  5
B0
330
1F
100
AcDbEntity
  8
0
  6
Continuous
 62
     7
370
    25
100
AcDbLine
 10
6286.677634497
 20
5249.5795174568
 30
0.0
 11
6285.7126632377
 21
5249.8474664121
 31
0.0
  0
ARC
  5
B1
330
1F
100
AcDbEntity
  8
0
  6
Continuous
 62
     7
370
    25
100
AcDbCircle
 10
6274.0187553361
 20
5253.8192447341
 30
0.0
 40
13.34999999999951
100
AcDbArc
 50
198.5167924648
 51
341.4832075352
  0
LINE
  5
B2
330
1F
100
AcDbEntity
  8
0
  6
Continuous
 62
     7
370
    25
100
AcDbLine
 10
6262.3248474345
 20
5249.8474664121
 30
0.0
 11
6261.3598761752
 21
5249.5795174568
 31
0.0
  0
LWPOLYLINE
  5
B3
330
1F
100
AcDbEntity
  8
0
  6
Continuous
 62
     7
370
    25
100
AcDbPolyline
 90
       48
 70
   128
 43
0.0
 10
6274.0187553361
 20
5248.2621998593
 10
6275.3349640777
 20
5248.2393954947
 10
6276.627684864
 20
5248.1713889233
 10
6277.8738494169
 20
5248.0593936584
 10
6279.0512197323
 20
5247.9054087839
 10
6280.1387856387
 20
5247.7121817015
 10
6281.117139072
 20
5247.4831610985
 10
6281.9688219249
 20
5247.2224331527
 10
6282.6786359444
 20
5246.9346507519
 10
6283.2339137465
 20
5246.6249496743
 10
6283.6247469902
 20
5246.298856388
 10
6283.8441610008
 20
5245.9621902622
 10
6283.8882404983
 20
5245.6209583274
 10
6283.7561994463
 20
5245.2812509678
 10
6283.4503922284
 20
5244.9491292305
 10
6282.9762782574
 20
5244.6305209837
 10
6282.3423167363
 20
5244.3311100892
 10
6281.5598209061
 20
5244.0562414072
 10
6280.6427545518
 20
5243.8108192823
 10
6279.6074828736
 20
5243.5992227934
 10
6278.472480052
 20
5243.4252284534
 10
6277.2580007229
 20
5243.2919403605
 10
6275.9857169956
 20
5243.2017380438
 10
6274.6783325936
 20
5243.1562308289
 10
6273.3591780786
 20
5243.1562308289
 10
6272.0517936766
 20
5243.2017380438
 10
6270.7795099493
 20
5243.2919403605
 10
6269.5650306202
 20
5243.4252284534
 10
6268.4300277986
 20
5243.5992227934
 10
6267.3947561204
 20
5243.8108192823
 10
6266.4776897661
 20
5244.0562414072
 10
6265.6951939359
 20
5244.3311100892
 10
6265.0612324148
 20
5244.6305209837
 10
6264.5871184438
 20
5244.9491292305
 10
6264.2813112259
 20
5245.2812509678
 10
6264.1492701739
 20
5245.6209583274
 10
6264.1933496714
 20
5245.9621902622
 10
6264.412763682
 20
5246.298856388
 10
6264.8035969257
 20
5246.6249496743
 10
6265.3588747278
 20
5246.9346507519
 10
6266.0686887473
 20
5247.2224331527
 10
6266.9203716002
 20
5247.4831610985
 10
6267.8987250335
 20
5247.7121817015
 10
6268.9862909399
 20
5247.9054087839
 10
6270.1636612553
 20
5248.0593936584
 10
6271.4098258082
 20
5248.1713889233
 10
6272.7025465945
 20
5248.2393954947
 10
6274.0187553361
 20
5248.2621998593
  0
ARC
  5
B4
330
1F
100
AcDbEntity
  8
0
  6
Continuous
 62
     7
370
    25
100
AcDbCircle
 10
6274.0187553361
 20
5253.8192447341
 30
0.0
 40
12.35000000000066
100
AcDbArc
 50
341.240196777
 51
198.759803223
  0
ARC
  5
B5
330
1F
100
AcDbEntity
  8
0
  6
Continuous
 62
     7
370
    25
100
AcDbCircle
 10
6274.0187553361
 20
5253.8192447341
 30
0.0
 40
13.34999999999951
100
AcDbArc
 50
341.4832075352
 51
198.5167924648
  0
LWPOLYLINE
  5
B6
330
1F
100
AcDbEntity
  8
0
  6
Continuous
 62
     7
370
    25
100
AcDbPolyline
 90
       27
 70
   128
 43
0.0
 10
6283.2481275916
 20
5246.6153402879
 10
6283.3719003618
 20
5246.3549098998
 10
6283.3719003618
 20
5246.0237395085
 10
6283.1976685345
 20
5245.6956531919
 10
6282.8524514705
 20
5245.3767627544
 10
6282.3426790208
 20
5245.0730100341
 10
6281.6778478816
 20
5244.7900509528
 10
6280.870342315
 20
5244.5331586591
 10
6279.9352050431
 20
5244.3071164257
 10
6278.8898550577
 20
5244.1161366246
 10
6277.7537656154
 20
5243.963776908
 10
6276.5481000904
 20
5243.8528750158
 10
6275.2953176757
 20
5243.7854956902
 10
6274.0187553361
 20
5243.7628962166
 10
6272.7421929965
 20
5243.7854956902
 10
6271.4894105818
 20
5243.8528750158
 10
6270.2837450568
 20
5243.963776908
 10
6269.1476556145
 20
5244.1161366246
 10
6268.1023056291
 20
5244.3071164257
 10
6267.1671683572
 20
5244.5331586591
 10
6266.3596627906
 20
5244.7900509528
 10
6265.6948316514
 20
5245.0730100341
 10
6265.1850592017
 20
5245.3767627544
 10
6264.8398421377
 20
5245.6956531919
 10
6264.6656103104
 20
5246.0237395085
 10
6264.6656103104
 20
5246.3549098998
 10
6264.7893830806
 20
5246.6153402879
  0
ARC
  5
B7
330
1F
100
AcDbEntity
  8
0
  6
Continuous
 62
     7
370
    25
100
AcDbCircle
 10
6276.877003431
 20
5261.8696680452
 30
0.0
 40
14.98033312038228
100
AcDbArc
 50
281.6487331509
 51
286.308497418
  0
ARC
  5
B8
330
1F
100
AcDbEntity
  8
0
  6
Continuous
 62
     7
370
    25
100
AcDbCircle
 10
6272.4053192287
 20
5267.3709523147
 30
0.0
 40
20.6180791361962
100
AcDbArc
 50
255.6443666236
 51
263.8390313649
  0
LWPOLYLINE
  5
B9
330
1F
100
AcDbEntity
  8
0
  6
Continuous
 62
     7
370
    25
100
AcDbPolyline
 90
        3
 70
   128
 43
0.0
 10
6280.9954729535
 20
5247.5151538915
 10
6280.7789879523
 20
5247.453017912
 10
6279.8688855626
 20
5247.2326409138
  0
ARC
  5
BA
330
1F
100
AcDbEntity
  8
0
  6
Continuous
 62
     7
370
    25
100
AcDbCircle
 10
6274.0279875746
 20
5281.1795217228
 30
0.0
 40
34.48701846873175
100
AcDbArc
 50
268.6592626874
 51
274.9694066763
  0
ARC
  5
BB
330
1F
100
AcDbEntity
  8
0
  6
Continuous
 62
     7
370
    25
100
AcDbCircle
 10
6272.382309068
 20
5266.8613815186
 30
0.0
 40
20.07373234228097
100
AcDbArc
 50
255.3142724501
 51
263.7373640753
  0
LINE
  5
BC
330
1F
100
AcDbEntity
  8
0
  6
Continuous
 62
     7
370
    25
100
AcDbLine
 10
6529.3136881865
 20
5150.6318848647
 30
0.0
 11
6529.3136881865
 21
5161.2318854845
 31
0.0
  0
LINE
  5
BD
330
1F
100
AcDbEntity
  8
0
  6
Continuous
 62
     7
370
    25
100
AcDbLine
 10
6519.7636885769
 20
5137.3348858274
 30
0.0
 11
6521.7636886719
 21
5137.3348858274
 31
0.0
  0
LINE
  5
BE
330
1F
100
AcDbEntity
  8
0
  6
Continuous
 62
     7
370
    25
100
AcDbLine
 10
6521.7636886719
 20
5177.3348849333
 30
0.0
 11
6519.7636885769
 21
5177.3348849333
 31
0.0
  0
LINE
  5
BF
330
1F
100
AcDbEntity
  8
0
  6
Continuous
 62
     7
370
    25
100
AcDbLine
 10
6529.1636884413
 20
5161.634887389
 30
0.0
 11
6529.1636884413
 21
5164.7679608382
 31
0.0
  0
LINE
  5
C0
330
1F
100
AcDbEntity
  8
0
  6
Continuous
 62
     7
370
    25
100
AcDbLine
 10
6529.1636884413
 20
5149.9018099225
 30
0.0
 11
6529.1636884413
 21
5150.6318848647
 31
0.0
  0
ARC
  5
C1
330
1F
100
AcDbEntity
  8
0
  6
Continuous
 62
     7
370
    25
100
AcDbCircle
 10
6502.1677706347
 20
5157.3348863798
 30
0.0
 40
28.00000000000117
100
AcDbArc
 50
15.4032826823
 51
45.5846914028
  0
ARC
  5
C2
330
1F
100
AcDbEntity
  8
0
  6
Continuous
 62
     7
370
    25
100
AcDbCircle
 10
6502.1677706347
 20
5157.3348863798
 30
0.0
 40
28.00000000000065
100
AcDbArc
 50
314.4153085972
 51
344.5967841789
  0
LINE
  5
C3
330
1F
100
AcDbEntity
  8
0
  6
Continuous
 62
     7
370
    25
100
AcDbLine
 10
6519.7636885769
 20
5174.3348863042
 30
0.0
 11
6505.2636889942
 21
5174.3348863042
 31
0.0
  0
LINE
  5
C4
330
1F
100
AcDbEntity
  8
0
  6
Continuous
 62
     7
370
    25
100
AcDbLine
 10
6504.2636888302
 20
5140.3348844565
 30
0.0
 11
6519.7636885769
 21
5140.3348844565
 31
0.0
  0
LINE
  5
C5
330
1F
100
AcDbEntity
  8
0
  6
Continuous
 62
     7
370
    25
100
AcDbLine
 10
6503.763687817
 20
5140.8348854698
 30
0.0
 11
6504.2636888302
 21
5140.3348844565
 31
0.0
  0
ARC
  5
C6
330
1F
100
AcDbEntity
  8
0
  6
Continuous
 62
     7
370
    25
100
AcDbCircle
 10
6529.1242596764
 20
5249.898897326
 30
0.0
 40
19.99999999999966
100
AcDbArc
 50
203.360449188
 51
209.1400665415
  0
LINE
  5
C7
330
1F
100
AcDbEntity
  8
0
  6
Continuous
 62
     7
370
    25
100
AcDbLine
 10
6499.763689024
 20
5264.2692446775
 30
0.0
 11
6498.76368886
 21
5263.2692445136
 31
0.0
  0
LINE
  5
C8
330
1F
100
AcDbEntity
  8
0
  6
Continuous
 62
     7
370
    25
100
AcDbLine
 10
6498.76368886
 20
5244.3692449547
 30
0.0
 11
6499.763689024
 21
5243.3692447908
 31
0.0
  0
LINE
  5
C9
330
1F
100
AcDbEntity
  8
0
  6
Continuous
 62
     7
370
    25
100
AcDbLine
 10
6499.763689024
 20
5243.3692447908
 30
0.0
 11
6510.7636889644
 21
5243.3692447908
 31
0.0
  0
LINE
  5
CA
330
1F
100
AcDbEntity
  8
0
  6
Continuous
 62
     7
370
    25
100
AcDbLine
 10
6510.7636889644
 20
5264.2692446775
 30
0.0
 11
6499.763689024
 21
5264.2692446775
 31
0.0
  0
LINE
  5
CB
330
1F
100
AcDbEntity
  8
0
  6
Continuous
 62
     7
370
    25
100
AcDbLine
 10
6516.7636885508
 20
5276.8071040578
 30
0.0
 11
6515.6636885568
 21
5276.8071040578
 31
0.0
  0
LINE
  5
CC
330
1F
100
AcDbEntity
  8
0
  6
Continuous
 62
     7
370
    25
100
AcDbLine
 10
6515.6636885568
 20
5267.8071053765
 30
0.0
 11
6516.7636885508
 21
5267.8071053765
 31
0.0
  0
LINE
  5
CD
330
1F
100
AcDbEntity
  8
0
  6
Continuous
 62
     7
370
    25
100
AcDbLine
 10
6515.6636885568
 20
5276.3071049071
 30
0.0
 11
6504.7636889122
 21
5276.3071049071
 31
0.0
  0
LINE
  5
CE
330
1F
100
AcDbEntity
  8
0
  6
Continuous
 62
     7
370
    25
100
AcDbLine
 10
6504.7636889122
 20
5268.3071045271
 30
0.0
 11
6515.6636885568
 21
5268.3071045271
 31
0.0
  0
LINE
  5
CF
330
1F
100
AcDbEntity
  8
0
  6
Continuous
 62
     7
370
    25
100
AcDbLine
 10
6516.7636885508
 20
5239.8313840918
 30
0.0
 11
6515.6636885568
 21
5239.8313840918
 31
0.0
  0
LINE
  5
D0
330
1F
100
AcDbEntity
  8
0
  6
Continuous
 62
     7
370
    25
100
AcDbLine
 10
6515.6636885568
 20
5230.8313854105
 30
0.0
 11
6516.7636885508
 21
5230.8313854105
 31
0.0
  0
LINE
  5
D1
330
1F
100
AcDbEntity
  8
0
  6
Continuous
 62
     7
370
    25
100
AcDbLine
 10
6515.6636885568
 20
5239.3313849411
 30
0.0
 11
6504.7636889122
 21
5239.3313849411
 31
0.0
  0
LINE
  5
D2
330
1F
100
AcDbEntity
  8
0
  6
Continuous
 62
     7
370
    25
100
AcDbLine
 10
6504.7636889122
 20
5231.3313845612
 30
0.0
 11
6515.6636885568
 21
5231.3313845612
 31
0.0
  0
LINE
  5
D3
330
1F
100
AcDbEntity
  8
0
  6
Continuous
 62
     7
370
    25
100
AcDbLine
 10
6518.7636885294
 20
5288.8192448832
 30
0.0
 11
6516.7636885508
 21
5288.8192448832
 31
0.0
  0
LINE
  5
D4
330
1F
100
AcDbEntity
  8
0
  6
Continuous
 62
     7
370
    25
100
AcDbLine
 10
6516.7636885508
 20
5218.8192445851
 30
0.0
 11
6518.7636885294
 21
5218.8192445851
 31
0.0
  0
LINE
  5
D5
330
1F
100
AcDbEntity
  8
0
  6
Continuous
 62
     7
370
    25
100
AcDbLine
 10
6518.7636885294
 20
5218.8192445851
 30
0.0
 11
6519.7636885769
 21
5219.8192428864
 31
0.0
  0
LINE
  5
D6
330
1F
100
AcDbEntity
  8
0
  6
Continuous
 62
     7
370
    25
100
AcDbLine
 10
6519.7636885769
 20
5287.8192465819
 30
0.0
 11
6518.7636885294
 21
5288.8192448832
 31
0.0
  0
LINE
  5
D7
330
1F
100
AcDbEntity
  8
0
  6
Continuous
 62
     7
370
    25
100
AcDbLine
 10
6528.4136887841
 20
5240.4692450605
 30
0.0
 11
6650.7636858351
 21
5240.4692450605
 31
0.0
  0
LINE
  5
D8
330
1F
100
AcDbEntity
  8
0
  6
Continuous
 62
     7
370
    25
100
AcDbLine
 10
6519.7636885769
 20
5240.4692450605
 30
0.0
 11
6525.1344279587
 21
5240.4692450605
 31
0.0
  0
LINE
  5
D9
330
1F
100
AcDbEntity
  8
0
  6
Continuous
 62
     7
370
    25
100
AcDbLine
 10
6684.7636951334
 20
5267.1692444078
 30
0.0
 11
6519.7636885769
 21
5267.1692444078
 31
0.0
  0
LINE
  5
DA
330
1F
100
AcDbEntity
  8
0
  6
Continuous
 62
     7
370
    25
100
AcDbLine
 10
6685.7636822588
 20
5266.1692451752
 30
0.0
 11
6684.7636951334
 21
5267.1692444078
 31
0.0
  0
LINE
  5
DB
330
1F
100
AcDbEntity
  8
0
  6
Continuous
 62
     7
370
    25
100
AcDbLine
 10
6528.1933490388
 20
5161.2318854845
 30
0.0
 11
6527.348806636
 21
5161.2318854845
 31
0.0
  0
SPLINE
  5
DC
330
1F
100
AcDbEntity
  8
0
  6
Continuous
 62
     7
370
    25
100
AcDbSpline
210
0.0
220
0.0
230
1.0
 70
     8
 71
     3
 72
    21
 73
    17
 74
     0
 42
0.000000001
 43
0.00000001
 40
0.0
 40
0.0
 40
0.0
 40
0.0
 40
0.0563924509161646
 40
0.1144647359036489
 40
0.2283801523811929
 40
0.2859725302464446
 40
0.3454357687829082
 40
0.3994700236580079
 40
0.455535607894007
 40
0.5514763372485909
 40
0.6412974156775415
 40
0.7362572687083917
 40
0.8424094637182956
 40
0.8994467113577668
 40
0.9581275472652747
 40
1.0
 40
1.0
 40
1.0
 40
1.0
 10
6528.193349038768
 20
5150.63188486466
 30
0.0
 10
6528.09535191231
 20
5150.647898307207
 30
0.0
 10
6527.89643849363
 20
5150.6804022052
 30
0.0
 10
6527.45304862959
 20
5151.018787327038
 30
0.0
 10
6526.980697861884
 20
5151.653554689626
 30
0.0
 10
6526.548874489099
 20
5152.556506434191
 30
0.0
 10
6526.270914427854
 20
5153.345217303579
 30
0.0
 10
6526.059446062872
 20
5154.223873245338
 30
0.0
 10
6525.901146671806
 20
5155.375041959835
 30
0.0
 10
6525.90990308366
 20
5156.803012346035
 30
0.0
 10
6526.194586508454
 20
5158.343398684115
 30
0.0
 10
6526.682953163292
 20
5159.678469686706
 30
0.0
 10
6527.204508922691
 20
5160.538093740085
 30
0.0
 10
6527.646658557747
 20
5161.003990326285
 30
0.0
 10
6527.948239659529
 20
5161.201463268059
 30
0.0
 10
6528.121288112156
 20
5161.222941505674
 30
0.0
 10
6528.193349038768
 20
5161.231885484548
 30
0.0
  0
LINE
  5
DD
330
1F
100
AcDbEntity
  8
0
  6
Continuous
 62
     7
370
    25
100
AcDbLine
 10
6528.1933490388
 20
5150.6318848647
 30
0.0
 11
6528.0433492936
 21
5150.6318848647
 31
0.0
  0
LINE
  5
DE
330
1F
100
AcDbEntity
  8
0
  6
Continuous
 62
     7
370
    25
100
AcDbLine
 10
6529.3136881865
 20
5161.2318854845
 30
0.0
 11
6528.1933490388
 21
5161.2318854845
 31
0.0
  0
LINE
  5
DF
330
1F
100
AcDbEntity
  8
0
  6
Continuous
 62
     7
370
    25
100
AcDbLine
 10
6529.3136881865
 20
5150.6318848647
 30
0.0
 11
6528.1933490388
 21
5150.6318848647
 31
0.0
  0
LINE
  5
E0
330
1F
100
AcDbEntity
  8
0
  6
Continuous
 62
     7
370
    25
100
AcDbLine
 10
6521.7636886719
 20
5148.9706736124
 30
0.0
 11
6521.7636886719
 21
5137.3348858274
 31
0.0
  0
LINE
  5
E1
330
1F
100
AcDbEntity
  8
0
  6
Continuous
 62
     7
370
    25
100
AcDbLine
 10
6521.7636886719
 20
5177.3348849333
 30
0.0
 11
6521.7636886719
 21
5165.6990971483
 31
0.0
  0
SPLINE
  5
E2
330
1F
100
AcDbEntity
  8
0
  6
Continuous
 62
     7
370
    25
100
AcDbSpline
210
0.0
220
0.0
230
1.0
 70
     8
 71
     3
 72
    14
 73
    10
 74
     0
 42
0.000000001
 43
0.00000001
 40
0.0
 40
0.0
 40
0.0
 40
0.0
 40
0.1430766935901003
 40
0.2859712988975575
 40
0.4305969637245584
 40
0.5751098091763385
 40
0.7004104979420512
 40
0.8258433193288911
 40
1.0
 40
1.0
 40
1.0
 40
1.0
 10
6521.76368867192
 20
5165.699097148271
 30
0.0
 10
6521.454434239098
 20
5164.968708521196
 30
0.0
 10
6520.836318949843
 20
5163.508860804956
 30
0.0
 10
6520.14306641597
 20
5161.109008192658
 30
0.0
 10
6519.764538294698
 20
5158.580060066524
 30
0.0
 10
6519.761916681568
 20
5156.101667353837
 30
0.0
 10
6520.111302308638
 20
5153.791185376036
 30
0.0
 10
6520.744218882249
 20
5151.399891742209
 30
0.0
 10
6521.388915257196
 20
5149.863693084749
 30
0.0
 10
6521.76368867192
 20
5148.970673612447
 30
0.0
  0
LINE
  5
E3
330
1F
100
AcDbEntity
  8
0
  6
Continuous
 62
     7
370
    25
100
AcDbLine
 10
6519.7636885769
 20
5137.3348858274
 30
0.0
 11
6519.7636885769
 21
5177.3348849333
 31
0.0
  0
SPLINE
  5
E4
330
1F
100
AcDbEntity
  8
0
  6
Continuous
 62
     7
370
    25
100
AcDbSpline
210
0.0
220
0.0
230
1.0
 70
     8
 71
     3
 72
    16
 73
    12
 74
     0
 42
0.000000001
 43
0.00000001
 40
0.0
 40
0.0
 40
0.0
 40
0.0
 40
0.0837332163987545
 40
0.1935275300047362
 40
0.303322075790217
 40
0.4097411535796316
 40
0.5161606112002278
 40
0.625642279093176
 40
0.7351245444360958
 40
0.8668672699839232
 40
1.0
 40
1.0
 40
1.0
 40
1.0
 10
6529.148582389164
 20
5164.76796083817
 30
0.0
 10
6529.144082394533
 20
5164.768559914582
 30
0.0
 10
6529.133681828504
 20
5164.769944523739
 30
0.0
 10
6528.899181340233
 20
5164.801356890961
 30
0.0
 10
6528.485337332098
 20
5164.85638570238
 30
0.0
 10
6527.893074774028
 20
5164.934486234018
 30
0.0
 10
6527.134533522243
 20
5165.033332975915
 30
0.0
 10
6526.200664892038
 20
5165.153334171601
 30
0.0
 10
6525.016497282641
 20
5165.302870470677
 30
0.0
 10
6523.568383172938
 20
5165.48250670986
 30
0.0
 10
6522.367354411646
 20
5165.626648195195
 30
0.0
 10
6521.76368867192
 20
5165.699097148271
 30
0.0
  0
SPLINE
  5
E5
330
1F
100
AcDbEntity
  8
0
  6
Continuous
 62
     7
370
    25
100
AcDbSpline
210
0.0
220
0.0
230
1.0
 70
     8
 71
     3
 72
    17
 73
    13
 74
     0
 42
0.000000001
 43
0.00000001
 40
0.0
 40
0.0
 40
0.0
 40
0.0
 40
0.1072307497370867
 40
0.2144610887769972
 40
0.3247901733379786
 40
0.4351187354235224
 40
0.5423600873228768
 40
0.6496010065176178
 40
0.7599906870021278
 40
0.8703800738912395
 40
0.9770556207864908
 40
1.0
 40
1.0
 40
1.0
 40
1.0
 10
6521.76368867192
 20
5148.970673612447
 30
0.0
 10
6522.252714564318
 20
5149.029276872306
 30
0.0
 10
6523.230764476128
 20
5149.146483167571
 30
0.0
 10
6524.540014829009
 20
5149.307611921773
 30
0.0
 10
6525.71939223014
 20
5149.455312221869
 30
0.0
 10
6526.73513479822
 20
5149.584898875902
 30
0.0
 10
6527.575739285943
 20
5149.693770806988
 30
0.0
 10
6528.246756883525
 20
5149.7818315593
 30
0.0
 10
6528.74907381422
 20
5149.848397848086
 30
0.0
 10
6529.051105213811
 20
5149.888763104688
 30
0.0
 10
6529.179223085081
 20
5149.905915696304
 30
0.0
 10
6529.153190490286
 20
5149.902427396142
 30
0.0
 10
6529.148582389164
 20
5149.901809922548
 30
0.0
  0
LINE
  5
E6
330
1F
100
AcDbEntity
  8
0
  6
Continuous
 62
     7
370
    25
100
AcDbLine
 10
6529.1636884413
 20
5161.634887389
 30
0.0
 11
6528.0584674529
 21
5161.634887389
 31
0.0
  0
SPLINE
  5
E7
330
1F
100
AcDbEntity
  8
0
  6
Continuous
 62
     7
370
    25
100
AcDbSpline
210
0.0
220
0.0
230
1.0
 70
     8
 71
     3
 72
    22
 73
    18
 74
     0
 42
0.000000001
 43
0.00000001
 40
0.0
 40
0.0
 40
0.0
 40
0.0
 40
0.0571139957312256
 40
0.1142446679805215
 40
0.1712812946826628
 40
0.2283160846088793
 40
0.286894874341428
 40
0.3454363020598952
 40
0.4005982207017019
 40
0.455716914407759
 40
0.5514772296635124
 40
0.6408993774086479
 40
0.7355967708963292
 40
0.8417601729816068
 40
0.8996883266303977
 40
0.9576042608099208
 40
1.0
 40
1.0
 40
1.0
 40
1.0
 10
6528.058467452932
 20
5161.634887389036
 30
0.0
 10
6527.955775408765
 20
5161.617627977523
 30
0.0
 10
6527.750361335734
 20
5161.583104114982
 30
0.0
 10
6527.4045508149
 20
5161.318356687969
 30
0.0
 10
6527.046493950053
 20
5160.907099165778
 30
0.0
 10
6526.686975290296
 20
5160.344222905649
 30
0.0
 10
6526.345783089476
 20
5159.636543576863
 30
0.0
 10
6526.051558473844
 20
5158.81334623278
 30
0.0
 10
6525.831415706862
 20
5157.903528869136
 30
0.0
 10
6525.664107860268
 20
5156.70888153677
 30
0.0
 10
6525.673646092871
 20
5155.234556552285
 30
0.0
 10
6525.971742667632
 20
5153.639824966343
 30
0.0
 10
6526.482553441407
 20
5152.255868451349
 30
0.0
 10
6527.029403301031
 20
5151.358298519444
 30
0.0
 10
6527.489973254324
 20
5150.874264208122
 30
0.0
 10
6527.804749223109
 20
5150.666826779026
 30
0.0
 10
6527.983092448183
 20
5150.644376034388
 30
0.0
 10
6528.058467452932
 20
5150.63488744864
 30
0.0
  0
LINE
  5
E8
330
1F
100
AcDbEntity
  8
0
  6
Continuous
 62
     7
370
    25
100
AcDbLine
 10
6505.2636889942
 20
5174.3348863042
 30
0.0
 11
6505.2636889942
 21
5173.9493411101
 31
0.0
  0
LINE
  5
E9
330
1F
100
AcDbEntity
  8
0
  6
Continuous
 62
     7
370
    25
100
AcDbLine
 10
6504.2636888302
 20
5173.9493411101
 30
0.0
 11
6504.2636888302
 21
5140.3348844565
 31
0.0
  0
LINE
  5
EA
330
1F
100
AcDbEntity
  8
0
  6
Continuous
 62
     7
370
    25
100
AcDbLine
 10
6505.2636889942
 20
5173.9493411101
 30
0.0
 11
6504.2636888302
 21
5173.9493411101
 31
0.0
  0
LINE
  5
EB
330
1F
100
AcDbEntity
  8
0
  6
Continuous
 62
     7
370
    25
100
AcDbLine
 10
6503.763687817
 20
5140.8348854698
 30
0.0
 11
6503.763687817
 21
5173.4373670138
 31
0.0
  0
LINE
  5
EC
330
1F
100
AcDbEntity
  8
0
  6
Continuous
 62
     7
370
    25
100
AcDbLine
 10
6503.763687817
 20
5173.4373670138
 30
0.0
 11
6504.2636888302
 21
5173.9493411101
 31
0.0
  0
SPLINE
  5
ED
330
1F
100
AcDbEntity
  8
0
  6
Continuous
 62
     7
370
    25
100
AcDbSpline
210
0.0
220
0.0
230
1.0
 70
     8
 71
     3
 72
    11
 73
     7
 74
     0
 42
0.000000001
 43
0.00000001
 40
0.0
 40
0.0
 40
0.0
 40
0.0
 40
0.2654410366516099
 40
0.5370210177660762
 40
0.7666329688284753
 40
1.0
 40
1.0
 40
1.0
 40
1.0
 10
6511.763688196946
 20
5267.665039568336
 30
0.0
 10
6511.479279893084
 20
5267.088301316707
 30
0.0
 10
6510.903885678507
 20
5265.921486393207
 30
0.0
 10
6510.766078593692
 20
5264.206967773267
 30
0.0
 10
6510.999202508894
 20
5262.569531217252
 30
0.0
 10
6511.50748545871
 20
5261.565340458228
 30
0.0
 10
6511.763688196946
 20
5261.05917273754
 30
0.0
  0
SPLINE
  5
EE
330
1F
100
AcDbEntity
  8
0
  6
Continuous
 62
     7
370
    25
100
AcDbSpline
210
0.0
220
0.0
230
1.0
 70
     8
 71
     3
 72
    11
 73
     7
 74
     0
 42
0.000000001
 43
0.00000001
 40
0.0
 40
0.0
 40
0.0
 40
0.0
 40
0.2654409926857714
 40
0.5370210086272992
 40
0.766632973007509
 40
1.0
 40
1.0
 40
1.0
 40
1.0
 10
6511.763688196946
 20
5261.05917273754
 30
0.0
 10
6511.479279890715
 20
5259.850338868127
 30
0.0
 10
6510.903885585832
 20
5257.404713656862
 30
0.0
 10
6510.76607861373
 20
5253.811107729279
 30
0.0
 10
6510.999202481303
 20
5250.379065530229
 30
0.0
 10
6511.507485455876
 20
5248.274297770738
 30
0.0
 10
6511.763688196946
 20
5247.213378369005
 30
0.0
  0
SPLINE
  5
EF
330
1F
100
AcDbEntity
  8
0
  6
Continuous
 62
     7
370
    25
100
AcDbSpline
210
0.0
220
0.0
230
1.0
 70
     8
 71
     3
 72
    11
 73
     7
 74
     0
 42
0.000000001
 43
0.00000001
 40
0.0
 40
0.0
 40
0.0
 40
0.0
 40
0.2474963638084663
 40
0.5000008345180427
 40
0.7476670489831468
 40
1.0
 40
1.0
 40
1.0
 40
1.0
 10
6511.763688196946
 20
5247.213378369005
 30
0.0
 10
6511.4949086774
 20
5246.624576703621
 30
0.0
 10
6510.951910865208
 20
5245.435058928379
 30
0.0
 10
6510.764792570209
 20
5243.605225923668
 30
0.0
 10
6510.949177028692
 20
5241.763728936147
 30
0.0
 10
6511.490500329228
 20
5240.573911295173
 30
0.0
 10
6511.763688196946
 20
5239.973449899943
 30
0.0
  0
LINE
  5
F0
330
1F
100
AcDbEntity
  8
0
  6
Continuous
 62
     7
370
    25
100
AcDbLine
 10
6511.7636881969
 20
5239.9734498999
 30
0.0
 11
6511.6792330719
 21
5240.17288611
 31
0.0
  0
LINE
  5
F1
330
1F
100
AcDbEntity
  8
0
  6
Continuous
 62
     7
370
    25
100
AcDbLine
 10
6510.7636889644
 20
5243.7164884127
 30
0.0
 11
6510.7636889644
 21
5265.6698774613
 31
0.0
  0
LINE
  5
F2
330
1F
100
AcDbEntity
  8
0
  6
Continuous
 62
     7
370
    25
100
AcDbLine
 10
6510.7636889644
 20
5241.968612007
 30
0.0
 11
6510.7636889644
 21
5243.7164884127
 31
0.0
  0
LINE
  5
F3
330
1F
100
AcDbEntity
  8
0
  6
Continuous
 62
     7
370
    25
100
AcDbLine
 10
6511.7636881969
 20
5247.213378369
 30
0.0
 11
6516.7636885508
 21
5247.213378369
 31
0.0
  0
LINE
  5
F4
330
1F
100
AcDbEntity
  8
0
  6
Continuous
 62
     7
370
    25
100
AcDbLine
 10
6511.7636881969
 20
5261.0591727375
 30
0.0
 11
6516.7636885508
 21
5261.0591727375
 31
0.0
  0
LINE
  5
F5
330
1F
100
AcDbEntity
  8
0
  6
Continuous
 62
     7
370
    25
100
AcDbLine
 10
6511.7636881969
 20
5239.9734498999
 30
0.0
 11
6516.7636885508
 21
5239.9734498999
 31
0.0
  0
LINE
  5
F6
330
1F
100
AcDbEntity
  8
0
  6
Continuous
 62
     7
370
    25
100
AcDbLine
 10
6511.7636881969
 20
5267.6650395683
 30
0.0
 11
6516.7636885508
 21
5267.6650395683
 31
0.0
  0
LINE
  5
F7
330
1F
100
AcDbEntity
  8
0
  6
Continuous
 62
     7
370
    25
100
AcDbLine
 10
6498.76368886
 20
5250.9109343469
 30
0.0
 11
6498.76368886
 21
5263.2692445136
 31
0.0
  0
LINE
  5
F8
330
1F
100
AcDbEntity
  8
0
  6
Continuous
 62
     7
370
    25
100
AcDbLine
 10
6498.76368886
 20
5244.3692449547
 30
0.0
 11
6498.76368886
 21
5250.9109343469
 31
0.0
  0
LINE
  5
F9
330
1F
100
AcDbEntity
  8
0
  6
Continuous
 62
     7
370
    25
100
AcDbLine
 10
6499.763689024
 20
5250.6031767066
 30
0.0
 11
6499.763689024
 21
5243.3692447908
 31
0.0
  0
LINE
  5
FA
330
1F
100
AcDbEntity
  8
0
  6
Continuous
 62
     7
370
    25
100
AcDbLine
 10
6499.763689024
 20
5264.2692446775
 30
0.0
 11
6499.763689024
 21
5250.6031767066
 31
0.0
  0
LINE
  5
FB
330
1F
100
AcDbEntity
  8
0
  6
Continuous
 62
     7
370
    25
100
AcDbLine
 10
6525.6522610053
 20
5240.4692450605
 30
0.0
 11
6525.2636885471
 21
5240.4692450605
 31
0.0
  0
LINE
  5
FC
330
1F
100
AcDbEntity
  8
0
  6
Continuous
 62
     7
370
    25
100
AcDbLine
 10
6528.2636890389
 20
5240.4692450605
 30
0.0
 11
6525.6522610053
 21
5240.4692450605
 31
0.0
  0
LINE
  5
FD
330
1F
100
AcDbEntity
  8
0
  6
Continuous
 62
     7
370
    25
100
AcDbLine
 10
6515.6636885568
 20
5276.8071040578
 30
0.0
 11
6515.6636885568
 21
5267.8071053765
 31
0.0
  0
LINE
  5
FE
330
1F
100
AcDbEntity
  8
0
  6
Continuous
 62
     7
370
    25
100
AcDbLine
 10
6504.7636889122
 20
5276.3071049071
 30
0.0
 11
6504.7636889122
 21
5268.3071045271
 31
0.0
  0
LINE
  5
FF
330
1F
100
AcDbEntity
  8
0
  6
Continuous
 62
     7
370
    25
100
AcDbLine
 10
6515.6636885568
 20
5239.8313840918
 30
0.0
 11
6515.6636885568
 21
5230.8313854105
 31
0.0
  0
LINE
  5
100
330
1F
100
AcDbEntity
  8
0
  6
Continuous
 62
     7
370
    25
100
AcDbLine
 10
6504.7636889122
 20
5239.3313849411
 30
0.0
 11
6504.7636889122
 21
5231.3313845612
 31
0.0
  0
LINE
  5
101
330
1F
100
AcDbEntity
  8
0
  6
Continuous
 62
     7
370
    25
100
AcDbLine
 10
6516.7636885508
 20
5288.8192448832
 30
0.0
 11
6516.7636885508
 21
5218.8192445851
 31
0.0
  0
LINE
  5
102
330
1F
100
AcDbEntity
  8
0
  6
Continuous
 62
     7
370
    25
100
AcDbLine
 10
6518.7636885294
 20
5218.8192445851
 30
0.0
 11
6518.7636885294
 21
5288.8192448832
 31
0.0
  0
LINE
  5
103
330
1F
100
AcDbEntity
  8
0
  6
Continuous
 62
     7
370
    25
100
AcDbLine
 10
6519.7636885769
 20
5287.8192465819
 30
0.0
 11
6519.7636885769
 21
5219.8192428864
 31
0.0
  0
LINE
  5
104
330
1F
100
AcDbEntity
  8
0
  6
Continuous
 62
     7
370
    25
100
AcDbLine
 10
6684.7636951334
 20
5249.5795174568
 30
0.0
 11
6684.7636951334
 21
5267.1692444078
 31
0.0
  0
LWPOLYLINE
  5
105
330
1F
100
AcDbEntity
  8
0
  6
Continuous
 62
     7
370
    25
100
AcDbPolyline
 90
       23
 70
   128
 43
0.0
 10
6650.7636858351
 20
5240.4692450605
 10
6650.7846517689
 20
5240.4748637296
 10
6650.9523047335
 20
5240.519786074
 10
6651.2870444186
 20
5240.6094789571
 10
6651.787753237
 20
5240.7436424933
 10
6652.4527324564
 20
5240.9218221969
 10
6653.2797469027
 20
5241.143420159
 10
6654.2660100586
 20
5241.4076894588
 10
6655.4082138665
 20
5241.7137416146
 10
6656.7024989254
 20
5242.060544721
 10
6658.1445140965
 20
5242.4469327621
 10
6659.7294165022
 20
5242.8716046802
 10
6661.4518566258
 20
5243.333129964
 10
6663.3060379155
 20
5243.8299551673
 10
6665.2857167847
 20
5244.3604094974
 10
6667.3842324145
 20
5244.9227048151
 10
6669.5945216544
 20
5245.5149496041
 10
6671.9091339238
 20
5246.1351499028
 10
6674.3202908165
 20
5246.7812181517
 10
6676.8198711998
 20
5247.4509787812
 10
6679.3994559176
 20
5248.1421775251
 10
6682.050372494
 20
5248.8524874739
 10
6684.7636951334
 20
5249.5795174568
  0
ARC
  5
106
330
1F
100
AcDbEntity
  8
0
  6
Continuous
 62
     7
370
    25
100
AcDbCircle
 10
6526.7637603855
 20
5227.1738420023
 30
0.0
 40
13.39738803647205
100
AcDbArc
 50
82.9258942177
 51
96.9853571133
  0
LINE
  5
107
330
1F
100
AcDbEntity
  8
0
  6
Continuous
 62
     7
370
    25
100
AcDbLine
 10
6685.7636822588
 20
5266.1692451752
 30
0.0
 11
6685.7636822588
 21
5249.8474664121
 31
0.0
  0
LINE
  5
108
330
1F
100
AcDbEntity
  8
0
  6
Continuous
 62
     7
370
    25
100
AcDbLine
 10
6685.7636822588
 20
5249.8474664121
 30
0.0
 11
6684.7636951334
 21
5249.5795174568
 31
0.0
  0
LINE
  5
109
330
1F
100
AcDbEntity
  8
0
  6
Continuous
 62
     7
370
    25
100
AcDbLine
 10
6291.01875626
 20
4936.6276663223
 30
0.0
 11
6291.01875626
 21
4949.1276660429
 31
0.0
  0
LINE
  5
10A
330
1F
100
AcDbEntity
  8
0
  6
Continuous
 62
     7
370
    25
100
AcDbLine
 10
6257.0187544122
 20
4949.1276660429
 30
0.0
 11
6257.0187544122
 21
4936.6276663223
 31
0.0
  0
LINE
  5
10B
330
1F
100
AcDbEntity
  8
0
  6
Continuous
 62
     7
370
    25
100
AcDbLine
 10
6291.01875626
 20
4949.1276660429
 30
0.0
 11
6290.5187552467
 21
4949.6276670562
 31
0.0
  0
LINE
  5
10C
330
1F
100
AcDbEntity
  8
0
  6
Continuous
 62
     7
370
    25
100
AcDbLine
 10
6257.5187554255
 20
4949.6276670562
 30
0.0
 11
6257.0187544122
 21
4949.1276660429
 31
0.0
  0
ARC
  5
10D
330
1F
100
AcDbEntity
  8
0
  6
Continuous
 62
     7
370
    25
100
AcDbCircle
 10
6270.098407928
 20
4924.2670951967
 30
0.0
 40
20.00000000000039
100
AcDbArc
 50
113.360449188
 51
113.8393719267
  0
ARC
  5
10E
330
1F
100
AcDbEntity
  8
0
  6
Continuous
 62
     7
370
    25
100
AcDbCircle
 10
6277.9391027442
 20
4924.2670951967
 30
0.0
 40
20.00000000000066
100
AcDbArc
 50
66.1606707915
 51
66.639550812
  0
LINE
  5
10F
330
1F
100
AcDbEntity
  8
0
  6
Continuous
 62
     7
370
    25
100
AcDbLine
 10
6284.4687552795
 20
4953.6276658492
 30
0.0
 11
6283.4687551156
 21
4954.6276660131
 31
0.0
  0
LINE
  5
110
330
1F
100
AcDbEntity
  8
0
  6
Continuous
 62
     7
370
    25
100
AcDbLine
 10
6264.5687555566
 20
4954.6276660131
 30
0.0
 11
6263.5687553927
 21
4953.6276658492
 31
0.0
  0
LINE
  5
111
330
1F
100
AcDbEntity
  8
0
  6
Continuous
 62
     7
370
    25
100
AcDbLine
 10
6263.5687553927
 20
4953.6276658492
 30
0.0
 11
6263.5687553927
 21
4942.6276659088
 31
0.0
  0
LINE
  5
112
330
1F
100
AcDbEntity
  8
0
  6
Continuous
 62
     7
370
    25
100
AcDbLine
 10
6284.4687552795
 20
4942.6276659088
 30
0.0
 11
6284.4687552795
 21
4953.6276658492
 31
0.0
  0
LINE
  5
113
330
1F
100
AcDbEntity
  8
0
  6
Continuous
 62
     7
370
    25
100
AcDbLine
 10
6279.1888491854
 20
4936.6276663223
 30
0.0
 11
6279.1888491854
 21
4937.7276663164
 31
0.0
  0
LINE
  5
114
330
1F
100
AcDbEntity
  8
0
  6
Continuous
 62
     7
370
    25
100
AcDbLine
 10
6270.18884934
 20
4937.7276663164
 30
0.0
 11
6270.18884934
 21
4936.6276663223
 31
0.0
  0
LINE
  5
115
330
1F
100
AcDbEntity
  8
0
  6
Continuous
 62
     7
370
    25
100
AcDbLine
 10
6278.6888491034
 20
4937.7276663164
 30
0.0
 11
6278.6888491034
 21
4948.627665961
 31
0.0
  0
LINE
  5
116
330
1F
100
AcDbEntity
  8
0
  6
Continuous
 62
     7
370
    25
100
AcDbLine
 10
6270.6888491891
 20
4948.627665961
 30
0.0
 11
6270.6888491891
 21
4937.7276663164
 31
0.0
  0
LINE
  5
117
330
1F
100
AcDbEntity
  8
0
  6
Continuous
 62
     7
370
    25
100
AcDbLine
 10
6309.0187554851
 20
4934.6276663437
 30
0.0
 11
6309.0187554851
 21
4936.6276663223
 31
0.0
  0
LINE
  5
118
330
1F
100
AcDbEntity
  8
0
  6
Continuous
 62
     7
370
    25
100
AcDbLine
 10
6239.0187551871
 20
4936.6276663223
 30
0.0
 11
6239.0187551871
 21
4934.6276663437
 31
0.0
  0
LINE
  5
119
330
1F
100
AcDbEntity
  8
0
  6
Continuous
 62
     7
370
    25
100
AcDbLine
 10
6239.0187551871
 20
4934.6276663437
 30
0.0
 11
6240.0187534884
 21
4933.6276662962
 31
0.0
  0
LINE
  5
11A
330
1F
100
AcDbEntity
  8
0
  6
Continuous
 62
     7
370
    25
100
AcDbLine
 10
6308.0187571838
 20
4933.6276662962
 30
0.0
 11
6309.0187554851
 21
4934.6276663437
 31
0.0
  0
LINE
  5
11B
330
1F
100
AcDbEntity
  8
0
  6
Continuous
 62
     7
370
    25
100
AcDbLine
 10
6260.6687556624
 20
4933.6276662962
 30
0.0
 11
6260.6687556624
 21
4768.6276597397
 31
0.0
  0
LINE
  5
11C
330
1F
100
AcDbEntity
  8
0
  6
Continuous
 62
     7
370
    25
100
AcDbLine
 10
6287.3687550098
 20
4768.6276597397
 30
0.0
 11
6287.3687550098
 21
4933.6276662962
 31
0.0
  0
LINE
  5
11D
330
1F
100
AcDbEntity
  8
0
  6
Continuous
 62
     7
370
    25
100
AcDbLine
 10
6260.6687556624
 20
4768.6276597397
 30
0.0
 11
6261.668754895
 21
4767.6276726143
 31
0.0
  0
LINE
  5
11E
330
1F
100
AcDbEntity
  8
0
  6
Continuous
 62
     7
370
    25
100
AcDbLine
 10
6286.3687557772
 20
4767.6276726143
 30
0.0
 11
6287.3687550098
 21
4768.6276597397
 31
0.0
  0
SPLINE
  5
11F
330
1F
100
AcDbEntity
  8
0
  6
Continuous
 62
     7
370
    25
100
AcDbSpline
210
0.0
220
0.0
230
1.0
 70
     8
 71
     3
 72
    11
 73
     7
 74
     0
 42
0.000000001
 43
0.00000001
 40
0.0
 40
0.0
 40
0.0
 40
0.0
 40
0.1502555683008592
 40
0.3978828354969677
 40
0.6517130619722157
 40
1.0
 40
1.0
 40
1.0
 40
1.0
 10
6293.975729648763
 20
4933.562757769398
 30
0.0
 10
6293.984137668637
 20
4933.572744693935
 30
0.0
 10
6294.006402446083
 20
4933.599190474934
 30
0.0
 10
6293.732942968342
 20
4933.27417895184
 30
0.0
 10
6293.194618952638
 20
4932.653155067484
 30
0.0
 10
6292.555466808729
 20
4932.003468847983
 30
0.0
 10
6292.185757462675
 20
4931.627666201241
 30
0.0
  0
LINE
  5
120
330
1F
100
AcDbEntity
  8
0
  6
Continuous
 62
     7
370
    25
100
AcDbLine
 10
6292.1857574627
 20
4931.6276662012
 30
0.0
 11
6287.3687550098
 21
4931.6276662012
 31
0.0
  0
LINE
  5
121
330
1F
100
AcDbEntity
  8
0
  6
Continuous
 62
     7
370
    25
100
AcDbLine
 10
6260.6687556624
 20
4931.6276662012
 30
0.0
 11
6255.8517532095
 21
4931.6276662012
 31
0.0
  0
SPLINE
  5
122
330
1F
100
AcDbEntity
  8
0
  6
Continuous
 62
     7
370
    25
100
AcDbSpline
210
0.0
220
0.0
230
1.0
 70
     8
 71
     3
 72
    11
 73
     7
 74
     0
 42
0.000000001
 43
0.00000001
 40
0.0
 40
0.0
 40
0.0
 40
0.0
 40
0.2831527391837539
 40
0.5719121895733552
 40
0.8556550767847578
 40
1.0
 40
1.0
 40
1.0
 40
1.0
 10
6255.851753209526
 20
4931.627666201241
 30
0.0
 10
6255.547082004216
 20
4931.935166315403
 30
0.0
 10
6254.931706794954
 20
4932.556255357632
 30
0.0
 10
6254.343806777065
 20
4933.227085856727
 30
0.0
 10
6254.027253144434
 20
4933.603873727307
 30
0.0
 10
6254.053074456271
 20
4933.573125589822
 30
0.0
 10
6254.061781023437
 20
4933.562757769398
 30
0.0
  0
SPLINE
  5
123
330
1F
100
AcDbEntity
  8
0
  6
Continuous
 62
     7
370
    25
100
AcDbSpline
210
0.0
220
0.0
230
1.0
 70
     8
 71
     3
 72
    10
 73
     6
 74
     0
 42
0.000000001
 43
0.00000001
 40
0.0
 40
0.0
 40
0.0
 40
0.0
 40
0.4781841370383747
 40
0.9578782281686218
 40
1.0
 40
1.0
 40
1.0
 40
1.0
 10
6292.185757462675
 20
4931.627666201241
 30
0.0
 10
6291.466653597789
 20
4930.978805140066
 30
0.0
 10
6290.026175165709
 20
4929.679034119939
 30
0.0
 10
6288.378522972819
 20
4928.473124242078
 30
0.0
 10
6287.444176852746
 20
4927.974424497833
 30
0.0
 10
6287.368755009765
 20
4927.934168694339
 30
0.0
  0
SPLINE
  5
124
330
1F
100
AcDbEntity
  8
0
  6
Continuous
 62
     7
370
    25
100
AcDbSpline
210
0.0
220
0.0
230
1.0
 70
     8
 71
     3
 72
    10
 73
     6
 74
     0
 42
0.000000001
 43
0.00000001
 40
0.0
 40
0.0
 40
0.0
 40
0.0
 40
0.1242959737679685
 40
0.5621462023674171
 40
1.0
 40
1.0
 40
1.0
 40
1.0
 10
6260.668755662436
 20
4927.953504347972
 30
0.0
 10
6260.447986846632
 20
4928.074871279819
 30
0.0
 10
6259.449528508499
 20
4928.623770473916
 30
0.0
 10
6257.815738809258
 20
4929.837593427337
 30
0.0
 10
6256.506416854868
 20
4931.030973655354
 30
0.0
 10
6255.851753209526
 20
4931.627666201241
 30
0.0
  0
LINE
  5
125
330
1F
100
AcDbEntity
  8
0
  6
Continuous
 62
     7
370
    25
100
AcDbLine
 10
6263.5687553927
 20
4949.1276660429
 30
0.0
 11
6257.0187544122
 21
4949.1276660429
 31
0.0
  0
LINE
  5
126
330
1F
100
AcDbEntity
  8
0
  6
Continuous
 62
     7
370
    25
100
AcDbLine
 10
6291.01875626
 20
4949.1276660429
 30
0.0
 11
6284.4687552795
 21
4949.1276660429
 31
0.0
  0
LINE
  5
127
330
1F
100
AcDbEntity
  8
0
  6
Continuous
 62
     7
370
    25
100
AcDbLine
 10
6284.4687552795
 20
4949.6276670562
 30
0.0
 11
6290.5187552467
 21
4949.6276670562
 31
0.0
  0
LINE
  5
128
330
1F
100
AcDbEntity
  8
0
  6
Continuous
 62
     7
370
    25
100
AcDbLine
 10
6257.5187554255
 20
4949.6276670562
 30
0.0
 11
6263.5687553927
 21
4949.6276670562
 31
0.0
  0
LINE
  5
129
330
1F
100
AcDbEntity
  8
0
  6
Continuous
 62
     7
370
    25
100
AcDbLine
 10
6262.2109839365
 20
4941.6276666762
 30
0.0
 11
6262.2109839365
 21
4936.6276663223
 31
0.0
  0
SPLINE
  5
12A
330
1F
100
AcDbEntity
  8
0
  6
Continuous
 62
     7
370
    25
100
AcDbSpline
210
0.0
220
0.0
230
1.0
 70
     8
 71
     3
 72
    10
 73
     6
 74
     0
 42
0.000000001
 43
0.00000001
 40
0.0
 40
0.0
 40
0.0
 40
0.0
 40
0.3334132226537139
 40
0.664003371174851
 40
1.0
 40
1.0
 40
1.0
 40
1.0
 10
6270.688849189127
 20
4942.392736064068
 30
0.0
 10
6269.740272219437
 20
4942.477062210598
 30
0.0
 10
6267.851150064416
 20
4942.645000497891
 30
0.0
 10
6264.993510947886
 20
4942.383921488732
 30
0.0
 10
6263.143494578182
 20
4941.881110994139
 30
0.0
 10
6262.210983936483
 20
4941.627666676215
 30
0.0
  0
SPLINE
  5
12B
330
1F
100
AcDbEntity
  8
0
  6
Continuous
 62
     7
370
    25
100
AcDbSpline
210
0.0
220
0.0
230
1.0
 70
     8
 71
     3
 72
    10
 73
     6
 74
     0
 42
0.000000001
 43
0.00000001
 40
0.0
 40
0.0
 40
0.0
 40
0.0
 40
0.3902320089646057
 40
0.7883603909791287
 40
1.0
 40
1.0
 40
1.0
 40
1.0
 10
6286.192602631444
 20
4941.627666676215
 30
0.0
 10
6285.232709477546
 20
4941.891800031947
 30
0.0
 10
6283.29349966205
 20
4942.425411501053
 30
0.0
 10
6280.756816723229
 20
4942.644393201132
 30
0.0
 10
6279.221670882169
 20
4942.495034771753
 30
0.0
 10
6278.688849103445
 20
4942.443195121161
 30
0.0
  0
SPLINE
  5
12C
330
1F
100
AcDbEntity
  8
0
  6
Continuous
 62
     7
370
    25
100
AcDbSpline
210
0.0
220
0.0
230
1.0
 70
     8
 71
     3
 72
    11
 73
     7
 74
     0
 42
0.000000001
 43
0.00000001
 40
0.0
 40
0.0
 40
0.0
 40
0.0
 40
0.2654409926857714
 40
0.5370210086272992
 40
0.766632973007509
 40
1.0
 40
1.0
 40
1.0
 40
1.0
 10
6262.210983936483
 20
4941.627666676215
 30
0.0
 10
6262.179022778295
 20
4941.912074982446
 30
0.0
 10
6262.114361275813
 20
4942.48746928733
 30
0.0
 10
6262.019348659016
 20
4942.625276259431
 30
0.0
 10
6261.928607134008
 20
4942.392152391858
 30
0.0
 10
6261.872958188296
 20
4941.883869417285
 30
0.0
 10
6261.844908040756
 20
4941.627666676215
 30
0.0
  0
SPLINE
  5
12D
330
1F
100
AcDbEntity
  8
0
  6
Continuous
 62
     7
370
    25
100
AcDbSpline
210
0.0
220
0.0
230
1.0
 70
     8
 71
     3
 72
    10
 73
     6
 74
     0
 42
0.000000001
 43
0.00000001
 40
0.0
 40
0.0
 40
0.0
 40
0.0
 40
0.0308552672453908
 40
0.5114974346075457
 40
1.0
 40
1.0
 40
1.0
 40
1.0
 10
6286.017852988834
 20
4942.549038069121
 30
0.0
 10
6286.019669828422
 20
4942.552812832083
 30
0.0
 10
6286.049788147637
 20
4942.615388260643
 30
0.0
 10
6286.108946007256
 20
4942.362272486898
 30
0.0
 10
6286.164566716598
 20
4941.873855739596
 30
0.0
 10
6286.192602631444
 20
4941.627666676215
 30
0.0
  0
LINE
  5
12E
330
1F
100
AcDbEntity
  8
0
  6
Continuous
 62
     7
370
    25
100
AcDbLine
 10
6262.168122609
 20
4942.6276659088
 30
0.0
 11
6270.6888491891
 21
4942.6276659088
 31
0.0
  0
LINE
  5
12F
330
1F
100
AcDbEntity
  8
0
  6
Continuous
 62
     7
370
    25
100
AcDbLine
 10
6278.6888491034
 20
4942.6276659088
 30
0.0
 11
6285.8693880632
 21
4942.6276659088
 31
0.0
  0
LINE
  5
130
330
1F
100
AcDbEntity
  8
0
  6
Continuous
 62
     7
370
    25
100
AcDbLine
 10
6286.1926026314
 20
4941.6276666762
 30
0.0
 11
6286.1926026314
 21
4936.6276663223
 31
0.0
  0
LINE
  5
131
330
1F
100
AcDbEntity
  8
0
  6
Continuous
 62
     7
370
    25
100
AcDbLine
 10
6261.8449080408
 20
4941.6276666762
 30
0.0
 11
6261.8449080408
 21
4936.6276663223
 31
0.0
  0
LINE
  5
132
330
1F
100
AcDbEntity
  8
0
  6
Continuous
 62
     7
370
    25
100
AcDbLine
 10
6264.5687555566
 20
4954.6276660131
 30
0.0
 11
6283.4687551156
 21
4954.6276660131
 31
0.0
  0
LINE
  5
133
330
1F
100
AcDbEntity
  8
0
  6
Continuous
 62
     7
370
    25
100
AcDbLine
 10
6284.4687552795
 20
4953.6276658492
 30
0.0
 11
6263.5687553927
 21
4953.6276658492
 31
0.0
  0
LINE
  5
134
330
1F
100
AcDbEntity
  8
0
  6
Continuous
 62
     7
370
    25
100
AcDbLine
 10
6279.1888491854
 20
4937.7276663164
 30
0.0
 11
6270.18884934
 21
4937.7276663164
 31
0.0
  0
LINE
  5
135
330
1F
100
AcDbEntity
  8
0
  6
Continuous
 62
     7
370
    25
100
AcDbLine
 10
6278.6880667925
 20
4948.627665961
 30
0.0
 11
6270.6888491891
 21
4948.627665961
 31
0.0
  0
LINE
  5
136
330
1F
100
AcDbEntity
  8
0
  6
Continuous
 62
     7
370
    25
100
AcDbLine
 10
6309.0187554851
 20
4936.6276663223
 30
0.0
 11
6239.0187551871
 21
4936.6276663223
 31
0.0
  0
LINE
  5
137
330
1F
100
AcDbEntity
  8
0
  6
Continuous
 62
     7
370
    25
100
AcDbLine
 10
6239.0187551871
 20
4934.6276663437
 30
0.0
 11
6309.0187554851
 21
4934.6276663437
 31
0.0
  0
LINE
  5
138
330
1F
100
AcDbEntity
  8
0
  6
Continuous
 62
     7
370
    25
100
AcDbLine
 10
6308.0187571838
 20
4933.6276662962
 30
0.0
 11
6240.0187534884
 21
4933.6276662962
 31
0.0
  0
LINE
  5
139
330
1F
100
AcDbEntity
  8
0
  6
Continuous
 62
     7
370
    25
100
AcDbLine
 10
6260.6687556624
 20
4768.6276597397
 30
0.0
 11
6287.3687550098
 21
4768.6276597397
 31
0.0
  0
LINE
  5
13A
330
1F
100
AcDbEntity
  8
0
  6
Continuous
 62
     7
370
    25
100
AcDbLine
 10
6286.3687557772
 20
4767.6276726143
 30
0.0
 11
6261.668754895
 21
4767.6276726143
 31
0.0
  0
ENDSEC
  0
SECTION
  2
OBJECTS
  0
DICTIONARY
  5
C
330
0
100
AcDbDictionary
281
     1
  3
ACAD_GROUP
350
D
  3
ACAD_LAYOUT
350
1A
  3
ACAD_MLINESTYLE
350
17
  3
ACAD_PLOTSETTINGS
350
19
  3
ACAD_PLOTSTYLENAME
350
E
  3
ACAD_SCALELIST
350
47
  0
DICTIONARY
  5
D
102
{ACAD_REACTORS
330
C
102
}
330
C
100
AcDbDictionary
281
     1
  0
DICTIONARY
  5
1A
102
{ACAD_REACTORS
330
C
102
}
330
C
100
AcDbDictionary
281
     1
  3
Layout1
350
1E
  3
Layout2
350
26
  3
Model
350
22
  0
DICTIONARY
  5
17
102
{ACAD_REACTORS
330
C
102
}
330
C
100
AcDbDictionary
281
     1
  3
Standard
350
18
  0
DICTIONARY
  5
19
102
{ACAD_REACTORS
330
C
102
}
330
C
100
AcDbDictionary
281
     1
  0
ACDBDICTIONARYWDFLT
  5
E
102
{ACAD_REACTORS
330
C
102
}
330
C
100
AcDbDictionary
281
     1
  3
Normal
350
F
100
AcDbDictionaryWithDefault
340
F
  0
DICTIONARY
  5
47
102
{ACAD_REACTORS
330
C
102
}
330
C
100
AcDbDictionary
281
     1
  3
A0
350
48
  3
A1
350
49
  3
A2
350
4A
  3
A3
350
4B
  3
A4
350
4C
  3
A5
350
4D
  3
A6
350
4E
  3
A7
350
4F
  3
A8
350
50
  3
A9
350
51
  3
B0
350
52
  3
B1
350
53
  3
B2
350
54
  3
B3
350
55
  3
B4
350
56
  3
B5
350
57
  3
B6
350
58
  3
B7
350
59
  3
B8
350
5A
  3
B9
350
5B
  3
C0
350
5C
  3
C1
350
5D
  3
C2
350
5E
  3
C3
350
5F
  3
C4
350
60
  3
C5
350
61
  3
C6
350
62
  3
C7
350
63
  3
C8
350
64
  3
C9
350
65
  3
D0
350
66
  3
D1
350
67
  3
D2
350
68
  0
LAYOUT
  5
1E
102
{ACAD_REACTORS
330
1A
102
}
330
1A
100
AcDbPlotSettings
  1

  2
none_device
  4

  6

 40
0.0
 41
0.0
 42
0.0
 43
0.0
 44
0.0
 45
0.0
 46
0.0
 47
0.0
 48
0.0
 49
0.0
140
0.0
141
0.0
142
1.0
143
1.0
 70
   688
 72
     1
 73
     0
 74
     5
  7

 75
    16
147
1.0
148
0.0
149
0.0
100
AcDbLayout
  1
Layout1
 70
     1
 71
     1
 10
0.0
 20
0.0
 11
420.0
 21
297.0
 12
0.0
 22
0.0
 32
0.0
 14
1.0000000000E+20
 24
1.0000000000E+20
 34
1.0000000000E+20
 15
-1.0000000000E+20
 25
-1.0000000000E+20
 35
-1.0000000000E+20
146
0.0
 13
0.0
 23
0.0
 33
0.0
 16
1.0
 26
0.0
 36
0.0
 17
0.0
 27
1.0
 37
0.0
 76
     0
330
1B
  0
LAYOUT
  5
26
102
{ACAD_REACTORS
330
1A
102
}
330
1A
100
AcDbPlotSettings
  1

  2
none_device
  4

  6

 40
0.0
 41
0.0
 42
0.0
 43
0.0
 44
0.0
 45
0.0
 46
0.0
 47
0.0
 48
0.0
 49
0.0
140
0.0
141
0.0
142
1.0
143
1.0
 70
   688
 72
     1
 73
     0
 74
     5
  7

 75
    16
147
1.0
148
0.0
149
0.0
100
AcDbLayout
  1
Layout2
 70
     1
 71
     2
 10
0.0
 20
0.0
 11
0.0
 21
0.0
 12
0.0
 22
0.0
 32
0.0
 14
0.0
 24
0.0
 34
0.0
 15
0.0
 25
0.0
 35
0.0
146
0.0
 13
0.0
 23
0.0
 33
0.0
 16
1.0
 26
0.0
 36
0.0
 17
0.0
 27
1.0
 37
0.0
 76
     0
330
23
  0
LAYOUT
  5
22
102
{ACAD_REACTORS
330
1A
102
}
330
1A
100
AcDbPlotSettings
  1

  2
none_device
  4
Letter_(8.50_x_11.00_Inches)
  6

 40
6.35
 41
6.35
 42
6.35000508
 43
6.35000508
 44
215.9
 45
279.4
 46
0.0
 47
0.0
 48
0.0
 49
0.0
140
0.0
141
0.0
142
1.0
143
1.0
 70
  1712
 72
     1
 73
     0
 74
     0
  7

 75
     0
147
1.0
148
0.0
149
0.0
100
AcDbLayout
  1
Model
 70
     1
 71
     0
 10
0.0
 20
0.0
 11
20000.0
 21
10000.0
 12
0.0
 22
0.0
 32
0.0
 14
0.0
 24
0.0
 34
0.0
 15
20000.0
 25
10000.0
 35
0.0
146
0.0
 13
0.0
 23
0.0
 33
0.0
 16
1.0
 26
0.0
 36
0.0
 17
0.0
 27
1.0
 37
0.0
 76
     0
330
1F
331
29
  0
MLINESTYLE
  5
18
102
{ACAD_REACTORS
330
17
102
}
330
17
100
AcDbMlineStyle
  2
Standard
 70
     0
  3

 62
   256
 51
90.0
 52
90.0
 71
     2
 49
0.5
 62
   256
  6
BYLAYER
 49
-0.5
 62
   256
  6
BYLAYER
  0
ACDBPLACEHOLDER
  5
F
102
{ACAD_REACTORS
330
E
102
}
330
E
  0
SCALE
  5
48
102
{ACAD_REACTORS
330
47
102
}
330
47
100
AcDbScale
 70
     0
300
1:1
140
1.0
141
1.0
290
     1
  0
SCALE
  5
49
102
{ACAD_REACTORS
330
47
102
}
330
47
100
AcDbScale
 70
     0
300
1:2
140
1.0
141
2.0
290
     0
  0
SCALE
  5
4A
102
{ACAD_REACTORS
330
47
102
}
330
47
100
AcDbScale
 70
     0
300
1:4
140
1.0
141
4.0
290
     0
  0
SCALE
  5
4B
102
{ACAD_REACTORS
330
47
102
}
330
47
100
AcDbScale
 70
     0
300
1:5
140
1.0
141
5.0
290
     0
  0
SCALE
  5
4C
102
{ACAD_REACTORS
330
47
102
}
330
47
100
AcDbScale
 70
     0
300
1:8
140
1.0
141
8.0
290
     0
  0
SCALE
  5
4D
102
{ACAD_REACTORS
330
47
102
}
330
47
100
AcDbScale
 70
     0
300
1:10
140
1.0
141
10.0
290
     0
  0
SCALE
  5
4E
102
{ACAD_REACTORS
330
47
102
}
330
47
100
AcDbScale
 70
     0
300
1:16
140
1.0
141
16.0
290
     0
  0
SCALE
  5
4F
102
{ACAD_REACTORS
330
47
102
}
330
47
100
AcDbScale
 70
     0
300
1:20
140
1.0
141
20.0
290
     0
  0
SCALE
  5
50
102
{ACAD_REACTORS
330
47
102
}
330
47
100
AcDbScale
 70
     0
300
1:30
140
1.0
141
30.0
290
     0
  0
SCALE
  5
51
102
{ACAD_REACTORS
330
47
102
}
330
47
100
AcDbScale
 70
     0
300
1:40
140
1.0
141
40.0
290
     0
  0
SCALE
  5
52
102
{ACAD_REACTORS
330
47
102
}
330
47
100
AcDbScale
 70
     0
300
1:50
140
1.0
141
50.0
290
     0
  0
SCALE
  5
53
102
{ACAD_REACTORS
330
47
102
}
330
47
100
AcDbScale
 70
     0
300
1:100
140
1.0
141
100.0
290
     0
  0
SCALE
  5
54
102
{ACAD_REACTORS
330
47
102
}
330
47
100
AcDbScale
 70
     0
300
2:1
140
2.0
141
1.0
290
     0
  0
SCALE
  5
55
102
{ACAD_REACTORS
330
47
102
}
330
47
100
AcDbScale
 70
     0
300
4:1
140
4.0
141
1.0
290
     0
  0
SCALE
  5
56
102
{ACAD_REACTORS
330
47
102
}
330
47
100
AcDbScale
 70
     0
300
8:1
140
8.0
141
1.0
290
     0
  0
SCALE
  5
57
102
{ACAD_REACTORS
330
47
102
}
330
47
100
AcDbScale
 70
     0
300
10:1
140
10.0
141
1.0
290
     0
  0
SCALE
  5
58
102
{ACAD_REACTORS
330
47
102
}
330
47
100
AcDbScale
 70
     0
300
100:1
140
100.0
141
1.0
290
     0
  0
SCALE
  5
59
102
{ACAD_REACTORS
330
47
102
}
330
47
100
AcDbScale
 70
     0
300
1/128" = 1'-0"
140
0.0078125
141
12.0
290
     0
  0
SCALE
  5
5A
102
{ACAD_REACTORS
330
47
102
}
330
47
100
AcDbScale
 70
     0
300
1/64" = 1'-0"
140
0.015625
141
12.0
290
     0
  0
SCALE
  5
5B
102
{ACAD_REACTORS
330
47
102
}
330
47
100
AcDbScale
 70
     0
300
1/32" = 1'-0"
140
0.03125
141
12.0
290
     0
  0
SCALE
  5
5C
102
{ACAD_REACTORS
330
47
102
}
330
47
100
AcDbScale
 70
     0
300
1/16" = 1'-0"
140
0.0625
141
12.0
290
     0
  0
SCALE
  5
5D
102
{ACAD_REACTORS
330
47
102
}
330
47
100
AcDbScale
 70
     0
300
3/32" = 1'-0"
140
0.09375
141
12.0
290
     0
  0
SCALE
  5
5E
102
{ACAD_REACTORS
330
47
102
}
330
47
100
AcDbScale
 70
     0
300
1/8" = 1'-0"
140
0.125
141
12.0
290
     0
  0
SCALE
  5
5F
102
{ACAD_REACTORS
330
47
102
}
330
47
100
AcDbScale
 70
     0
300
3/16" = 1'-0"
140
0.1875
141
12.0
290
     0
  0
SCALE
  5
60
102
{ACAD_REACTORS
330
47
102
}
330
47
100
AcDbScale
 70
     0
300
1/4" = 1'-0"
140
0.25
141
12.0
290
     0
  0
SCALE
  5
61
102
{ACAD_REACTORS
330
47
102
}
330
47
100
AcDbScale
 70
     0
300
3/8" = 1'-0"
140
0.375
141
12.0
290
     0
  0
SCALE
  5
62
102
{ACAD_REACTORS
330
47
102
}
330
47
100
AcDbScale
 70
     0
300
1/2" = 1'-0"
140
0.5
141
12.0
290
     0
  0
SCALE
  5
63
102
{ACAD_REACTORS
330
47
102
}
330
47
100
AcDbScale
 70
     0
300
3/4" = 1'-0"
140
0.75
141
12.0
290
     0
  0
SCALE
  5
64
102
{ACAD_REACTORS
330
47
102
}
330
47
100
AcDbScale
 70
     0
300
1" = 1'-0"
140
1.0
141
12.0
290
     0
  0
SCALE
  5
65
102
{ACAD_REACTORS
330
47
102
}
330
47
100
AcDbScale
 70
     0
300
1-1/2" = 1'-0"
140
1.5
141
12.0
290
     0
  0
SCALE
  5
66
102
{ACAD_REACTORS
330
47
102
}
330
47
100
AcDbScale
 70
     0
300
3" = 1'-0"
140
3.0
141
12.0
290
     0
  0
SCALE
  5
67
102
{ACAD_REACTORS
330
47
102
}
330
47
100
AcDbScale
 70
     0
300
6" = 1'-0"
140
6.0
141
12.0
290
     0
  0
SCALE
  5
68
102
{ACAD_REACTORS
330
47
102
}
330
47
100
AcDbScale
 70
     0
300
1'-0" = 1'-0"
140
12.0
141
12.0
290
     0
  0
ENDSEC
  0
EOF
