  0
SECTION
  2
HEADER
  9
$ACADVER
  1
AC1015
  9
$ACADMAINTVER
 70
     6
  9
$DWGCODEPAGE
  3
ANSI_1250
  9
$INSBASE
 10
0.0
 20
0.0
 30
0.0
  9
$EXTMIN
 10
0.0
 20
0.0
 30
0.0
  9
$EXTMAX
 10
20000.0
 20
10000.0
 30
0.0
  9
$LIMMIN
 10
0.0
 20
0.0
  9
$LIMMAX
 10
20000.0
 20
10000.0
  9
$ORTHOMODE
 70
     0
  9
$REGENMODE
 70
     1
  9
$FILLMODE
 70
     1
  9
$QTEXTMODE
 70
     0
  9
$MIRRTEXT
 70
     1
  9
$LTSCALE
 40
1.0
  9
$ATTMODE
 70
     1
  9
$TEXTSIZE
 40
2.0
  9
$TRACEWID
 40
1.0
  9
$TEXTSTYLE
  7
Standard
  9
$CLAYER
  8
0
  9
$CELTYPE
  6
ByLayer
  9
$CECOLOR
 62
   256
  9
$CELTSCALE
 40
1.0
  9
$DISPSILH
 70
     0
  9
$DIMSCALE
 40
1.0
  9
$DIMASZ
 40
2.0
  9
$DIMEXO
 40
1.0
  9
$DIMDLI
 40
3.75
  9
$DIMRND
 40
0.0
  9
$DIMDLE
 40
0.0
  9
$DIMEXE
 40
1.0
  9
$DIMTP
 40
0.0
  9
$DIMTM
 40
0.0
  9
$DIMTXT
 40
2.0
  9
$DIMCEN
 40
2.5
  9
$DIMTSZ
 40
0.0
  9
$DIMTOL
 70
     0
  9
$DIMLIM
 70
     0
  9
$DIMTIH
 70
     1
  9
$DIMTOH
 70
     1
  9
$DIMSE1
 70
     0
  9
$DIMSE2
 70
     0
  9
$DIMTAD
 70
     1
  9
$DIMZIN
 70
     0
  9
$DIMBLK
  1

  9
$DIMASO
 70
     1
  9
$DIMSHO
 70
     1
  9
$DIMPOST
  1

  9
$DIMAPOST
  1

  9
$DIMALT
 70
     0
  9
$DIMALTD
 70
     3
  9
$DIMALTF
 40
0.0393700787
  9
$DIMLFAC
 40
1.0
  9
$DIMTOFL
 70
     1
  9
$DIMTVP
 40
0.0
  9
$DIMTIX
 70
     0
  9
$DIMSOXD
 70
     0
  9
$DIMSAH
 70
     0
  9
$DIMBLK1
  1

  9
$DIMBLK2
  1

  9
$DIMSTYLE
  2
ISO-25
  9
$DIMCLRD
 70
     0
  9
$DIMCLRE
 70
     0
  9
$DIMCLRT
 70
     0
  9
$DIMTFAC
 40
1.0
  9
$DIMGAP
 40
1.524
  9
$DIMJUST
 70
     0
  9
$DIMSD1
 70
     0
  9
$DIMSD2
 70
     0
  9
$DIMTOLJ
 70
     0
  9
$DIMTZIN
 70
     0
  9
$DIMALTZ
 70
     0
  9
$DIMALTTZ
 70
     0
  9
$DIMUPT
 70
     0
  9
$DIMDEC
 70
     2
  9
$DIMTDEC
 70
     0
  9
$DIMALTU
 70
     2
  9
$DIMALTTD
 70
     3
  9
$DIMTXSTY
  7
Standard
  9
$DIMAUNIT
 70
     0
  9
$DIMADEC
 70
     2
  9
$DIMALTRND
 40
0.0
  9
$DIMAZIN
 70
     0
  9
$DIMDSEP
 70
    44
  9
$DIMATFIT
 70
     3
  9
$DIMFRAC
 70
     0
  9
$DIMLDRBLK
  1

  9
$DIMLUNIT
 70
     2
  9
$DIMLWD
 70
    -2
  9
$DIMLWE
 70
    -2
  9
$DIMTMOVE
 70
     0
  9
$LUNITS
 70
     2
  9
$LUPREC
 70
     3
  9
$SKETCHINC
 40
1.0
  9
$FILLETRAD
 40
10.0
  9
$AUNITS
 70
     0
  9
$AUPREC
 70
     2
  9
$MENU
  1
.
  9
$ELEVATION
 40
0.0
  9
$PELEVATION
 40
0.0
  9
$THICKNESS
 40
0.0
  9
$LIMCHECK
 70
     0
  9
$CHAMFERA
 40
0.0
  9
$CHAMFERB
 40
0.0
  9
$CHAMFERC
 40
0.0
  9
$CHAMFERD
 40
0.0
  9
$SKPOLY
 70
     0
  9
$TDCREATE
 40
2459998.356903322
  9
$TDUCREATE
 40
2459998.315236655
  9
$TDUPDATE
 40
2459998.356904086
  9
$TDUUPDATE
 40
2459998.315237419
  9
$TDINDWG
 40
0.0000000116
  9
$TDUSRTIMER
 40
0.0000000116
  9
$USRTIMER
 70
     1
  9
$ANGBASE
 50
0.0
  9
$ANGDIR
 70
     0
  9
$PDMODE
 70
     0
  9
$PDSIZE
 40
-1.0
  9
$PLINEWID
 40
0.0
  9
$SPLFRAME
 70
     0
  9
$SPLINETYPE
 70
     6
  9
$SPLINESEGS
 70
     8
  9
$HANDSEED
  5
429
  9
$SURFTAB1
 70
     6
  9
$SURFTAB2
 70
     6
  9
$SURFTYPE
 70
     6
  9
$SURFU
 70
     6
  9
$SURFV
 70
     6
  9
$UCSBASE
  2

  9
$UCSNAME
  2

  9
$UCSORG
 10
0.0
 20
0.0
 30
0.0
  9
$UCSXDIR
 10
1.0
 20
0.0
 30
0.0
  9
$UCSYDIR
 10
0.0
 20
1.0
 30
0.0
  9
$UCSORTHOREF
  2

  9
$UCSORTHOVIEW
 70
     0
  9
$UCSORGTOP
 10
0.0
 20
0.0
 30
0.0
  9
$UCSORGBOTTOM
 10
0.0
 20
0.0
 30
0.0
  9
$UCSORGLEFT
 10
0.0
 20
0.0
 30
0.0
  9
$UCSORGRIGHT
 10
0.0
 20
0.0
 30
0.0
  9
$UCSORGFRONT
 10
0.0
 20
0.0
 30
0.0
  9
$UCSORGBACK
 10
0.0
 20
0.0
 30
0.0
  9
$PUCSBASE
  2

  9
$PUCSNAME
  2

  9
$PUCSORG
 10
0.0
 20
0.0
 30
0.0
  9
$PUCSXDIR
 10
1.0
 20
0.0
 30
0.0
  9
$PUCSYDIR
 10
0.0
 20
1.0
 30
0.0
  9
$PUCSORTHOREF
  2

  9
$PUCSORTHOVIEW
 70
     0
  9
$PUCSORGTOP
 10
0.0
 20
0.0
 30
0.0
  9
$PUCSORGBOTTOM
 10
0.0
 20
0.0
 30
0.0
  9
$PUCSORGLEFT
 10
0.0
 20
0.0
 30
0.0
  9
$PUCSORGRIGHT
 10
0.0
 20
0.0
 30
0.0
  9
$PUCSORGFRONT
 10
0.0
 20
0.0
 30
0.0
  9
$PUCSORGBACK
 10
0.0
 20
0.0
 30
0.0
  9
$USERI1
 70
     0
  9
$USERI2
 70
     0
  9
$USERI3
 70
     0
  9
$USERI4
 70
     0
  9
$USERI5
 70
     0
  9
$USERR1
 40
0.0
  9
$USERR2
 40
0.0
  9
$USERR3
 40
0.0
  9
$USERR4
 40
0.0
  9
$USERR5
 40
0.0
  9
$WORLDVIEW
 70
     1
  9
$SHADEDGE
 70
     3
  9
$SHADEDIF
 70
    70
  9
$TILEMODE
 70
     1
  9
$MAXACTVP
 70
    64
  9
$PINSBASE
 10
0.0
 20
0.0
 30
0.0
  9
$PLIMCHECK
 70
     0
  9
$PEXTMIN
 10
1.0000000000E+20
 20
1.0000000000E+20
 30
1.0000000000E+20
  9
$PEXTMAX
 10
-1.0000000000E+20
 20
-1.0000000000E+20
 30
-1.0000000000E+20
  9
$PLIMMIN
 10
0.0
 20
0.0
  9
$PLIMMAX
 10
420.0
 20
297.0
  9
$UNITMODE
 70
     0
  9
$VISRETAIN
 70
     1
  9
$PLINEGEN
 70
     0
  9
$PSLTSCALE
 70
     1
  9
$TREEDEPTH
 70
  3020
  9
$CMLSTYLE
  2
Standard
  9
$CMLJUST
 70
     0
  9
$CMLSCALE
 40
20.0
  9
$PROXYGRAPHICS
 70
     1
  9
$MEASUREMENT
 70
     1
  9
$CELWEIGHT
370
    -1
  9
$ENDCAPS
280
     0
  9
$JOINSTYLE
280
     0
  9
$LWDISPLAY
290
     1
  9
$INSUNITS
 70
     4
  9
$HYPERLINKBASE
  1

  9
$STYLESHEET
  1

  9
$XEDIT
290
     1
  9
$CEPSNTYPE
380
     0
  9
$PSTYLEMODE
290
     1
  9
$FINGERPRINTGUID
  2
{9700ac83-0a5a-4da2-b6cd-1533acc88d36}
  9
$VERSIONGUID
  2
{FAEB1C32-E019-11D5-929B-00C0DF256EC4}
  9
$EXTNAMES
290
     1
  9
$PSVPSCALE
 40
0.0
  9
$OLESTARTUP
290
     0
  0
ENDSEC
  0
SECTION
  2
CLASSES
  0
CLASS
  1
ACDBDICTIONARYWDFLT
  2
AcDbDictionaryWithDefault
  3
ObjectDBX Classes
 90
        0
280
     0
281
     0
  0
CLASS
  1
VISUALSTYLE
  2
AcDbVisualStyle
  3
ObjectDBX Classes
 90
     4095
280
     0
281
     0
  0
CLASS
  1
MATERIAL
  2
AcDbMaterial
  3
ObjectDBX Classes
 90
     1153
280
     0
281
     0
  0
CLASS
  1
SCALE
  2
AcDbScale
  3
ObjectDBX Classes
 90
     1153
280
     0
281
     0
  0
CLASS
  1
TABLESTYLE
  2
AcDbTableStyle
  3
ObjectDBX Classes
 90
     4095
280
     0
281
     0
  0
CLASS
  1
MLEADERSTYLE
  2
AcDbMLeaderStyle
  3
ACDB_MLEADERSTYLE_CLASS
 90
     4095
280
     0
281
     0
  0
CLASS
  1
SUN
  2
AcDbSun
  3
SCENEOE
 90
     1153
280
     0
281
     0
  0
CLASS
  1
ACDBPLACEHOLDER
  2
AcDbPlaceHolder
  3
ObjectDBX Classes
 90
        0
280
     0
281
     0
  0
CLASS
  1
LAYOUT
  2
AcDbLayout
  3
ObjectDBX Classes
 90
        0
280
     0
281
     0
  0
ENDSEC
  0
SECTION
  2
TABLES
  0
TABLE
  2
VPORT
  5
8
330
0
100
AcDbSymbolTable
 70
     1
  0
VPORT
  5
29
330
8
100
AcDbSymbolTableRecord
100
AcDbViewportTableRecord
  2
*Active
 70
     0
 10
0.0
 20
0.0
 11
1.0
 21
1.0
 12
10000.0
 22
5000.0
 13
0.0
 23
0.0
 14
10.0
 24
10.0
 15
10.0
 25
10.0
 16
0.0
 26
0.0
 36
1.0
 17
0.0
 27
0.0
 37
0.0
 40
10000.0
 41
2.0
 42
50.0
 43
0.0
 44
0.0
 50
0.0
 51
0.0
 71
     0
 72
  2000
 73
     1
 74
     3
 75
     0
 76
     0
 77
     0
 78
     0
281
     0
 65
     1
110
0.0
120
0.0
130
0.0
111
1.0
121
0.0
131
0.0
112
0.0
122
1.0
132
0.0
 79
     0
146
0.0
  0
ENDTAB
  0
TABLE
  2
LTYPE
  5
5
330
0
100
AcDbSymbolTable
 70
     6
  0
LTYPE
  5
14
330
5
100
AcDbSymbolTableRecord
100
AcDbLinetypeTableRecord
  2
ByBlock
 70
     0
  3

 72
    65
 73
     0
 40
0.0
  0
LTYPE
  5
15
330
5
100
AcDbSymbolTableRecord
100
AcDbLinetypeTableRecord
  2
ByLayer
 70
     0
  3

 72
    65
 73
     0
 40
0.0
  0
LTYPE
  5
16
330
5
100
AcDbSymbolTableRecord
100
AcDbLinetypeTableRecord
  2
Continuous
 70
     0
  3
Solid line
 72
    65
 73
     0
 40
0.0
  0
LTYPE
  5
6E
330
5
100
AcDbSymbolTableRecord
100
AcDbLinetypeTableRecord
  2
HIDDEN
 70
     0
  3
Hidden __ __ __ __ __ __ __ __ __ __ __ __ __ __
 72
    65
 73
     2
 40
1.905
 49
1.27
 74
     0
 49
-0.635
 74
     0
  0
LTYPE
  5
6F
330
5
100
AcDbSymbolTableRecord
100
AcDbLinetypeTableRecord
  2
PHANTOM
 70
     0
  3
Phantom ______  __  __  ______  __  __  ______
 72
    65
 73
     6
 40
12.7
 49
6.35
 74
     0
 49
-1.27
 74
     0
 49
1.27
 74
     0
 49
-1.27
 74
     0
 49
1.27
 74
     0
 49
-1.27
 74
     0
  0
LTYPE
  5
70
330
5
100
AcDbSymbolTableRecord
100
AcDbLinetypeTableRecord
  2
CENTER
 70
     0
  3
Center ____ _ ____ _ ____ _ ____ _ ____ _ ____
 72
    65
 73
     4
 40
10.16
 49
6.35
 74
     0
 49
-1.27
 74
     0
 49
1.27
 74
     0
 49
-1.27
 74
     0
  0
LTYPE
  5
71
330
5
100
AcDbSymbolTableRecord
100
AcDbLinetypeTableRecord
  2
CENTERX2
 70
     0
  3
Center (2x) ________  __  ________  __  _____
 72
    65
 73
     4
 40
20.32
 49
12.7
 74
     0
 49
-2.54
 74
     0
 49
2.54
 74
     0
 49
-2.54
 74
     0
  0
LTYPE
  5
72
330
5
100
AcDbSymbolTableRecord
100
AcDbLinetypeTableRecord
  2
DOT2
 70
     0
  3
Dot (.5x) ........................................
 72
    65
 73
     2
 40
0.635
 49
0.0
 74
     0
 49
-0.635
 74
     0
  0
ENDTAB
  0
TABLE
  2
LAYER
  5
2
330
0
100
AcDbSymbolTable
 70
    13
  0
LAYER
  5
10
330
2
100
AcDbSymbolTableRecord
100
AcDbLayerTableRecord
  2
0
 70
     0
 62
     7
  6
Continuous
370
    -3
390
F
  0
LAYER
  5
73
330
2
100
AcDbSymbolTableRecord
100
AcDbLayerTableRecord
  2
FORMAT
 70
     0
 62
     7
  6
Continuous
370
    -3
390
F
  0
LAYER
  5
74
330
2
100
AcDbSymbolTableRecord
100
AcDbLayerTableRecord
  2
OSA
 70
     0
 62
     7
  6
CENTER
370
    -3
390
F
  0
LAYER
  5
75
330
2
100
AcDbSymbolTableRecord
100
AcDbLayerTableRecord
  2
0_35
 70
     0
 62
     7
  6
Continuous
370
    35
390
F
  0
LAYER
  5
76
330
2
100
AcDbSymbolTableRecord
100
AcDbLayerTableRecord
  2
0_5
 70
     0
 62
     7
  6
Continuous
370
    50
390
F
  0
LAYER
  5
77
330
2
100
AcDbSymbolTableRecord
100
AcDbLayerTableRecord
  2
0_25
 70
     0
 62
     7
  6
Continuous
370
    25
390
F
  0
LAYER
  5
78
330
2
100
AcDbSymbolTableRecord
100
AcDbLayerTableRecord
  2
0_18
 70
     0
 62
     7
  6
Continuous
370
    -3
390
F
  0
LAYER
  5
79
330
2
100
AcDbSymbolTableRecord
100
AcDbLayerTableRecord
  2
SLD-0
 70
     0
 62
   179
  6
Continuous
370
    -3
390
F
  0
LAYER
  5
7A
330
2
100
AcDbSymbolTableRecord
100
AcDbLayerTableRecord
  2
KOTY
 70
     0
 62
     7
  6
Continuous
370
    -3
390
F
  0
LAYER
  5
7B
330
2
100
AcDbSymbolTableRecord
100
AcDbLayerTableRecord
  2
SILNA
 70
     0
 62
   179
  6
Continuous
370
    -3
390
F
  0
LAYER
  5
7C
330
2
100
AcDbSymbolTableRecord
100
AcDbLayerTableRecord
  2
0_18_1
 70
     0
 62
   179
  6
Continuous
370
    -3
390
F
  0
LAYER
  5
7D
330
2
100
AcDbSymbolTableRecord
100
AcDbLayerTableRecord
  2
0_35_1
 70
     0
 62
   179
  6
Continuous
370
    35
390
F
  0
LAYER
  5
7E
330
2
100
AcDbSymbolTableRecord
100
AcDbLayerTableRecord
  2
0_5_1
 70
     0
 62
   179
  6
Continuous
370
    50
390
F
  0
ENDTAB
  0
TABLE
  2
STYLE
  5
3
330
0
100
AcDbSymbolTable
 70
     1
  0
STYLE
  5
11
330
3
100
AcDbSymbolTableRecord
100
AcDbTextStyleTableRecord
  2
Standard
 70
     0
 40
0.0
 41
1.0
 50
0.0
 71
     0
 42
2.0
  3
txt
  4

  0
ENDTAB
  0
TABLE
  2
VIEW
  5
6
330
0
100
AcDbSymbolTable
 70
     0
  0
ENDTAB
  0
TABLE
  2
UCS
  5
7
330
0
100
AcDbSymbolTable
 70
     0
  0
ENDTAB
  0
TABLE
  2
APPID
  5
9
330
0
100
AcDbSymbolTable
 70
     1
  0
APPID
  5
12
330
9
100
AcDbSymbolTableRecord
100
AcDbRegAppTableRecord
  2
ACAD
 70
     0
  0
ENDTAB
  0
TABLE
  2
DIMSTYLE
  5
A
330
0
100
AcDbSymbolTable
 70
     1
100
AcDbDimStyleTable
  0
DIMSTYLE
105
27
330
A
100
AcDbSymbolTableRecord
100
AcDbDimStyleTableRecord
  2
ISO-25
 70
     0
 41
2.5
 42
0.625
 43
3.75
 44
1.25
 73
     0
 74
     0
 77
     1
 78
     8
140
2.5
141
2.5
143
0.0393700787
147
0.625
171
     3
172
     1
178
     0
271
     2
272
     2
274
     3
278
    44
283
     0
284
     8
340
11
  0
ENDTAB
  0
TABLE
  2
BLOCK_RECORD
  5
1
330
0
100
AcDbSymbolTable
 70
     1
  0
BLOCK_RECORD
  5
1F
330
1
100
AcDbSymbolTableRecord
100
AcDbBlockTableRecord
  2
*Model_Space
340
22
  0
BLOCK_RECORD
  5
1B
330
1
100
AcDbSymbolTableRecord
100
AcDbBlockTableRecord
  2
*Paper_Space
340
1E
  0
BLOCK_RECORD
  5
23
330
1
100
AcDbSymbolTableRecord
100
AcDbBlockTableRecord
  2
*Paper_Space0
340
26
  0
ENDTAB
  0
ENDSEC
  0
SECTION
  2
BLOCKS
  0
BLOCK
  5
20
330
1F
100
AcDbEntity
  8
0
100
AcDbBlockBegin
  2
*Model_Space
 70
     0
 10
0.0
 20
0.0
 30
0.0
  3
*Model_Space
  1

  0
ENDBLK
  5
21
330
1F
100
AcDbEntity
  8
0
100
AcDbBlockEnd
  0
BLOCK
  5
1C
330
1B
100
AcDbEntity
 67
     1
  8
0
100
AcDbBlockBegin
  2
*Paper_Space
 70
     0
 10
0.0
 20
0.0
 30
0.0
  3
*Paper_Space
  1

  0
ENDBLK
  5
1D
330
1B
100
AcDbEntity
 67
     1
  8
0
100
AcDbBlockEnd
  0
BLOCK
  5
24
330
23
100
AcDbEntity
  8
0
100
AcDbBlockBegin
  2
*Paper_Space0
 70
     0
 10
0.0
 20
0.0
 30
0.0
  3
*Paper_Space0
  1

  0
ENDBLK
  5
25
330
23
100
AcDbEntity
  8
0
100
AcDbBlockEnd
  0
ENDSEC
  0
SECTION
  2
ENTITIES
  0
LWPOLYLINE
  5
7F
330
1F
100
AcDbEntity
  8
0
  6
Continuous
 62
     7
370
    25
100
AcDbPolyline
 90
        3
 70
   128
 43
0.0
 10
6316.5089662105
 20
5118.2769642566
 10
6315.9355170263
 20
5118.6082567226
 10
6315.3730703204
 20
5118.9332055113
  0
LWPOLYLINE
  5
80
330
1F
100
AcDbEntity
  8
0
  6
Continuous
 62
     7
370
    25
100
AcDbPolyline
 90
        3
 70
   128
 43
0.0
 10
6316.5089662105
 20
5120.3936309233
 10
6315.9352801157
 20
5120.7250599418
 10
6315.3730703586
 20
5121.0498721501
  0
LWPOLYLINE
  5
81
330
1F
100
AcDbEntity
  8
0
  6
Continuous
 62
     7
370
    25
100
AcDbPolyline
 90
        3
 70
   128
 43
0.0
 10
6316.5089662105
 20
5122.5102975899
 10
6315.9350405262
 20
5122.8418631805
 10
6315.3730703342
 20
5123.1665387969
  0
LWPOLYLINE
  5
82
330
1F
100
AcDbEntity
  8
0
  6
Continuous
 62
     7
370
    25
100
AcDbPolyline
 90
        3
 70
   128
 43
0.0
 10
6284.7814652139
 20
5117.9100662041
 10
6284.2125426458
 20
5117.5792594003
 10
6283.6419221591
 20
5117.2481727869
  0
LWPOLYLINE
  5
83
330
1F
100
AcDbEntity
  8
0
  6
Continuous
 62
     7
370
    25
100
AcDbPolyline
 90
        3
 70
   128
 43
0.0
 10
6284.7814652139
 20
5120.0267328707
 10
6284.213352541
 20
5119.6960659991
 10
6283.6419221591
 20
5119.3648394536
  0
LWPOLYLINE
  5
84
330
1F
100
AcDbEntity
  8
0
  6
Continuous
 62
     7
370
    25
100
AcDbPolyline
 90
        3
 70
   128
 43
0.0
 10
6284.7814652139
 20
5122.1433995374
 10
6284.2141651521
 20
5121.8128726102
 10
6283.6419221591
 20
5121.4815061202
  0
LWPOLYLINE
  5
85
330
1F
100
AcDbEntity
  8
0
  6
Continuous
 62
     7
370
    25
100
AcDbPolyline
 90
        3
 70
   128
 43
0.0
 10
6284.7814652139
 20
5124.2600662041
 10
6284.2149804793
 20
5123.9296792336
 10
6283.6419221591
 20
5123.5981727869
  0
LWPOLYLINE
  5
86
330
1F
100
AcDbEntity
  8
0
  6
Continuous
 62
     7
370
    25
100
AcDbPolyline
 90
        3
 70
   128
 43
0.0
 10
6316.0237814478
 20
5116.4405969996
 10
6315.9357512584
 20
5116.4914535228
 10
6315.3730702195
 20
5116.8165388808
  0
LWPOLYLINE
  5
87
330
1F
100
AcDbEntity
  8
0
  6
Continuous
 62
     7
370
    25
100
AcDbPolyline
 90
        3
 70
   128
 43
0.0
 10
6315.3623018968
 20
5119.4438362912
 10
6315.9357313118
 20
5119.7751216577
 10
6316.5087234114
 20
5120.1061420512
  0
LWPOLYLINE
  5
88
330
1F
100
AcDbEntity
  8
0
  6
Continuous
 62
     7
370
    25
100
AcDbPolyline
 90
        3
 70
   128
 43
0.0
 10
6315.3623018968
 20
5121.5605029578
 10
6315.9359609188
 20
5121.8919209627
 10
6316.5087234114
 20
5122.2228087179
  0
LWPOLYLINE
  5
89
330
1F
100
AcDbEntity
  8
0
  6
Continuous
 62
     7
370
    25
100
AcDbPolyline
 90
        3
 70
   128
 43
0.0
 10
6315.3623018968
 20
5123.6771696245
 10
6315.9361879226
 20
5124.0087202925
 10
6316.5087234114
 20
5124.3394753845
  0
LWPOLYLINE
  5
8A
330
1F
100
AcDbEntity
  8
0
  6
Continuous
 62
     7
370
    25
100
AcDbPolyline
 90
        3
 70
   128
 43
0.0
 10
6283.5287883339
 20
5119.0478081075
 10
6284.1017804026
 20
5118.7167877257
 10
6284.6644403599
 20
5118.3917241663
  0
LWPOLYLINE
  5
8B
330
1F
100
AcDbEntity
  8
0
  6
Continuous
 62
     7
370
    25
100
AcDbPolyline
 90
        3
 70
   128
 43
0.0
 10
6283.5287883339
 20
5121.1644747742
 10
6284.1015507839
 20
5120.8335870306
 10
6284.6644403256
 20
5120.5083908524
  0
LWPOLYLINE
  5
8C
330
1F
100
AcDbEntity
  8
0
  6
Continuous
 62
     7
370
    25
100
AcDbPolyline
 90
        3
 70
   128
 43
0.0
 10
6283.5287883339
 20
5123.2811414409
 10
6284.1013237684
 20
5122.9503863603
 10
6284.6644403474
 20
5122.6250575348
  0
LWPOLYLINE
  5
8D
330
1F
100
AcDbEntity
  8
0
  6
Continuous
 62
     7
370
    25
100
AcDbPolyline
 90
        3
 70
   128
 43
0.0
 10
6283.8721404644
 20
5125.1994545927
 10
6284.1010993566
 20
5125.0671857148
 10
6284.6644404253
 20
5124.7417242134
  0
LWPOLYLINE
  5
8E
330
1F
100
AcDbEntity
  8
0
  6
Continuous
 62
     7
370
    25
100
AcDbPolyline
 90
        3
 70
   128
 43
0.0
 10
6283.5287883339
 20
5116.9311414409
 10
6284.102012624
 20
5116.5999884457
 10
6284.6644404501
 20
5116.2750574765
  0
LWPOLYLINE
  5
8F
330
1F
100
AcDbEntity
  8
0
  6
Continuous
 62
     7
370
    25
100
AcDbPolyline
 90
        3
 70
   128
 43
0.0
 10
6315.3623018968
 20
5117.3271696245
 10
6315.9354991022
 20
5117.6583223775
 10
6316.5087234114
 20
5117.9894753845
  0
LINE
  5
90
330
1F
100
AcDbEntity
  8
0
  6
Continuous
 62
     7
370
    25
100
AcDbLine
 10
6284.6671559512
 20
5115.7510539776
 30
0.0
 11
6285.2187553361
 21
5115.1994545927
 31
0.0
  0
LINE
  5
91
330
1F
100
AcDbEntity
  8
0
  6
Continuous
 62
     7
370
    25
100
AcDbLine
 10
6314.8187553361
 20
5115.1994545927
 30
0.0
 11
6316.01816574
 21
5116.3988649966
 31
0.0
  0
LWPOLYLINE
  5
92
330
1F
100
AcDbEntity
  8
0
  6
Continuous
 62
     7
370
    25
100
AcDbPolyline
 90
        3
 70
   128
 43
0.0
 10
6315.3730702195
 20
5118.9267017527
 10
6315.3730743271
 20
5119.1914197479
 10
6315.3730703098
 20
5119.4500574887
  0
LWPOLYLINE
  5
93
330
1F
100
AcDbEntity
  8
0
  6
Continuous
 62
     7
370
    25
100
AcDbPolyline
 90
        3
 70
   128
 43
0.0
 10
6315.3730702195
 20
5121.0433684194
 10
6315.373075885
 20
5121.3082210987
 10
6315.3730703441
 20
5121.5667241749
  0
LWPOLYLINE
  5
94
330
1F
100
AcDbEntity
  8
0
  6
Continuous
 62
     7
370
    25
100
AcDbPolyline
 90
        3
 70
   128
 43
0.0
 10
6315.3730702195
 20
5123.1600350861
 10
6315.3730748927
 20
5123.4250224717
 10
6315.3730703223
 20
5123.6833908575
  0
LWPOLYLINE
  5
95
330
1F
100
AcDbEntity
  8
0
  6
Continuous
 62
     7
370
    25
100
AcDbPolyline
 90
        3
 70
   128
 43
0.0
 10
6284.6644404501
 20
5118.3975351508
 10
6284.6644363437
 20
5118.1330864793
 10
6284.6644404501
 20
5117.8683684842
  0
LWPOLYLINE
  5
96
330
1F
100
AcDbEntity
  8
0
  6
Continuous
 62
     7
370
    25
100
AcDbPolyline
 90
        3
 70
   128
 43
0.0
 10
6284.6644404501
 20
5120.5142018175
 10
6284.6644347871
 20
5120.2498878301
 10
6284.6644404501
 20
5119.9850351508
  0
LWPOLYLINE
  5
97
330
1F
100
AcDbEntity
  8
0
  6
Continuous
 62
     7
370
    25
100
AcDbPolyline
 90
        3
 70
   128
 43
0.0
 10
6284.6644404501
 20
5122.6308684842
 10
6284.6644357806
 20
5122.3666892031
 10
6284.6644404501
 20
5122.1017018175
  0
LWPOLYLINE
  5
98
330
1F
100
AcDbEntity
  8
0
  6
Continuous
 62
     7
370
    25
100
AcDbPolyline
 90
        3
 70
   128
 43
0.0
 10
6284.6644404501
 20
5124.7475351508
 10
6284.6644393247
 20
5124.4834905983
 10
6284.6644404501
 20
5124.2183684842
  0
LINE
  5
99
330
1F
100
AcDbEntity
  8
0
  6
Continuous
 62
     7
370
    25
100
AcDbLine
 10
6284.6644404501
 20
5116.2808684842
 30
0.0
 11
6284.6644404501
 21
5115.7517018175
 31
0.0
  0
LINE
  5
9A
330
1F
100
AcDbEntity
  8
0
  6
Continuous
 62
     7
370
    25
100
AcDbLine
 10
6315.3730702195
 20
5116.8100350861
 30
0.0
 11
6315.3730702195
 21
5117.3333907988
 31
0.0
  0
LINE
  5
9B
330
1F
100
AcDbEntity
  8
0
  6
Continuous
 62
     7
370
    25
100
AcDbLine
 10
6316.5187553361
 20
5120.1176969151
 30
0.0
 11
6316.5187553361
 21
5120.4641903593
 31
0.0
  0
LINE
  5
9C
330
1F
100
AcDbEntity
  8
0
  6
Continuous
 62
     7
370
    25
100
AcDbLine
 10
6316.5187553361
 20
5122.2343635818
 30
0.0
 11
6316.5187553361
 21
5122.5808570259
 31
0.0
  0
LINE
  5
9D
330
1F
100
AcDbEntity
  8
0
  6
Continuous
 62
     7
370
    25
100
AcDbLine
 10
6316.5187553361
 20
5118.0010302485
 30
0.0
 11
6316.5187553361
 21
5118.3475236926
 31
0.0
  0
LINE
  5
9E
330
1F
100
AcDbEntity
  8
0
  6
Continuous
 62
     7
370
    25
100
AcDbLine
 10
6316.5187553361
 20
5124.3510302485
 30
0.0
 11
6316.5187553361
 21
5125.1994545927
 31
0.0
  0
LINE
  5
9F
330
1F
100
AcDbEntity
  8
0
  6
Continuous
 62
     7
370
    25
100
AcDbLine
 10
6283.5187553361
 20
5119.4058570259
 30
0.0
 11
6283.5187553361
 21
5119.0593635818
 31
0.0
  0
LINE
  5
A0
330
1F
100
AcDbEntity
  8
0
  6
Continuous
 62
     7
370
    25
100
AcDbLine
 10
6283.5187553361
 20
5117.2891903593
 30
0.0
 11
6283.5187553361
 21
5116.8944275636
 31
0.0
  0
LINE
  5
A1
330
1F
100
AcDbEntity
  8
0
  6
Continuous
 62
     7
370
    25
100
AcDbLine
 10
6283.5187553361
 20
5123.6391903593
 30
0.0
 11
6283.5187553361
 21
5123.2926969151
 31
0.0
  0
LINE
  5
A2
330
1F
100
AcDbEntity
  8
0
  6
Continuous
 62
     7
370
    25
100
AcDbLine
 10
6283.5187553361
 20
5121.5225236926
 30
0.0
 11
6283.5187553361
 21
5121.1760302485
 31
0.0
  0
LINE
  5
A3
330
1F
100
AcDbEntity
  8
0
  6
Continuous
 62
     7
370
    25
100
AcDbLine
 10
6317.3187553361
 20
5125.1994545927
 30
0.0
 11
6317.3187553361
 21
5129.2001236508
 31
0.0
  0
LINE
  5
A4
330
1F
100
AcDbEntity
  8
0
  6
Continuous
 62
     7
370
    25
100
AcDbLine
 10
6317.3187553361
 20
5130.5373440761
 30
0.0
 11
6317.3187553361
 21
5131.3218783148
 31
0.0
  0
LINE
  5
A5
330
1F
100
AcDbEntity
  8
0
  6
Continuous
 62
     7
370
    25
100
AcDbLine
 10
6282.7187553361
 20
5129.2001236508
 30
0.0
 11
6282.7187553361
 21
5125.1994545927
 31
0.0
  0
LWPOLYLINE
  5
A6
330
1F
100
AcDbEntity
  8
0
  6
Continuous
 62
     7
370
    25
100
AcDbPolyline
 90
        3
 70
   128
 43
0.0
 10
6283.5278204571
 20
5309.5081398066
 10
6284.1012713441
 20
5309.1768292248
 10
6284.6644508565
 20
5308.8514562595
  0
LWPOLYLINE
  5
A7
330
1F
100
AcDbEntity
  8
0
  6
Continuous
 62
     7
370
    25
100
AcDbPolyline
 90
        3
 70
   128
 43
0.0
 10
6283.5278204571
 20
5307.3914731399
 10
6284.1015021464
 20
5307.0600219927
 10
6284.6644507171
 20
5306.7347895499
  0
LWPOLYLINE
  5
A8
330
1F
100
AcDbEntity
  8
0
  6
Continuous
 62
     7
370
    25
100
AcDbPolyline
 90
        3
 70
   128
 43
0.0
 10
6283.5278204571
 20
5305.2748064732
 10
6284.1017356739
 20
5304.9432147503
 10
6284.6644506464
 20
5304.6181228273
  0
LWPOLYLINE
  5
A9
330
1F
100
AcDbEntity
  8
0
  6
Continuous
 62
     7
370
    25
100
AcDbPolyline
 90
        3
 70
   128
 43
0.0
 10
6315.3632673743
 20
5307.7874653468
 10
6315.9362376147
 20
5308.1184948418
 10
6316.5096883994
 20
5308.4498053444
  0
LWPOLYLINE
  5
AA
330
1F
100
AcDbEntity
  8
0
  6
Continuous
 62
     7
370
    25
100
AcDbPolyline
 90
        3
 70
   128
 43
0.0
 10
6315.3632673743
 20
5305.6707986802
 10
6315.936006792
 20
5306.0016876097
 10
6316.5096883994
 20
5306.3331386778
  0
LWPOLYLINE
  5
AB
330
1F
100
AcDbEntity
  8
0
  6
Continuous
 62
     7
370
    25
100
AcDbPolyline
 90
        3
 70
   128
 43
0.0
 10
6315.3632673743
 20
5303.5541320135
 10
6315.9357732442
 20
5303.8848803672
 10
6316.5096883994
 20
5304.2164720111
  0
LWPOLYLINE
  5
AC
330
1F
100
AcDbEntity
  8
0
  6
Continuous
 62
     7
370
    25
100
AcDbPolyline
 90
        3
 70
   128
 43
0.0
 10
6315.3632673743
 20
5309.9041320135
 10
6315.9364657123
 20
5310.2353020636
 10
6316.5096883994
 20
5310.5664720111
  0
LINE
  5
AD
330
1F
100
AcDbEntity
  8
0
  6
Continuous
 62
     7
370
    25
100
AcDbLine
 10
6284.247593819
 20
5311.2089656592
 30
0.0
 11
6284.6644510648
 21
5310.9681229559
 31
0.0
  0
LWPOLYLINE
  5
AE
330
1F
100
AcDbEntity
  8
0
  6
Continuous
 62
     7
370
    25
100
AcDbPolyline
 90
        3
 70
   128
 43
0.0
 10
6284.6756068144
 20
5308.3416313619
 10
6284.1021842694
 20
5308.0103363934
 10
6283.5292137242
 20
5307.6793177342
  0
LWPOLYLINE
  5
AF
330
1F
100
AcDbEntity
  8
0
  6
Continuous
 62
     7
370
    25
100
AcDbPolyline
 90
        3
 70
   128
 43
0.0
 10
6284.6756068144
 20
5306.2249646952
 10
6284.1019469154
 20
5305.8935314774
 10
6283.5292137242
 20
5305.5626510675
  0
LWPOLYLINE
  5
B0
330
1F
100
AcDbEntity
  8
0
  6
Continuous
 62
     7
370
    25
100
AcDbPolyline
 90
        3
 70
   128
 43
0.0
 10
6284.6756068144
 20
5304.1082980286
 10
6284.1017122418
 20
5303.776726545
 10
6283.5292137242
 20
5303.4459844008
  0
LWPOLYLINE
  5
B1
330
1F
100
AcDbEntity
  8
0
  6
Continuous
 62
     7
370
    25
100
AcDbPolyline
 90
        3
 70
   128
 43
0.0
 10
6316.4970351075
 20
5308.7429270631
 10
6315.9238952449
 20
5309.0740835604
 10
6315.3730596877
 20
5309.3922657756
  0
LWPOLYLINE
  5
B2
330
1F
100
AcDbEntity
  8
0
  6
Continuous
 62
     7
370
    25
100
AcDbPolyline
 90
        3
 70
   128
 43
0.0
 10
6316.4970351075
 20
5306.6262603964
 10
6315.9242375084
 20
5306.9572793114
 10
6315.3730597822
 20
5307.2756014564
  0
LWPOLYLINE
  5
B3
330
1F
100
AcDbEntity
  8
0
  6
Continuous
 62
     7
370
    25
100
AcDbPolyline
 90
        3
 70
   128
 43
0.0
 10
6316.4970351075
 20
5304.5095937298
 10
6315.9245771074
 20
5304.8404750448
 10
6315.3730598305
 20
5305.1589370987
  0
LWPOLYLINE
  5
B4
330
1F
100
AcDbEntity
  8
0
  6
Continuous
 62
     7
370
    25
100
AcDbPolyline
 90
        3
 70
   128
 43
0.0
 10
6316.4970351075
 20
5302.3929270631
 10
6315.9249140413
 20
5302.7236707606
 10
6315.3730598326
 20
5303.0422727029
  0
LINE
  5
B5
330
1F
100
AcDbEntity
  8
0
  6
Continuous
 62
     7
370
    25
100
AcDbLine
 10
6315.6035240675
 20
5311.3757807613
 30
0.0
 11
6315.3730595474
 21
5311.5089300563
 31
0.0
  0
LWPOLYLINE
  5
B6
330
1F
100
AcDbEntity
  8
0
  6
Continuous
 62
     7
370
    25
100
AcDbPolyline
 90
        3
 70
   128
 43
0.0
 10
6284.6756068144
 20
5310.4582980286
 10
6284.1024243034
 20
5310.1271412932
 10
6283.5292137242
 20
5309.7959844008
  0
LINE
  5
B7
330
1F
100
AcDbEntity
  8
0
  6
Continuous
 62
     7
370
    25
100
AcDbLine
 10
6315.3548249072
 20
5311.6633850216
 30
0.0
 11
6314.8187553361
 21
5312.1994545927
 31
0.0
  0
LINE
  5
B8
330
1F
100
AcDbEntity
  8
0
  6
Continuous
 62
     7
370
    25
100
AcDbLine
 10
6316.44335659
 20
5310.5748533388
 30
0.0
 11
6315.7021854564
 21
5311.3160244724
 31
0.0
  0
LINE
  5
B9
330
1F
100
AcDbEntity
  8
0
  6
Continuous
 62
     7
370
    25
100
AcDbLine
 10
6285.2187553361
 20
5312.1994545927
 30
0.0
 11
6284.2545788678
 21
5311.2352781244
 31
0.0
  0
LWPOLYLINE
  5
BA
330
1F
100
AcDbEntity
  8
0
  6
Continuous
 62
     7
370
    25
100
AcDbPolyline
 90
        3
 70
   128
 43
0.0
 10
6284.6644510648
 20
5308.8584206339
 10
6284.6644431473
 20
5308.5936977837
 10
6284.6644508872
 20
5308.3351860231
  0
LWPOLYLINE
  5
BB
330
1F
100
AcDbEntity
  8
0
  6
Continuous
 62
     7
370
    25
100
AcDbPolyline
 90
        3
 70
   128
 43
0.0
 10
6284.6644510648
 20
5306.7417539673
 10
6284.6644378398
 20
5306.4768915867
 10
6284.664450768
 20
5306.2185192659
  0
LWPOLYLINE
  5
BC
330
1F
100
AcDbEntity
  8
0
  6
Continuous
 62
     7
370
    25
100
AcDbPolyline
 90
        3
 70
   128
 43
0.0
 10
6284.6644510648
 20
5304.6250873006
 10
6284.6644351426
 20
5304.3600853764
 10
6284.6644507073
 20
5304.101852512
  0
LWPOLYLINE
  5
BD
330
1F
100
AcDbEntity
  8
0
  6
Continuous
 62
     7
370
    25
100
AcDbPolyline
 90
        3
 70
   128
 43
0.0
 10
6315.3730595474
 20
5309.3875882072
 10
6315.3730674819
 20
5309.6520320237
 10
6315.3730597562
 20
5309.9097896426
  0
LWPOLYLINE
  5
BE
330
1F
100
AcDbEntity
  8
0
  6
Continuous
 62
     7
370
    25
100
AcDbPolyline
 90
        3
 70
   128
 43
0.0
 10
6315.3730595474
 20
5307.2709215405
 10
6315.3730728064
 20
5307.5352258268
 10
6315.3730598961
 20
5307.7931229068
  0
LWPOLYLINE
  5
BF
330
1F
100
AcDbEntity
  8
0
  6
Continuous
 62
     7
370
    25
100
AcDbPolyline
 90
        3
 70
   128
 43
0.0
 10
6315.3730595474
 20
5305.1542548738
 10
6315.3730755205
 20
5305.4184196165
 10
6315.3730599672
 20
5305.676456158
  0
LWPOLYLINE
  5
C0
330
1F
100
AcDbEntity
  8
0
  6
Continuous
 62
     7
370
    25
100
AcDbPolyline
 90
        3
 70
   128
 43
0.0
 10
6315.3730595474
 20
5303.0375882072
 10
6315.3730756241
 20
5303.3016133929
 10
6315.3730599697
 20
5303.5597893962
  0
LINE
  5
C1
330
1F
100
AcDbEntity
  8
0
  6
Continuous
 62
     7
370
    25
100
AcDbLine
 10
6315.3730595474
 20
5311.5042548738
 30
0.0
 11
6315.3730595474
 21
5311.6451340281
 31
0.0
  0
LINE
  5
C2
330
1F
100
AcDbEntity
  8
0
  6
Continuous
 62
     7
370
    25
100
AcDbLine
 10
6284.6644510648
 20
5310.9750873006
 30
0.0
 11
6284.6644510648
 21
5310.4518527837
 31
0.0
  0
LINE
  5
C3
330
1F
100
AcDbEntity
  8
0
  6
Continuous
 62
     7
370
    25
100
AcDbLine
 10
6316.5187553361
 20
5308.4610645521
 30
0.0
 11
6316.5187553361
 21
5308.8062257743
 31
0.0
  0
LINE
  5
C4
330
1F
100
AcDbEntity
  8
0
  6
Continuous
 62
     7
370
    25
100
AcDbLine
 10
6316.5187553361
 20
5304.2277312188
 30
0.0
 11
6316.5187553361
 21
5304.5728924409
 31
0.0
  0
LINE
  5
C5
330
1F
100
AcDbEntity
  8
0
  6
Continuous
 62
     7
370
    25
100
AcDbLine
 10
6316.5187553361
 20
5306.3443978854
 30
0.0
 11
6316.5187553361
 21
5306.6895591076
 31
0.0
  0
LINE
  5
C6
330
1F
100
AcDbEntity
  8
0
  6
Continuous
 62
     7
370
    25
100
AcDbLine
 10
6316.5187553361
 20
5302.1994545927
 30
0.0
 11
6316.5187553361
 21
5302.4562257743
 31
0.0
  0
LINE
  5
C7
330
1F
100
AcDbEntity
  8
0
  6
Continuous
 62
     7
370
    25
100
AcDbLine
 10
6283.5187553361
 20
5305.6312257743
 30
0.0
 11
6283.5187553361
 21
5305.2860645521
 31
0.0
  0
LINE
  5
C8
330
1F
100
AcDbEntity
  8
0
  6
Continuous
 62
     7
370
    25
100
AcDbLine
 10
6283.5187553361
 20
5307.7478924409
 30
0.0
 11
6283.5187553361
 21
5307.4027312188
 31
0.0
  0
LINE
  5
C9
330
1F
100
AcDbEntity
  8
0
  6
Continuous
 62
     7
370
    25
100
AcDbLine
 10
6283.5187553361
 20
5309.8645591076
 30
0.0
 11
6283.5187553361
 21
5309.5193978854
 31
0.0
  0
LINE
  5
CA
330
1F
100
AcDbEntity
  8
0
  6
Continuous
 62
     7
370
    25
100
AcDbLine
 10
6283.5187553361
 20
5303.5145591076
 30
0.0
 11
6283.5187553361
 21
5302.1994545927
 31
0.0
  0
LINE
  5
CB
330
1F
100
AcDbEntity
  8
0
  6
Continuous
 62
     7
370
    25
100
AcDbLine
 10
6317.3187553361
 20
5299.2001236508
 30
0.0
 11
6317.3187553361
 21
5302.1994545927
 31
0.0
  0
LINE
  5
CC
330
1F
100
AcDbEntity
  8
0
  6
Continuous
 62
     7
370
    25
100
AcDbLine
 10
6282.7187553361
 20
5302.1994545927
 30
0.0
 11
6282.7187553361
 21
5299.2001236508
 31
0.0
  0
LINE
  5
CD
330
1F
100
AcDbEntity
  8
0
  6
Continuous
 62
     7
370
    25
100
AcDbLine
 10
6349.0187553361
 20
5139.2001236508
 30
0.0
 11
6349.0187553361
 21
5289.2001236508
 31
0.0
  0
LINE
  5
CE
330
1F
100
AcDbEntity
  8
0
  6
Continuous
 62
     7
370
    25
100
AcDbLine
 10
6349.0187553361
 20
5289.2001236508
 30
0.0
 11
6359.0187553361
 21
5289.2001236508
 31
0.0
  0
LINE
  5
CF
330
1F
100
AcDbEntity
  8
0
  6
Continuous
 62
     7
370
    25
100
AcDbLine
 10
6359.0187553361
 20
5139.2001236508
 30
0.0
 11
6359.0187553361
 21
5289.2001236508
 31
0.0
  0
LINE
  5
D0
330
1F
100
AcDbEntity
  8
0
  6
Continuous
 62
     7
370
    25
100
AcDbLine
 10
6349.0187553361
 20
5139.2001236508
 30
0.0
 11
6359.0187553361
 21
5139.2001236508
 31
0.0
  0
LINE
  5
D1
330
1F
100
AcDbEntity
  8
0
  6
Continuous
 62
     7
370
    25
100
AcDbLine
 10
6189.0187553361
 20
5289.2001236508
 30
0.0
 11
6189.0187553361
 21
5139.2001236508
 31
0.0
  0
LINE
  5
D2
330
1F
100
AcDbEntity
  8
0
  6
Continuous
 62
     7
370
    25
100
AcDbLine
 10
6189.0187553361
 20
5289.2001236508
 30
0.0
 11
6199.0187553361
 21
5289.2001236508
 31
0.0
  0
LINE
  5
D3
330
1F
100
AcDbEntity
  8
0
  6
Continuous
 62
     7
370
    25
100
AcDbLine
 10
6199.0187553361
 20
5289.2001236508
 30
0.0
 11
6199.0187553361
 21
5139.2001236508
 31
0.0
  0
LINE
  5
D4
330
1F
100
AcDbEntity
  8
0
  6
Continuous
 62
     7
370
    25
100
AcDbLine
 10
6189.0187553361
 20
5139.2001236508
 30
0.0
 11
6199.0187553361
 21
5139.2001236508
 31
0.0
  0
ARC
  5
D5
330
1F
100
AcDbEntity
  8
0
  6
Continuous
 62
     7
370
    25
100
AcDbCircle
 10
6349.0187553361
 20
5139.2001236508
 30
0.0
 40
10.0
100
AcDbArc
 50
270.0
 51
0.0
  0
LINE
  5
D6
330
1F
100
AcDbEntity
  8
0
  6
Continuous
 62
     7
370
    25
100
AcDbLine
 10
6349.0187553361
 20
5139.2001236508
 30
0.0
 11
6349.0187553361
 21
5129.2001236508
 31
0.0
  0
LINE
  5
D7
330
1F
100
AcDbEntity
  8
0
  6
Continuous
 62
     7
370
    25
100
AcDbLine
 10
6349.0187553361
 20
5289.2001236508
 30
0.0
 11
6199.0187553361
 21
5289.2001236508
 31
0.0
  0
LINE
  5
D8
330
1F
100
AcDbEntity
  8
0
  6
Continuous
 62
     7
370
    25
100
AcDbLine
 10
6199.0187553361
 20
5139.2001236508
 30
0.0
 11
6349.0187553361
 21
5139.2001236508
 31
0.0
  0
LINE
  5
D9
330
1F
100
AcDbEntity
  8
0
  6
Continuous
 62
     7
370
    25
100
AcDbLine
 10
6349.0187553361
 20
5299.2001236508
 30
0.0
 11
6199.0187553361
 21
5299.2001236508
 31
0.0
  0
LINE
  5
DA
330
1F
100
AcDbEntity
  8
0
  6
Continuous
 62
     7
370
    25
100
AcDbLine
 10
6349.0187553361
 20
5299.2001236508
 30
0.0
 11
6349.0187553361
 21
5289.2001236508
 31
0.0
  0
LINE
  5
DB
330
1F
100
AcDbEntity
  8
0
  6
Continuous
 62
     7
370
    25
100
AcDbLine
 10
6199.0187553361
 20
5299.2001236508
 30
0.0
 11
6199.0187553361
 21
5289.2001236508
 31
0.0
  0
ARC
  5
DC
330
1F
100
AcDbEntity
  8
0
  6
Continuous
 62
     7
370
    25
100
AcDbCircle
 10
6349.0187553361
 20
5289.2001236508
 30
0.0
 40
10.0
100
AcDbArc
 50
0.0
 51
90.0
  0
LINE
  5
DD
330
1F
100
AcDbEntity
  8
0
  6
Continuous
 62
     7
370
    25
100
AcDbLine
 10
6199.0187553361
 20
5129.2001236508
 30
0.0
 11
6349.0187553361
 21
5129.2001236508
 31
0.0
  0
LINE
  5
DE
330
1F
100
AcDbEntity
  8
0
  6
Continuous
 62
     7
370
    25
100
AcDbLine
 10
6199.0187553361
 20
5139.2001236508
 30
0.0
 11
6199.0187553361
 21
5129.2001236508
 31
0.0
  0
LWPOLYLINE
  5
DF
330
1F
100
AcDbEntity
  8
0
  6
Continuous
 62
     7
370
    25
100
AcDbPolyline
 90
       20
 70
   128
 43
0.0
 10
6230.0187553361
 20
5131.4341723247
 10
6229.4543268966
 20
5131.3689209874
 10
6228.957426547
 20
5131.196498981
 10
6228.5216765751
 20
5130.932954183
 10
6228.1669226463
 20
5130.5721255183
 10
6228.0187754864
 20
5130.1761162055
 10
6228.1664317207
 20
5129.8498468367
 10
6228.5595995999
 20
5129.6396750846
 10
6229.1035677464
 20
5129.5232882349
 10
6229.732960794
 20
5129.4730910116
 10
6230.3876028136
 20
5129.4763890864
 10
6230.9995124975
 20
5129.5325568217
 10
6231.5030532103
 20
5129.6480986206
 10
6231.8493656749
 20
5129.8305652877
 10
6232.0100052547
 20
5130.0851779208
 10
6231.9615814374
 20
5130.4136927242
 10
6231.6698734809
 20
5130.8019118795
 10
6231.1134320506
 20
5131.1805575336
 10
6230.5801604501
 20
5131.3696252634
 10
6230.0187553361
 20
5131.4341723247
  0
LWPOLYLINE
  5
E0
330
1F
100
AcDbEntity
  8
0
  6
Continuous
 62
     7
370
    25
100
AcDbPolyline
 90
       20
 70
   128
 43
0.0
 10
6318.0187553361
 20
5131.4341723247
 10
6317.4543268966
 20
5131.3689209874
 10
6316.957426547
 20
5131.196498981
 10
6316.5216765751
 20
5130.932954183
 10
6316.1669226463
 20
5130.5721255183
 10
6316.0187754864
 20
5130.1761162055
 10
6316.1664317207
 20
5129.8498468367
 10
6316.5595995999
 20
5129.6396750846
 10
6317.1035677464
 20
5129.5232882349
 10
6317.732960794
 20
5129.4730910116
 10
6318.3876028136
 20
5129.4763890864
 10
6318.9995124975
 20
5129.5325568217
 10
6319.5030532103
 20
5129.6480986206
 10
6319.8493656749
 20
5129.8305652877
 10
6320.0100052547
 20
5130.0851779208
 10
6319.9615814374
 20
5130.4136927242
 10
6319.6698734809
 20
5130.8019118795
 10
6319.1134320506
 20
5131.1805575336
 10
6318.5801604501
 20
5131.3696252634
 10
6318.0187553361
 20
5131.4341723247
  0
ARC
  5
E1
330
1F
100
AcDbEntity
  8
0
  6
Continuous
 62
     7
370
    25
100
AcDbCircle
 10
6199.0187553361
 20
5289.2001236508
 30
0.0
 40
10.0
100
AcDbArc
 50
90.0
 51
180.0
  0
ARC
  5
E2
330
1F
100
AcDbEntity
  8
0
  6
Continuous
 62
     7
370
    25
100
AcDbCircle
 10
6199.0187553361
 20
5139.2001236508
 30
0.0
 40
10.0
100
AcDbArc
 50
180.0
 51
270.0
  0
ARC
  5
E3
330
1F
100
AcDbEntity
  8
0
  6
Continuous
 62
     7
370
    25
100
AcDbCircle
 10
6230.0252586321
 20
5134.2933120283
 30
0.0
 40
3.864521889835714
100
AcDbArc
 50
244.8871918589
 51
295.2385136043
  0
ARC
  5
E4
330
1F
100
AcDbEntity
  8
0
  6
Continuous
 62
     7
370
    25
100
AcDbCircle
 10
6318.0252586321
 20
5134.2933120283
 30
0.0
 40
3.864521889835714
100
AcDbArc
 50
244.8871918589
 51
295.2385136043
  0
ARC
  5
E5
330
1F
100
AcDbEntity
  8
0
  6
Continuous
 62
     7
370
    25
100
AcDbCircle
 10
6315.832585262
 20
5120.1471083716
 30
0.0
 40
1.998960718987647
100
AcDbArc
 50
264.7866941758
 51
289.7397424724
  0
LINE
  5
E6
330
1F
100
AcDbEntity
  8
0
  6
Continuous
 62
     7
370
    25
100
AcDbLine
 10
6316.5126114283
 20
5118.2746164085
 30
0.0
 11
6316.5039284631
 21
5118.2770286015
 31
0.0
  0
ARC
  5
E7
330
1F
100
AcDbEntity
  8
0
  6
Continuous
 62
     7
370
    25
100
AcDbCircle
 10
6313.7788172502
 20
5109.8567266025
 30
0.0
 40
8.50821628107035
100
AcDbArc
 50
77.288708524
 51
107.0592981326
  0
LWPOLYLINE
  5
E8
330
1F
100
AcDbEntity
  8
0
  6
Continuous
 62
     7
370
    25
100
AcDbPolyline
 90
       11
 70
   128
 43
0.0
 10
6303.2617452208
 20
5117.8039604461
 10
6303.8128794744
 20
5117.8152894411
 10
6304.3595789016
 20
5117.8265668066
 10
6304.9012044835
 20
5117.8377925426
 10
6305.4371231317
 20
5117.8489666491
 10
6306.2364131949
 20
5117.8662251826
 10
6306.6164380771
 20
5117.874667842
 10
6307.0501316182
 20
5117.8844554088
 10
6307.5348409537
 20
5117.8955878831
 10
6309.500590061
 20
5117.9430466306
 10
6311.2828360883
 20
5117.9905954436
  0
ARC
  5
E9
330
1F
100
AcDbEntity
  8
0
  6
Continuous
 62
     7
370
    25
100
AcDbCircle
 10
6299.8185510276
 20
5089.6616530905
 30
0.0
 40
28.35216128536907
100
AcDbArc
 50
83.0245643222
 51
99.356479334
  0
LWPOLYLINE
  5
EA
330
1F
100
AcDbEntity
  8
0
  6
Continuous
 62
     7
370
    25
100
AcDbPolyline
 90
        9
 70
   128
 43
0.0
 10
6287.6295485667
 20
5117.4499804085
 10
6288.4175681961
 20
5117.4735355612
 10
6289.2617856726
 20
5117.4972218722
 10
6290.1581114833
 20
5117.5210393415
 10
6291.1022036947
 20
5117.544987969
 10
6291.9518112826
 20
5117.5654341237
 10
6293.1022165455
 20
5117.591609203
 10
6294.1419513135
 20
5117.6142214433
 10
6295.2091548638
 20
5117.636615406
  0
ARC
  5
EB
330
1F
100
AcDbEntity
  8
0
  6
Continuous
 62
     7
370
    25
100
AcDbCircle
 10
6286.04766934
 20
5111.5820311511
 30
0.0
 40
6.07743123168691
100
AcDbArc
 50
74.912879458
 51
110.24088221
  0
LWPOLYLINE
  5
EC
330
1F
100
AcDbEntity
  8
0
  6
Continuous
 62
     7
370
    25
100
AcDbPolyline
 90
        4
 70
   128
 43
0.0
 10
6283.5297799933
 20
5117.2072802542
 10
6283.5248992438
 20
5117.216283075
 10
6283.6365327526
 20
5117.2472957042
 10
6283.9450741116
 20
5117.2841591469
  0
LWPOLYLINE
  5
ED
330
1F
100
AcDbEntity
  8
0
  6
Continuous
 62
     7
370
    25
100
AcDbPolyline
 90
       20
 70
   128
 43
0.0
 10
6284.6646594024
 20
5115.7537751573
 10
6284.8890371924
 20
5115.7921822968
 10
6285.5326320581
 20
5115.8282365309
 10
6286.5773436812
 20
5115.8636945455
 10
6288.0399557584
 20
5115.899326172
 10
6289.8011971208
 20
5115.9349565388
 10
6291.9078389013
 20
5115.9717647874
 10
6294.1994035175
 20
5116.0069083607
 10
6296.728466034
 20
5116.0427071639
 10
6299.2933716789
 20
5116.0785143653
 10
6301.8840176796
 20
5116.1142246286
 10
6304.5015174308
 20
5116.1498787243
 10
6306.9416588119
 20
5116.184975739
 10
6309.2600253421
 20
5116.2217548203
 10
6311.2801097326
 20
5116.2574569568
 10
6313.0395492426
 20
5116.2931057504
 10
6314.3949723289
 20
5116.3285087996
 10
6315.361387517
 20
5116.3643179794
 10
6315.9125033751
 20
5116.3995601711
 10
6315.9933580826
 20
5116.423672654
  0
LWPOLYLINE
  5
EE
330
1F
100
AcDbEntity
  8
0
  6
Continuous
 62
     7
370
    25
100
AcDbPolyline
 90
       18
 70
   128
 43
0.0
 10
6284.6646594024
 20
5115.7537751573
 10
6285.0499446953
 20
5115.8278369637
 10
6285.9740622317
 20
5115.8932083942
 10
6287.3885139504
 20
5115.9559226008
 10
6289.2626550243
 20
5116.0196170519
 10
6291.5460975208
 20
5116.0851370156
 10
6294.1157564877
 20
5116.1489422373
 10
6296.8801317708
 20
5116.2115681664
 10
6299.7970318748
 20
5116.276904986
 10
6302.7125272493
 20
5116.3415999167
 10
6305.4947319845
 20
5116.4037877442
 10
6308.117332288
 20
5116.4686128134
 10
6310.4504995728
 20
5116.5338795284
 10
6312.3779405288
 20
5116.5963687833
 10
6313.8768590871
 20
5116.660362022
 10
6314.8822133312
 20
5116.7258730877
 10
6315.3417081282
 20
5116.7893632972
 10
6315.3121675977
 20
5116.8103352465
  0
LWPOLYLINE
  5
EF
330
1F
100
AcDbEntity
  8
0
  6
Continuous
 62
     7
370
    25
100
AcDbPolyline
 90
       18
 70
   128
 43
0.0
 10
6284.8723786897
 20
5117.9103708478
 10
6285.0499446953
 20
5117.9445036304
 10
6285.9740622317
 20
5118.0098750609
 10
6287.3885139504
 20
5118.0725892675
 10
6289.2626550243
 20
5118.1362837185
 10
6291.5460975208
 20
5118.2018036822
 10
6294.1157564877
 20
5118.2656089039
 10
6296.8801317708
 20
5118.3282348331
 10
6299.7970318748
 20
5118.3935716526
 10
6302.7125272493
 20
5118.4582665833
 10
6305.4947319845
 20
5118.5204544109
 10
6308.117332288
 20
5118.5852794801
 10
6310.4504995728
 20
5118.650546195
 10
6312.3779405288
 20
5118.7130354499
 10
6313.8768590871
 20
5118.7770286887
 10
6314.8822133312
 20
5118.8425397544
 10
6315.3417081282
 20
5118.9060299638
 10
6315.3121674432
 20
5118.9270020228
  0
LWPOLYLINE
  5
F0
330
1F
100
AcDbEntity
  8
0
  6
Continuous
 62
     7
370
    25
100
AcDbPolyline
 90
       18
 70
   128
 43
0.0
 10
6284.8723748155
 20
5120.0270367698
 10
6285.0499446953
 20
5120.0611702971
 10
6285.9740622317
 20
5120.1265417276
 10
6287.3885139504
 20
5120.1892559342
 10
6289.2626550243
 20
5120.2529503852
 10
6291.5460975208
 20
5120.3184703489
 10
6294.1157564877
 20
5120.3822755706
 10
6296.8801317708
 20
5120.4449014997
 10
6299.7970318748
 20
5120.5102383193
 10
6302.7125272493
 20
5120.57493325
 10
6305.4947319845
 20
5120.6371210776
 10
6308.117332288
 20
5120.7019461468
 10
6310.4504995728
 20
5120.7672128617
 10
6312.3779405288
 20
5120.8297021166
 10
6313.8768590871
 20
5120.8936953553
 10
6314.8822133312
 20
5120.959206421
 10
6315.3417081282
 20
5121.0226966305
 10
6315.3121673525
 20
5121.0436687539
  0
LWPOLYLINE
  5
F1
330
1F
100
AcDbEntity
  8
0
  6
Continuous
 62
     7
370
    25
100
AcDbPolyline
 90
       18
 70
   128
 43
0.0
 10
6284.8723863701
 20
5122.1437056575
 10
6285.0499446953
 20
5122.1778369637
 10
6285.9740622317
 20
5122.2432083942
 10
6287.3885139504
 20
5122.3059226008
 10
6289.2626550243
 20
5122.3696170519
 10
6291.5460975208
 20
5122.4351370156
 10
6294.1157564877
 20
5122.4989422373
 10
6296.8801317708
 20
5122.5615681664
 10
6299.7970318748
 20
5122.626904986
 10
6302.7125272493
 20
5122.6915999167
 10
6305.4947319845
 20
5122.7537877442
 10
6308.117332288
 20
5122.8186128134
 10
6310.4504995728
 20
5122.8838795284
 10
6312.3779405288
 20
5122.9463687833
 10
6313.8768590871
 20
5123.010362022
 10
6314.8822133312
 20
5123.0758730877
 10
6315.3417081282
 20
5123.1393632972
 10
6315.3121673244
 20
5123.1603354405
  0
LWPOLYLINE
  5
F2
330
1F
100
AcDbEntity
  8
0
  6
Continuous
 62
     7
370
    25
100
AcDbPolyline
 90
       11
 70
   128
 43
0.0
 10
6284.8723902117
 20
5124.2603730626
 10
6285.0499446953
 20
5124.2945036304
 10
6285.9740622317
 20
5124.3598750609
 10
6287.3885139504
 20
5124.4225892675
 10
6289.2626550243
 20
5124.4862837185
 10
6291.5460975208
 20
5124.5518036822
 10
6294.1157564877
 20
5124.6156089039
 10
6296.8801317708
 20
5124.6782348331
 10
6299.7970318748
 20
5124.7435716526
 10
6302.7125272493
 20
5124.8082665833
 10
6305.0587675574
 20
5124.8603761677
  0
LINE
  5
F3
330
1F
100
AcDbEntity
  8
0
  6
Continuous
 62
     7
370
    25
100
AcDbLine
 10
6305.4348335859
 20
5124.1989178373
 30
0.0
 11
6305.0587675574
 21
5124.8603761677
 31
0.0
  0
LINE
  5
F4
330
1F
100
AcDbEntity
  8
0
  6
Continuous
 62
     7
370
    25
100
AcDbLine
 10
6303.2617452208
 20
5124.1539604461
 30
0.0
 11
6305.4348335859
 21
5124.1989178373
 31
0.0
  0
ARC
  5
F5
330
1F
100
AcDbEntity
  8
0
  6
Continuous
 62
     7
370
    25
100
AcDbCircle
 10
6299.8185510276
 20
5096.01165309
 30
0.0
 40
28.35216128577941
100
AcDbArc
 50
83.0245643223
 51
99.3564793339
  0
LWPOLYLINE
  5
F6
330
1F
100
AcDbEntity
  8
0
  6
Continuous
 62
     7
370
    25
100
AcDbPolyline
 90
        9
 70
   128
 43
0.0
 10
6287.6295485667
 20
5123.7999804085
 10
6288.4175681961
 20
5123.8235355612
 10
6289.2617856726
 20
5123.8472218722
 10
6290.1581114833
 20
5123.8710393415
 10
6291.1022036947
 20
5123.894987969
 10
6291.9518112799
 20
5123.9154341236
 10
6293.1022165455
 20
5123.941609203
 10
6294.1419513135
 20
5123.9642214433
 10
6295.2091548638
 20
5123.986615406
  0
ARC
  5
F7
330
1F
100
AcDbEntity
  8
0
  6
Continuous
 62
     7
370
    25
100
AcDbCircle
 10
6286.04766934
 20
5117.9320311512
 30
0.0
 40
6.077431231576499
100
AcDbArc
 50
74.9128794577
 51
110.2408822103
  0
LWPOLYLINE
  5
F8
330
1F
100
AcDbEntity
  8
0
  6
Continuous
 62
     7
370
    25
100
AcDbPolyline
 90
        4
 70
   128
 43
0.0
 10
6283.5297799934
 20
5123.5572802542
 10
6283.5248992439
 20
5123.5662830751
 10
6283.6365327531
 20
5123.5972957043
 10
6283.9450741116
 20
5123.6341591469
  0
ARC
  5
F9
330
1F
100
AcDbEntity
  8
0
  6
Continuous
 62
     7
370
    25
100
AcDbCircle
 10
6315.8325852617
 20
5124.3804417063
 30
0.0
 40
1.998960720316657
100
AcDbArc
 50
264.7866941872
 51
289.7397424633
  0
LINE
  5
FA
330
1F
100
AcDbEntity
  8
0
  6
Continuous
 62
     7
370
    25
100
AcDbLine
 10
6316.5126114281
 20
5122.5079497419
 30
0.0
 11
6316.5039221068
 21
5122.5103637007
 31
0.0
  0
ARC
  5
FB
330
1F
100
AcDbEntity
  8
0
  6
Continuous
 62
     7
370
    25
100
AcDbCircle
 10
6313.7788172502
 20
5114.0900599358
 30
0.0
 40
8.508216281079163
100
AcDbArc
 50
77.288708524
 51
107.0592981326
  0
LWPOLYLINE
  5
FC
330
1F
100
AcDbEntity
  8
0
  6
Continuous
 62
     7
370
    25
100
AcDbPolyline
 90
       11
 70
   128
 43
0.0
 10
6303.2617452208
 20
5122.0372937794
 10
6303.8128794744
 20
5122.0486227744
 10
6304.3595789016
 20
5122.0599001399
 10
6304.9012044835
 20
5122.0711258759
 10
6305.4371231317
 20
5122.0822999824
 10
6306.2364131846
 20
5122.0995585157
 10
6306.6164380681
 20
5122.1080011751
 10
6307.0501316127
 20
5122.1177887421
 10
6307.5348409537
 20
5122.1289212165
 10
6309.500590061
 20
5122.1763799639
 10
6311.2828360883
 20
5122.2239287769
  0
ARC
  5
FD
330
1F
100
AcDbEntity
  8
0
  6
Continuous
 62
     7
370
    25
100
AcDbCircle
 10
6299.8185510276
 20
5093.8949864238
 30
0.0
 40
28.35216128537178
100
AcDbArc
 50
83.0245643222
 51
99.356479334
  0
LWPOLYLINE
  5
FE
330
1F
100
AcDbEntity
  8
0
  6
Continuous
 62
     7
370
    25
100
AcDbPolyline
 90
        9
 70
   128
 43
0.0
 10
6287.6295485667
 20
5121.6833137418
 10
6288.4175681961
 20
5121.7068688946
 10
6289.2617856726
 20
5121.7305552056
 10
6290.1581114833
 20
5121.7543726748
 10
6291.1022036947
 20
5121.7783213023
 10
6291.9518112765
 20
5121.7987674569
 10
6293.1022165455
 20
5121.8249425363
 10
6294.1419513135
 20
5121.8475547767
 10
6295.2091548638
 20
5121.8699487393
  0
ARC
  5
FF
330
1F
100
AcDbEntity
  8
0
  6
Continuous
 62
     7
370
    25
100
AcDbCircle
 10
6286.04766934
 20
5115.8153644844
 30
0.0
 40
6.07743123164571
100
AcDbArc
 50
74.9128794579
 51
110.2408822101
  0
LWPOLYLINE
  5
100
330
1F
100
AcDbEntity
  8
0
  6
Continuous
 62
     7
370
    25
100
AcDbPolyline
 90
        4
 70
   128
 43
0.0
 10
6283.5297799934
 20
5121.4406135876
 10
6283.5248992439
 20
5121.4496164085
 10
6283.6365327531
 20
5121.4806290376
 10
6283.9450741116
 20
5121.5174924803
  0
ARC
  5
101
330
1F
100
AcDbEntity
  8
0
  6
Continuous
 62
     7
370
    25
100
AcDbCircle
 10
6315.8325852619
 20
5122.2637750385
 30
0.0
 40
1.998960719301566
100
AcDbArc
 50
264.7866941784
 51
289.7397424702
  0
LINE
  5
102
330
1F
100
AcDbEntity
  8
0
  6
Continuous
 62
     7
370
    25
100
AcDbLine
 10
6316.5126114282
 20
5120.3912830751
 30
0.0
 11
6316.5039252856
 21
5120.3936961509
 31
0.0
  0
ARC
  5
103
330
1F
100
AcDbEntity
  8
0
  6
Continuous
 62
     7
370
    25
100
AcDbCircle
 10
6313.7788172502
 20
5111.9733932691
 30
0.0
 40
8.508216281079163
100
AcDbArc
 50
77.288708524
 51
107.0592981326
  0
LWPOLYLINE
  5
104
330
1F
100
AcDbEntity
  8
0
  6
Continuous
 62
     7
370
    25
100
AcDbPolyline
 90
       11
 70
   128
 43
0.0
 10
6303.2617452208
 20
5119.9206271128
 10
6303.8128794744
 20
5119.9319561077
 10
6304.3595789016
 20
5119.9432334732
 10
6304.9012044835
 20
5119.9544592092
 10
6305.4371231317
 20
5119.9656333158
 10
6306.2364131959
 20
5119.9828918493
 10
6306.616438078
 20
5119.9913345087
 10
6307.0501316188
 20
5120.0011220755
 10
6307.5348409537
 20
5120.0122545498
 10
6309.500590061
 20
5120.0597132973
 10
6311.2828360883
 20
5120.1072621103
  0
ARC
  5
105
330
1F
100
AcDbEntity
  8
0
  6
Continuous
 62
     7
370
    25
100
AcDbCircle
 10
6299.8185510276
 20
5091.7783197571
 30
0.0
 40
28.35216128536907
100
AcDbArc
 50
83.0245643222
 51
99.356479334
  0
LWPOLYLINE
  5
106
330
1F
100
AcDbEntity
  8
0
  6
Continuous
 62
     7
370
    25
100
AcDbPolyline
 90
        9
 70
   128
 43
0.0
 10
6287.6295485667
 20
5119.5666470752
 10
6288.4175681961
 20
5119.5902022279
 10
6289.2617856726
 20
5119.6138885389
 10
6290.1581114833
 20
5119.6377060081
 10
6291.1022036947
 20
5119.6616546356
 10
6291.9518112765
 20
5119.6821007902
 10
6293.1022165455
 20
5119.7082758697
 10
6294.1419513135
 20
5119.73088811
 10
6295.2091548638
 20
5119.7532820727
  0
ARC
  5
107
330
1F
100
AcDbEntity
  8
0
  6
Continuous
 62
     7
370
    25
100
AcDbCircle
 10
6286.04766934
 20
5113.6986978177
 30
0.0
 40
6.077431231686033
100
AcDbArc
 50
74.912879458
 51
110.24088221
  0
LWPOLYLINE
  5
108
330
1F
100
AcDbEntity
  8
0
  6
Continuous
 62
     7
370
    25
100
AcDbPolyline
 90
        4
 70
   128
 43
0.0
 10
6283.5297799934
 20
5119.3239469209
 10
6283.5248992439
 20
5119.3329497418
 10
6283.6365327531
 20
5119.363962371
 10
6283.9450741116
 20
5119.4008258136
  0
LWPOLYLINE
  5
109
330
1F
100
AcDbEntity
  8
0
  6
Continuous
 62
     7
370
    25
100
AcDbPolyline
 90
        4
 70
   128
 43
0.0
 10
6283.5297799933
 20
5119.0593635818
 10
6283.5248992438
 20
5119.0683664026
 10
6283.6365327526
 20
5119.0993790318
 10
6283.9450741116
 20
5119.1362424745
  0
ARC
  5
10A
330
1F
100
AcDbEntity
  8
0
  6
Continuous
 62
     7
370
    25
100
AcDbCircle
 10
6285.5255544363
 20
5125.03527471
 30
0.0
 40
6.107085996834106
100
AcDbArc
 50
255.0014553758
 51
290.1523062922
  0
LWPOLYLINE
  5
10B
330
1F
100
AcDbEntity
  8
0
  6
Continuous
 62
     7
370
    25
100
AcDbPolyline
 90
        9
 70
   128
 43
0.0
 10
6287.6295485667
 20
5119.3020637361
 10
6288.4175681961
 20
5119.3256188888
 10
6289.2617856726
 20
5119.3493051998
 10
6290.1581114833
 20
5119.373122669
 10
6291.1022036947
 20
5119.3970712965
 10
6291.9518112898
 20
5119.4175174514
 10
6293.1022165455
 20
5119.4436925306
 10
6294.1419513135
 20
5119.4663047709
 10
6295.2091548638
 20
5119.4886987336
  0
ARC
  5
10C
330
1F
100
AcDbEntity
  8
0
  6
Continuous
 62
     7
370
    25
100
AcDbCircle
 10
6298.6523490569
 20
5147.6310060896
 30
0.0
 40
28.35216128578866
100
AcDbArc
 50
263.0245643223
 51
279.3564793339
  0
LWPOLYLINE
  5
10D
330
1F
100
AcDbEntity
  8
0
  6
Continuous
 62
     7
370
    25
100
AcDbPolyline
 90
       11
 70
   128
 43
0.0
 10
6303.2617452208
 20
5119.6560437737
 10
6303.8128794744
 20
5119.6673727686
 10
6304.3595789016
 20
5119.6786501341
 10
6304.9012044835
 20
5119.6898758701
 10
6305.4371231317
 20
5119.7010499766
 10
6306.2364131935
 20
5119.7183085101
 10
6306.6164380759
 20
5119.7267511695
 10
6307.0501316175
 20
5119.7365387364
 10
6307.5348409537
 20
5119.7476712107
 10
6309.500590061
 20
5119.7951299581
 10
6311.2828360883
 20
5119.8426787711
  0
ARC
  5
10E
330
1F
100
AcDbEntity
  8
0
  6
Continuous
 62
     7
370
    25
100
AcDbCircle
 10
6313.1566190627
 20
5128.0989505624
 30
0.0
 40
8.466232132801364
100
AcDbArc
 50
257.2131720758
 51
287.1348345809
  0
ARC
  5
10F
330
1F
100
AcDbEntity
  8
0
  6
Continuous
 62
     7
370
    25
100
AcDbCircle
 10
6315.8325852621
 20
5121.9991916985
 30
0.0
 40
1.998960718372182
100
AcDbArc
 50
264.7866941706
 51
289.7397424765
  0
LWPOLYLINE
  5
110
330
1F
100
AcDbEntity
  8
0
  6
Continuous
 62
     7
370
    25
100
AcDbPolyline
 90
        4
 70
   128
 43
0.0
 10
6283.5297799935
 20
5121.1760302485
 10
6283.524899244
 20
5121.1850330694
 10
6283.6365327537
 20
5121.2160456986
 10
6283.9450741116
 20
5121.2529091412
  0
ARC
  5
111
330
1F
100
AcDbEntity
  8
0
  6
Continuous
 62
     7
370
    25
100
AcDbCircle
 10
6285.5255544363
 20
5127.1519413767
 30
0.0
 40
6.107085996811592
100
AcDbArc
 50
255.0014553757
 51
290.1523062923
  0
LWPOLYLINE
  5
112
330
1F
100
AcDbEntity
  8
0
  6
Continuous
 62
     7
370
    25
100
AcDbPolyline
 90
        9
 70
   128
 43
0.0
 10
6287.6295485667
 20
5121.4187304027
 10
6288.4175681961
 20
5121.4422855555
 10
6289.2617856726
 20
5121.4659718664
 10
6290.1581114833
 20
5121.4897893357
 10
6291.1022036947
 20
5121.5137379632
 10
6291.9518112909
 20
5121.5341841181
 10
6293.1022165455
 20
5121.5603591972
 10
6294.1419513135
 20
5121.5829714375
 10
6295.2091548638
 20
5121.6053654002
  0
ARC
  5
113
330
1F
100
AcDbEntity
  8
0
  6
Continuous
 62
     7
370
    25
100
AcDbCircle
 10
6298.6523490569
 20
5149.7476727559
 30
0.0
 40
28.35216128536998
100
AcDbArc
 50
263.0245643222
 51
279.356479334
  0
LWPOLYLINE
  5
114
330
1F
100
AcDbEntity
  8
0
  6
Continuous
 62
     7
370
    25
100
AcDbPolyline
 90
       11
 70
   128
 43
0.0
 10
6303.2617452208
 20
5121.7727104403
 10
6303.8128794744
 20
5121.7840394353
 10
6304.3595789016
 20
5121.7953168008
 10
6304.9012044835
 20
5121.8065425368
 10
6305.4371231317
 20
5121.8177166433
 10
6306.236413186
 20
5121.8349751766
 10
6306.6164380693
 20
5121.8434178361
 10
6307.0501316134
 20
5121.853205403
 10
6307.5348409537
 20
5121.8643378774
 10
6309.500590061
 20
5121.9117966248
 10
6311.2828360883
 20
5121.9593454378
  0
ARC
  5
115
330
1F
100
AcDbEntity
  8
0
  6
Continuous
 62
     7
370
    25
100
AcDbCircle
 10
6313.1566190627
 20
5130.2156172291
 30
0.0
 40
8.466232132800496
100
AcDbArc
 50
257.2131720758
 51
287.1348345809
  0
ARC
  5
116
330
1F
100
AcDbEntity
  8
0
  6
Continuous
 62
     7
370
    25
100
AcDbCircle
 10
6315.8325852619
 20
5124.1158583661
 30
0.0
 40
1.998960719301566
100
AcDbArc
 50
264.7866941784
 51
289.7397424702
  0
LWPOLYLINE
  5
117
330
1F
100
AcDbEntity
  8
0
  6
Continuous
 62
     7
370
    25
100
AcDbPolyline
 90
        4
 70
   128
 43
0.0
 10
6283.5297799934
 20
5123.2926969151
 10
6283.5248992439
 20
5123.301699736
 10
6283.6365327531
 20
5123.3327123652
 10
6283.9450741116
 20
5123.3695758078
  0
ARC
  5
118
330
1F
100
AcDbEntity
  8
0
  6
Continuous
 62
     7
370
    25
100
AcDbCircle
 10
6285.5255544363
 20
5129.2686080434
 30
0.0
 40
6.107085996829545
100
AcDbArc
 50
255.0014553758
 51
290.1523062922
  0
LWPOLYLINE
  5
119
330
1F
100
AcDbEntity
  8
0
  6
Continuous
 62
     7
370
    25
100
AcDbPolyline
 90
        9
 70
   128
 43
0.0
 10
6287.6295485667
 20
5123.5353970694
 10
6288.4175681961
 20
5123.5589522221
 10
6289.2617856726
 20
5123.5826385331
 10
6290.1581114833
 20
5123.6064560024
 10
6291.1022036947
 20
5123.6304046299
 10
6291.9518112743
 20
5123.6508507844
 10
6293.1022165455
 20
5123.6770258639
 10
6294.1419513135
 20
5123.6996381042
 10
6295.2091548638
 20
5123.7220320669
  0
ARC
  5
11A
330
1F
100
AcDbEntity
  8
0
  6
Continuous
 62
     7
370
    25
100
AcDbCircle
 10
6298.6523490569
 20
5151.864339423
 30
0.0
 40
28.35216128581349
100
AcDbArc
 50
263.0245643224
 51
279.3564793339
  0
LWPOLYLINE
  5
11B
330
1F
100
AcDbEntity
  8
0
  6
Continuous
 62
     7
370
    25
100
AcDbPolyline
 90
       11
 70
   128
 43
0.0
 10
6303.2617452208
 20
5123.889377107
 10
6303.8128794744
 20
5123.900706102
 10
6304.3595789016
 20
5123.9119834675
 10
6304.9012044835
 20
5123.9232092035
 10
6305.4371231317
 20
5123.93438331
 10
6306.2364131959
 20
5123.9516418435
 10
6306.616438078
 20
5123.9600845029
 10
6307.0501316188
 20
5123.9698720697
 10
6307.5348409537
 20
5123.981004544
 10
6309.500590061
 20
5124.0284632915
 10
6311.2828360883
 20
5124.0760121045
  0
ARC
  5
11C
330
1F
100
AcDbEntity
  8
0
  6
Continuous
 62
     7
370
    25
100
AcDbCircle
 10
6313.158225062
 20
5132.2899781549
 30
0.0
 40
8.425338098907611
100
AcDbArc
 50
257.1388472132
 51
287.2091594435
  0
ARC
  5
11D
330
1F
100
AcDbEntity
  8
0
  6
Continuous
 62
     7
370
    25
100
AcDbCircle
 10
6315.8325852617
 20
5126.2325250336
 30
0.0
 40
1.998960720145536
100
AcDbArc
 50
264.7866941857
 51
289.7397424644
  0
ARC
  5
11E
330
1F
100
AcDbEntity
  8
0
  6
Continuous
 62
     7
370
    25
100
AcDbCircle
 10
6285.5266894183
 20
5131.3600559166
 30
0.0
 40
6.083024850418228
100
AcDbArc
 50
254.929656483
 51
290.2241051849
  0
ARC
  5
11F
330
1F
100
AcDbEntity
  8
0
  6
Continuous
 62
     7
370
    25
100
AcDbCircle
 10
6298.6534150013
 20
5153.9297131843
 30
0.0
 40
28.30137842519102
100
AcDbArc
 50
263.0098113575
 51
279.3712322987
  0
LWPOLYLINE
  5
120
330
1F
100
AcDbEntity
  8
0
  6
Continuous
 62
     7
370
    25
100
AcDbPolyline
 90
       19
 70
   128
 43
0.0
 10
6284.7053085341
 20
5116.2809230681
 10
6284.6732261878
 20
5116.2923869982
 10
6285.0499446019
 20
5116.357003621
 10
6285.9740620597
 20
5116.4223750515
 10
6287.3885137075
 20
5116.4850892584
 10
6289.2626547079
 20
5116.5487837087
 10
6291.5460971441
 20
5116.6143036722
 10
6294.1157560707
 20
5116.6781088943
 10
6296.8801313143
 20
5116.7407348228
 10
6299.7970313976
 20
5116.806071642
 10
6302.7125267773
 20
5116.8707665729
 10
6305.4947315284
 20
5116.9329544003
 10
6308.1173318615
 20
5116.9977794689
 10
6310.450499201
 20
5117.0630461839
 10
6312.3779402268
 20
5117.125535439
 10
6313.8768588607
 20
5117.189528677
 10
6314.8822131974
 20
5117.2550397425
 10
6315.3417080943
 20
5117.3185299525
 10
6315.3293437801
 20
5117.3273078608
  0
LWPOLYLINE
  5
121
330
1F
100
AcDbEntity
  8
0
  6
Continuous
 62
     7
370
    25
100
AcDbPolyline
 90
       19
 70
   128
 43
0.0
 10
6284.7052457735
 20
5118.3976121608
 10
6284.6732261878
 20
5118.4090536648
 10
6285.0499446019
 20
5118.4736702877
 10
6285.9740620597
 20
5118.5390417182
 10
6287.3885137075
 20
5118.601755925
 10
6289.2626547079
 20
5118.6654503754
 10
6291.5460971441
 20
5118.7309703389
 10
6294.1157560707
 20
5118.7947755609
 10
6296.8801313143
 20
5118.8574014894
 10
6299.7970313976
 20
5118.9227383087
 10
6302.7125267773
 20
5118.9874332396
 10
6305.4947315284
 20
5119.0496210669
 10
6308.1173318615
 20
5119.1144461356
 10
6310.450499201
 20
5119.1797128506
 10
6312.3779402268
 20
5119.2422021057
 10
6313.8768588607
 20
5119.3061953437
 10
6314.8822131974
 20
5119.3717064092
 10
6315.3417080943
 20
5119.4351966192
 10
6315.3293337019
 20
5119.4439816824
  0
LWPOLYLINE
  5
122
330
1F
100
AcDbEntity
  8
0
  6
Continuous
 62
     7
370
    25
100
AcDbPolyline
 90
       19
 70
   128
 43
0.0
 10
6284.7052512294
 20
5120.514276878
 10
6284.6732261878
 20
5120.5257203315
 10
6285.0499446019
 20
5120.5903369544
 10
6285.9740620597
 20
5120.6557083848
 10
6287.3885137075
 20
5120.7184225917
 10
6289.2626547079
 20
5120.782117042
 10
6291.5460971441
 20
5120.8476370055
 10
6294.1157560707
 20
5120.9114422276
 10
6296.8801313143
 20
5120.9740681561
 10
6299.7970313976
 20
5121.0394049753
 10
6302.7125267773
 20
5121.1040999063
 10
6305.4947315284
 20
5121.1662877336
 10
6308.1173318615
 20
5121.2311128022
 10
6310.450499201
 20
5121.2963795172
 10
6312.3779402268
 20
5121.3588687723
 10
6313.8768588607
 20
5121.4228620103
 10
6314.8822131974
 20
5121.4883730759
 10
6315.3417080943
 20
5121.5518632859
 10
6315.3293236351
 20
5121.5606554958
  0
LWPOLYLINE
  5
123
330
1F
100
AcDbEntity
  8
0
  6
Continuous
 62
     7
370
    25
100
AcDbPolyline
 90
       19
 70
   128
 43
0.0
 10
6284.7052509978
 20
5122.6309436274
 10
6284.6732261878
 20
5122.6423869982
 10
6285.0499446019
 20
5122.707003621
 10
6285.9740620597
 20
5122.7723750515
 10
6287.3885137075
 20
5122.8350892584
 10
6289.2626547079
 20
5122.8987837087
 10
6291.5460971441
 20
5122.9643036722
 10
6294.1157560707
 20
5123.0281088943
 10
6296.8801313143
 20
5123.0907348228
 10
6299.7970313976
 20
5123.156071642
 10
6302.7125267773
 20
5123.2207665729
 10
6305.4947315284
 20
5123.2829544003
 10
6308.1173318615
 20
5123.3477794689
 10
6310.450499201
 20
5123.4130461839
 10
6312.3779402268
 20
5123.475535439
 10
6313.8768588607
 20
5123.539528677
 10
6314.8822131974
 20
5123.6050397425
 10
6315.3417080943
 20
5123.6685299525
 10
6315.3293135797
 20
5123.6773293012
  0
LWPOLYLINE
  5
124
330
1F
100
AcDbEntity
  8
0
  6
Continuous
 62
     7
370
    25
100
AcDbPolyline
 90
       12
 70
   128
 43
0.0
 10
6284.7052505979
 20
5124.7476104369
 10
6284.6732261878
 20
5124.7590536648
 10
6285.0499446019
 20
5124.8236702877
 10
6285.9740620597
 20
5124.8890417182
 10
6287.3885137075
 20
5124.951755925
 10
6289.2626547079
 20
5125.0154503754
 10
6291.5460971441
 20
5125.0809703389
 10
6294.1157560707
 20
5125.1447755609
 10
6296.8801313143
 20
5125.2074014894
 10
6299.7970313976
 20
5125.2727383087
 10
6302.7125267773
 20
5125.3374332396
 10
6303.2617452208
 20
5125.3496312843
  0
LWPOLYLINE
  5
125
330
1F
100
AcDbEntity
  8
0
  6
Continuous
 62
     7
370
    25
100
AcDbPolyline
 90
        4
 70
   128
 43
0.0
 10
6283.5696474915
 20
5116.9427421985
 10
6283.5370737503
 20
5116.9582805173
 10
6283.618209082
 20
5116.9793395843
 10
6283.9450741117
 20
5117.0195758078
  0
ARC
  5
126
330
1F
100
AcDbEntity
  8
0
  6
Continuous
 62
     7
370
    25
100
AcDbCircle
 10
6285.5255544363
 20
5122.9186080434
 30
0.0
 40
6.107085996834106
100
AcDbArc
 50
255.0014553758
 51
290.1523062922
  0
LWPOLYLINE
  5
127
330
1F
100
AcDbEntity
  8
0
  6
Continuous
 62
     7
370
    25
100
AcDbPolyline
 90
        9
 70
   128
 43
0.0
 10
6287.6295485667
 20
5117.1853970694
 10
6288.4175681961
 20
5117.2089522221
 10
6289.2617856726
 20
5117.2326385331
 10
6290.1581114833
 20
5117.2564560024
 10
6291.1022036947
 20
5117.2804046299
 10
6291.9518112682
 20
5117.3008507842
 10
6293.1022165455
 20
5117.3270258639
 10
6294.1419513135
 20
5117.3496381042
 10
6295.2091548638
 20
5117.3720320669
  0
ARC
  5
128
330
1F
100
AcDbEntity
  8
0
  6
Continuous
 62
     7
370
    25
100
AcDbCircle
 10
6298.6523490569
 20
5145.5143394229
 30
0.0
 40
28.35216128574867
100
AcDbArc
 50
263.0245643223
 51
279.3564793339
  0
LWPOLYLINE
  5
129
330
1F
100
AcDbEntity
  8
0
  6
Continuous
 62
     7
370
    25
100
AcDbPolyline
 90
       11
 70
   128
 43
0.0
 10
6303.2617452208
 20
5117.539377107
 10
6303.8128794744
 20
5117.550706102
 10
6304.3595789016
 20
5117.5619834674
 10
6304.9012044835
 20
5117.5732092035
 10
6305.4371231317
 20
5117.58438331
 10
6306.2364132014
 20
5117.6016418436
 10
6306.6164380828
 20
5117.610084503
 10
6307.0501316218
 20
5117.6198720698
 10
6307.5348409537
 20
5117.631004544
 10
6309.500590061
 20
5117.6784632915
 10
6311.2828360883
 20
5117.7260121045
  0
ARC
  5
12A
330
1F
100
AcDbEntity
  8
0
  6
Continuous
 62
     7
370
    25
100
AcDbCircle
 10
6313.1566190627
 20
5125.9822838957
 30
0.0
 40
8.466232132800496
100
AcDbArc
 50
257.2131720758
 51
287.1348345809
  0
ARC
  5
12B
330
1F
100
AcDbEntity
  8
0
  6
Continuous
 62
     7
370
    25
100
AcDbCircle
 10
6315.8325852619
 20
5119.8825250328
 30
0.0
 40
1.998960719301566
100
AcDbArc
 50
264.7866941784
 51
289.7397424702
  0
LINE
  5
12C
330
1F
100
AcDbEntity
  8
0
  6
Continuous
 62
     7
370
    25
100
AcDbLine
 10
6299.2941979393
 20
5115.1994545927
 30
0.0
 11
6314.8187553361
 21
5115.1994545927
 31
0.0
  0
LINE
  5
12D
330
1F
100
AcDbEntity
  8
0
  6
Continuous
 62
     7
370
    25
100
AcDbLine
 10
6285.2187553361
 20
5115.1994545927
 30
0.0
 11
6299.2941979393
 21
5115.1994545927
 31
0.0
  0
LINE
  5
12E
330
1F
100
AcDbEntity
  8
0
  6
Continuous
 62
     7
370
    25
100
AcDbLine
 10
6305.0587675574
 20
5124.8603761677
 30
0.0
 11
6305.0587646792
 21
5125.1994545927
 31
0.0
  0
LINE
  5
12F
330
1F
100
AcDbEntity
  8
0
  6
Continuous
 62
     7
370
    25
100
AcDbLine
 10
6305.4348250931
 20
5125.1994545927
 30
0.0
 11
6305.4348335859
 21
5124.198917586
 31
0.0
  0
LINE
  5
130
330
1F
100
AcDbEntity
  8
0
  6
Continuous
 62
     7
370
    25
100
AcDbLine
 10
6311.2828360883
 20
5124.0760121045
 30
0.0
 11
6311.2828360883
 21
5125.1994545927
 31
0.0
  0
LINE
  5
131
330
1F
100
AcDbEntity
  8
0
  6
Continuous
 62
     7
370
    25
100
AcDbLine
 10
6303.2617452208
 20
5124.1539604461
 30
0.0
 11
6303.2617452208
 21
5123.889377107
 31
0.0
  0
LINE
  5
132
330
1F
100
AcDbEntity
  8
0
  6
Continuous
 62
     7
370
    25
100
AcDbLine
 10
6311.2828360883
 20
5121.9593454378
 30
0.0
 11
6311.2828360883
 21
5122.2239287769
 31
0.0
  0
LINE
  5
133
330
1F
100
AcDbEntity
  8
0
  6
Continuous
 62
     7
370
    25
100
AcDbLine
 10
6303.2617452208
 20
5122.0372937794
 30
0.0
 11
6303.2617452208
 21
5121.7727104403
 31
0.0
  0
LINE
  5
134
330
1F
100
AcDbEntity
  8
0
  6
Continuous
 62
     7
370
    25
100
AcDbLine
 10
6311.2828360883
 20
5119.8426787711
 30
0.0
 11
6311.2828360883
 21
5120.1072621103
 31
0.0
  0
LINE
  5
135
330
1F
100
AcDbEntity
  8
0
  6
Continuous
 62
     7
370
    25
100
AcDbLine
 10
6303.2617452208
 20
5119.9206271128
 30
0.0
 11
6303.2617452208
 21
5119.6560437737
 31
0.0
  0
LINE
  5
136
330
1F
100
AcDbEntity
  8
0
  6
Continuous
 62
     7
370
    25
100
AcDbLine
 10
6311.2828360883
 20
5117.7260121045
 30
0.0
 11
6311.2828360883
 21
5117.9905954436
 31
0.0
  0
LINE
  5
137
330
1F
100
AcDbEntity
  8
0
  6
Continuous
 62
     7
370
    25
100
AcDbLine
 10
6303.2617452208
 20
5117.8039604461
 30
0.0
 11
6303.2617452208
 21
5117.539377107
 31
0.0
  0
LINE
  5
138
330
1F
100
AcDbEntity
  8
0
  6
Continuous
 62
     7
370
    25
100
AcDbLine
 10
6305.8070742578
 20
5125.1994545927
 30
0.0
 11
6305.8070742578
 21
5129.2001236508
 31
0.0
  0
LINE
  5
139
330
1F
100
AcDbEntity
  8
0
  6
Continuous
 62
     7
370
    25
100
AcDbLine
 10
6309.9021260621
 20
5129.2001236508
 30
0.0
 11
6309.9021260621
 21
5125.1994545927
 31
0.0
  0
LINE
  5
13A
330
1F
100
AcDbEntity
  8
0
  6
Continuous
 62
     7
370
    25
100
AcDbLine
 10
6309.9021260621
 20
5125.1994545927
 30
0.0
 11
6305.8070742578
 21
5125.1994545927
 31
0.0
  0
LINE
  5
13B
330
1F
100
AcDbEntity
  8
0
  6
Continuous
 62
     7
370
    25
100
AcDbLine
 10
6295.2091548638
 20
5125.1994545927
 30
0.0
 11
6292.6638258267
 21
5125.1994545927
 31
0.0
  0
LINE
  5
13C
330
1F
100
AcDbEntity
  8
0
  6
Continuous
 62
     7
370
    25
100
AcDbLine
 10
6292.6638258267
 20
5129.2001236508
 30
0.0
 11
6292.6638258267
 21
5125.1994545927
 31
0.0
  0
LINE
  5
13D
330
1F
100
AcDbEntity
  8
0
  6
Continuous
 62
     7
370
    25
100
AcDbLine
 10
6303.2617452208
 20
5125.1994545927
 30
0.0
 11
6303.2617452208
 21
5126.0060437737
 31
0.0
  0
LINE
  5
13E
330
1F
100
AcDbEntity
  8
0
  6
Continuous
 62
     7
370
    25
100
AcDbLine
 10
6295.2091548638
 20
5125.8386987336
 30
0.0
 11
6295.2091548638
 21
5125.1994545927
 31
0.0
  0
LINE
  5
13F
330
1F
100
AcDbEntity
  8
0
  6
Continuous
 62
     7
370
    25
100
AcDbLine
 10
6305.8070742578
 20
5125.1994545927
 30
0.0
 11
6303.2617452208
 21
5125.1994545927
 31
0.0
  0
LINE
  5
140
330
1F
100
AcDbEntity
  8
0
  6
Continuous
 62
     7
370
    25
100
AcDbLine
 10
6295.2091548638
 20
5123.7220320669
 30
0.0
 11
6295.2091548638
 21
5123.986615406
 31
0.0
  0
LINE
  5
141
330
1F
100
AcDbEntity
  8
0
  6
Continuous
 62
     7
370
    25
100
AcDbLine
 10
6295.2091548638
 20
5121.6053654002
 30
0.0
 11
6295.2091548638
 21
5121.8699487393
 31
0.0
  0
LINE
  5
142
330
1F
100
AcDbEntity
  8
0
  6
Continuous
 62
     7
370
    25
100
AcDbLine
 10
6295.2091548638
 20
5119.4886987336
 30
0.0
 11
6295.2091548638
 21
5119.7532820727
 31
0.0
  0
LINE
  5
143
330
1F
100
AcDbEntity
  8
0
  6
Continuous
 62
     7
370
    25
100
AcDbLine
 10
6295.2091548638
 20
5117.3720320669
 30
0.0
 11
6295.2091548638
 21
5117.636615406
 31
0.0
  0
LINE
  5
144
330
1F
100
AcDbEntity
  8
0
  6
Continuous
 62
     7
370
    25
100
AcDbLine
 10
6287.6295485667
 20
5123.7999804085
 30
0.0
 11
6287.6295485667
 21
5123.5353970694
 31
0.0
  0
LINE
  5
145
330
1F
100
AcDbEntity
  8
0
  6
Continuous
 62
     7
370
    25
100
AcDbLine
 10
6287.6295485667
 20
5119.5666470752
 30
0.0
 11
6287.6295485667
 21
5119.3020637361
 31
0.0
  0
LINE
  5
146
330
1F
100
AcDbEntity
  8
0
  6
Continuous
 62
     7
370
    25
100
AcDbLine
 10
6287.6295485667
 20
5117.4499804085
 30
0.0
 11
6287.6295485667
 21
5117.1853970694
 31
0.0
  0
LINE
  5
147
330
1F
100
AcDbEntity
  8
0
  6
Continuous
 62
     7
370
    25
100
AcDbLine
 10
6287.6295485667
 20
5121.6833137418
 30
0.0
 11
6287.6295485667
 21
5121.4187304027
 31
0.0
  0
LINE
  5
148
330
1F
100
AcDbEntity
  8
0
  6
Continuous
 62
     7
370
    25
100
AcDbLine
 10
6288.7941675776
 20
5125.1994545927
 30
0.0
 11
6288.7941675776
 21
5129.2001236508
 31
0.0
  0
LINE
  5
149
330
1F
100
AcDbEntity
  8
0
  6
Continuous
 62
     7
370
    25
100
AcDbLine
 10
6292.6638258267
 20
5125.1994545927
 30
0.0
 11
6288.7941675776
 21
5125.1994545927
 31
0.0
  0
LINE
  5
14A
330
1F
100
AcDbEntity
  8
0
  6
Continuous
 62
     7
370
    25
100
AcDbLine
 10
6317.0316620164
 20
5125.1994545927
 30
0.0
 11
6317.0316620164
 21
5129.2001236508
 31
0.0
  0
LINE
  5
14B
330
1F
100
AcDbEntity
  8
0
  6
Continuous
 62
     7
370
    25
100
AcDbLine
 10
6317.0316620164
 20
5130.5830874844
 30
0.0
 11
6317.0316620164
 21
5131.2222583281
 31
0.0
  0
LINE
  5
14C
330
1F
100
AcDbEntity
  8
0
  6
Continuous
 62
     7
370
    25
100
AcDbLine
 10
6317.0316620164
 20
5125.1994545927
 30
0.0
 11
6315.6509519902
 21
5125.1994545927
 31
0.0
  0
LINE
  5
14D
330
1F
100
AcDbEntity
  8
0
  6
Continuous
 62
     7
370
    25
100
AcDbLine
 10
6315.6509519902
 20
5125.1994545927
 30
0.0
 11
6315.6509519902
 21
5124.2418333661
 31
0.0
  0
LINE
  5
14E
330
1F
100
AcDbEntity
  8
0
  6
Continuous
 62
     7
370
    25
100
AcDbLine
 10
6311.2828360883
 20
5125.1994545927
 30
0.0
 11
6309.9021260621
 21
5125.1994545927
 31
0.0
  0
LINE
  5
14F
330
1F
100
AcDbEntity
  8
0
  6
Continuous
 62
     7
370
    25
100
AcDbLine
 10
6283.9450741116
 20
5125.1994545927
 30
0.0
 11
6282.7804551007
 21
5125.1994545927
 31
0.0
  0
LINE
  5
150
330
1F
100
AcDbEntity
  8
0
  6
Continuous
 62
     7
370
    25
100
AcDbLine
 10
6282.7804551007
 20
5129.2001236508
 30
0.0
 11
6282.7804551007
 21
5125.1994545927
 31
0.0
  0
LINE
  5
151
330
1F
100
AcDbEntity
  8
0
  6
Continuous
 62
     7
370
    25
100
AcDbLine
 10
6283.9450741116
 20
5125.4862424745
 30
0.0
 11
6283.9450741116
 21
5125.1994545927
 31
0.0
  0
LINE
  5
152
330
1F
100
AcDbEntity
  8
0
  6
Continuous
 62
     7
370
    25
100
AcDbLine
 10
6288.7941675776
 20
5125.1994545927
 30
0.0
 11
6287.6295485667
 21
5125.1994545927
 31
0.0
  0
LINE
  5
153
330
1F
100
AcDbEntity
  8
0
  6
Continuous
 62
     7
370
    25
100
AcDbLine
 10
6287.6295485667
 20
5125.1994545927
 30
0.0
 11
6287.6295485667
 21
5125.6520637361
 31
0.0
  0
LINE
  5
154
330
1F
100
AcDbEntity
  8
0
  6
Continuous
 62
     7
370
    25
100
AcDbLine
 10
6315.6509519902
 20
5120.2730833718
 30
0.0
 11
6315.6509519902
 21
5120.0085000327
 31
0.0
  0
LINE
  5
155
330
1F
100
AcDbEntity
  8
0
  6
Continuous
 62
     7
370
    25
100
AcDbLine
 10
6315.6509519902
 20
5122.3897500385
 30
0.0
 11
6315.6509519902
 21
5122.1251666994
 31
0.0
  0
LINE
  5
156
330
1F
100
AcDbEntity
  8
0
  6
Continuous
 62
     7
370
    25
100
AcDbLine
 10
6315.6509519902
 20
5118.1564167052
 30
0.0
 11
6315.6509519902
 21
5117.8918333661
 31
0.0
  0
LINE
  5
157
330
1F
100
AcDbEntity
  8
0
  6
Continuous
 62
     7
370
    25
100
AcDbLine
 10
6283.9450741116
 20
5117.0195758078
 30
0.0
 11
6283.9450741116
 21
5117.2841591469
 31
0.0
  0
LINE
  5
158
330
1F
100
AcDbEntity
  8
0
  6
Continuous
 62
     7
370
    25
100
AcDbLine
 10
6283.9450741116
 20
5119.1362424745
 30
0.0
 11
6283.9450741116
 21
5119.4008258136
 31
0.0
  0
LINE
  5
159
330
1F
100
AcDbEntity
  8
0
  6
Continuous
 62
     7
370
    25
100
AcDbLine
 10
6283.9450741116
 20
5123.3695758078
 30
0.0
 11
6283.9450741116
 21
5123.6341591469
 31
0.0
  0
LINE
  5
15A
330
1F
100
AcDbEntity
  8
0
  6
Continuous
 62
     7
370
    25
100
AcDbLine
 10
6283.9450741116
 20
5121.2529091412
 30
0.0
 11
6283.9450741116
 21
5121.5174924803
 31
0.0
  0
LINE
  5
15B
330
1F
100
AcDbEntity
  8
0
  6
Continuous
 62
     7
370
    25
100
AcDbLine
 10
6317.3187553361
 20
5125.1994545927
 30
0.0
 11
6317.0316620164
 21
5125.1994545927
 31
0.0
  0
LINE
  5
15C
330
1F
100
AcDbEntity
  8
0
  6
Continuous
 62
     7
370
    25
100
AcDbLine
 10
6282.7804551007
 20
5125.1994545927
 30
0.0
 11
6282.7187553361
 21
5125.1994545927
 31
0.0
  0
ARC
  5
15D
330
1F
100
AcDbEntity
  8
0
  6
Continuous
 62
     7
370
    25
100
AcDbCircle
 10
6283.8604404314
 20
5308.8396777323
 30
0.0
 40
0.7599981275226436
100
AcDbArc
 50
83.606258556
 51
116.5722715918
  0
LINE
  5
15E
330
1F
100
AcDbEntity
  8
0
  6
Continuous
 62
     7
370
    25
100
AcDbLine
 10
6283.5205089735
 20
5309.5144537766
 30
0.0
 11
6283.5299916771
 21
5309.5081356779
 31
0.0
  0
ARC
  5
15F
330
1F
100
AcDbEntity
  8
0
  6
Continuous
 62
     7
370
    25
100
AcDbCircle
 10
6285.5242553071
 20
5315.4703867633
 30
0.0
 40
6.083961309977179
100
AcDbArc
 50
254.9557693113
 51
290.2452870122
  0
LWPOLYLINE
  5
160
330
1F
100
AcDbEntity
  8
0
  6
Continuous
 62
     7
370
    25
100
AcDbPolyline
 90
        9
 70
   128
 43
0.0
 10
6295.2091548638
 20
5309.9489287769
 10
6294.1229418907
 20
5309.9253736242
 10
6293.0652891011
 20
5309.9016873132
 10
6292.0413199199
 20
5309.877869844
 10
6291.0559946034
 20
5309.8539212165
 10
6290.2404279319
 20
5309.8334750617
 10
6289.2309592819
 20
5309.8072999824
 10
6288.4031075638
 20
5309.7846877421
 10
6287.6295485667
 20
5309.7622937794
  0
ARC
  5
161
330
1F
100
AcDbEntity
  8
0
  6
Continuous
 62
     7
370
    25
100
AcDbCircle
 10
6298.6582998994
 20
5338.0593289518
 30
0.0
 40
28.32121465387242
100
AcDbArc
 50
263.0047752136
 51
279.3545937448
  0
LWPOLYLINE
  5
162
330
1F
100
AcDbEntity
  8
0
  6
Continuous
 62
     7
370
    25
100
AcDbPolyline
 90
        7
 70
   128
 43
0.0
 10
6311.2828360882
 20
5310.3008258136
 10
6309.9141516447
 20
5310.2639623709
 10
6308.6555979947
 20
5310.2329497417
 10
6307.5593017198
 20
5310.2077879261
 10
6306.4191665261
 20
5310.1826261104
 10
6304.9907894807
 20
5310.1516134812
 10
6303.2617452208
 20
5310.1147500385
  0
ARC
  5
163
330
1F
100
AcDbEntity
  8
0
  6
Continuous
 62
     7
370
    25
100
AcDbCircle
 10
6313.1549708282
 20
5318.6005159162
 30
0.0
 40
8.508216280967261
100
AcDbArc
 50
257.2887085238
 51
287.0592981328
  0
LINE
  5
164
330
1F
100
AcDbEntity
  8
0
  6
Continuous
 62
     7
370
    25
100
AcDbLine
 10
6316.0872663782
 20
5310.4994545927
 30
0.0
 11
6315.6509519902
 21
5310.4666470752
 31
0.0
  0
LWPOLYLINE
  5
165
330
1F
100
AcDbEntity
  8
0
  6
Continuous
 62
     7
370
    25
100
AcDbPolyline
 90
        3
 70
   128
 43
0.0
 10
6316.433029925
 20
5310.5418577303
 10
6316.4480408673
 20
5310.5349806502
 10
6316.0872663782
 20
5310.4994545927
  0
LWPOLYLINE
  5
166
330
1F
100
AcDbEntity
  8
0
  6
Continuous
 62
     7
370
    25
100
AcDbPolyline
 90
       13
 70
   128
 43
0.0
 10
6306.2829658766
 20
5311.6451340281
 10
6303.6854545305
 20
5311.6067268886
 10
6301.1637206813
 20
5311.5706726545
 10
6298.6044943177
 20
5311.5352146399
 10
6296.006217416
 20
5311.4995830134
 10
6293.5791869073
 20
5311.4639526466
 10
6291.2607322629
 20
5311.4271443981
 10
6289.2318396268
 20
5311.3920008247
 10
6287.4486285886
 20
5311.3562020216
 10
6286.0535154265
 20
5311.3203948201
 10
6285.0371768242
 20
5311.2846845569
 10
6284.4160060495
 20
5311.2490304611
 10
6284.2698928493
 20
5311.219964143
  0
LINE
  5
167
330
1F
100
AcDbEntity
  8
0
  6
Continuous
 62
     7
370
    25
100
AcDbLine
 10
6284.2395771978
 20
5311.2139334465
 30
0.0
 11
6284.2496594471
 21
5311.2125408258
 31
0.0
  0
LWPOLYLINE
  5
168
330
1F
100
AcDbEntity
  8
0
  6
Continuous
 62
     7
370
    25
100
AcDbPolyline
 90
       12
 70
   128
 43
0.0
 10
6306.2829658766
 20
5311.6451340281
 10
6303.0855512888
 20
5311.5710722217
 10
6300.1666241306
 20
5311.5057007912
 10
6297.2818595826
 20
5311.4429865846
 10
6294.4804907114
 20
5311.3792921336
 10
6291.8547192483
 20
5311.3137721699
 10
6289.5466376604
 20
5311.2499669482
 10
6287.6257201611
 20
5311.1873410191
 10
6286.1274800615
 20
5311.1220041995
 10
6285.1390818976
 20
5311.0573092688
 10
6284.692970846
 20
5310.9951214412
 10
6284.7244067397
 20
5310.9749281576
  0
LWPOLYLINE
  5
169
330
1F
100
AcDbEntity
  8
0
  6
Continuous
 62
     7
370
    25
100
AcDbPolyline
 90
       18
 70
   128
 43
0.0
 10
6315.356386982
 20
5309.9042501806
 10
6314.9963877512
 20
5309.8404670287
 10
6314.0864763211
 20
5309.7762494086
 10
6312.6845662867
 20
5309.7138978209
 10
6310.8037829246
 20
5309.6487367191
 10
6308.6631774992
 20
5309.5872210582
 10
6306.2829658766
 20
5309.5284673615
 10
6303.0855512888
 20
5309.454405555
 10
6300.1666241306
 20
5309.3890341246
 10
6297.2818595826
 20
5309.3263199179
 10
6294.4804907114
 20
5309.2626254669
 10
6291.8547192483
 20
5309.1971055032
 10
6289.5466376604
 20
5309.1333002815
 10
6287.6257201611
 20
5309.0706743524
 10
6286.1274800615
 20
5309.0053375328
 10
6285.1390818976
 20
5308.9406426021
 10
6284.692970846
 20
5308.8784547745
 10
6284.7244067894
 20
5308.858261459
  0
LWPOLYLINE
  5
16A
330
1F
100
AcDbEntity
  8
0
  6
Continuous
 62
     7
370
    25
100
AcDbPolyline
 90
       18
 70
   128
 43
0.0
 10
6315.3563293915
 20
5307.7875733103
 10
6314.9963877512
 20
5307.7238003621
 10
6314.0864763211
 20
5307.6595827419
 10
6312.6845662867
 20
5307.5972311542
 10
6310.8037829246
 20
5307.5320700524
 10
6308.6631774992
 20
5307.4705543915
 10
6306.2829658766
 20
5307.4118006948
 10
6303.0855512888
 20
5307.3377388884
 10
6300.1666241306
 20
5307.2723674579
 10
6297.2818595826
 20
5307.2096532513
 10
6294.4804907114
 20
5307.1459588002
 10
6291.8547192483
 20
5307.0804388365
 10
6289.5466376604
 20
5307.0166336148
 10
6287.6257201611
 20
5306.9540076857
 10
6286.1274800615
 20
5306.8886708661
 10
6285.1390818976
 20
5306.8239759354
 10
6284.692970846
 20
5306.7617881079
 10
6284.724406756
 20
5306.7415948138
  0
LWPOLYLINE
  5
16B
330
1F
100
AcDbEntity
  8
0
  6
Continuous
 62
     7
370
    25
100
AcDbPolyline
 90
       18
 70
   128
 43
0.0
 10
6315.356271893
 20
5305.6708964563
 10
6314.9963877512
 20
5305.6071336954
 10
6314.0864763211
 20
5305.5429160753
 10
6312.6845662867
 20
5305.4805644875
 10
6310.8037829246
 20
5305.4154033858
 10
6308.6631774992
 20
5305.3538877248
 10
6306.2829658766
 20
5305.2951340281
 10
6303.0855512888
 20
5305.2210722217
 10
6300.1666241306
 20
5305.1557007912
 10
6297.2818595826
 20
5305.0929865846
 10
6294.4804907114
 20
5305.0292921336
 10
6291.8547192483
 20
5304.9637721699
 10
6289.5466376604
 20
5304.8999669482
 10
6287.6257201611
 20
5304.8373410191
 10
6286.1274800615
 20
5304.7720041995
 10
6285.1390818976
 20
5304.7073092688
 10
6284.692970846
 20
5304.6451214412
 10
6284.7244066408
 20
5304.6249282211
  0
LWPOLYLINE
  5
16C
330
1F
100
AcDbEntity
  8
0
  6
Continuous
 62
     7
370
    25
100
AcDbPolyline
 90
       17
 70
   128
 43
0.0
 10
6315.3562144858
 20
5303.5542196185
 10
6314.9963877512
 20
5303.4904670287
 10
6314.0864763211
 20
5303.4262494086
 10
6312.6845662867
 20
5303.3638978209
 10
6310.8037829246
 20
5303.2987367191
 10
6308.6631774992
 20
5303.2372210582
 10
6306.2829658766
 20
5303.1784673615
 10
6303.0855512888
 20
5303.104405555
 10
6300.1666241306
 20
5303.0390341246
 10
6297.2818595826
 20
5302.9763199179
 10
6294.4804907114
 20
5302.9126254669
 10
6291.8547192483
 20
5302.8471055032
 10
6289.5466376604
 20
5302.7833002815
 10
6287.6257201611
 20
5302.7206743524
 10
6286.1274800615
 20
5302.6553375328
 10
6285.1390818976
 20
5302.5906426021
 10
6284.7282436363
 20
5302.5385330177
  0
LINE
  5
16D
330
1F
100
AcDbEntity
  8
0
  6
Continuous
 62
     7
370
    25
100
AcDbLine
 10
6283.5873253692
 20
5303.1999913482
 30
0.0
 11
6284.7282436363
 21
5302.5385330177
 31
0.0
  0
LINE
  5
16E
330
1F
100
AcDbEntity
  8
0
  6
Continuous
 62
     7
370
    25
100
AcDbLine
 10
6283.9450741116
 20
5303.2449487393
 30
0.0
 11
6283.5873253692
 21
5303.1999913482
 31
0.0
  0
ARC
  5
16F
330
1F
100
AcDbEntity
  8
0
  6
Continuous
 62
     7
370
    25
100
AcDbCircle
 10
6285.5242553071
 20
5309.1203867634
 30
0.0
 40
6.083961310058364
100
AcDbArc
 50
254.9557693115
 51
290.2452870119
  0
LWPOLYLINE
  5
170
330
1F
100
AcDbEntity
  8
0
  6
Continuous
 62
     7
370
    25
100
AcDbPolyline
 90
        9
 70
   128
 43
0.0
 10
6295.2091548638
 20
5303.5989287769
 10
6294.1229418907
 20
5303.5753736242
 10
6293.0652891011
 20
5303.5516873132
 10
6292.0413199199
 20
5303.527869844
 10
6291.0559946034
 20
5303.5039212165
 10
6290.2404279344
 20
5303.4834750618
 10
6289.2309592819
 20
5303.4572999824
 10
6288.4031075638
 20
5303.4346877421
 10
6287.6295485667
 20
5303.4122937794
  0
ARC
  5
171
330
1F
100
AcDbEntity
  8
0
  6
Continuous
 62
     7
370
    25
100
AcDbCircle
 10
6298.6582998994
 20
5331.7093289522
 30
0.0
 40
28.32121465424796
100
AcDbArc
 50
263.0047752137
 51
279.3545937447
  0
LWPOLYLINE
  5
172
330
1F
100
AcDbEntity
  8
0
  6
Continuous
 62
     7
370
    25
100
AcDbPolyline
 90
        7
 70
   128
 43
0.0
 10
6311.2828360882
 20
5303.9508258136
 10
6309.9141516483
 20
5303.913962371
 10
6308.6555979985
 20
5303.8829497418
 10
6307.5593017198
 20
5303.8577879261
 10
6306.419166522
 20
5303.8326261103
 10
6304.9907894765
 20
5303.8016134811
 10
6303.2617452208
 20
5303.7647500385
  0
ARC
  5
173
330
1F
100
AcDbEntity
  8
0
  6
Continuous
 62
     7
370
    25
100
AcDbCircle
 10
6313.1549708282
 20
5312.2505159163
 30
0.0
 40
8.508216281080367
100
AcDbArc
 50
257.288708524
 51
287.0592981326
  0
LINE
  5
174
330
1F
100
AcDbEntity
  8
0
  6
Continuous
 62
     7
370
    25
100
AcDbLine
 10
6316.517037397
 20
5304.2277312188
 30
0.0
 11
6316.5170016987
 21
5304.2227871099
 31
0.0
  0
ARC
  5
175
330
1F
100
AcDbEntity
  8
0
  6
Continuous
 62
     7
370
    25
100
AcDbCircle
 10
6315.7968986163
 20
5306.5893014201
 30
0.0
 40
2.476957796762498
100
AcDbArc
 50
266.6220773496
 51
286.6719311192
  0
ARC
  5
176
330
1F
100
AcDbEntity
  8
0
  6
Continuous
 62
     7
370
    25
100
AcDbCircle
 10
6283.8604404317
 20
5304.6063443977
 30
0.0
 40
0.759998128741594
100
AcDbArc
 50
83.6062585857
 51
116.5722715651
  0
LINE
  5
177
330
1F
100
AcDbEntity
  8
0
  6
Continuous
 62
     7
370
    25
100
AcDbLine
 10
6283.5205089734
 20
5305.2811204434
 30
0.0
 11
6283.5299928345
 21
5305.2748015734
 31
0.0
  0
ARC
  5
178
330
1F
100
AcDbEntity
  8
0
  6
Continuous
 62
     7
370
    25
100
AcDbCircle
 10
6285.5242553071
 20
5311.23705343
 30
0.0
 40
6.083961310060555
100
AcDbArc
 50
254.9557693115
 51
290.2452870119
  0
LWPOLYLINE
  5
179
330
1F
100
AcDbEntity
  8
0
  6
Continuous
 62
     7
370
    25
100
AcDbPolyline
 90
        9
 70
   128
 43
0.0
 10
6295.2091548638
 20
5305.7155954436
 10
6294.1229418907
 20
5305.6920402909
 10
6293.0652891011
 20
5305.6683539799
 10
6292.0413199199
 20
5305.6445365106
 10
6291.0559946034
 20
5305.6205878831
 10
6290.2404279375
 20
5305.6001417285
 10
6289.2309592819
 20
5305.5739666491
 10
6288.4031075638
 20
5305.5513544088
 10
6287.6295485667
 20
5305.5289604461
  0
ARC
  5
17A
330
1F
100
AcDbEntity
  8
0
  6
Continuous
 62
     7
370
    25
100
AcDbCircle
 10
6298.6582998994
 20
5333.8259956192
 30
0.0
 40
28.32121465451494
100
AcDbArc
 50
263.0047752137
 51
279.3545937447
  0
LWPOLYLINE
  5
17B
330
1F
100
AcDbEntity
  8
0
  6
Continuous
 62
     7
370
    25
100
AcDbPolyline
 90
        7
 70
   128
 43
0.0
 10
6311.2828360882
 20
5306.0674924803
 10
6309.9141516483
 20
5306.0306290376
 10
6308.6555979985
 20
5305.9996164085
 10
6307.5593017198
 20
5305.9744545927
 10
6306.419166522
 20
5305.949292777
 10
6304.9907894765
 20
5305.9182801478
 10
6303.2617452208
 20
5305.8814167052
  0
ARC
  5
17C
330
1F
100
AcDbEntity
  8
0
  6
Continuous
 62
     7
370
    25
100
AcDbCircle
 10
6313.1549708282
 20
5314.3671825829
 30
0.0
 40
8.508216280956415
100
AcDbArc
 50
257.2887085238
 51
287.0592981328
  0
LINE
  5
17D
330
1F
100
AcDbEntity
  8
0
  6
Continuous
 62
     7
370
    25
100
AcDbLine
 10
6316.517037397
 20
5306.3443978854
 30
0.0
 11
6316.5170016987
 21
5306.3394537766
 31
0.0
  0
ARC
  5
17E
330
1F
100
AcDbEntity
  8
0
  6
Continuous
 62
     7
370
    25
100
AcDbCircle
 10
6315.7968999608
 20
5308.705951504
 30
0.0
 40
2.47694132204705
100
AcDbArc
 50
266.6220237019
 51
286.6720267554
  0
ARC
  5
17F
330
1F
100
AcDbEntity
  8
0
  6
Continuous
 62
     7
370
    25
100
AcDbCircle
 10
6283.8604404314
 20
5306.7230110658
 30
0.0
 40
0.759998127401473
100
AcDbArc
 50
83.606258553
 51
116.5722715943
  0
LINE
  5
180
330
1F
100
AcDbEntity
  8
0
  6
Continuous
 62
     7
370
    25
100
AcDbLine
 10
6283.5205089735
 20
5307.3977871099
 30
0.0
 11
6283.5299922558
 21
5307.3914686257
 31
0.0
  0
ARC
  5
181
330
1F
100
AcDbEntity
  8
0
  6
Continuous
 62
     7
370
    25
100
AcDbCircle
 10
6285.5242553071
 20
5313.3537200966
 30
0.0
 40
6.083961309975424
100
AcDbArc
 50
254.9557693113
 51
290.2452870122
  0
LWPOLYLINE
  5
182
330
1F
100
AcDbEntity
  8
0
  6
Continuous
 62
     7
370
    25
100
AcDbPolyline
 90
        9
 70
   128
 43
0.0
 10
6295.2091548638
 20
5307.8322621103
 10
6294.1229418907
 20
5307.8087069575
 10
6293.0652891011
 20
5307.7850206465
 10
6292.0413199199
 20
5307.7612031773
 10
6291.0559946034
 20
5307.7372545498
 10
6290.2404279375
 20
5307.7168083952
 10
6289.2309592819
 20
5307.6906333158
 10
6288.4031075638
 20
5307.6680210755
 10
6287.6295485667
 20
5307.6456271128
  0
ARC
  5
183
330
1F
100
AcDbEntity
  8
0
  6
Continuous
 62
     7
370
    25
100
AcDbCircle
 10
6298.6582998994
 20
5335.9426622856
 30
0.0
 40
28.32121465429659
100
AcDbArc
 50
263.0047752137
 51
279.3545937447
  0
LWPOLYLINE
  5
184
330
1F
100
AcDbEntity
  8
0
  6
Continuous
 62
     7
370
    25
100
AcDbPolyline
 90
        7
 70
   128
 43
0.0
 10
6311.2828360882
 20
5308.1841591469
 10
6309.9141516483
 20
5308.1472957043
 10
6308.6555979985
 20
5308.1162830751
 10
6307.5593017198
 20
5308.0911212594
 10
6306.419166522
 20
5308.0659594437
 10
6304.9907894765
 20
5308.0349468145
 10
6303.2617452208
 20
5307.9980833718
  0
ARC
  5
185
330
1F
100
AcDbEntity
  8
0
  6
Continuous
 62
     7
370
    25
100
AcDbCircle
 10
6313.1549708282
 20
5316.4838492495
 30
0.0
 40
8.508216280956415
100
AcDbArc
 50
257.2887085238
 51
287.0592981328
  0
LINE
  5
186
330
1F
100
AcDbEntity
  8
0
  6
Continuous
 62
     7
370
    25
100
AcDbLine
 10
6316.517037397
 20
5308.4610645521
 30
0.0
 11
6316.5170016987
 21
5308.4561204433
 31
0.0
  0
ARC
  5
187
330
1F
100
AcDbEntity
  8
0
  6
Continuous
 62
     7
370
    25
100
AcDbCircle
 10
6315.7969013052
 20
5310.822601588
 30
0.0
 40
2.476924847456523
100
AcDbArc
 50
266.6219700542
 51
286.6721223937
  0
LWPOLYLINE
  5
188
330
1F
100
AcDbEntity
  8
0
  6
Continuous
 62
     7
370
    25
100
AcDbPolyline
 90
        7
 70
   128
 43
0.0
 10
6316.4930854205
 20
5308.7429502525
 10
6316.5060296662
 20
5308.7389340086
 10
6316.5170723685
 20
5308.7304913492
 10
6316.5170016987
 20
5308.7207037824
 10
6316.5002931983
 20
5308.7095713081
 10
6316.2325160175
 20
5308.6621125606
 10
6315.6509519902
 20
5308.6145637476
  0
ARC
  5
189
330
1F
100
AcDbEntity
  8
0
  6
Continuous
 62
     7
370
    25
100
AcDbCircle
 10
6313.7771690157
 20
5300.3582919566
 30
0.0
 40
8.466232132536609
100
AcDbArc
 50
77.2131720753
 51
107.1348345814
  0
LWPOLYLINE
  5
18A
330
1F
100
AcDbEntity
  8
0
  6
Continuous
 62
     7
370
    25
100
AcDbPolyline
 90
        7
 70
   128
 43
0.0
 10
6311.2828360882
 20
5308.4487424861
 10
6309.9141516447
 20
5308.4118790433
 10
6308.6555979947
 20
5308.3808664141
 10
6307.5593017198
 20
5308.3557045985
 10
6306.4191665261
 20
5308.3305427829
 10
6304.9907894807
 20
5308.2995301537
 10
6303.2617452208
 20
5308.2626667109
  0
ARC
  5
18B
330
1F
100
AcDbEntity
  8
0
  6
Continuous
 62
     7
370
    25
100
AcDbCircle
 10
6299.8156058758
 20
5280.0063045816
 30
0.0
 40
28.46573162896663
100
AcDbArc
 50
83.0465599672
 51
99.3128089912
  0
LWPOLYLINE
  5
18C
330
1F
100
AcDbEntity
  8
0
  6
Continuous
 62
     7
370
    25
100
AcDbPolyline
 90
        9
 70
   128
 43
0.0
 10
6295.2091548638
 20
5308.0968454494
 10
6294.1229418907
 20
5308.0732902966
 10
6293.0652891011
 20
5308.0496039857
 10
6292.0413199199
 20
5308.0257865164
 10
6291.0559946034
 20
5308.0018378889
 10
6290.2404279252
 20
5307.981391734
 10
6289.2309592819
 20
5307.9552166549
 10
6288.4031075638
 20
5307.9326044146
 10
6287.6295485667
 20
5307.9102104519
  0
ARC
  5
18D
330
1F
100
AcDbEntity
  8
0
  6
Continuous
 62
     7
370
    25
100
AcDbCircle
 10
6286.0503673712
 20
5302.0347724278
 30
0.0
 40
6.083961310059034
100
AcDbArc
 50
74.9557693115
 51
110.2452870119
  0
ARC
  5
18E
330
1F
100
AcDbEntity
  8
0
  6
Continuous
 62
     7
370
    25
100
AcDbCircle
 10
6283.8604404315
 20
5306.9875944046
 30
0.0
 40
0.7599981276893383
100
AcDbArc
 50
83.60625856
 51
116.5722715881
  0
LWPOLYLINE
  5
18F
330
1F
100
AcDbEntity
  8
0
  6
Continuous
 62
     7
370
    25
100
AcDbPolyline
 90
        7
 70
   128
 43
0.0
 10
6316.4930876278
 20
5306.6262829009
 10
6316.5060296661
 20
5306.622267342
 10
6316.5170723685
 20
5306.6138246826
 10
6316.5170016987
 20
5306.6040371157
 10
6316.5002931983
 20
5306.5929046414
 10
6316.2325160175
 20
5306.545445894
 10
6315.6509519902
 20
5306.497897081
  0
ARC
  5
190
330
1F
100
AcDbEntity
  8
0
  6
Continuous
 62
     7
370
    25
100
AcDbCircle
 10
6313.7771690157
 20
5298.2416252899
 30
0.0
 40
8.466232132646967
100
AcDbArc
 50
77.2131720755
 51
107.1348345812
  0
LWPOLYLINE
  5
191
330
1F
100
AcDbEntity
  8
0
  6
Continuous
 62
     7
370
    25
100
AcDbPolyline
 90
        7
 70
   128
 43
0.0
 10
6311.2828360882
 20
5306.3320758194
 10
6309.9141516518
 20
5306.2952123768
 10
6308.6555980023
 20
5306.2641997477
 10
6307.5593017198
 20
5306.2390379318
 10
6306.4191665179
 20
5306.213876116
 10
6304.9907894723
 20
5306.1828634868
 10
6303.2617452208
 20
5306.1460000443
  0
ARC
  5
192
330
1F
100
AcDbEntity
  8
0
  6
Continuous
 62
     7
370
    25
100
AcDbCircle
 10
6299.8156058758
 20
5277.889637915
 30
0.0
 40
28.46573162886388
100
AcDbArc
 50
83.0465599672
 51
99.3128089912
  0
LWPOLYLINE
  5
193
330
1F
100
AcDbEntity
  8
0
  6
Continuous
 62
     7
370
    25
100
AcDbPolyline
 90
        9
 70
   128
 43
0.0
 10
6295.2091548638
 20
5305.9801787827
 10
6294.1229418907
 20
5305.95662363
 10
6293.0652891011
 20
5305.932937319
 10
6292.0413199199
 20
5305.9091198497
 10
6291.0559946034
 20
5305.8851712223
 10
6290.2404279242
 20
5305.8647250673
 10
6289.2309592819
 20
5305.8385499882
 10
6288.4031075638
 20
5305.8159377479
 10
6287.6295485667
 20
5305.7935437852
  0
ARC
  5
194
330
1F
100
AcDbEntity
  8
0
  6
Continuous
 62
     7
370
    25
100
AcDbCircle
 10
6286.0503673712
 20
5299.9181057613
 30
0.0
 40
6.083961309973902
100
AcDbArc
 50
74.9557693113
 51
110.2452870122
  0
ARC
  5
195
330
1F
100
AcDbEntity
  8
0
  6
Continuous
 62
     7
370
    25
100
AcDbCircle
 10
6283.8604404317
 20
5304.8709277371
 30
0.0
 40
0.7599981285520607
100
AcDbArc
 50
83.6062585812
 51
116.5722715692
  0
LWPOLYLINE
  5
196
330
1F
100
AcDbEntity
  8
0
  6
Continuous
 62
     7
370
    25
100
AcDbPolyline
 90
        7
 70
   128
 43
0.0
 10
6316.493089835
 20
5304.5096155494
 10
6316.5060296661
 20
5304.5056006753
 10
6316.5170723685
 20
5304.4971580159
 10
6316.5170016987
 20
5304.4873704491
 10
6316.5002931983
 20
5304.4762379747
 10
6316.2325160175
 20
5304.4287792273
 10
6315.6509519902
 20
5304.3812304143
  0
ARC
  5
197
330
1F
100
AcDbEntity
  8
0
  6
Continuous
 62
     7
370
    25
100
AcDbCircle
 10
6313.7771690157
 20
5296.1249586232
 30
0.0
 40
8.466232132647853
100
AcDbArc
 50
77.2131720755
 51
107.1348345812
  0
LWPOLYLINE
  5
198
330
1F
100
AcDbEntity
  8
0
  6
Continuous
 62
     7
370
    25
100
AcDbPolyline
 90
        7
 70
   128
 43
0.0
 10
6311.2828360882
 20
5304.2154091527
 10
6309.9141516483
 20
5304.1785457101
 10
6308.6555979985
 20
5304.1475330809
 10
6307.5593017198
 20
5304.1223712652
 10
6306.419166522
 20
5304.0972094494
 10
6304.9907894765
 20
5304.0661968203
 10
6303.2617452208
 20
5304.0293333776
  0
ARC
  5
199
330
1F
100
AcDbEntity
  8
0
  6
Continuous
 62
     7
370
    25
100
AcDbCircle
 10
6299.8156058758
 20
5275.7729712481
 30
0.0
 40
28.46573162909288
100
AcDbArc
 50
83.0465599672
 51
99.3128089912
  0
LWPOLYLINE
  5
19A
330
1F
100
AcDbEntity
  8
0
  6
Continuous
 62
     7
370
    25
100
AcDbPolyline
 90
        9
 70
   128
 43
0.0
 10
6295.2091548638
 20
5303.863512116
 10
6294.1229418907
 20
5303.8399569633
 10
6293.0652891011
 20
5303.8162706523
 10
6292.0413199199
 20
5303.7924531831
 10
6291.0559946034
 20
5303.7685045556
 10
6290.2404279395
 20
5303.748058401
 10
6289.2309592819
 20
5303.7218833215
 10
6288.4031075638
 20
5303.6992710812
 10
6287.6295485667
 20
5303.6768771185
  0
ARC
  5
19B
330
1F
100
AcDbEntity
  8
0
  6
Continuous
 62
     7
370
    25
100
AcDbCircle
 10
6286.0503673712
 20
5297.8014390945
 30
0.0
 40
6.083961310062953
100
AcDbArc
 50
74.9557693115
 51
110.2452870119
  0
ARC
  5
19C
330
1F
100
AcDbEntity
  8
0
  6
Continuous
 62
     7
370
    25
100
AcDbCircle
 10
6283.8604404314
 20
5302.7542610716
 30
0.0
 40
0.759998127401473
100
AcDbArc
 50
83.606258553
 51
116.5722715943
  0
LWPOLYLINE
  5
19D
330
1F
100
AcDbEntity
  8
0
  6
Continuous
 62
     7
370
    25
100
AcDbPolyline
 90
        7
 70
   128
 43
0.0
 10
6316.4930920426
 20
5302.392948198
 10
6316.5060296648
 20
5302.3889340093
 10
6316.5170723681
 20
5302.3804913498
 10
6316.517001699
 20
5302.3707037827
 10
6316.5002931983
 20
5302.3595713081
 10
6316.2325160174
 20
5302.3121125607
 10
6315.6509519902
 20
5302.2645637476
  0
ARC
  5
19E
330
1F
100
AcDbEntity
  8
0
  6
Continuous
 62
     7
370
    25
100
AcDbCircle
 10
6313.7755630164
 20
5294.0505976972
 30
0.0
 40
8.4253380988966
100
AcDbArc
 50
77.1388472132
 51
107.2091594435
  0
ARC
  5
19F
330
1F
100
AcDbEntity
  8
0
  6
Continuous
 62
     7
370
    25
100
AcDbCircle
 10
6299.8141259087
 20
5273.7281745484
 30
0.0
 40
28.39457126600197
100
AcDbArc
 50
83.0260387956
 51
99.3333301628
  0
ARC
  5
1A0
330
1F
100
AcDbEntity
  8
0
  6
Continuous
 62
     7
370
    25
100
AcDbCircle
 10
6286.0494231533
 20
5295.7055614932
 30
0.0
 40
6.06413314095226
100
AcDbArc
 50
74.8961697542
 51
110.3048865693
  0
LINE
  5
1A1
330
1F
100
AcDbEntity
  8
0
  6
Continuous
 62
     7
370
    25
100
AcDbLine
 10
6284.7282440694
 20
5302.0093663848
 30
0.0
 11
6283.9450741116
 21
5301.5553156441
 31
0.0
  0
LWPOLYLINE
  5
1A2
330
1F
100
AcDbEntity
  8
0
  6
Continuous
 62
     7
370
    25
100
AcDbPolyline
 90
       19
 70
   128
 43
0.0
 10
6315.3276528883
 20
5311.5040637481
 10
6315.3619757171
 20
5311.4908560878
 10
6314.9701038774
 20
5311.4253550698
 10
6314.039778045
 20
5311.3612602961
 10
6312.6182706347
 20
5311.2988370944
 10
6310.7197971931
 20
5311.2336149294
 10
6308.4349911627
 20
5311.1687212178
 10
6305.8819132117
 20
5311.1065221873
 10
6303.0855517
 20
5311.0419055644
 10
6300.1666245562
 20
5310.9765341339
 10
6297.281860003
 20
5310.9138199271
 10
6294.4804911249
 20
5310.8501254767
 10
6291.8547196309
 20
5310.7846055132
 10
6289.5466379908
 20
5310.7208002912
 10
6287.6257204364
 20
5310.6581743627
 10
6286.1274802648
 20
5310.5928375435
 10
6285.1390820159
 20
5310.5281426125
 10
6284.6929708758
 20
5310.4659547852
 10
6284.7049860034
 20
5310.4582366936
  0
LWPOLYLINE
  5
1A3
330
1F
100
AcDbEntity
  8
0
  6
Continuous
 62
     7
370
    25
100
AcDbPolyline
 90
       19
 70
   128
 43
0.0
 10
6315.3277109966
 20
5309.387374721
 10
6315.3619757171
 20
5309.3741894212
 10
6314.9701038774
 20
5309.3086884031
 10
6314.039778045
 20
5309.2445936295
 10
6312.6182706347
 20
5309.1821704277
 10
6310.7197971931
 20
5309.1169482627
 10
6308.4349911627
 20
5309.0520545512
 10
6305.8819132117
 20
5308.9898555206
 10
6303.0855517
 20
5308.9252388977
 10
6300.1666245562
 20
5308.8598674673
 10
6297.281860003
 20
5308.7971532604
 10
6294.4804911249
 20
5308.7334588101
 10
6291.8547196309
 20
5308.6679388466
 10
6289.5466379908
 20
5308.6041336245
 10
6287.6257204364
 20
5308.541507696
 10
6286.1274802648
 20
5308.4761708768
 10
6285.1390820159
 20
5308.4114759459
 10
6284.6929708758
 20
5308.3492881185
 10
6284.7049980977
 20
5308.341562258
  0
LWPOLYLINE
  5
1A4
330
1F
100
AcDbEntity
  8
0
  6
Continuous
 62
     7
370
    25
100
AcDbPolyline
 90
       19
 70
   128
 43
0.0
 10
6315.3277691878
 20
5307.270685662
 10
6315.3619757171
 20
5307.2575227545
 10
6314.9701038774
 20
5307.1920217365
 10
6314.039778045
 20
5307.1279269628
 10
6312.6182706347
 20
5307.065503761
 10
6310.7197971931
 20
5307.0002815961
 10
6308.4349911627
 20
5306.9353878845
 10
6305.8819132117
 20
5306.8731888539
 10
6303.0855517
 20
5306.8085722311
 10
6300.1666245562
 20
5306.7432008006
 10
6297.281860003
 20
5306.6804865937
 10
6294.4804911249
 20
5306.6167921434
 10
6291.8547196309
 20
5306.5512721799
 10
6289.5466379908
 20
5306.4874669578
 10
6287.6257204364
 20
5306.4248410293
 10
6286.1274802648
 20
5306.3595042101
 10
6285.1390820159
 20
5306.2948092792
 10
6284.6929708758
 20
5306.2326214518
 10
6284.7050101769
 20
5306.2248878321
  0
LWPOLYLINE
  5
1A5
330
1F
100
AcDbEntity
  8
0
  6
Continuous
 62
     7
370
    25
100
AcDbPolyline
 90
       19
 70
   128
 43
0.0
 10
6315.3278274625
 20
5305.1539965708
 10
6315.3619757171
 20
5305.1408560878
 10
6314.9701038774
 20
5305.0753550698
 10
6314.039778045
 20
5305.0112602961
 10
6312.6182706347
 20
5304.9488370944
 10
6310.7197971931
 20
5304.8836149294
 10
6308.4349911627
 20
5304.8187212178
 10
6305.8819132117
 20
5304.7565221873
 10
6303.0855517
 20
5304.6919055644
 10
6300.1666245562
 20
5304.6265341339
 10
6297.281860003
 20
5304.5638199271
 10
6294.4804911249
 20
5304.5001254767
 10
6291.8547196309
 20
5304.4346055132
 10
6289.5466379908
 20
5304.3708002912
 10
6287.6257204364
 20
5304.3081743627
 10
6286.1274802648
 20
5304.2428375435
 10
6285.1390820159
 20
5304.1781426125
 10
6284.6929708758
 20
5304.1159547852
 10
6284.7050222411
 20
5304.1082134158
  0
LWPOLYLINE
  5
1A6
330
1F
100
AcDbEntity
  8
0
  6
Continuous
 62
     7
370
    25
100
AcDbPolyline
 90
       15
 70
   128
 43
0.0
 10
6315.327706051
 20
5303.0373766241
 10
6315.3619757171
 20
5303.0241894212
 10
6314.9701038774
 20
5302.9586884031
 10
6314.039778045
 20
5302.8945936295
 10
6312.6182706347
 20
5302.8321704277
 10
6310.7197971931
 20
5302.7669482627
 10
6308.4349911627
 20
5302.7020545512
 10
6305.8819132117
 20
5302.6398555206
 10
6303.0855517
 20
5302.5752388977
 10
6300.1666245562
 20
5302.5098674673
 10
6297.281860003
 20
5302.4471532604
 10
6294.4804911249
 20
5302.3834588101
 10
6291.8547196309
 20
5302.3179388466
 10
6289.5466379908
 20
5302.2541336245
 10
6287.8694746415
 20
5302.1994545927
  0
ARC
  5
1A7
330
1F
100
AcDbEntity
  8
0
  6
Continuous
 62
     7
370
    25
100
AcDbCircle
 10
6288.3590729777
 20
5267.3965317864
 30
0.0
 40
34.80274758702117
100
AcDbArc
 50
91.2011043469
 51
95.9883322198
  0
LWPOLYLINE
  5
1A8
330
1F
100
AcDbEntity
  8
0
  6
Continuous
 62
     7
370
    25
100
AcDbPolyline
 90
        5
 70
   128
 43
0.0
 10
6314.2864484453
 20
5310.928109607
 10
6315.1217205518
 20
5311.0464872553
 10
6315.6051532878
 20
5311.1685224842
 10
6315.7139494841
 20
5311.3036656196
 10
6315.6967513081
 20
5311.3105903242
  0
LWPOLYLINE
  5
1A9
330
1F
100
AcDbEntity
  8
0
  6
Continuous
 62
     7
370
    25
100
AcDbPolyline
 90
        3
 70
   128
 43
0.0
 10
6311.7816032638
 20
5310.6998984819
 10
6312.7637239222
 20
5310.8804278714
 10
6314.2864484453
 20
5310.928109607
  0
LWPOLYLINE
  5
1AA
330
1F
100
AcDbEntity
  8
0
  6
Continuous
 62
     7
370
    25
100
AcDbPolyline
 90
        3
 70
   128
 43
0.0
 10
6308.7381002151
 20
5310.4994545927
 10
6310.8644875808
 20
5310.6336680128
 10
6311.7816032638
 20
5310.6998984819
  0
LWPOLYLINE
  5
1AB
330
1F
100
AcDbEntity
  8
0
  6
Continuous
 62
     7
370
    25
100
AcDbPolyline
 90
        4
 70
   128
 43
0.0
 10
6308.7381002151
 20
5310.4994545927
 10
6306.1162711437
 20
5310.4406286681
 10
6305.1432128351
 20
5310.4195696011
 10
6303.2617452207
 20
5310.3793333776
  0
ARC
  5
1AC
330
1F
100
AcDbEntity
  8
0
  6
Continuous
 62
     7
370
    25
100
AcDbCircle
 10
6299.8156058758
 20
5282.1229712487
 30
0.0
 40
28.46573162847767
100
AcDbArc
 50
83.046559967
 51
99.3128089913
  0
LWPOLYLINE
  5
1AD
330
1F
100
AcDbEntity
  8
0
  6
Continuous
 62
     7
370
    25
100
AcDbPolyline
 90
        9
 70
   128
 43
0.0
 10
6295.2091548638
 20
5310.213512116
 10
6294.1229418907
 20
5310.1899569633
 10
6293.0652891011
 20
5310.1662706523
 10
6292.0413199199
 20
5310.1424531831
 10
6291.0559946034
 20
5310.1185045556
 10
6290.2404279452
 20
5310.0980584012
 10
6289.2309592819
 20
5310.0718833215
 10
6288.4031075638
 20
5310.0492710812
 10
6287.6295485667
 20
5310.0268771185
  0
ARC
  5
1AE
330
1F
100
AcDbEntity
  8
0
  6
Continuous
 62
     7
370
    25
100
AcDbCircle
 10
6286.0503673712
 20
5304.1514390945
 30
0.0
 40
6.083961310058156
100
AcDbArc
 50
74.9557693115
 51
110.2452870119
  0
ARC
  5
1AF
330
1F
100
AcDbEntity
  8
0
  6
Continuous
 62
     7
370
    25
100
AcDbCircle
 10
6283.8604404313
 20
5309.1042610723
 30
0.0
 40
0.7599981267335666
100
AcDbArc
 50
83.6062585368
 51
116.5722716091
  0
LINE
  5
1B0
330
1F
100
AcDbEntity
  8
0
  6
Continuous
 62
     7
370
    25
100
AcDbLine
 10
6316.0872663782
 20
5310.4994545927
 30
0.0
 11
6315.6509519902
 21
5310.4994545927
 31
0.0
  0
LINE
  5
1B1
330
1F
100
AcDbEntity
  8
0
  6
Continuous
 62
     7
370
    25
100
AcDbLine
 10
6315.6509519902
 20
5310.4994545927
 30
0.0
 11
6314.2864484453
 21
5310.928109607
 31
0.0
  0
LINE
  5
1B2
330
1F
100
AcDbEntity
  8
0
  6
Continuous
 62
     7
370
    25
100
AcDbLine
 10
6306.2829658766
 20
5311.6451340281
 30
0.0
 11
6315.3414825511
 21
5311.6451340281
 31
0.0
  0
LINE
  5
1B3
330
1F
100
AcDbEntity
  8
0
  6
Continuous
 62
     7
370
    25
100
AcDbLine
 10
6286.8546696389
 20
5312.1994545927
 30
0.0
 11
6285.2187553361
 21
5312.1994545927
 31
0.0
  0
LINE
  5
1B4
330
1F
100
AcDbEntity
  8
0
  6
Continuous
 62
     7
370
    25
100
AcDbLine
 10
6314.8187553361
 20
5312.1994545927
 30
0.0
 11
6286.8546696389
 21
5312.1994545927
 31
0.0
  0
LINE
  5
1B5
330
1F
100
AcDbEntity
  8
0
  6
Continuous
 62
     7
370
    25
100
AcDbLine
 10
6303.2617452208
 20
5302.1994545927
 30
0.0
 11
6305.8070742578
 21
5302.1994545927
 31
0.0
  0
LINE
  5
1B6
330
1F
100
AcDbEntity
  8
0
  6
Continuous
 62
     7
370
    25
100
AcDbLine
 10
6305.8070742578
 20
5299.2001236508
 30
0.0
 11
6305.8070742578
 21
5302.1994545927
 31
0.0
  0
LINE
  5
1B7
330
1F
100
AcDbEntity
  8
0
  6
Continuous
 62
     7
370
    25
100
AcDbLine
 10
6292.6638258267
 20
5302.1994545927
 30
0.0
 11
6292.6638258267
 21
5299.2001236508
 31
0.0
  0
LINE
  5
1B8
330
1F
100
AcDbEntity
  8
0
  6
Continuous
 62
     7
370
    25
100
AcDbLine
 10
6292.6638258267
 20
5302.1994545927
 30
0.0
 11
6295.2091548638
 21
5302.1994545927
 31
0.0
  0
LINE
  5
1B9
330
1F
100
AcDbEntity
  8
0
  6
Continuous
 62
     7
370
    25
100
AcDbLine
 10
6295.2091548638
 20
5302.1994545927
 30
0.0
 11
6295.2091548638
 21
5301.7468454494
 31
0.0
  0
LINE
  5
1BA
330
1F
100
AcDbEntity
  8
0
  6
Continuous
 62
     7
370
    25
100
AcDbLine
 10
6303.2617452207
 20
5301.9126667109
 30
0.0
 11
6303.2617452207
 21
5302.1994545927
 31
0.0
  0
LINE
  5
1BB
330
1F
100
AcDbEntity
  8
0
  6
Continuous
 62
     7
370
    25
100
AcDbLine
 10
6284.7282436363
 20
5302.5385330177
 30
0.0
 11
6284.7282440694
 21
5302.0093663511
 31
0.0
  0
LINE
  5
1BC
330
1F
100
AcDbEntity
  8
0
  6
Continuous
 62
     7
370
    25
100
AcDbLine
 10
6295.2091548638
 20
5303.5989287769
 30
0.0
 11
6295.2091548638
 21
5303.863512116
 31
0.0
  0
LINE
  5
1BD
330
1F
100
AcDbEntity
  8
0
  6
Continuous
 62
     7
370
    25
100
AcDbLine
 10
6303.2617452208
 20
5304.0293333776
 30
0.0
 11
6303.2617452208
 21
5303.7647500385
 31
0.0
  0
LINE
  5
1BE
330
1F
100
AcDbEntity
  8
0
  6
Continuous
 62
     7
370
    25
100
AcDbLine
 10
6295.2091548638
 20
5305.7155954436
 30
0.0
 11
6295.2091548638
 21
5305.9801787827
 31
0.0
  0
LINE
  5
1BF
330
1F
100
AcDbEntity
  8
0
  6
Continuous
 62
     7
370
    25
100
AcDbLine
 10
6303.2617452208
 20
5306.1460000443
 30
0.0
 11
6303.2617452208
 21
5305.8814167052
 31
0.0
  0
LINE
  5
1C0
330
1F
100
AcDbEntity
  8
0
  6
Continuous
 62
     7
370
    25
100
AcDbLine
 10
6295.2091548638
 20
5309.9489287769
 30
0.0
 11
6295.2091548638
 21
5310.213512116
 31
0.0
  0
LINE
  5
1C1
330
1F
100
AcDbEntity
  8
0
  6
Continuous
 62
     7
370
    25
100
AcDbLine
 10
6303.2617452208
 20
5310.3793333776
 30
0.0
 11
6303.2617452208
 21
5310.1147500385
 31
0.0
  0
LINE
  5
1C2
330
1F
100
AcDbEntity
  8
0
  6
Continuous
 62
     7
370
    25
100
AcDbLine
 10
6295.2091548638
 20
5307.8322621103
 30
0.0
 11
6295.2091548638
 21
5308.0968454494
 31
0.0
  0
LINE
  5
1C3
330
1F
100
AcDbEntity
  8
0
  6
Continuous
 62
     7
370
    25
100
AcDbLine
 10
6303.2617452208
 20
5308.2626667109
 30
0.0
 11
6303.2617452208
 21
5307.9980833718
 31
0.0
  0
LINE
  5
1C4
330
1F
100
AcDbEntity
  8
0
  6
Continuous
 62
     7
370
    25
100
AcDbLine
 10
6287.6295485667
 20
5303.6768771185
 30
0.0
 11
6287.6295485667
 21
5303.4122937794
 31
0.0
  0
LINE
  5
1C5
330
1F
100
AcDbEntity
  8
0
  6
Continuous
 62
     7
370
    25
100
AcDbLine
 10
6287.6295485667
 20
5307.9102104519
 30
0.0
 11
6287.6295485667
 21
5307.6456271128
 31
0.0
  0
LINE
  5
1C6
330
1F
100
AcDbEntity
  8
0
  6
Continuous
 62
     7
370
    25
100
AcDbLine
 10
6287.6295485667
 20
5310.0268771185
 30
0.0
 11
6287.6295485667
 21
5309.7622937794
 31
0.0
  0
LINE
  5
1C7
330
1F
100
AcDbEntity
  8
0
  6
Continuous
 62
     7
370
    25
100
AcDbLine
 10
6287.6295485667
 20
5305.7935437852
 30
0.0
 11
6287.6295485667
 21
5305.5289604461
 31
0.0
  0
LINE
  5
1C8
330
1F
100
AcDbEntity
  8
0
  6
Continuous
 62
     7
370
    25
100
AcDbLine
 10
6311.2828360882
 20
5308.1841591469
 30
0.0
 11
6311.2828360882
 21
5308.4487424861
 31
0.0
  0
LINE
  5
1C9
330
1F
100
AcDbEntity
  8
0
  6
Continuous
 62
     7
370
    25
100
AcDbLine
 10
6311.2828360882
 20
5310.4994545927
 30
0.0
 11
6308.7381002151
 21
5310.4994545927
 31
0.0
  0
LINE
  5
1CA
330
1F
100
AcDbEntity
  8
0
  6
Continuous
 62
     7
370
    25
100
AcDbLine
 10
6311.2828360882
 20
5310.3008258136
 30
0.0
 11
6311.2828360882
 21
5310.4994545927
 31
0.0
  0
LINE
  5
1CB
330
1F
100
AcDbEntity
  8
0
  6
Continuous
 62
     7
370
    25
100
AcDbLine
 10
6311.2828360882
 20
5303.9508258136
 30
0.0
 11
6311.2828360882
 21
5304.2154091527
 31
0.0
  0
LINE
  5
1CC
330
1F
100
AcDbEntity
  8
0
  6
Continuous
 62
     7
370
    25
100
AcDbLine
 10
6311.2828360882
 20
5306.0674924803
 30
0.0
 11
6311.2828360882
 21
5306.3320758194
 31
0.0
  0
LINE
  5
1CD
330
1F
100
AcDbEntity
  8
0
  6
Continuous
 62
     7
370
    25
100
AcDbLine
 10
6288.7941675776
 20
5299.2001236508
 30
0.0
 11
6288.7941675776
 21
5302.1994545927
 31
0.0
  0
LINE
  5
1CE
330
1F
100
AcDbEntity
  8
0
  6
Continuous
 62
     7
370
    25
100
AcDbLine
 10
6288.7941675776
 20
5302.1994545927
 30
0.0
 11
6292.6638258267
 21
5302.1994545927
 31
0.0
  0
LINE
  5
1CF
330
1F
100
AcDbEntity
  8
0
  6
Continuous
 62
     7
370
    25
100
AcDbLine
 10
6309.9021260621
 20
5302.1994545927
 30
0.0
 11
6309.9021260621
 21
5299.2001236508
 31
0.0
  0
LINE
  5
1D0
330
1F
100
AcDbEntity
  8
0
  6
Continuous
 62
     7
370
    25
100
AcDbLine
 10
6305.8070742578
 20
5302.1994545927
 30
0.0
 11
6309.9021260621
 21
5302.1994545927
 31
0.0
  0
LINE
  5
1D1
330
1F
100
AcDbEntity
  8
0
  6
Continuous
 62
     7
370
    25
100
AcDbLine
 10
6315.6509519902
 20
5302.2645637476
 30
0.0
 11
6315.6509519902
 21
5302.1994545927
 31
0.0
  0
LINE
  5
1D2
330
1F
100
AcDbEntity
  8
0
  6
Continuous
 62
     7
370
    25
100
AcDbLine
 10
6315.6509519902
 20
5302.1994545927
 30
0.0
 11
6317.0316620164
 21
5302.1994545927
 31
0.0
  0
LINE
  5
1D3
330
1F
100
AcDbEntity
  8
0
  6
Continuous
 62
     7
370
    25
100
AcDbLine
 10
6317.0316620164
 20
5299.2001236508
 30
0.0
 11
6317.0316620164
 21
5302.1994545927
 31
0.0
  0
LINE
  5
1D4
330
1F
100
AcDbEntity
  8
0
  6
Continuous
 62
     7
370
    25
100
AcDbLine
 10
6311.2828360882
 20
5302.1994545927
 30
0.0
 11
6311.2828360882
 21
5302.0987424861
 31
0.0
  0
LINE
  5
1D5
330
1F
100
AcDbEntity
  8
0
  6
Continuous
 62
     7
370
    25
100
AcDbLine
 10
6309.9021260621
 20
5302.1994545927
 30
0.0
 11
6311.2828360882
 21
5302.1994545927
 31
0.0
  0
LINE
  5
1D6
330
1F
100
AcDbEntity
  8
0
  6
Continuous
 62
     7
370
    25
100
AcDbLine
 10
6311.7816032638
 20
5310.6998984819
 30
0.0
 11
6311.2828360882
 21
5310.4994545927
 31
0.0
  0
LINE
  5
1D7
330
1F
100
AcDbEntity
  8
0
  6
Continuous
 62
     7
370
    25
100
AcDbLine
 10
6282.7804551007
 20
5302.1994545927
 30
0.0
 11
6282.7804551007
 21
5299.2001236508
 31
0.0
  0
LINE
  5
1D8
330
1F
100
AcDbEntity
  8
0
  6
Continuous
 62
     7
370
    25
100
AcDbLine
 10
6282.7804551007
 20
5302.1994545927
 30
0.0
 11
6283.9450741116
 21
5302.1994545927
 31
0.0
  0
LINE
  5
1D9
330
1F
100
AcDbEntity
  8
0
  6
Continuous
 62
     7
370
    25
100
AcDbLine
 10
6283.9450741116
 20
5302.1994545927
 30
0.0
 11
6283.9450741116
 21
5301.3928654118
 31
0.0
  0
LINE
  5
1DA
330
1F
100
AcDbEntity
  8
0
  6
Continuous
 62
     7
370
    25
100
AcDbLine
 10
6287.6295485667
 20
5302.1994545927
 30
0.0
 11
6288.7941675776
 21
5302.1994545927
 31
0.0
  0
LINE
  5
1DB
330
1F
100
AcDbEntity
  8
0
  6
Continuous
 62
     7
370
    25
100
AcDbLine
 10
6287.6295485667
 20
5301.5602104519
 30
0.0
 11
6287.6295485667
 21
5302.1994545927
 31
0.0
  0
LINE
  5
1DC
330
1F
100
AcDbEntity
  8
0
  6
Continuous
 62
     7
370
    25
100
AcDbLine
 10
6315.6509519902
 20
5304.3812304143
 30
0.0
 11
6315.6509519902
 21
5304.1166470752
 31
0.0
  0
LINE
  5
1DD
330
1F
100
AcDbEntity
  8
0
  6
Continuous
 62
     7
370
    25
100
AcDbLine
 10
6315.6509519902
 20
5310.4994545927
 30
0.0
 11
6315.6509519902
 21
5310.4666470752
 31
0.0
  0
LINE
  5
1DE
330
1F
100
AcDbEntity
  8
0
  6
Continuous
 62
     7
370
    25
100
AcDbLine
 10
6315.6509519902
 20
5306.497897081
 30
0.0
 11
6315.6509519902
 21
5306.2333137418
 31
0.0
  0
LINE
  5
1DF
330
1F
100
AcDbEntity
  8
0
  6
Continuous
 62
     7
370
    25
100
AcDbLine
 10
6315.6509519902
 20
5308.6145637476
 30
0.0
 11
6315.6509519902
 21
5308.3499804085
 31
0.0
  0
LINE
  5
1E0
330
1F
100
AcDbEntity
  8
0
  6
Continuous
 62
     7
370
    25
100
AcDbLine
 10
6283.9450741116
 20
5307.4782820727
 30
0.0
 11
6283.9450741116
 21
5307.7428654118
 31
0.0
  0
LINE
  5
1E1
330
1F
100
AcDbEntity
  8
0
  6
Continuous
 62
     7
370
    25
100
AcDbLine
 10
6283.9450741116
 20
5305.361615406
 30
0.0
 11
6283.9450741116
 21
5305.6261987451
 31
0.0
  0
LINE
  5
1E2
330
1F
100
AcDbEntity
  8
0
  6
Continuous
 62
     7
370
    25
100
AcDbLine
 10
6283.9450741116
 20
5309.5949487393
 30
0.0
 11
6283.9450741116
 21
5309.8595320785
 31
0.0
  0
LINE
  5
1E3
330
1F
100
AcDbEntity
  8
0
  6
Continuous
 62
     7
370
    25
100
AcDbLine
 10
6283.9450741116
 20
5303.2449487393
 30
0.0
 11
6283.9450741116
 21
5303.5095320785
 31
0.0
  0
LINE
  5
1E4
330
1F
100
AcDbEntity
  8
0
  6
Continuous
 62
     7
370
    25
100
AcDbLine
 10
6283.587326188
 20
5302.1994545927
 30
0.0
 11
6283.5873253692
 21
5303.1999915994
 31
0.0
  0
LINE
  5
1E5
330
1F
100
AcDbEntity
  8
0
  6
Continuous
 62
     7
370
    25
100
AcDbLine
 10
6317.0316620164
 20
5302.1994545927
 30
0.0
 11
6317.3187553361
 21
5302.1994545927
 31
0.0
  0
LINE
  5
1E6
330
1F
100
AcDbEntity
  8
0
  6
Continuous
 62
     7
370
    25
100
AcDbLine
 10
6282.7187553361
 20
5302.1994545927
 30
0.0
 11
6282.7804551007
 21
5302.1994545927
 31
0.0
  0
ARC
  5
1E7
330
1F
100
AcDbEntity
  8
0
  6
Continuous
 62
     7
370
    25
100
AcDbCircle
 10
6272.8736112446
 20
5200.7495160385
 30
0.0
 40
0.6676186886570576
100
AcDbArc
 50
180.0
 51
0.0
  0
LINE
  5
1E8
330
1F
100
AcDbEntity
  8
0
  6
Continuous
 62
     7
370
    25
100
AcDbLine
 10
6273.5412299333
 20
5203.6774571319
 30
0.0
 11
6273.5412299333
 21
5200.7495160385
 31
0.0
  0
ARC
  5
1E9
330
1F
100
AcDbEntity
  8
0
  6
Continuous
 62
     7
370
    25
100
AcDbCircle
 10
6273.8652411795
 20
5203.6774571319
 30
0.0
 40
0.324011246209011
100
AcDbArc
 50
90.0
 51
180.0
  0
LINE
  5
1EA
330
1F
100
AcDbEntity
  8
0
  6
Continuous
 62
     7
370
    25
100
AcDbLine
 10
6274.3218520985
 20
5204.0014683781
 30
0.0
 11
6273.8652411795
 21
5204.0014683781
 31
0.0
  0
ARC
  5
1EB
330
1F
100
AcDbEntity
  8
0
  6
Continuous
 62
     7
370
    25
100
AcDbCircle
 10
6274.3218520985
 20
5203.6774571319
 30
0.0
 40
0.324011246209011
100
AcDbArc
 50
0.0
 51
90.0
  0
LINE
  5
1EC
330
1F
100
AcDbEntity
  8
0
  6
Continuous
 62
     7
370
    25
100
AcDbLine
 10
6274.6458633447
 20
5200.7495160385
 30
0.0
 11
6274.6458633447
 21
5203.6774571319
 31
0.0
  0
ARC
  5
1ED
330
1F
100
AcDbEntity
  8
0
  6
Continuous
 62
     7
370
    25
100
AcDbCircle
 10
6275.3134820334
 20
5200.7495160385
 30
0.0
 40
0.6676186886570576
100
AcDbArc
 50
180.0
 51
0.0
  0
LINE
  5
1EE
330
1F
100
AcDbEntity
  8
0
  6
Continuous
 62
     7
370
    25
100
AcDbLine
 10
6275.981100722
 20
5203.1683028967
 30
0.0
 11
6275.981100722
 21
5200.7495160385
 31
0.0
  0
ARC
  5
1EF
330
1F
100
AcDbEntity
  8
0
  6
Continuous
 62
     7
370
    25
100
AcDbCircle
 10
6276.3051119683
 20
5203.1683028967
 30
0.0
 40
0.324011246209011
100
AcDbArc
 50
90.0
 51
180.0
  0
LINE
  5
1F0
330
1F
100
AcDbEntity
  8
0
  6
Continuous
 62
     7
370
    25
100
AcDbLine
 10
6276.8844292503
 20
5203.4923141429
 30
0.0
 11
6276.3051119683
 21
5203.4923141429
 31
0.0
  0
ARC
  5
1F1
330
1F
100
AcDbEntity
  8
0
  6
Continuous
 62
     7
370
    25
100
AcDbCircle
 10
6276.8844292503
 20
5203.1683028967
 30
0.0
 40
0.324011246209011
100
AcDbArc
 50
0.0
 51
90.0
  0
LINE
  5
1F2
330
1F
100
AcDbEntity
  8
0
  6
Continuous
 62
     7
370
    25
100
AcDbLine
 10
6277.2084404965
 20
5200.7495160385
 30
0.0
 11
6277.2084404965
 21
5203.1683028967
 31
0.0
  0
ARC
  5
1F3
330
1F
100
AcDbEntity
  8
0
  6
Continuous
 62
     7
370
    25
100
AcDbCircle
 10
6277.8760591852
 20
5200.7495160385
 30
0.0
 40
0.6676186886570576
100
AcDbArc
 50
180.0
 51
0.0
  0
LINE
  5
1F4
330
1F
100
AcDbEntity
  8
0
  6
Continuous
 62
     7
370
    25
100
AcDbLine
 10
6278.5436778738
 20
5202.2197229732
 30
0.0
 11
6278.5436778738
 21
5200.7495160385
 31
0.0
  0
ARC
  5
1F5
330
1F
100
AcDbEntity
  8
0
  6
Continuous
 62
     7
370
    25
100
AcDbCircle
 10
6278.86768912
 20
5202.2197229732
 30
0.0
 40
0.324011246209011
100
AcDbArc
 50
90.0
 51
180.0
  0
LINE
  5
1F6
330
1F
100
AcDbEntity
  8
0
  6
Continuous
 62
     7
370
    25
100
AcDbLine
 10
6279.3619145847
 20
5202.5437342194
 30
0.0
 11
6278.86768912
 21
5202.5437342194
 31
0.0
  0
ARC
  5
1F7
330
1F
100
AcDbEntity
  8
0
  6
Continuous
 62
     7
370
    25
100
AcDbCircle
 10
6279.3619145847
 20
5202.2197229732
 30
0.0
 40
0.324011246209011
100
AcDbArc
 50
0.0
 51
90.0
  0
LINE
  5
1F8
330
1F
100
AcDbEntity
  8
0
  6
Continuous
 62
     7
370
    25
100
AcDbLine
 10
6279.6859258309
 20
5194.3829524449
 30
0.0
 11
6279.6859258309
 21
5202.2197229732
 31
0.0
  0
ARC
  5
1F9
330
1F
100
AcDbEntity
  8
0
  6
Continuous
 62
     7
370
    25
100
AcDbCircle
 10
6276.1599252803
 20
5194.3829524449
 30
0.0
 40
3.526000550638855
100
AcDbArc
 50
270.0
 51
0.0
  0
LINE
  5
1FA
330
1F
100
AcDbEntity
  8
0
  6
Continuous
 62
     7
370
    25
100
AcDbLine
 10
6273.7927008733
 20
5190.8569518943
 30
0.0
 11
6276.1599252803
 21
5190.8569518943
 31
0.0
  0
ARC
  5
1FB
330
1F
100
AcDbEntity
  8
0
  6
Continuous
 62
     7
370
    25
100
AcDbCircle
 10
6273.7927008733
 20
5196.149882222
 30
0.0
 40
5.292930327734211
100
AcDbArc
 50
180.0
 51
270.0
  0
LINE
  5
1FC
330
1F
100
AcDbEntity
  8
0
  6
Continuous
 62
     7
370
    25
100
AcDbLine
 10
6268.4997705456
 20
5200.5959899841
 30
0.0
 11
6268.4997705456
 21
5196.149882222
 31
0.0
  0
ARC
  5
1FD
330
1F
100
AcDbEntity
  8
0
  6
Continuous
 62
     7
370
    25
100
AcDbCircle
 10
6268.1564565023
 20
5199.0953476214
 30
0.0
 40
1.53941288587157
100
AcDbArc
 50
0.0
 51
77.1137478469
  0
LINE
  5
1FE
330
1F
100
AcDbEntity
  8
0
  6
Continuous
 62
     7
370
    25
100
AcDbLine
 10
6269.6958693881
 20
5197.1409267394
 30
0.0
 11
6269.6958693881
 21
5199.0953476214
 31
0.0
  0
ARC
  5
1FF
330
1F
100
AcDbEntity
  8
0
  6
Continuous
 62
     7
370
    25
100
AcDbCircle
 10
6270.3634880768
 20
5197.1409267394
 30
0.0
 40
0.6676186886570576
100
AcDbArc
 50
180.0
 51
0.0
  0
LINE
  5
200
330
1F
100
AcDbEntity
  8
0
  6
Continuous
 62
     7
370
    25
100
AcDbLine
 10
6271.0311067655
 20
5208.4214280091
 30
0.0
 11
6271.0311067655
 21
5197.1409267394
 31
0.0
  0
ARC
  5
201
330
1F
100
AcDbEntity
  8
0
  6
Continuous
 62
     7
370
    25
100
AcDbCircle
 10
6271.6185496607
 20
5208.4214280091
 30
0.0
 40
0.5874428952447488
100
AcDbArc
 50
0.0
 51
180.0
  0
LINE
  5
202
330
1F
100
AcDbEntity
  8
0
  6
Continuous
 62
     7
370
    25
100
AcDbLine
 10
6272.2059925559
 20
5200.7495160385
 30
0.0
 11
6272.2059925559
 21
5208.4214280091
 31
0.0
  0
CIRCLE
  5
203
330
1F
100
AcDbEntity
  8
0
  6
Continuous
 62
     7
370
    25
100
AcDbCircle
 10
6274.0187553361
 20
5201.2001236508
 30
0.0
 40
12.5
  0
LINE
  5
204
330
1F
100
AcDbEntity
  8
0
  6
Continuous
 62
     7
370
    25
100
AcDbLine
 10
6273.2355925559
 20
5204.8757083646
 30
0.0
 11
6273.2355925559
 21
5205.7169999293
 31
0.0
  0
ARC
  5
205
330
1F
100
AcDbEntity
  8
0
  6
Continuous
 62
     7
370
    25
100
AcDbCircle
 10
6271.6129823948
 20
5209.0090968806
 30
0.0
 40
3.67025422437557
100
AcDbArc
 50
296.2377856826
 51
243.9558392429
  0
LINE
  5
206
330
1F
100
AcDbEntity
  8
0
  6
Continuous
 62
     7
370
    25
100
AcDbLine
 10
6270.0015067655
 20
5205.7115353016
 30
0.0
 11
6270.0015067655
 21
5200.8829764235
 31
0.0
  0
ARC
  5
207
330
1F
100
AcDbEntity
  8
0
  6
Continuous
 62
     7
370
    25
100
AcDbCircle
 10
6268.1564565023
 20
5199.0953476214
 30
0.0
 40
2.56901288587183
100
AcDbArc
 50
44.0944057145
 51
105.4941474424
  0
LINE
  5
208
330
1F
100
AcDbEntity
  8
0
  6
Continuous
 62
     7
370
    25
100
AcDbLine
 10
6267.4701705456
 20
5201.5709967875
 30
0.0
 11
6267.4701705456
 21
5196.149882222
 31
0.0
  0
ARC
  5
209
330
1F
100
AcDbEntity
  8
0
  6
Continuous
 62
     7
370
    25
100
AcDbCircle
 10
6273.7927008733
 20
5196.149882222
 30
0.0
 40
6.322530327734057
100
AcDbArc
 50
180.0
 51
270.0
  0
LINE
  5
20A
330
1F
100
AcDbEntity
  8
0
  6
Continuous
 62
     7
370
    25
100
AcDbLine
 10
6273.7927008733
 20
5189.8273518943
 30
0.0
 11
6276.1599252803
 21
5189.8273518943
 31
0.0
  0
ARC
  5
20B
330
1F
100
AcDbEntity
  8
0
  6
Continuous
 62
     7
370
    25
100
AcDbCircle
 10
6276.1599252803
 20
5194.3829524449
 30
0.0
 40
4.555600550638701
100
AcDbArc
 50
270.0
 51
0.0
  0
LINE
  5
20C
330
1F
100
AcDbEntity
  8
0
  6
Continuous
 62
     7
370
    25
100
AcDbLine
 10
6280.7155258309
 20
5194.3829524449
 30
0.0
 11
6280.7155258309
 21
5202.2197229732
 31
0.0
  0
ARC
  5
20D
330
1F
100
AcDbEntity
  8
0
  6
Continuous
 62
     7
370
    25
100
AcDbCircle
 10
6279.3619145847
 20
5202.2197229732
 30
0.0
 40
1.353611246208857
100
AcDbArc
 50
0.0
 51
90.0
  0
LINE
  5
20E
330
1F
100
AcDbEntity
  8
0
  6
Continuous
 62
     7
370
    25
100
AcDbLine
 10
6279.3619145847
 20
5203.5733342194
 30
0.0
 11
6278.86768912
 21
5203.5733342194
 31
0.0
  0
ARC
  5
20F
330
1F
100
AcDbEntity
  8
0
  6
Continuous
 62
     7
370
    25
100
AcDbCircle
 10
6278.86768912
 20
5202.2197229732
 30
0.0
 40
1.353611246209267
100
AcDbArc
 50
90.0
 51
118.7365577358
  0
ARC
  5
210
330
1F
100
AcDbEntity
  8
0
  6
Continuous
 62
     7
370
    25
100
AcDbCircle
 10
6276.8844292503
 20
5203.1683028967
 30
0.0
 40
1.353611246208857
100
AcDbArc
 50
10.1404867648
 51
90.0
  0
LINE
  5
211
330
1F
100
AcDbEntity
  8
0
  6
Continuous
 62
     7
370
    25
100
AcDbLine
 10
6276.8844292503
 20
5204.5219141429
 30
0.0
 11
6276.3051119682
 21
5204.5219141429
 31
0.0
  0
ARC
  5
212
330
1F
100
AcDbEntity
  8
0
  6
Continuous
 62
     7
370
    25
100
AcDbCircle
 10
6276.3051119683
 20
5203.1683028967
 30
0.0
 40
1.353611246209003
100
AcDbArc
 50
90.0
 51
124.744002227
  0
ARC
  5
213
330
1F
100
AcDbEntity
  8
0
  6
Continuous
 62
     7
370
    25
100
AcDbCircle
 10
6274.3218520985
 20
5203.6774571319
 30
0.0
 40
1.353611246208593
100
AcDbArc
 50
26.4592691592
 51
90.0
  0
LINE
  5
214
330
1F
100
AcDbEntity
  8
0
  6
Continuous
 62
     7
370
    25
100
AcDbLine
 10
6274.3218520985
 20
5205.0310683781
 30
0.0
 11
6273.8652411795
 21
5205.0310683781
 31
0.0
  0
ARC
  5
215
330
1F
100
AcDbEntity
  8
0
  6
Continuous
 62
     7
370
    25
100
AcDbCircle
 10
6273.8652411795
 20
5203.6774571319
 30
0.0
 40
1.353611246210025
100
AcDbArc
 50
89.9999999999
 51
117.7207121261
  0
CIRCLE
  5
216
330
1F
100
AcDbEntity
  8
0
  6
Continuous
 62
     7
370
    25
100
AcDbCircle
 10
6274.0187553361
 20
5201.2001236508
 30
0.0
 40
14.0
  0
LINE
  5
217
330
1F
100
AcDbEntity
  8
0
  6
Continuous
 62
     7
370
    25
100
AcDbLine
 10
6270.0015067655
 20
5207.2429525188
 30
0.0
 11
6270.0015067655
 21
5208.4214280091
 31
0.0
  0
LINE
  5
218
330
1F
100
AcDbEntity
  8
0
  6
Continuous
 62
     7
370
    25
100
AcDbLine
 10
6273.2355925559
 20
5208.4214280091
 30
0.0
 11
6273.2355925559
 21
5207.2531766444
 31
0.0
  0
ARC
  5
219
330
1F
100
AcDbEntity
  8
0
  6
Continuous
 62
     7
370
    25
100
AcDbCircle
 10
6271.6129823948
 20
5209.0090968806
 30
0.0
 40
2.390840774882192
100
AcDbArc
 50
312.7403949474
 51
227.621869591
  0
ARC
  5
21A
330
1F
100
AcDbEntity
  8
0
  6
Continuous
 62
     7
370
    25
100
AcDbCircle
 10
6271.6185496607
 20
5208.4214280091
 30
0.0
 40
1.617042895244595
100
AcDbArc
 50
0.0
 51
180.0
  0
LINE
  5
21B
330
1F
100
AcDbEntity
  8
0
  6
Continuous
 62
     7
370
    25
100
AcDbLine
 10
6486.2682762153
 20
5290.1994545927
 30
0.0
 11
6486.2682762153
 21
5291.0994545927
 31
0.0
  0
LINE
  5
21C
330
1F
100
AcDbEntity
  8
0
  6
Continuous
 62
     7
370
    25
100
AcDbLine
 10
6473.0682762153
 20
5291.0994545927
 30
0.0
 11
6473.0682762153
 21
5290.1994545927
 31
0.0
  0
ARC
  5
21D
330
1F
100
AcDbEntity
  8
0
  6
Continuous
 62
     7
370
    25
100
AcDbCircle
 10
6485.4682762153
 20
5291.0994545927
 30
0.0
 40
0.8000000000001819
100
AcDbArc
 50
0.0
 51
90.0
  0
ARC
  5
21E
330
1F
100
AcDbEntity
  8
0
  6
Continuous
 62
     7
370
    25
100
AcDbCircle
 10
6473.8682762153
 20
5291.0994545927
 30
0.0
 40
0.8000000000010914
100
AcDbArc
 50
90.0000000001
 51
180.0
  0
LINE
  5
21F
330
1F
100
AcDbEntity
  8
0
  6
Continuous
 62
     7
370
    25
100
AcDbLine
 10
6484.4182762153
 20
5289.1894545927
 30
0.0
 11
6484.4182762153
 21
5289.1994545927
 31
0.0
  0
LINE
  5
220
330
1F
100
AcDbEntity
  8
0
  6
Continuous
 62
     7
370
    25
100
AcDbLine
 10
6474.9182762153
 20
5289.1994545927
 30
0.0
 11
6474.9182762153
 21
5289.1894545927
 31
0.0
  0
LWPOLYLINE
  5
221
330
1F
100
AcDbEntity
  8
0
  6
Continuous
 62
     7
370
    25
100
AcDbPolyline
 90
        3
 70
   128
 43
0.0
 10
6495.7188778668
 20
5118.0028099625
 10
6495.5840213857
 20
5118.0807206415
 10
6495.0225887262
 20
5118.4050977813
  0
LWPOLYLINE
  5
222
330
1F
100
AcDbEntity
  8
0
  6
Continuous
 62
     7
370
    25
100
AcDbPolyline
 90
        3
 70
   128
 43
0.0
 10
6495.7191726063
 20
5120.1193034928
 10
6495.5837704164
 20
5120.1975285619
 10
6495.0225884813
 20
5120.5217645142
  0
LWPOLYLINE
  5
223
330
1F
100
AcDbEntity
  8
0
  6
Continuous
 62
     7
370
    25
100
AcDbPolyline
 90
        3
 70
   128
 43
0.0
 10
6495.7194369893
 20
5122.2358133604
 10
6495.5835167238
 20
5122.3143364747
 10
6495.0225881745
 20
5122.6384312511
  0
LWPOLYLINE
  5
224
330
1F
100
AcDbEntity
  8
0
  6
Continuous
 62
     7
370
    25
100
AcDbPolyline
 90
        3
 70
   128
 43
0.0
 10
6495.7196707989
 20
5124.3523396936
 10
6495.5832603081
 20
5124.4311443798
 10
6495.022587806
 20
5124.7550979919
  0
LWPOLYLINE
  5
225
330
1F
100
AcDbEntity
  8
0
  6
Continuous
 62
     7
370
    25
100
AcDbPolyline
 90
        3
 70
   128
 43
0.0
 10
6464.3254596052
 20
5119.4700730422
 10
6463.7525371554
 20
5119.1390574324
 10
6463.6176636587
 20
5119.0611369312
  0
LWPOLYLINE
  5
226
330
1F
100
AcDbEntity
  8
0
  6
Continuous
 62
     7
370
    25
100
AcDbPolyline
 90
        3
 70
   128
 43
0.0
 10
6464.3254596052
 20
5121.5867397089
 10
6463.7527881913
 20
5121.2558653527
 10
6463.6173689492
 20
5121.1776304495
  0
LWPOLYLINE
  5
227
330
1F
100
AcDbEntity
  8
0
  6
Continuous
 62
     7
370
    25
100
AcDbPolyline
 90
        3
 70
   128
 43
0.0
 10
6464.3254596052
 20
5123.7034063756
 10
6463.7530419506
 20
5123.3726732653
 10
6463.6171045999
 20
5123.2941403072
  0
LWPOLYLINE
  5
228
330
1F
100
AcDbEntity
  8
0
  6
Continuous
 62
     7
370
    25
100
AcDbPolyline
 90
        3
 70
   128
 43
0.0
 10
6464.3254596052
 20
5117.3534063756
 10
6463.752288843
 20
5117.0222495045
 10
6463.6156704235
 20
5116.9433203852
  0
LINE
  5
229
330
1F
100
AcDbEntity
  8
0
  6
Continuous
 62
     7
370
    25
100
AcDbLine
 10
6495.3141246376
 20
5116.1199924954
 30
0.0
 11
6495.0225889091
 21
5116.2884310523
 31
0.0
  0
LWPOLYLINE
  5
22A
330
1F
100
AcDbEntity
  8
0
  6
Continuous
 62
     7
370
    25
100
AcDbPolyline
 90
        3
 70
   128
 43
0.0
 10
6495.0127287084
 20
5118.9154068795
 10
6495.5861647323
 20
5119.246728844
 10
6495.6734031544
 20
5119.2971282652
  0
LWPOLYLINE
  5
22B
330
1F
100
AcDbEntity
  8
0
  6
Continuous
 62
     7
370
    25
100
AcDbPolyline
 90
        3
 70
   128
 43
0.0
 10
6495.0127287084
 20
5121.0320735462
 10
6495.586388739
 20
5121.363537546
 10
6495.6736284134
 20
5121.4139357682
  0
LWPOLYLINE
  5
22C
330
1F
100
AcDbEntity
  8
0
  6
Continuous
 62
     7
370
    25
100
AcDbPolyline
 90
        3
 70
   128
 43
0.0
 10
6495.0127287084
 20
5123.1487402128
 10
6495.5866100066
 20
5123.4803462465
 10
6495.6738342885
 20
5123.5307334121
  0
LWPOLYLINE
  5
22D
330
1F
100
AcDbEntity
  8
0
  6
Continuous
 62
     7
370
    25
100
AcDbPolyline
 90
        3
 70
   128
 43
0.0
 10
6495.4517404515
 20
5125.5190932422
 10
6495.586828535
 20
5125.5971549457
 10
6495.6746045549
 20
5125.6478584135
  0
LWPOLYLINE
  5
22E
330
1F
100
AcDbEntity
  8
0
  6
Continuous
 62
     7
370
    25
100
AcDbPolyline
 90
        3
 70
   128
 43
0.0
 10
6463.5704415782
 20
5118.3609270777
 10
6463.7981123552
 20
5118.2289290331
 10
6464.3676108095
 20
5117.8978601071
  0
LWPOLYLINE
  5
22F
330
1F
100
AcDbEntity
  8
0
  6
Continuous
 62
     7
370
    25
100
AcDbPolyline
 90
        3
 70
   128
 43
0.0
 10
6463.5702866092
 20
5120.4779615872
 10
6463.7986696171
 20
5120.3457358601
 10
6464.3676108095
 20
5120.0145267737
  0
LWPOLYLINE
  5
230
330
1F
100
AcDbEntity
  8
0
  6
Continuous
 62
     7
370
    25
100
AcDbPolyline
 90
        3
 70
   128
 43
0.0
 10
6463.5701819474
 20
5122.5949671435
 10
6463.7992295695
 20
5122.4625426754
 10
6464.3676108095
 20
5122.1311934404
  0
LWPOLYLINE
  5
231
330
1F
100
AcDbEntity
  8
0
  6
Continuous
 62
     7
370
    25
100
AcDbPolyline
 90
        3
 70
   128
 43
0.0
 10
6463.5701280112
 20
5124.711943622
 10
6463.799792212
 20
5124.579349479
 10
6464.3676108095
 20
5124.2478601071
  0
LWPOLYLINE
  5
232
330
1F
100
AcDbEntity
  8
0
  6
Continuous
 62
     7
370
    25
100
AcDbPolyline
 90
        3
 70
   128
 43
0.0
 10
6495.0127287084
 20
5116.7987402128
 10
6495.5859379866
 20
5117.1299201408
 10
6495.673158614
 20
5117.1803109616
  0
LINE
  5
233
330
1F
100
AcDbEntity
  8
0
  6
Continuous
 62
     7
370
    25
100
AcDbLine
 10
6464.3130684802
 20
5115.7546623278
 30
0.0
 11
6464.8682762153
 21
5115.1994545927
 31
0.0
  0
LINE
  5
234
330
1F
100
AcDbEntity
  8
0
  6
Continuous
 62
     7
370
    25
100
AcDbLine
 10
6463.6377884098
 20
5116.4299423982
 30
0.0
 11
6464.3130684802
 21
5115.7546623278
 31
0.0
  0
LINE
  5
235
330
1F
100
AcDbEntity
  8
0
  6
Continuous
 62
     7
370
    25
100
AcDbLine
 10
6494.4682762153
 20
5115.1994545927
 30
0.0
 11
6495.3357416066
 21
5116.066919984
 31
0.0
  0
LWPOLYLINE
  5
236
330
1F
100
AcDbEntity
  8
0
  6
Continuous
 62
     7
370
    25
100
AcDbPolyline
 90
        3
 70
   128
 43
0.0
 10
6495.0225889091
 20
5118.3988594457
 10
6495.0225811454
 20
5118.6635845703
 10
6495.0225887059
 20
5118.9211038249
  0
LWPOLYLINE
  5
237
330
1F
100
AcDbEntity
  8
0
  6
Continuous
 62
     7
370
    25
100
AcDbPolyline
 90
        3
 70
   128
 43
0.0
 10
6495.0225889091
 20
5120.5155261124
 10
6495.0225707433
 20
5120.7803930237
 10
6495.0225884334
 20
5121.0377705508
  0
LWPOLYLINE
  5
238
330
1F
100
AcDbEntity
  8
0
  6
Continuous
 62
     7
370
    25
100
AcDbPolyline
 90
        3
 70
   128
 43
0.0
 10
6495.0225889091
 20
5122.632192779
 10
6495.022557703
 20
5122.8972014727
 10
6495.0225880914
 20
5123.1544372636
  0
LWPOLYLINE
  5
239
330
1F
100
AcDbEntity
  8
0
  6
Continuous
 62
     7
370
    25
100
AcDbPolyline
 90
        3
 70
   128
 43
0.0
 10
6495.0225889091
 20
5124.7488594457
 10
6495.0225420246
 20
5125.0140099172
 10
6495.0225876799
 20
5125.2711039631
  0
LWPOLYLINE
  5
23A
330
1F
100
AcDbEntity
  8
0
  6
Continuous
 62
     7
370
    25
100
AcDbPolyline
 90
        3
 70
   128
 43
0.0
 10
6464.3924559792
 20
5117.9038067783
 10
6464.3930968426
 20
5117.6393631098
 10
6464.3924559792
 20
5117.3746401117
  0
LWPOLYLINE
  5
23B
330
1F
100
AcDbEntity
  8
0
  6
Continuous
 62
     7
370
    25
100
AcDbPolyline
 90
        3
 70
   128
 43
0.0
 10
6464.3924559792
 20
5120.020473445
 10
6464.3937402845
 20
5119.7561694282
 10
6464.3924559792
 20
5119.4913067783
  0
LWPOLYLINE
  5
23C
330
1F
100
AcDbEntity
  8
0
  6
Continuous
 62
     7
370
    25
100
AcDbPolyline
 90
        3
 70
   128
 43
0.0
 10
6464.3924559792
 20
5122.1371401117
 10
6464.3943863044
 20
5121.8729757335
 10
6464.3924559792
 20
5121.607973445
  0
LWPOLYLINE
  5
23D
330
1F
100
AcDbEntity
  8
0
  6
Continuous
 62
     7
370
    25
100
AcDbPolyline
 90
        3
 70
   128
 43
0.0
 10
6464.3924559792
 20
5124.2538067783
 10
6464.3950349021
 20
5123.9897820256
 10
6464.3924559792
 20
5123.7246401117
  0
LINE
  5
23E
330
1F
100
AcDbEntity
  8
0
  6
Continuous
 62
     7
370
    25
100
AcDbLine
 10
6495.0225889091
 20
5116.282192779
 30
0.0
 11
6495.0225889091
 21
5116.804437086
 31
0.0
  0
ARC
  5
23F
330
1F
100
AcDbEntity
  8
0
  6
Continuous
 62
     7
370
    25
100
AcDbCircle
 10
6475.202236358
 20
5120.8603064072
 30
0.0
 40
20.00000000000123
100
AcDbArc
 50
125.2186316006
 51
125.3323978476
  0
ARC
  5
240
330
1F
100
AcDbEntity
  8
0
  6
Continuous
 62
     7
370
    25
100
AcDbCircle
 10
6484.1343160726
 20
5120.8603064072
 30
0.0
 40
20.00000000000018
100
AcDbArc
 50
54.6690302973
 51
54.7813683994
  0
LWPOLYLINE
  5
241
330
1F
100
AcDbEntity
  8
0
  6
Continuous
 62
     7
370
    25
100
AcDbPolyline
 90
        3
 70
   128
 43
0.0
 10
6463.6653827155
 20
5308.6957555689
 10
6463.7522735144
 20
5308.6455572632
 10
6464.3139698663
 20
5308.3210344209
  0
LWPOLYLINE
  5
242
330
1F
100
AcDbEntity
  8
0
  6
Continuous
 62
     7
370
    25
100
AcDbPolyline
 90
        3
 70
   128
 43
0.0
 10
6463.6656663626
 20
5306.5789286801
 10
6463.7525196818
 20
5306.5287526774
 10
6464.313970146
 20
5306.2043676772
  0
LWPOLYLINE
  5
243
330
1F
100
AcDbEntity
  8
0
  6
Continuous
 62
     7
370
    25
100
AcDbPolyline
 90
        3
 70
   128
 43
0.0
 10
6463.6659687079
 20
5304.4620923164
 10
6463.7527685241
 20
5304.4119481087
 10
6464.3139704839
 20
5304.0877009305
  0
LWPOLYLINE
  5
244
330
1F
100
AcDbEntity
  8
0
  6
Continuous
 62
     7
370
    25
100
AcDbPolyline
 90
        3
 70
   128
 43
0.0
 10
6495.0113435696
 20
5309.372874341
 10
6495.5842833237
 20
5309.7038930797
 10
6495.6711751763
 20
5309.7540919984
  0
LWPOLYLINE
  5
245
330
1F
100
AcDbEntity
  8
0
  6
Continuous
 62
     7
370
    25
100
AcDbPolyline
 90
        3
 70
   128
 43
0.0
 10
6495.0113435696
 20
5307.2562076743
 10
6495.5840372044
 20
5307.5870884937
 10
6495.6708915402
 20
5307.6372650921
  0
LWPOLYLINE
  5
246
330
1F
100
AcDbEntity
  8
0
  6
Continuous
 62
     7
370
    25
100
AcDbPolyline
 90
        3
 70
   128
 43
0.0
 10
6495.0113435696
 20
5305.1395410076
 10
6495.5837884103
 20
5305.4702839246
 10
6495.6705892056
 20
5305.5204287107
  0
LWPOLYLINE
  5
247
330
1F
100
AcDbEntity
  8
0
  6
Continuous
 62
     7
370
    25
100
AcDbPolyline
 90
        3
 70
   128
 43
0.0
 10
6495.0113435696
 20
5303.022874341
 10
6495.5835369418
 20
5303.3534793726
 10
6495.6702682779
 20
5303.4035829162
  0
LWPOLYLINE
  5
248
330
1F
100
AcDbEntity
  8
0
  6
Continuous
 62
     7
370
    25
100
AcDbPolyline
 90
        3
 70
   128
 43
0.0
 10
6463.6611168851
 20
5310.814884379
 10
6463.7520300222
 20
5310.7623618659
 10
6464.3139696449
 20
5310.4377011617
  0
LWPOLYLINE
  5
249
330
1F
100
AcDbEntity
  8
0
  6
Continuous
 62
     7
370
    25
100
AcDbPolyline
 90
        3
 70
   128
 43
0.0
 10
6464.3237512623
 20
5307.8103851494
 10
6463.7503256068
 20
5307.4790737198
 10
6463.621695978
 20
5307.4047624471
  0
LWPOLYLINE
  5
24A
330
1F
100
AcDbEntity
  8
0
  6
Continuous
 62
     7
370
    25
100
AcDbPolyline
 90
        3
 70
   128
 43
0.0
 10
6464.3237512623
 20
5305.6937184828
 10
6463.7501032321
 20
5305.3622666962
 10
6463.6220840111
 20
5305.2883107223
  0
LWPOLYLINE
  5
24B
330
1F
100
AcDbEntity
  8
0
  6
Continuous
 62
     7
370
    25
100
AcDbPolyline
 90
        3
 70
   128
 43
0.0
 10
6464.3237512623
 20
5303.5770518161
 10
6463.7498835799
 20
5303.2454596836
 10
6463.6222525448
 20
5303.1717309616
  0
LWPOLYLINE
  5
24C
330
1F
100
AcDbEntity
  8
0
  6
Continuous
 62
     7
370
    25
100
AcDbPolyline
 90
        3
 70
   128
 43
0.0
 10
6495.7148594122
 20
5308.4630941414
 10
6495.586225388
 20
5308.5374079539
 10
6495.0225825775
 20
5308.8630670779
  0
LWPOLYLINE
  5
24D
330
1F
100
AcDbEntity
  8
0
  6
Continuous
 62
     7
370
    25
100
AcDbPolyline
 90
        3
 70
   128
 43
0.0
 10
6495.7144713834
 20
5306.346642422
 10
6495.5864477803
 20
5306.4206009302
 10
6495.022582252
 20
5306.746400397
  0
LWPOLYLINE
  5
24E
330
1F
100
AcDbEntity
  8
0
  6
Continuous
 62
     7
370
    25
100
AcDbPolyline
 90
        3
 70
   128
 43
0.0
 10
6495.71405544
 20
5304.2302055906
 10
6495.5866674499
 20
5304.3037939176
 10
6495.0225818579
 20
5304.6297337292
  0
LWPOLYLINE
  5
24F
330
1F
100
AcDbEntity
  8
0
  6
Continuous
 62
     7
370
    25
100
AcDbPolyline
 90
        3
 70
   128
 43
0.0
 10
6495.7140605792
 20
5302.1135242799
 10
6495.5868843971
 20
5302.1869869161
 10
6495.0225813952
 20
5302.5130670747
  0
LWPOLYLINE
  5
250
330
1F
100
AcDbEntity
  8
0
  6
Continuous
 62
     7
370
    25
100
AcDbPolyline
 90
        3
 70
   128
 43
0.0
 10
6495.7152192488
 20
5310.5795609154
 10
6495.5860002731
 20
5310.6542149886
 10
6495.0225828345
 20
5310.9797337719
  0
LWPOLYLINE
  5
251
330
1F
100
AcDbEntity
  8
0
  6
Continuous
 62
     7
370
    25
100
AcDbPolyline
 90
        3
 70
   128
 43
0.0
 10
6464.3237512623
 20
5309.9270518161
 10
6463.7505507044
 20
5309.5958807545
 10
6463.6213361363
 20
5309.5212292259
  0
LINE
  5
252
330
1F
100
AcDbEntity
  8
0
  6
Continuous
 62
     7
370
    25
100
AcDbLine
 10
6495.0866681398
 20
5311.5810626683
 30
0.0
 11
6494.4682762154
 21
5312.1994545927
 31
0.0
  0
LINE
  5
253
330
1F
100
AcDbEntity
  8
0
  6
Continuous
 62
     7
370
    25
100
AcDbLine
 10
6464.8682762154
 20
5312.1994545927
 30
0.0
 11
6463.6392847603
 21
5310.9704631377
 31
0.0
  0
LWPOLYLINE
  5
254
330
1F
100
AcDbEntity
  8
0
  6
Continuous
 62
     7
370
    25
100
AcDbPolyline
 90
        3
 70
   128
 43
0.0
 10
6464.3139696449
 20
5308.3269859523
 10
6464.3139794909
 20
5308.0622633379
 10
6464.3139699023
 20
5307.804733717
  0
LWPOLYLINE
  5
255
330
1F
100
AcDbEntity
  8
0
  6
Continuous
 62
     7
370
    25
100
AcDbPolyline
 90
        3
 70
   128
 43
0.0
 10
6464.3139696449
 20
5306.2103192856
 10
6464.3139919438
 20
5305.9454574043
 10
6464.3139702283
 20
5305.6880670362
  0
LWPOLYLINE
  5
256
330
1F
100
AcDbEntity
  8
0
  6
Continuous
 62
     7
370
    25
100
AcDbPolyline
 90
        3
 70
   128
 43
0.0
 10
6464.3139696449
 20
5304.0936526189
 10
6464.3140070031
 20
5303.8286514848
 10
6464.3139706227
 20
5303.5714003685
  0
LWPOLYLINE
  5
257
330
1F
100
AcDbEntity
  8
0
  6
Continuous
 62
     7
370
    25
100
AcDbPolyline
 90
        3
 70
   128
 43
0.0
 10
6495.0225828345
 20
5308.8561534134
 10
6495.0225730033
 20
5309.1205974657
 10
6495.0225826134
 20
5309.3793677534
  0
LWPOLYLINE
  5
258
330
1F
100
AcDbEntity
  8
0
  6
Continuous
 62
     7
370
    25
100
AcDbPolyline
 90
        3
 70
   128
 43
0.0
 10
6495.0225828345
 20
5306.7394867468
 10
6495.0225605654
 20
5307.003791532
 10
6495.022582334
 20
5307.2627010092
  0
LWPOLYLINE
  5
259
330
1F
100
AcDbEntity
  8
0
  6
Continuous
 62
     7
370
    25
100
AcDbPolyline
 90
        3
 70
   128
 43
0.0
 10
6495.0225828345
 20
5304.6228200801
 10
6495.0225455209
 20
5304.8869856124
 10
6495.0225819964
 20
5305.1460342622
  0
LWPOLYLINE
  5
25A
330
1F
100
AcDbEntity
  8
0
  6
Continuous
 62
     7
370
    25
100
AcDbPolyline
 90
        3
 70
   128
 43
0.0
 10
6495.0225828345
 20
5302.5061534134
 10
6495.0225278701
 20
5302.7701797069
 10
6495.0225816005
 20
5303.0293675123
  0
LINE
  5
25B
330
1F
100
AcDbEntity
  8
0
  6
Continuous
 62
     7
370
    25
100
AcDbLine
 10
6495.0225828345
 20
5310.9728200801
 30
0.0
 11
6495.0225828345
 21
5311.5019867468
 31
0.0
  0
LINE
  5
25C
330
1F
100
AcDbEntity
  8
0
  6
Continuous
 62
     7
370
    25
100
AcDbLine
 10
6464.3139696449
 20
5310.4436526189
 30
0.0
 11
6464.3139696449
 21
5309.9214004109
 31
0.0
  0
ARC
  5
25D
330
1F
100
AcDbEntity
  8
0
  6
Continuous
 62
     7
370
    25
100
AcDbCircle
 10
6475.202236358
 20
5306.5386027782
 30
0.0
 40
20.0000000000003
100
AcDbArc
 50
234.6885255377
 51
234.7813683994
  0
ARC
  5
25E
330
1F
100
AcDbEntity
  8
0
  6
Continuous
 62
     7
370
    25
100
AcDbCircle
 10
6484.1343160727
 20
5306.5386027782
 30
0.0
 40
20.00000000000123
100
AcDbArc
 50
305.2186316006
 51
305.3123331824
  0
LINE
  5
25F
330
1F
100
AcDbEntity
  8
0
  6
Continuous
 62
     7
370
    25
100
AcDbLine
 10
6555.6682762153
 20
5187.2001236508
 30
0.0
 11
6556.1682762153
 21
5187.2001236508
 31
0.0
  0
LINE
  5
260
330
1F
100
AcDbEntity
  8
0
  6
Continuous
 62
     7
370
    25
100
AcDbLine
 10
6556.1682762153
 20
5215.2001236508
 30
0.0
 11
6555.6682762153
 21
5215.2001236508
 31
0.0
  0
LINE
  5
261
330
1F
100
AcDbEntity
  8
0
  6
Continuous
 62
     7
370
    25
100
AcDbLine
 10
6556.1682762153
 20
5187.2001236508
 30
0.0
 11
6557.6682762153
 21
5188.7001236508
 31
0.0
  0
LINE
  5
262
330
1F
100
AcDbEntity
  8
0
  6
Continuous
 62
     7
370
    25
100
AcDbLine
 10
6557.6682762153
 20
5213.7001236508
 30
0.0
 11
6556.1682762153
 21
5215.2001236508
 31
0.0
  0
LINE
  5
263
330
1F
100
AcDbEntity
  8
0
  6
Continuous
 62
     7
370
    25
100
AcDbLine
 10
6545.6682762153
 20
5212.4001236508
 30
0.0
 11
6544.6682762153
 21
5212.4001236508
 31
0.0
  0
LINE
  5
264
330
1F
100
AcDbEntity
  8
0
  6
Continuous
 62
     7
370
    25
100
AcDbLine
 10
6544.6682762153
 20
5190.0001236508
 30
0.0
 11
6545.6682762153
 21
5190.0001236508
 31
0.0
  0
LINE
  5
265
330
1F
100
AcDbEntity
  8
0
  6
Continuous
 62
     7
370
    25
100
AcDbLine
 10
6545.6682762153
 20
5289.2001236508
 30
0.0
 11
6545.6682762153
 21
5139.2001236508
 31
0.0
  0
LINE
  5
266
330
1F
100
AcDbEntity
  8
0
  6
Continuous
 62
     7
370
    25
100
AcDbLine
 10
6545.6682762153
 20
5289.2001236508
 30
0.0
 11
6555.6682762153
 21
5289.2001236508
 31
0.0
  0
LINE
  5
267
330
1F
100
AcDbEntity
  8
0
  6
Continuous
 62
     7
370
    25
100
AcDbLine
 10
6555.6682762153
 20
5289.2001236508
 30
0.0
 11
6555.6682762153
 21
5139.2001236508
 31
0.0
  0
LINE
  5
268
330
1F
100
AcDbEntity
  8
0
  6
Continuous
 62
     7
370
    25
100
AcDbLine
 10
6545.6682762153
 20
5139.2001236508
 30
0.0
 11
6555.6682762153
 21
5139.2001236508
 31
0.0
  0
ARC
  5
269
330
1F
100
AcDbEntity
  8
0
  6
Continuous
 62
     7
370
    25
100
AcDbCircle
 10
6545.6682762153
 20
5289.2001236508
 30
0.0
 40
10.0
100
AcDbArc
 50
0.0
 51
90.0
  0
LINE
  5
26A
330
1F
100
AcDbEntity
  8
0
  6
Continuous
 62
     7
370
    25
100
AcDbLine
 10
6545.6682762153
 20
5299.2001236508
 30
0.0
 11
6545.6682762153
 21
5289.2001236508
 31
0.0
  0
ARC
  5
26B
330
1F
100
AcDbEntity
  8
0
  6
Continuous
 62
     7
370
    25
100
AcDbCircle
 10
6545.6682762153
 20
5139.2001236508
 30
0.0
 40
10.0
100
AcDbArc
 50
270.0
 51
0.0
  0
LINE
  5
26C
330
1F
100
AcDbEntity
  8
0
  6
Continuous
 62
     7
370
    25
100
AcDbLine
 10
6545.6682762153
 20
5139.2001236508
 30
0.0
 11
6545.6682762153
 21
5129.2001236508
 31
0.0
  0
LINE
  5
26D
330
1F
100
AcDbEntity
  8
0
  6
Continuous
 62
     7
370
    25
100
AcDbLine
 10
6473.8857279608
 20
5291.8994545927
 30
0.0
 11
6473.8682762153
 21
5291.8994545927
 31
0.0
  0
LINE
  5
26E
330
1F
100
AcDbEntity
  8
0
  6
Continuous
 62
     7
370
    25
100
AcDbLine
 10
6485.4682762153
 20
5291.8994545927
 30
0.0
 11
6473.8857279608
 21
5291.8994545927
 31
0.0
  0
LINE
  5
26F
330
1F
100
AcDbEntity
  8
0
  6
Continuous
 62
     7
370
    25
100
AcDbLine
 10
6480.5730283124
 20
5289.1894545927
 30
0.0
 11
6480.5730283124
 21
5289.1994545927
 31
0.0
  0
LINE
  5
270
330
1F
100
AcDbEntity
  8
0
  6
Continuous
 62
     7
370
    25
100
AcDbLine
 10
6480.6512520691
 20
5289.1994545927
 30
0.0
 11
6480.6512520691
 21
5289.1894545927
 31
0.0
  0
LINE
  5
271
330
1F
100
AcDbEntity
  8
0
  6
Continuous
 62
     7
370
    25
100
AcDbLine
 10
6478.0987528
 20
5289.1894545927
 30
0.0
 11
6478.0987528
 21
5289.1994545927
 31
0.0
  0
LINE
  5
272
330
1F
100
AcDbEntity
  8
0
  6
Continuous
 62
     7
370
    25
100
AcDbLine
 10
6478.1839186273
 20
5289.1994545927
 30
0.0
 11
6478.1839186273
 21
5289.1894545927
 31
0.0
  0
LINE
  5
273
330
1F
100
AcDbEntity
  8
0
  6
Continuous
 62
     7
370
    25
100
AcDbLine
 10
6482.2151385328
 20
5289.1894545927
 30
0.0
 11
6482.2151385328
 21
5289.1994545927
 31
0.0
  0
LINE
  5
274
330
1F
100
AcDbEntity
  8
0
  6
Continuous
 62
     7
370
    25
100
AcDbLine
 10
6477.1214138979
 20
5289.1894545927
 30
0.0
 11
6477.1214138979
 21
5289.1994545927
 31
0.0
  0
LINE
  5
275
330
1F
100
AcDbEntity
  8
0
  6
Continuous
 62
     7
370
    25
100
AcDbLine
 10
6482.8042630446
 20
5289.1994545927
 30
0.0
 11
6482.8042630446
 21
5289.1894545927
 31
0.0
  0
LINE
  5
276
330
1F
100
AcDbEntity
  8
0
  6
Continuous
 62
     7
370
    25
100
AcDbLine
 10
6479.4548627751
 20
5289.1894545927
 30
0.0
 11
6479.4548627751
 21
5289.1994545927
 31
0.0
  0
LINE
  5
277
330
1F
100
AcDbEntity
  8
0
  6
Continuous
 62
     7
370
    25
100
AcDbLine
 10
6481.8727856173
 20
5289.1894545927
 30
0.0
 11
6481.8727856173
 21
5289.1994545927
 31
0.0
  0
LINE
  5
278
330
1F
100
AcDbEntity
  8
0
  6
Continuous
 62
     7
370
    25
100
AcDbLine
 10
6479.9599134123
 20
5289.1994545927
 30
0.0
 11
6479.9599134123
 21
5289.1894545927
 31
0.0
  0
LINE
  5
279
330
1F
100
AcDbEntity
  8
0
  6
Continuous
 62
     7
370
    25
100
AcDbLine
 10
6482.2921364522
 20
5289.1994545927
 30
0.0
 11
6482.2921364522
 21
5289.1894545927
 31
0.0
  0
LINE
  5
27A
330
1F
100
AcDbEntity
  8
0
  6
Continuous
 62
     7
370
    25
100
AcDbLine
 10
6477.5489326407
 20
5289.1994545927
 30
0.0
 11
6477.5489326407
 21
5289.1894545927
 31
0.0
  0
LINE
  5
27B
330
1F
100
AcDbEntity
  8
0
  6
Continuous
 62
     7
370
    25
100
AcDbLine
 10
6482.7272651252
 20
5289.1894545927
 30
0.0
 11
6482.7272651252
 21
5289.1994545927
 31
0.0
  0
LINE
  5
27C
330
1F
100
AcDbEntity
  8
0
  6
Continuous
 62
     7
370
    25
100
AcDbLine
 10
6477.4637668134
 20
5289.1894545927
 30
0.0
 11
6477.4637668134
 21
5289.1994545927
 31
0.0
  0
LINE
  5
27D
330
1F
100
AcDbEntity
  8
0
  6
Continuous
 62
     7
370
    25
100
AcDbLine
 10
6479.8816896556
 20
5289.1894545927
 30
0.0
 11
6479.8816896556
 21
5289.1994545927
 31
0.0
  0
LINE
  5
27E
330
1F
100
AcDbEntity
  8
0
  6
Continuous
 62
     7
370
    25
100
AcDbLine
 10
6483.3947721423
 20
5125.1994545927
 30
0.0
 11
6481.1280724323
 21
5125.1994545927
 31
0.0
  0
LINE
  5
27F
330
1F
100
AcDbEntity
  8
0
  6
Continuous
 62
     7
370
    25
100
AcDbLine
 10
6481.1280724323
 20
5136.1994545927
 30
0.0
 11
6481.1280724323
 21
5125.1994545927
 31
0.0
  0
ARC
  5
280
330
1F
100
AcDbEntity
  8
0
  6
Continuous
 62
     7
370
    25
100
AcDbCircle
 10
6486.9583215658
 20
5119.7037941053
 30
0.0
 40
17.495674318904
100
AcDbArc
 50
89.927954412
 51
109.4655161726
  0
LWPOLYLINE
  5
281
330
1F
100
AcDbEntity
  8
0
  6
Continuous
 62
     7
370
    25
100
AcDbPolyline
 90
        3
 70
   128
 43
0.0
 10
6492.8325699545
 20
5136.1994545927
 10
6489.9762739192
 20
5136.9461696365
 10
6486.9803211934
 20
5137.1994545927
  0
LINE
  5
282
330
1F
100
AcDbEntity
  8
0
  6
Continuous
 62
     7
370
    25
100
AcDbLine
 10
6492.8325699545
 20
5125.1994545927
 30
0.0
 11
6492.8325699545
 21
5136.1994545927
 31
0.0
  0
LINE
  5
283
330
1F
100
AcDbEntity
  8
0
  6
Continuous
 62
     7
370
    25
100
AcDbLine
 10
6492.8325699545
 20
5125.1994545927
 30
0.0
 11
6490.5658702445
 21
5125.1994545927
 31
0.0
  0
LINE
  5
284
330
1F
100
AcDbEntity
  8
0
  6
Continuous
 62
     7
370
    25
100
AcDbLine
 10
6490.5658702445
 20
5125.1994545927
 30
0.0
 11
6490.5658702445
 21
5125.6520637361
 31
0.0
  0
ARC
  5
285
330
1F
100
AcDbEntity
  8
0
  6
Continuous
 62
     7
370
    25
100
AcDbCircle
 10
6486.4655495825
 20
5147.8309408068
 30
0.0
 40
22.55471608439836
100
AcDbArc
 50
262.1749968468
 51
280.4742949309
  0
LINE
  5
286
330
1F
100
AcDbEntity
  8
0
  6
Continuous
 62
     7
370
    25
100
AcDbLine
 10
6483.3947721424
 20
5125.4862424745
 30
0.0
 11
6483.3947721424
 21
5125.1994545927
 31
0.0
  0
LWPOLYLINE
  5
287
330
1F
100
AcDbEntity
  8
0
  6
Continuous
 62
     7
370
    25
100
AcDbPolyline
 90
        3
 70
   128
 43
0.0
 10
6476.529644939
 20
5136.1994545927
 10
6473.8305607654
 20
5136.9461696365
 10
6470.9995066705
 20
5137.1994545927
  0
LINE
  5
288
330
1F
100
AcDbEntity
  8
0
  6
Continuous
 62
     7
370
    25
100
AcDbLine
 10
6476.529644939
 20
5136.1994545927
 30
0.0
 11
6481.1280724323
 21
5136.1994545927
 31
0.0
  0
LINE
  5
289
330
1F
100
AcDbEntity
  8
0
  6
Continuous
 62
     7
370
    25
100
AcDbLine
 10
6476.529644939
 20
5125.1994545927
 30
0.0
 11
6476.529644939
 21
5136.1994545927
 31
0.0
  0
LINE
  5
28A
330
1F
100
AcDbEntity
  8
0
  6
Continuous
 62
     7
370
    25
100
AcDbLine
 10
6481.1280724323
 20
5125.1994545927
 30
0.0
 11
6476.529644939
 21
5125.1994545927
 31
0.0
  0
LWPOLYLINE
  5
28B
330
1F
100
AcDbEntity
  8
0
  6
Continuous
 62
     7
370
    25
100
AcDbPolyline
 90
        5
 70
   128
 43
0.0
 10
6495.4517404515
 20
5117.636615406
 10
6495.585554616
 20
5117.9509355201
 10
6495.7120519784
 20
5118.006610063
 10
6495.8393503962
 20
5117.821208158
 10
6495.8464410249
 20
5117.8039604461
  0
ARC
  5
28C
330
1F
100
AcDbEntity
  8
0
  6
Continuous
 62
     7
370
    25
100
AcDbCircle
 10
6487.313114168
 20
5266.6493510053
 30
0.0
 40
149.2348237127609
100
AcDbArc
 50
271.2489307124
 51
273.1262166584
  0
ARC
  5
28D
330
1F
100
AcDbEntity
  8
0
  6
Continuous
 62
     7
370
    25
100
AcDbCircle
 10
6487.4937924874
 20
5095.1615155166
 30
0.0
 40
22.49918507376409
100
AcDbArc
 50
82.1522196136
 51
100.4970721642
  0
LWPOLYLINE
  5
28E
330
1F
100
AcDbEntity
  8
0
  6
Continuous
 62
     7
370
    25
100
AcDbPolyline
 90
        7
 70
   128
 43
0.0
 10
6474.3877054348
 20
5117.0980833718
 10
6476.107658868
 20
5117.1349468146
 10
6477.6071706929
 20
5117.1659594437
 10
6478.860492631
 20
5117.1911212594
 10
6480.1185108282
 20
5117.216283075
 10
6481.6362150418
 20
5117.2472957042
 10
6483.3947721423
 20
5117.2841591469
  0
ARC
  5
28F
330
1F
100
AcDbEntity
  8
0
  6
Continuous
 62
     7
370
    25
100
AcDbCircle
 10
6471.4869766477
 20
5097.0943838297
 30
0.0
 40
20.2129221753567
100
AcDbArc
 50
81.7490731666
 51
101.0544703703
  0
LINE
  5
290
330
1F
100
AcDbEntity
  8
0
  6
Continuous
 62
     7
370
    25
100
AcDbLine
 10
6466.5814118413
 20
5116.8994545927
 30
0.0
 11
6467.6113079061
 21
5116.9322621103
 31
0.0
  0
ARC
  5
291
330
1F
100
AcDbEntity
  8
0
  6
Continuous
 62
     7
370
    25
100
AcDbCircle
 10
6467.6212140671
 20
5040.186541644
 30
0.0
 40
76.71995960466877
100
AcDbArc
 50
90.7765658825
 51
93.0703700221
  0
LINE
  5
292
330
1F
100
AcDbEntity
  8
0
  6
Continuous
 62
     7
370
    25
100
AcDbLine
 10
6463.6198346326
 20
5116.9361119572
 30
0.0
 11
6463.5119072262
 21
5116.7963699889
 31
0.0
  0
LWPOLYLINE
  5
293
330
1F
100
AcDbEntity
  8
0
  6
Continuous
 62
     7
370
    25
100
AcDbPolyline
 90
       11
 70
   128
 43
0.0
 10
6479.7513307707
 20
5115.7537751573
 10
6482.5015949521
 20
5115.7921822968
 10
6484.9786005436
 20
5115.8282365309
 10
6487.3149205801
 20
5115.8636945455
 10
6489.5046566295
 20
5115.899326172
 10
6491.3709820919
 20
5115.9349565388
 10
6492.961503039
 20
5115.9717647874
 10
6494.1502566576
 20
5116.0069083607
 10
6494.9615867566
 20
5116.0427071639
 10
6495.330547248
 20
5116.0785143653
 10
6495.3141591425
 20
5116.088502448
  0
LWPOLYLINE
  5
294
330
1F
100
AcDbEntity
  8
0
  6
Continuous
 62
     7
370
    25
100
AcDbPolyline
 90
       10
 70
   128
 43
0.0
 10
6479.7513307707
 20
5115.7537751573
 10
6483.0873211112
 20
5115.8278369637
 10
6485.8732545073
 20
5115.8932083942
 10
6488.3993793839
 20
5115.9559226008
 10
6490.6255325363
 20
5116.0196170519
 10
6492.4733232494
 20
5116.0851370156
 10
6493.8425403795
 20
5116.1489422373
 10
6494.6983860657
 20
5116.2115681664
 10
6495.020995802
 20
5116.276904986
 10
6495.0017965451
 20
5116.2821559862
  0
LWPOLYLINE
  5
295
330
1F
100
AcDbEntity
  8
0
  6
Continuous
 62
     7
370
    25
100
AcDbPolyline
 90
       18
 70
   128
 43
0.0
 10
6464.4224870211
 20
5117.3745387631
 10
6464.8568358792
 20
5117.4297438
 10
6465.8831426199
 20
5117.492958907
 10
6467.4227813006
 20
5117.5584421567
 10
6469.3962544348
 20
5117.6226597768
 10
6471.7164280143
 20
5117.6850113646
 10
6474.3581758386
 20
5117.7501724663
 10
6477.0348885317
 20
5117.8116881273
 10
6479.7513307707
 20
5117.870441824
 10
6483.0873211112
 20
5117.9445036304
 10
6485.8732545073
 20
5118.0098750609
 10
6488.3993793839
 20
5118.0725892675
 10
6490.6255325363
 20
5118.1362837185
 10
6492.4733232494
 20
5118.2018036822
 10
6493.8425403795
 20
5118.2656089039
 10
6494.6983860657
 20
5118.3282348331
 10
6495.020995802
 20
5118.3935716526
 10
6495.0017045287
 20
5118.3988478193
  0
LWPOLYLINE
  5
296
330
1F
100
AcDbEntity
  8
0
  6
Continuous
 62
     7
370
    25
100
AcDbPolyline
 90
       18
 70
   128
 43
0.0
 10
6464.4226753927
 20
5119.4912293715
 10
6464.8568358792
 20
5119.5464104666
 10
6465.8831426199
 20
5119.6096255737
 10
6467.4227813006
 20
5119.6751088234
 10
6469.3962544348
 20
5119.7393264435
 10
6471.7164280143
 20
5119.8016780313
 10
6474.3581758386
 20
5119.866839133
 10
6477.0348885317
 20
5119.928354794
 10
6479.7513307707
 20
5119.9871084906
 10
6483.0873211112
 20
5120.0611702971
 10
6485.8732545073
 20
5120.1265417276
 10
6488.3993793839
 20
5120.1892559342
 10
6490.6255325363
 20
5120.2529503852
 10
6492.4733232494
 20
5120.3184703489
 10
6493.8425403795
 20
5120.3822755706
 10
6494.6983860657
 20
5120.4449014997
 10
6495.020995802
 20
5120.5102383193
 10
6495.0016125892
 20
5120.5155396315
  0
LWPOLYLINE
  5
297
330
1F
100
AcDbEntity
  8
0
  6
Continuous
 62
     7
370
    25
100
AcDbPolyline
 90
       18
 70
   128
 43
0.0
 10
6464.4228635532
 20
5121.6079199531
 10
6464.8568358792
 20
5121.6630771333
 10
6465.8831426199
 20
5121.7262922403
 10
6467.4227813006
 20
5121.7917754901
 10
6469.3962544348
 20
5121.8559931102
 10
6471.7164280143
 20
5121.9183446979
 10
6474.3581758386
 20
5121.9835057997
 10
6477.0348885317
 20
5122.0450214606
 10
6479.7513307707
 20
5122.1037751573
 10
6483.0873211112
 20
5122.1778369637
 10
6485.8732545073
 20
5122.2432083942
 10
6488.3993793839
 20
5122.3059226008
 10
6490.6255325363
 20
5122.3696170519
 10
6492.4733232494
 20
5122.4351370156
 10
6493.8425403795
 20
5122.4989422373
 10
6494.6983860657
 20
5122.5615681664
 10
6495.020995802
 20
5122.626904986
 10
6495.0015207267
 20
5122.6322314226
  0
LWPOLYLINE
  5
298
330
1F
100
AcDbEntity
  8
0
  6
Continuous
 62
     7
370
    25
100
AcDbPolyline
 90
       18
 70
   128
 43
0.0
 10
6464.4230515032
 20
5123.7246105079
 10
6464.8568358792
 20
5123.7797438
 10
6465.8831426199
 20
5123.842958907
 10
6467.4227813006
 20
5123.9084421567
 10
6469.3962544348
 20
5123.9726597768
 10
6471.7164280143
 20
5124.0350113646
 10
6474.3581758386
 20
5124.1001724663
 10
6477.0348885317
 20
5124.1616881273
 10
6479.7513307707
 20
5124.220441824
 10
6483.0873211112
 20
5124.2945036304
 10
6485.8732545073
 20
5124.3598750609
 10
6488.3993793839
 20
5124.4225892675
 10
6490.6255325363
 20
5124.4862837185
 10
6492.4733232494
 20
5124.5518036822
 10
6493.8425403795
 20
5124.6156089039
 10
6494.6983860657
 20
5124.6782348331
 10
6495.020995802
 20
5124.7435716526
 10
6495.0014289417
 20
5124.7489231924
  0
LWPOLYLINE
  5
299
330
1F
100
AcDbEntity
  8
0
  6
Continuous
 62
     7
370
    25
100
AcDbPolyline
 90
        5
 70
   128
 43
0.0
 10
6495.4517404515
 20
5123.986615406
 10
6495.585554616
 20
5124.3009355201
 10
6495.7120519784
 20
5124.356610063
 10
6495.8393503962
 20
5124.171208158
 10
6495.8464410249
 20
5124.1539604461
  0
ARC
  5
29A
330
1F
100
AcDbEntity
  8
0
  6
Continuous
 62
     7
370
    25
100
AcDbCircle
 10
6487.3131141679
 20
5272.9993510077
 30
0.0
 40
149.2348237151361
100
AcDbArc
 50
271.2489307124
 51
273.1262166584
  0
ARC
  5
29B
330
1F
100
AcDbEntity
  8
0
  6
Continuous
 62
     7
370
    25
100
AcDbCircle
 10
6487.4937924874
 20
5101.511515517
 30
0.0
 40
22.4991850733721
100
AcDbArc
 50
82.1522196134
 51
100.4970721643
  0
LWPOLYLINE
  5
29C
330
1F
100
AcDbEntity
  8
0
  6
Continuous
 62
     7
370
    25
100
AcDbPolyline
 90
        7
 70
   128
 43
0.0
 10
6474.3877054348
 20
5123.4480833718
 10
6476.1076588637
 20
5123.4849468145
 10
6477.6071706885
 20
5123.5159594437
 10
6478.860492631
 20
5123.5411212594
 10
6480.1185108327
 20
5123.5662830751
 10
6481.6362150462
 20
5123.5972957043
 10
6483.3947721423
 20
5123.6341591469
  0
ARC
  5
29D
330
1F
100
AcDbEntity
  8
0
  6
Continuous
 62
     7
370
    25
100
AcDbCircle
 10
6471.4869766477
 20
5103.4443838295
 30
0.0
 40
20.21292217563069
100
AcDbArc
 50
81.7490731668
 51
101.0544703702
  0
ARC
  5
29E
330
1F
100
AcDbEntity
  8
0
  6
Continuous
 62
     7
370
    25
100
AcDbCircle
 10
6468.4800610334
 20
5058.5042241243
 30
0.0
 40
64.78386324775157
100
AcDbArc
 50
90.7683607786
 51
94.4175585857
  0
LWPOLYLINE
  5
29F
330
1F
100
AcDbEntity
  8
0
  6
Continuous
 62
     7
370
    25
100
AcDbPolyline
 90
        3
 70
   128
 43
0.0
 10
6463.6190907838
 20
5123.2903978979
 10
6463.4972020344
 20
5123.1128748246
 10
6463.4901114057
 20
5123.0956271128
  0
LWPOLYLINE
  5
2A0
330
1F
100
AcDbEntity
  8
0
  6
Continuous
 62
     7
370
    25
100
AcDbPolyline
 90
        5
 70
   128
 43
0.0
 10
6495.4517404515
 20
5121.8699487393
 10
6495.585554616
 20
5122.1842688534
 10
6495.7120519784
 20
5122.2399433964
 10
6495.8393503962
 20
5122.0545414913
 10
6495.8464410249
 20
5122.0372937794
  0
ARC
  5
2A1
330
1F
100
AcDbEntity
  8
0
  6
Continuous
 62
     7
370
    25
100
AcDbCircle
 10
6487.3131141679
 20
5270.8826843402
 30
0.0
 40
149.2348237142494
100
AcDbArc
 50
271.2489307124
 51
273.1262166584
  0
ARC
  5
2A2
330
1F
100
AcDbEntity
  8
0
  6
Continuous
 62
     7
370
    25
100
AcDbCircle
 10
6487.4937924874
 20
5099.3948488502
 30
0.0
 40
22.49918507351791
100
AcDbArc
 50
82.1522196135
 51
100.4970721643
  0
LWPOLYLINE
  5
2A3
330
1F
100
AcDbEntity
  8
0
  6
Continuous
 62
     7
370
    25
100
AcDbPolyline
 90
        7
 70
   128
 43
0.0
 10
6474.3877054348
 20
5121.3314167052
 10
6476.1076588637
 20
5121.3682801478
 10
6477.6071706885
 20
5121.399292777
 10
6478.860492631
 20
5121.4244545927
 10
6480.1185108327
 20
5121.4496164085
 10
6481.6362150462
 20
5121.4806290376
 10
6483.3947721423
 20
5121.5174924803
  0
ARC
  5
2A4
330
1F
100
AcDbEntity
  8
0
  6
Continuous
 62
     7
370
    25
100
AcDbCircle
 10
6471.4869766477
 20
5101.3277171631
 30
0.0
 40
20.21292217532841
100
AcDbArc
 50
81.7490731666
 51
101.0544703703
  0
ARC
  5
2A5
330
1F
100
AcDbEntity
  8
0
  6
Continuous
 62
     7
370
    25
100
AcDbCircle
 10
6468.4800610323
 20
5056.3875574813
 30
0.0
 40
64.78386322409351
100
AcDbArc
 50
90.768360778
 51
94.4175585864
  0
LWPOLYLINE
  5
2A6
330
1F
100
AcDbEntity
  8
0
  6
Continuous
 62
     7
370
    25
100
AcDbPolyline
 90
        3
 70
   128
 43
0.0
 10
6463.6193362835
 20
5121.1740887856
 10
6463.4972020344
 20
5120.996208158
 10
6463.4901114057
 20
5120.9789604461
  0
LWPOLYLINE
  5
2A7
330
1F
100
AcDbEntity
  8
0
  6
Continuous
 62
     7
370
    25
100
AcDbPolyline
 90
        5
 70
   128
 43
0.0
 10
6495.4517404515
 20
5119.7532820727
 10
6495.585554616
 20
5120.0676021868
 10
6495.7120519784
 20
5120.1232767297
 10
6495.8393503962
 20
5119.9378748246
 10
6495.8464410249
 20
5119.9206271128
  0
ARC
  5
2A8
330
1F
100
AcDbEntity
  8
0
  6
Continuous
 62
     7
370
    25
100
AcDbCircle
 10
6487.3131141681
 20
5268.7660176696
 30
0.0
 40
149.2348237103357
100
AcDbArc
 50
271.2489307124
 51
273.1262166584
  0
ARC
  5
2A9
330
1F
100
AcDbEntity
  8
0
  6
Continuous
 62
     7
370
    25
100
AcDbCircle
 10
6487.4937924874
 20
5097.2781821833
 30
0.0
 40
22.49918507376151
100
AcDbArc
 50
82.1522196136
 51
100.4970721642
  0
LWPOLYLINE
  5
2AA
330
1F
100
AcDbEntity
  8
0
  6
Continuous
 62
     7
370
    25
100
AcDbPolyline
 90
        7
 70
   128
 43
0.0
 10
6474.3877054348
 20
5119.2147500385
 10
6476.1076588637
 20
5119.2516134811
 10
6477.6071706885
 20
5119.2826261103
 10
6478.860492631
 20
5119.3077879261
 10
6480.1185108327
 20
5119.3329497418
 10
6481.6362150462
 20
5119.363962371
 10
6483.3947721423
 20
5119.4008258136
  0
ARC
  5
2AB
330
1F
100
AcDbEntity
  8
0
  6
Continuous
 62
     7
370
    25
100
AcDbCircle
 10
6471.4869766477
 20
5099.2110504964
 30
0.0
 40
20.2129221753567
100
AcDbArc
 50
81.7490731666
 51
101.0544703703
  0
ARC
  5
2AC
330
1F
100
AcDbEntity
  8
0
  6
Continuous
 62
     7
370
    25
100
AcDbCircle
 10
6468.4800610323
 20
5054.2708908152
 30
0.0
 40
64.78386322352223
100
AcDbArc
 50
90.768360778
 51
94.4175585865
  0
LWPOLYLINE
  5
2AD
330
1F
100
AcDbEntity
  8
0
  6
Continuous
 62
     7
370
    25
100
AcDbPolyline
 90
        3
 70
   128
 43
0.0
 10
6463.6195823877
 20
5119.0577805538
 10
6463.4972020344
 20
5118.8795414913
 10
6463.4901114057
 20
5118.8622937794
  0
LINE
  5
2AE
330
1F
100
AcDbEntity
  8
0
  6
Continuous
 62
     7
370
    25
100
AcDbLine
 10
6463.4901114057
 20
5118.5977104403
 30
0.0
 11
6463.5821660821
 21
5118.3814804432
 31
0.0
  0
ARC
  5
2AF
330
1F
100
AcDbEntity
  8
0
  6
Continuous
 62
     7
370
    25
100
AcDbCircle
 10
6468.4800610328
 20
5054.006307466
 30
0.0
 40
64.78386323365744
100
AcDbArc
 50
90.7683607783
 51
94.4175585862
  0
ARC
  5
2B0
330
1F
100
AcDbEntity
  8
0
  6
Continuous
 62
     7
370
    25
100
AcDbCircle
 10
6470.5145707806
 20
5138.6844877953
 30
0.0
 40
20.11080806847237
100
AcDbArc
 50
261.6995882145
 51
281.1039553224
  0
LWPOLYLINE
  5
2B1
330
1F
100
AcDbEntity
  8
0
  6
Continuous
 62
     7
370
    25
100
AcDbPolyline
 90
        7
 70
   128
 43
0.0
 10
6474.3877054348
 20
5118.9501666994
 10
6476.107658868
 20
5118.9870301421
 10
6477.6071706929
 20
5119.0180427713
 10
6478.860492631
 20
5119.0432045869
 10
6480.1185108282
 20
5119.0683664026
 10
6481.6362150418
 20
5119.0993790318
 10
6483.3947721423
 20
5119.1362424745
  0
ARC
  5
2B2
330
1F
100
AcDbEntity
  8
0
  6
Continuous
 62
     7
370
    25
100
AcDbCircle
 10
6486.4641700528
 20
5141.540599884
 30
0.0
 40
22.61363381824548
100
AcDbArc
 50
262.1990393277
 51
280.4502524501
  0
ARC
  5
2B3
330
1F
100
AcDbEntity
  8
0
  6
Continuous
 62
     7
370
    25
100
AcDbCircle
 10
6487.3131141681
 20
5268.5014343305
 30
0.0
 40
149.2348237103845
100
AcDbArc
 50
271.2489307124
 51
273.1262166584
  0
LWPOLYLINE
  5
2B4
330
1F
100
AcDbEntity
  8
0
  6
Continuous
 62
     7
370
    25
100
AcDbPolyline
 90
        5
 70
   128
 43
0.0
 10
6495.8464410249
 20
5119.6560437737
 10
6495.7126268605
 20
5119.3417236596
 10
6495.5861294981
 20
5119.2860491166
 10
6495.4588310803
 20
5119.4714510217
 10
6495.4517404515
 20
5119.4886987336
  0
LINE
  5
2B5
330
1F
100
AcDbEntity
  8
0
  6
Continuous
 62
     7
370
    25
100
AcDbLine
 10
6463.4901114057
 20
5120.714377107
 30
0.0
 11
6463.5819711011
 21
5120.4986051066
 31
0.0
  0
ARC
  5
2B6
330
1F
100
AcDbEntity
  8
0
  6
Continuous
 62
     7
370
    25
100
AcDbCircle
 10
6468.4800610327
 20
5056.1229741334
 30
0.0
 40
64.78386323291744
100
AcDbArc
 50
90.7683607782
 51
94.4175585862
  0
ARC
  5
2B7
330
1F
100
AcDbEntity
  8
0
  6
Continuous
 62
     7
370
    25
100
AcDbCircle
 10
6470.5145707806
 20
5140.8011544623
 30
0.0
 40
20.11080806876418
100
AcDbArc
 50
261.6995882147
 51
281.1039553223
  0
LWPOLYLINE
  5
2B8
330
1F
100
AcDbEntity
  8
0
  6
Continuous
 62
     7
370
    25
100
AcDbPolyline
 90
        7
 70
   128
 43
0.0
 10
6474.3877054348
 20
5121.0668333661
 10
6476.1076588593
 20
5121.1036968086
 10
6477.6071706841
 20
5121.1347094378
 10
6478.860492631
 20
5121.1598712536
 10
6480.1185108371
 20
5121.1850330694
 10
6481.6362150506
 20
5121.2160456986
 10
6483.3947721423
 20
5121.2529091412
  0
ARC
  5
2B9
330
1F
100
AcDbEntity
  8
0
  6
Continuous
 62
     7
370
    25
100
AcDbCircle
 10
6486.4641700528
 20
5143.6572665506
 30
0.0
 40
22.61363381819953
100
AcDbArc
 50
262.1990393276
 51
280.4502524501
  0
ARC
  5
2BA
330
1F
100
AcDbEntity
  8
0
  6
Continuous
 62
     7
370
    25
100
AcDbCircle
 10
6487.3131141681
 20
5270.6181009947
 30
0.0
 40
149.2348237079575
100
AcDbArc
 50
271.2489307124
 51
273.1262166584
  0
LWPOLYLINE
  5
2BB
330
1F
100
AcDbEntity
  8
0
  6
Continuous
 62
     7
370
    25
100
AcDbPolyline
 90
        5
 70
   128
 43
0.0
 10
6495.8464410249
 20
5121.7727104403
 10
6495.7126268605
 20
5121.4583903262
 10
6495.5861294981
 20
5121.4027157833
 10
6495.4588310803
 20
5121.5881176884
 10
6495.4517404515
 20
5121.6053654002
  0
LINE
  5
2BC
330
1F
100
AcDbEntity
  8
0
  6
Continuous
 62
     7
370
    25
100
AcDbLine
 10
6463.4901114057
 20
5122.8310437737
 30
0.0
 11
6463.5817767627
 21
5122.6157282605
 31
0.0
  0
ARC
  5
2BD
330
1F
100
AcDbEntity
  8
0
  6
Continuous
 62
     7
370
    25
100
AcDbCircle
 10
6468.4800610324
 20
5058.2396408078
 30
0.0
 40
64.78386322511176
100
AcDbArc
 50
90.768360778
 51
94.4175585864
  0
ARC
  5
2BE
330
1F
100
AcDbEntity
  8
0
  6
Continuous
 62
     7
370
    25
100
AcDbCircle
 10
6470.5145707806
 20
5142.9178211289
 30
0.0
 40
20.11080806876508
100
AcDbArc
 50
261.6995882147
 51
281.1039553223
  0
LWPOLYLINE
  5
2BF
330
1F
100
AcDbEntity
  8
0
  6
Continuous
 62
     7
370
    25
100
AcDbPolyline
 90
        7
 70
   128
 43
0.0
 10
6474.3877054348
 20
5123.1835000327
 10
6476.1076588637
 20
5123.2203634754
 10
6477.6071706885
 20
5123.2513761045
 10
6478.860492631
 20
5123.2765379203
 10
6480.1185108327
 20
5123.301699736
 10
6481.6362150462
 20
5123.3327123652
 10
6483.3947721423
 20
5123.3695758078
  0
ARC
  5
2C0
330
1F
100
AcDbEntity
  8
0
  6
Continuous
 62
     7
370
    25
100
AcDbCircle
 10
6486.4641700528
 20
5145.7739332174
 30
0.0
 40
22.61363381832736
100
AcDbArc
 50
262.1990393277
 51
280.45025245
  0
ARC
  5
2C1
330
1F
100
AcDbEntity
  8
0
  6
Continuous
 62
     7
370
    25
100
AcDbCircle
 10
6487.3131141681
 20
5272.7347676623
 30
0.0
 40
149.2348237088468
100
AcDbArc
 50
271.2489307124
 51
273.1262166584
  0
LWPOLYLINE
  5
2C2
330
1F
100
AcDbEntity
  8
0
  6
Continuous
 62
     7
370
    25
100
AcDbPolyline
 90
        5
 70
   128
 43
0.0
 10
6495.8464410249
 20
5123.889377107
 10
6495.7126268605
 20
5123.5750569929
 10
6495.5861294981
 20
5123.5193824499
 10
6495.4588310803
 20
5123.704784355
 10
6495.4517404515
 20
5123.7220320669
  0
LINE
  5
2C3
330
1F
100
AcDbEntity
  8
0
  6
Continuous
 62
     7
370
    25
100
AcDbLine
 10
6463.4901114057
 20
5124.9477104403
 30
0.0
 11
6463.5815830658
 21
5124.7328499075
 31
0.0
  0
ARC
  5
2C4
330
1F
100
AcDbEntity
  8
0
  6
Continuous
 62
     7
370
    25
100
AcDbCircle
 10
6468.4800610268
 20
5060.3563075978
 30
0.0
 40
64.78386310176133
100
AcDbArc
 50
90.7683607745
 51
94.4175585899
  0
ARC
  5
2C5
330
1F
100
AcDbEntity
  8
0
  6
Continuous
 62
     7
370
    25
100
AcDbCircle
 10
6470.516610525
 20
5144.9511322663
 30
0.0
 40
20.02862510295315
100
AcDbArc
 50
261.6593901374
 51
281.1441533995
  0
LWPOLYLINE
  5
2C6
330
1F
100
AcDbEntity
  8
0
  6
Continuous
 62
     7
370
    25
100
AcDbPolyline
 90
        4
 70
   128
 43
0.0
 10
6495.8464410249
 20
5126.0060437737
 10
6495.7126268605
 20
5125.6917236596
 10
6495.5826065374
 20
5125.6379456579
 10
6495.4517404515
 20
5125.8386987336
  0
LWPOLYLINE
  5
2C7
330
1F
100
AcDbEntity
  8
0
  6
Continuous
 62
     7
370
    25
100
AcDbPolyline
 90
       18
 70
   128
 43
0.0
 10
6464.3140343868
 20
5115.7537751573
 10
6464.369473397
 20
5115.7816822222
 10
6464.8874996868
 20
5115.8446827441
 10
6465.9351312398
 20
5115.9080530976
 10
6467.4939670972
 20
5115.9735541157
 10
6469.4824260295
 20
5116.0376488893
 10
6471.8164314703
 20
5116.1000720911
 10
6474.4686290043
 20
5116.165294256
 10
6477.3056731162
 20
5116.2301879676
 10
6480.1877905644
 20
5116.2923869982
 10
6483.0873207021
 20
5116.357003621
 10
6485.873254118
 20
5116.4223750515
 10
6488.3993790324
 20
5116.4850892584
 10
6490.6255322257
 20
5116.5487837087
 10
6492.4733230001
 20
5116.6143036722
 10
6493.8425402058
 20
5116.6781088943
 10
6494.6983859704
 20
5116.7407348228
 10
6494.9854119224
 20
5116.798864989
  0
LWPOLYLINE
  5
2C8
330
1F
100
AcDbEntity
  8
0
  6
Continuous
 62
     7
370
    25
100
AcDbPolyline
 90
       17
 70
   128
 43
0.0
 10
6464.4134700452
 20
5117.9036996053
 10
6464.8874996868
 20
5117.9613494108
 10
6465.9351312398
 20
5118.0247197643
 10
6467.4939670972
 20
5118.0902207823
 10
6469.4824260295
 20
5118.154315556
 10
6471.8164314703
 20
5118.2167387577
 10
6474.4686290043
 20
5118.2819609227
 10
6477.3056731162
 20
5118.3468546343
 10
6480.1877905644
 20
5118.4090536648
 10
6483.0873207021
 20
5118.4736702877
 10
6485.873254118
 20
5118.5390417182
 10
6488.3993790324
 20
5118.601755925
 10
6490.6255322257
 20
5118.6654503754
 10
6492.4733230001
 20
5118.7309703389
 10
6493.8425402058
 20
5118.7947755609
 10
6494.6983859704
 20
5118.8574014894
 10
6494.9854521184
 20
5118.9155397964
  0
LWPOLYLINE
  5
2C9
330
1F
100
AcDbEntity
  8
0
  6
Continuous
 62
     7
370
    25
100
AcDbPolyline
 90
       17
 70
   128
 43
0.0
 10
6464.4134701471
 20
5120.0203662844
 10
6464.8874996868
 20
5120.0780160775
 10
6465.9351312398
 20
5120.1413864309
 10
6467.4939670972
 20
5120.206887449
 10
6469.4824260295
 20
5120.2709822226
 10
6471.8164314703
 20
5120.3334054244
 10
6474.4686290043
 20
5120.3986275894
 10
6477.3056731162
 20
5120.4635213009
 10
6480.1877905644
 20
5120.5257203315
 10
6483.0873207021
 20
5120.5903369544
 10
6485.873254118
 20
5120.6557083848
 10
6488.3993790324
 20
5120.7184225917
 10
6490.6255322257
 20
5120.782117042
 10
6492.4733230001
 20
5120.8476370055
 10
6493.8425402058
 20
5120.9114422276
 10
6494.6983859704
 20
5120.9740681561
 10
6494.9854923725
 20
5121.0322146156
  0
LWPOLYLINE
  5
2CA
330
1F
100
AcDbEntity
  8
0
  6
Continuous
 62
     7
370
    25
100
AcDbPolyline
 90
       17
 70
   128
 43
0.0
 10
6464.4138927798
 20
5122.1370843501
 10
6464.8874996868
 20
5122.1946827441
 10
6465.9351312398
 20
5122.2580530976
 10
6467.4939670972
 20
5122.3235541157
 10
6469.4824260295
 20
5122.3876488893
 10
6471.8164314703
 20
5122.4500720911
 10
6474.4686290043
 20
5122.515294256
 10
6477.3056731162
 20
5122.5801879676
 10
6480.1877905644
 20
5122.6423869982
 10
6483.0873207021
 20
5122.707003621
 10
6485.873254118
 20
5122.7723750515
 10
6488.3993790324
 20
5122.8350892584
 10
6490.6255322257
 20
5122.8987837087
 10
6492.4733230001
 20
5122.9643036722
 10
6493.8425402058
 20
5123.0281088943
 10
6494.6983859704
 20
5123.0907348228
 10
6494.9855326854
 20
5123.1488894466
  0
LWPOLYLINE
  5
2CB
330
1F
100
AcDbEntity
  8
0
  6
Continuous
 62
     7
370
    25
100
AcDbPolyline
 90
       16
 70
   128
 43
0.0
 10
6464.414094809
 20
5124.2537755869
 10
6464.8874996868
 20
5124.3113494108
 10
6465.9351312398
 20
5124.3747197643
 10
6467.4939670972
 20
5124.4402207823
 10
6469.4824260295
 20
5124.504315556
 10
6471.8164314703
 20
5124.5667387577
 10
6474.4686290043
 20
5124.6319609227
 10
6477.3056731162
 20
5124.6968546343
 10
6480.1877905644
 20
5124.7590536648
 10
6483.0873207021
 20
5124.8236702877
 10
6485.873254118
 20
5124.8890417182
 10
6488.3993790324
 20
5124.951755925
 10
6490.6255322257
 20
5125.0154503754
 10
6492.4733230001
 20
5125.0809703389
 10
6493.8425402058
 20
5125.1447755609
 10
6494.5897837019
 20
5125.1994545927
  0
LWPOLYLINE
  5
2CC
330
1F
100
AcDbEntity
  8
0
  6
Continuous
 62
     7
370
    25
100
AcDbPolyline
 90
        7
 70
   128
 43
0.0
 10
6469.728105779
 20
5116.4707995785
 10
6468.0503788065
 20
5116.3540300209
 10
6466.6171046961
 20
5116.2303867013
 10
6465.4299554213
 20
5116.0952435658
 10
6464.6536642839
 20
5115.9628062019
 10
6464.3504324412
 20
5115.8608468816
 10
6464.3140343868
 20
5115.7537751573
  0
LWPOLYLINE
  5
2CD
330
1F
100
AcDbEntity
  8
0
  6
Continuous
 62
     7
370
    25
100
AcDbPolyline
 90
        3
 70
   128
 43
0.0
 10
6473.6139520061
 20
5116.6990107036
 10
6472.0903569021
 20
5116.518481314
 10
6469.728105779
 20
5116.4707995785
  0
LWPOLYLINE
  5
2CE
330
1F
100
AcDbEntity
  8
0
  6
Continuous
 62
     7
370
    25
100
AcDbPolyline
 90
        3
 70
   128
 43
0.0
 10
6477.5109640883
 20
5116.8994545927
 10
6474.850899667
 20
5116.7652411726
 10
6473.6139520062
 20
5116.6990107036
  0
LWPOLYLINE
  5
2CF
330
1F
100
AcDbEntity
  8
0
  6
Continuous
 62
     7
370
    25
100
AcDbPolyline
 90
        4
 70
   128
 43
0.0
 10
6477.5109640883
 20
5116.8994545927
 10
6480.445561301
 20
5116.9582805173
 10
6481.4771660867
 20
5116.9793395843
 10
6483.3947721424
 20
5117.0195758078
  0
ARC
  5
2D0
330
1F
100
AcDbEntity
  8
0
  6
Continuous
 62
     7
370
    25
100
AcDbCircle
 10
6486.4641700528
 20
5139.4239332173
 30
0.0
 40
22.61363381824548
100
AcDbArc
 50
262.1990393277
 51
280.4502524501
  0
ARC
  5
2D1
330
1F
100
AcDbEntity
  8
0
  6
Continuous
 62
     7
370
    25
100
AcDbCircle
 10
6487.3131141679
 20
5266.3847676677
 30
0.0
 40
149.2348237142494
100
AcDbArc
 50
271.2489307124
 51
273.1262166584
  0
LWPOLYLINE
  5
2D2
330
1F
100
AcDbEntity
  8
0
  6
Continuous
 62
     7
370
    25
100
AcDbPolyline
 90
        5
 70
   128
 43
0.0
 10
6495.8464410249
 20
5117.539377107
 10
6495.7126268605
 20
5117.2250569929
 10
6495.5861294981
 20
5117.1693824499
 10
6495.4588310803
 20
5117.354784355
 10
6495.4517404515
 20
5117.3720320669
  0
LWPOLYLINE
  5
2D3
330
1F
100
AcDbEntity
  8
0
  6
Continuous
 62
     7
370
    25
100
AcDbPolyline
 90
        3
 70
   128
 43
0.0
 10
6463.6490740618
 20
5116.4412280503
 10
6463.5972617814
 20
5116.5051868442
 10
6463.5119072262
 20
5116.7963699889
  0
LINE
  5
2D4
330
1F
100
AcDbEntity
  8
0
  6
Continuous
 62
     7
370
    25
100
AcDbLine
 10
6466.5814118413
 20
5116.8994545927
 30
0.0
 11
6467.6113079061
 21
5116.8994545927
 31
0.0
  0
LINE
  5
2D5
330
1F
100
AcDbEntity
  8
0
  6
Continuous
 62
     7
370
    25
100
AcDbLine
 10
6467.6113079061
 20
5116.8994545927
 30
0.0
 11
6469.728105779
 21
5116.4707995785
 31
0.0
  0
LINE
  5
2D6
330
1F
100
AcDbEntity
  8
0
  6
Continuous
 62
     7
370
    25
100
AcDbLine
 10
6464.3140343868
 20
5115.7537751573
 30
0.0
 11
6479.7513307707
 21
5115.7537751573
 31
0.0
  0
LINE
  5
2D7
330
1F
100
AcDbEntity
  8
0
  6
Continuous
 62
     7
370
    25
100
AcDbLine
 10
6494.450529649
 20
5115.1994545927
 30
0.0
 11
6494.4682762153
 21
5115.1994545927
 31
0.0
  0
LINE
  5
2D8
330
1F
100
AcDbEntity
  8
0
  6
Continuous
 62
     7
370
    25
100
AcDbLine
 10
6464.8682762153
 20
5115.1994545927
 30
0.0
 11
6494.450529649
 21
5115.1994545927
 31
0.0
  0
LINE
  5
2D9
330
1F
100
AcDbEntity
  8
0
  6
Continuous
 62
     7
370
    25
100
AcDbLine
 10
6467.6113079061
 20
5125.1343454378
 30
0.0
 11
6467.6113079061
 21
5125.1994545927
 31
0.0
  0
LINE
  5
2DA
330
1F
100
AcDbEntity
  8
0
  6
Continuous
 62
     7
370
    25
100
AcDbLine
 10
6467.6113079061
 20
5125.1994545927
 30
0.0
 11
6465.4693684019
 21
5125.1994545927
 31
0.0
  0
LINE
  5
2DB
330
1F
100
AcDbEntity
  8
0
  6
Continuous
 62
     7
370
    25
100
AcDbLine
 10
6465.4693684019
 20
5136.1994545927
 30
0.0
 11
6465.4693684019
 21
5125.1994545927
 31
0.0
  0
ARC
  5
2DC
330
1F
100
AcDbEntity
  8
0
  6
Continuous
 62
     7
370
    25
100
AcDbCircle
 10
6470.9829322949
 20
5121.4998985466
 30
0.0
 40
15.69956479505871
100
AcDbArc
 50
89.9395115753
 51
110.5602495934
  0
LINE
  5
2DD
330
1F
100
AcDbEntity
  8
0
  6
Continuous
 62
     7
370
    25
100
AcDbLine
 10
6474.3877054348
 20
5125.1994545927
 30
0.0
 11
6474.3877054348
 21
5125.3001666994
 31
0.0
  0
LINE
  5
2DE
330
1F
100
AcDbEntity
  8
0
  6
Continuous
 62
     7
370
    25
100
AcDbLine
 10
6476.529644939
 20
5125.1994545927
 30
0.0
 11
6474.3877054348
 21
5125.1994545927
 31
0.0
  0
LINE
  5
2DF
330
1F
100
AcDbEntity
  8
0
  6
Continuous
 62
     7
370
    25
100
AcDbLine
 10
6483.3947721423
 20
5119.1362424745
 30
0.0
 11
6483.3947721423
 21
5119.4008258136
 31
0.0
  0
LINE
  5
2E0
330
1F
100
AcDbEntity
  8
0
  6
Continuous
 62
     7
370
    25
100
AcDbLine
 10
6474.3877054348
 20
5119.2147500385
 30
0.0
 11
6474.3877054348
 21
5118.9501666994
 31
0.0
  0
LINE
  5
2E1
330
1F
100
AcDbEntity
  8
0
  6
Continuous
 62
     7
370
    25
100
AcDbLine
 10
6483.3947721423
 20
5117.0195758078
 30
0.0
 11
6483.3947721423
 21
5117.2841591469
 31
0.0
  0
LINE
  5
2E2
330
1F
100
AcDbEntity
  8
0
  6
Continuous
 62
     7
370
    25
100
AcDbLine
 10
6474.3877054348
 20
5116.8994545927
 30
0.0
 11
6477.5109640883
 21
5116.8994545927
 31
0.0
  0
LINE
  5
2E3
330
1F
100
AcDbEntity
  8
0
  6
Continuous
 62
     7
370
    25
100
AcDbLine
 10
6474.3877054348
 20
5117.0980833718
 30
0.0
 11
6474.3877054348
 21
5116.8994545927
 31
0.0
  0
LINE
  5
2E4
330
1F
100
AcDbEntity
  8
0
  6
Continuous
 62
     7
370
    25
100
AcDbLine
 10
6483.3947721423
 20
5123.3695758078
 30
0.0
 11
6483.3947721423
 21
5123.6341591469
 31
0.0
  0
LINE
  5
2E5
330
1F
100
AcDbEntity
  8
0
  6
Continuous
 62
     7
370
    25
100
AcDbLine
 10
6474.3877054348
 20
5123.4480833718
 30
0.0
 11
6474.3877054348
 21
5123.1835000327
 31
0.0
  0
LINE
  5
2E6
330
1F
100
AcDbEntity
  8
0
  6
Continuous
 62
     7
370
    25
100
AcDbLine
 10
6483.3947721423
 20
5121.2529091412
 30
0.0
 11
6483.3947721423
 21
5121.5174924803
 31
0.0
  0
LINE
  5
2E7
330
1F
100
AcDbEntity
  8
0
  6
Continuous
 62
     7
370
    25
100
AcDbLine
 10
6474.3877054348
 20
5121.3314167052
 30
0.0
 11
6474.3877054348
 21
5121.0668333661
 31
0.0
  0
LINE
  5
2E8
330
1F
100
AcDbEntity
  8
0
  6
Continuous
 62
     7
370
    25
100
AcDbLine
 10
6490.5658702445
 20
5121.6833137418
 30
0.0
 11
6490.5658702445
 21
5121.4187304027
 31
0.0
  0
LINE
  5
2E9
330
1F
100
AcDbEntity
  8
0
  6
Continuous
 62
     7
370
    25
100
AcDbLine
 10
6490.5658702445
 20
5123.7999804085
 30
0.0
 11
6490.5658702445
 21
5123.5353970694
 31
0.0
  0
LINE
  5
2EA
330
1F
100
AcDbEntity
  8
0
  6
Continuous
 62
     7
370
    25
100
AcDbLine
 10
6490.5658702445
 20
5117.4499804085
 30
0.0
 11
6490.5658702445
 21
5117.1853970694
 31
0.0
  0
LINE
  5
2EB
330
1F
100
AcDbEntity
  8
0
  6
Continuous
 62
     7
370
    25
100
AcDbLine
 10
6490.5658702445
 20
5119.5666470752
 30
0.0
 11
6490.5658702445
 21
5119.3020637361
 31
0.0
  0
LINE
  5
2EC
330
1F
100
AcDbEntity
  8
0
  6
Continuous
 62
     7
370
    25
100
AcDbLine
 10
6473.6139520061
 20
5116.6990107036
 30
0.0
 11
6474.3877054348
 21
5116.8994545927
 31
0.0
  0
LINE
  5
2ED
330
1F
100
AcDbEntity
  8
0
  6
Continuous
 62
     7
370
    25
100
AcDbLine
 10
6467.6113079061
 20
5123.0176787711
 30
0.0
 11
6467.6113079061
 21
5123.2822621103
 31
0.0
  0
LINE
  5
2EE
330
1F
100
AcDbEntity
  8
0
  6
Continuous
 62
     7
370
    25
100
AcDbLine
 10
6467.6113079061
 20
5116.8994545927
 30
0.0
 11
6467.6113079061
 21
5116.9322621103
 31
0.0
  0
LINE
  5
2EF
330
1F
100
AcDbEntity
  8
0
  6
Continuous
 62
     7
370
    25
100
AcDbLine
 10
6467.6113079061
 20
5120.9010121045
 30
0.0
 11
6467.6113079061
 21
5121.1655954436
 31
0.0
  0
LINE
  5
2F0
330
1F
100
AcDbEntity
  8
0
  6
Continuous
 62
     7
370
    25
100
AcDbLine
 10
6467.6113079061
 20
5118.7843454378
 30
0.0
 11
6467.6113079061
 21
5119.0489287769
 31
0.0
  0
LWPOLYLINE
  5
2F1
330
1F
100
AcDbEntity
  8
0
  6
Continuous
 62
     7
370
    25
100
AcDbPolyline
 90
        3
 70
   128
 43
0.0
 10
6495.6490907382
 20
5137.1994545927
 10
6495.488035492
 20
5136.9579724263
 10
6495.3269802457
 20
5136.1994545927
  0
LINE
  5
2F2
330
1F
100
AcDbEntity
  8
0
  6
Continuous
 62
     7
370
    25
100
AcDbLine
 10
6492.8325699545
 20
5136.1994545927
 30
0.0
 11
6495.3269802457
 21
5136.1994545927
 31
0.0
  0
ARC
  5
2F3
330
1F
100
AcDbEntity
  8
0
  6
Continuous
 62
     7
370
    25
100
AcDbCircle
 10
6464.9925933776
 20
5136.2399398683
 30
0.0
 40
1.62774573038407
100
AcDbArc
 50
145.62863909
 51
181.4252070239
  0
LINE
  5
2F4
330
1F
100
AcDbEntity
  8
0
  6
Continuous
 62
     7
370
    25
100
AcDbLine
 10
6463.3653511998
 20
5136.1994545927
 30
0.0
 11
6465.4693684019
 21
5136.1994545927
 31
0.0
  0
LINE
  5
2F5
330
1F
100
AcDbEntity
  8
0
  6
Continuous
 62
     7
370
    25
100
AcDbLine
 10
6495.4517404515
 20
5123.7220320669
 30
0.0
 11
6495.4517404515
 21
5123.986615406
 31
0.0
  0
LINE
  5
2F6
330
1F
100
AcDbEntity
  8
0
  6
Continuous
 62
     7
370
    25
100
AcDbLine
 10
6495.4517404515
 20
5121.6053654002
 30
0.0
 11
6495.4517404515
 21
5121.8699487393
 31
0.0
  0
LINE
  5
2F7
330
1F
100
AcDbEntity
  8
0
  6
Continuous
 62
     7
370
    25
100
AcDbLine
 10
6495.4517404515
 20
5119.4886987336
 30
0.0
 11
6495.4517404515
 21
5119.7532820727
 31
0.0
  0
LINE
  5
2F8
330
1F
100
AcDbEntity
  8
0
  6
Continuous
 62
     7
370
    25
100
AcDbLine
 10
6495.4517404515
 20
5117.3720320669
 30
0.0
 11
6495.4517404515
 21
5117.636615406
 31
0.0
  0
LINE
  5
2F9
330
1F
100
AcDbEntity
  8
0
  6
Continuous
 62
     7
370
    25
100
AcDbLine
 10
6495.3269802457
 20
5136.1994545927
 30
0.0
 11
6495.3269802457
 21
5125.1994545927
 31
0.0
  0
LINE
  5
2FA
330
1F
100
AcDbEntity
  8
0
  6
Continuous
 62
     7
370
    25
100
AcDbLine
 10
6495.3269802457
 20
5125.1994545927
 30
0.0
 11
6492.8325699545
 21
5125.1994545927
 31
0.0
  0
LINE
  5
2FB
330
1F
100
AcDbEntity
  8
0
  6
Continuous
 62
     7
370
    25
100
AcDbLine
 10
6463.4901114057
 20
5123.0956271128
 30
0.0
 11
6463.4901114057
 21
5122.8310437737
 31
0.0
  0
LINE
  5
2FC
330
1F
100
AcDbEntity
  8
0
  6
Continuous
 62
     7
370
    25
100
AcDbLine
 10
6463.4901114057
 20
5120.9789604461
 30
0.0
 11
6463.4901114057
 21
5120.714377107
 31
0.0
  0
LINE
  5
2FD
330
1F
100
AcDbEntity
  8
0
  6
Continuous
 62
     7
370
    25
100
AcDbLine
 10
6463.4901114057
 20
5118.8622937794
 30
0.0
 11
6463.4901114057
 21
5118.5977104403
 31
0.0
  0
LINE
  5
2FE
330
1F
100
AcDbEntity
  8
0
  6
Continuous
 62
     7
370
    25
100
AcDbLine
 10
6463.4901114057
 20
5125.1994545927
 30
0.0
 11
6463.4901114057
 21
5124.9477104403
 31
0.0
  0
LINE
  5
2FF
330
1F
100
AcDbEntity
  8
0
  6
Continuous
 62
     7
370
    25
100
AcDbLine
 10
6463.3653511998
 20
5125.1994545927
 30
0.0
 11
6463.3653511998
 21
5136.1994545927
 31
0.0
  0
LINE
  5
300
330
1F
100
AcDbEntity
  8
0
  6
Continuous
 62
     7
370
    25
100
AcDbLine
 10
6465.4693684019
 20
5125.1994545927
 30
0.0
 11
6463.3653511998
 21
5125.1994545927
 31
0.0
  0
ARC
  5
301
330
1F
100
AcDbEntity
  8
0
  6
Continuous
 62
     7
370
    25
100
AcDbCircle
 10
6494.3439247647
 20
5136.239933906
 30
0.0
 40
1.627779859760826
100
AcDbArc
 50
358.5750327946
 51
34.3703094568
  0
LINE
  5
302
330
1F
100
AcDbEntity
  8
0
  6
Continuous
 62
     7
370
    25
100
AcDbLine
 10
6495.9712012308
 20
5125.1994545927
 30
0.0
 11
6495.9712012308
 21
5136.1994545927
 31
0.0
  0
LINE
  5
303
330
1F
100
AcDbEntity
  8
0
  6
Continuous
 62
     7
370
    25
100
AcDbLine
 10
6495.9712012308
 20
5125.1994545927
 30
0.0
 11
6495.8464410249
 21
5125.1994545927
 31
0.0
  0
LINE
  5
304
330
1F
100
AcDbEntity
  8
0
  6
Continuous
 62
     7
370
    25
100
AcDbLine
 10
6495.8464410249
 20
5125.1994545927
 30
0.0
 11
6495.8464410249
 21
5126.0060437737
 31
0.0
  0
LINE
  5
305
330
1F
100
AcDbEntity
  8
0
  6
Continuous
 62
     7
370
    25
100
AcDbLine
 10
6495.4517404515
 20
5125.1994545927
 30
0.0
 11
6495.3269802457
 21
5125.1994545927
 31
0.0
  0
LINE
  5
306
330
1F
100
AcDbEntity
  8
0
  6
Continuous
 62
     7
370
    25
100
AcDbLine
 10
6495.4517404515
 20
5125.8386987336
 30
0.0
 11
6495.4517404515
 21
5125.1994545927
 31
0.0
  0
LINE
  5
307
330
1F
100
AcDbEntity
  8
0
  6
Continuous
 62
     7
370
    25
100
AcDbLine
 10
6495.8464410249
 20
5119.9206271128
 30
0.0
 11
6495.8464410249
 21
5119.6560437737
 31
0.0
  0
LINE
  5
308
330
1F
100
AcDbEntity
  8
0
  6
Continuous
 62
     7
370
    25
100
AcDbLine
 10
6495.8464410249
 20
5122.0372937794
 30
0.0
 11
6495.8464410249
 21
5121.7727104403
 31
0.0
  0
LINE
  5
309
330
1F
100
AcDbEntity
  8
0
  6
Continuous
 62
     7
370
    25
100
AcDbLine
 10
6495.8464410249
 20
5117.8039604461
 30
0.0
 11
6495.8464410249
 21
5117.539377107
 31
0.0
  0
LINE
  5
30A
330
1F
100
AcDbEntity
  8
0
  6
Continuous
 62
     7
370
    25
100
AcDbLine
 10
6495.8464410249
 20
5124.1539604461
 30
0.0
 11
6495.8464410249
 21
5123.889377107
 31
0.0
  0
LINE
  5
30B
330
1F
100
AcDbEntity
  8
0
  6
Continuous
 62
     7
370
    25
100
AcDbLine
 10
6495.5489916569
 20
5125.1994545927
 30
0.0
 11
6495.8464410249
 21
5125.1994545927
 31
0.0
  0
LINE
  5
30C
330
1F
100
AcDbEntity
  8
0
  6
Continuous
 62
     7
370
    25
100
AcDbLine
 10
6495.2540449929
 20
5125.1994545927
 30
0.0
 11
6495.2540432877
 21
5124.6213642364
 31
0.0
  0
ARC
  5
30D
330
1F
100
AcDbEntity
  8
0
  6
Continuous
 62
     7
370
    25
100
AcDbCircle
 10
6469.1889812814
 20
5228.5692055958
 30
0.0
 40
80.68871215988872
100
AcDbArc
 50
91.1203523279
 51
94.0500493585
  0
ARC
  5
30E
330
1F
100
AcDbEntity
  8
0
  6
Continuous
 62
     7
370
    25
100
AcDbCircle
 10
6470.5120366933
 20
5329.2461920227
 30
0.0
 40
20.2129221756726
100
AcDbArc
 50
261.7490731668
 51
281.0544703702
  0
LWPOLYLINE
  5
30F
330
1F
100
AcDbEntity
  8
0
  6
Continuous
 62
     7
370
    25
100
AcDbPolyline
 90
       11
 70
   128
 43
0.0
 10
6483.3947721424
 20
5309.5949487393
 10
6482.8431363234
 20
5309.5836197444
 10
6482.2877895147
 20
5309.5723423789
 10
6481.7293808429
 20
5309.5611166429
 10
6481.1685630136
 20
5309.5499425363
 10
6480.3161845153
 20
5309.5326840028
 10
6479.9039350759
 20
5309.5242413434
 10
6479.4277206949
 20
5309.5144537766
 10
6478.887949556
 20
5309.5033213023
 10
6476.6082166461
 20
5309.4558625549
 10
6474.3877054349
 20
5309.4083137419
  0
ARC
  5
310
330
1F
100
AcDbEntity
  8
0
  6
Continuous
 62
     7
370
    25
100
AcDbCircle
 10
6486.4615538107
 20
5331.9089293206
 30
0.0
 40
22.52374034613304
100
AcDbArc
 50
262.1744280739
 51
280.4992000019
  0
ARC
  5
311
330
1F
100
AcDbEntity
  8
0
  6
Continuous
 62
     7
370
    25
100
AcDbCircle
 10
6487.827301703
 20
5445.5008794672
 30
0.0
 40
135.7662086167567
100
AcDbArc
 50
271.1558035192
 51
273.2193438516
  0
LWPOLYLINE
  5
312
330
1F
100
AcDbEntity
  8
0
  6
Continuous
 62
     7
370
    25
100
AcDbPolyline
 90
        5
 70
   128
 43
0.0
 10
6495.846441025
 20
5310.1147500385
 10
6495.712628807
 20
5309.7997313198
 10
6495.5861241105
 20
5309.74525745
 10
6495.4588199623
 20
5309.9317477046
 10
6495.4517404516
 20
5309.9489287769
  0
LWPOLYLINE
  5
313
330
1F
100
AcDbEntity
  8
0
  6
Continuous
 62
     7
370
    25
100
AcDbPolyline
 90
        3
 70
   128
 43
0.0
 10
6463.5988583175
 20
5310.89742038
 10
6463.6348097132
 20
5310.8438791679
 10
6463.6779246396
 20
5310.8439780536
  0
LWPOLYLINE
  5
314
330
1F
100
AcDbEntity
  8
0
  6
Continuous
 62
     7
370
    25
100
AcDbPolyline
 90
       21
 70
   128
 43
0.0
 10
6495.0604178248
 20
5311.5548123533
 10
6495.0677107209
 20
5311.5352146399
 10
6494.6397677381
 20
5311.4995830134
 10
6493.806302215
 20
5311.4639526466
 10
6492.54437332
 20
5311.4271443981
 10
6490.94812828
 20
5311.3920008247
 10
6488.9797349924
 20
5311.3562020216
 10
6486.7960381094
 20
5311.3203948201
 10
6484.4123570086
 20
5311.2846845569
 10
6481.8200371276
 20
5311.2490304611
 10
6479.2208221514
 20
5311.2139334465
 10
6476.5546084149
 20
5311.1771543651
 10
6474.0219030532
 20
5311.1414522286
 10
6471.5726073451
 20
5311.105803435
 10
6469.4073671094
 20
5311.0704003859
 10
6467.51708426
 20
5311.034591206
 10
6465.9531841501
 20
5310.9993490143
 10
6464.729201718
 20
5310.9639802549
 10
6463.9854820182
 20
5310.9312117795
 10
6463.5988583175
 20
5310.89742038
 10
6463.5988583175
 20
5310.89742038
  0
LWPOLYLINE
  5
315
330
1F
100
AcDbEntity
  8
0
  6
Continuous
 62
     7
370
    25
100
AcDbPolyline
 90
       18
 70
   128
 43
0.0
 10
6495.0075778155
 20
5311.5020412699
 10
6494.7767030572
 20
5311.4429865846
 10
6493.9889879626
 20
5311.3792921336
 10
6492.6722630947
 20
5311.3137721699
 10
6490.8972526329
 20
5311.2499669482
 10
6488.732923983
 20
5311.1873410191
 10
6486.2095017308
 20
5311.1220041995
 10
6483.4564787393
 20
5311.0573092688
 10
6480.6039523151
 20
5310.9951214412
 10
6477.6786651013
 20
5310.930296372
 10
6474.8193794836
 20
5310.8650296571
 10
6472.1737915688
 20
5310.8025404022
 10
6469.7765365157
 20
5310.7385471634
 10
6467.7213080484
 20
5310.6730360977
 10
6466.1176067847
 20
5310.6095458883
 10
6465.0023051391
 20
5310.5466557492
 10
6464.4051747003
 20
5310.4812318606
 10
6464.381849126
 20
5310.4438569776
  0
LWPOLYLINE
  5
316
330
1F
100
AcDbEntity
  8
0
  6
Continuous
 62
     7
370
    25
100
AcDbPolyline
 90
       18
 70
   128
 43
0.0
 10
6494.959886115
 20
5309.3731757021
 10
6494.7767030572
 20
5309.3263199179
 10
6493.9889879626
 20
5309.2626254669
 10
6492.6722630947
 20
5309.1971055032
 10
6490.8972526329
 20
5309.1333002815
 10
6488.732923983
 20
5309.0706743524
 10
6486.2095017308
 20
5309.0053375328
 10
6483.4564787393
 20
5308.9406426021
 10
6480.6039523151
 20
5308.8784547745
 10
6477.6786651013
 20
5308.8136297053
 10
6474.8193794836
 20
5308.7483629904
 10
6472.1737915688
 20
5308.6858737355
 10
6469.7765365157
 20
5308.6218804968
 10
6467.7213080484
 20
5308.5563694311
 10
6466.1176067847
 20
5308.4928792216
 10
6465.0023051391
 20
5308.4299890825
 10
6464.4051747003
 20
5308.3645651939
 10
6464.3818376861
 20
5308.3271719807
  0
LWPOLYLINE
  5
317
330
1F
100
AcDbEntity
  8
0
  6
Continuous
 62
     7
370
    25
100
AcDbPolyline
 90
       18
 70
   128
 43
0.0
 10
6494.9598653769
 20
5307.2565037308
 10
6494.7767030572
 20
5307.2096532513
 10
6493.9889879626
 20
5307.1459588002
 10
6492.6722630947
 20
5307.0804388365
 10
6490.8972526329
 20
5307.0166336148
 10
6488.732923983
 20
5306.9540076857
 10
6486.2095017308
 20
5306.8886708661
 10
6483.4564787393
 20
5306.8239759354
 10
6480.6039523151
 20
5306.7617881079
 10
6477.6786651013
 20
5306.6969630387
 10
6474.8193794836
 20
5306.6316963237
 10
6472.1737915688
 20
5306.5692070688
 10
6469.7765365157
 20
5306.5052138301
 10
6467.7213080484
 20
5306.4397027644
 10
6466.1176067847
 20
5306.3762125549
 10
6465.0023051391
 20
5306.3133224158
 10
6464.4051747003
 20
5306.2478985272
 10
6464.3818262382
 20
5306.2104869709
  0
LWPOLYLINE
  5
318
330
1F
100
AcDbEntity
  8
0
  6
Continuous
 62
     7
370
    25
100
AcDbPolyline
 90
       18
 70
   128
 43
0.0
 10
6494.9598446592
 20
5305.1398317649
 10
6494.7767030572
 20
5305.0929865846
 10
6493.9889879626
 20
5305.0292921336
 10
6492.6722630947
 20
5304.9637721699
 10
6490.8972526329
 20
5304.8999669482
 10
6488.732923983
 20
5304.8373410191
 10
6486.2095017308
 20
5304.7720041995
 10
6483.4564787393
 20
5304.7073092688
 10
6480.6039523151
 20
5304.6451214412
 10
6477.6786651013
 20
5304.580296372
 10
6474.8193794836
 20
5304.5150296571
 10
6472.1737915688
 20
5304.4525404022
 10
6469.7765365157
 20
5304.3885471634
 10
6467.7213080484
 20
5304.3230360977
 10
6466.1176067847
 20
5304.2595458883
 10
6465.0023051391
 20
5304.1966557492
 10
6464.4051747003
 20
5304.1312318606
 10
6464.3818147819
 20
5304.0938019476
  0
ARC
  5
319
330
1F
100
AcDbEntity
  8
0
  6
Continuous
 62
     7
370
    25
100
AcDbCircle
 10
6480.5056578311
 20
5518.0064872134
 30
0.0
 40
215.4686844590556
100
AcDbArc
 50
270.1491713574
 51
273.84642951
  0
LINE
  5
31A
330
1F
100
AcDbEntity
  8
0
  6
Continuous
 62
     7
370
    25
100
AcDbLine
 10
6483.3947721424
 20
5303.2449487393
 30
0.0
 11
6481.1709768651
 21
5303.1999913482
 31
0.0
  0
ARC
  5
31B
330
1F
100
AcDbEntity
  8
0
  6
Continuous
 62
     7
370
    25
100
AcDbCircle
 10
6486.4615538107
 20
5325.5589293209
 30
0.0
 40
22.52374034645876
100
AcDbArc
 50
262.1744280741
 51
280.4992000018
  0
ARC
  5
31C
330
1F
100
AcDbEntity
  8
0
  6
Continuous
 62
     7
370
    25
100
AcDbCircle
 10
6487.8273017029
 20
5439.1508794692
 30
0.0
 40
135.7662086187218
100
AcDbArc
 50
271.1558035192
 51
273.2193438516
  0
LWPOLYLINE
  5
31D
330
1F
100
AcDbEntity
  8
0
  6
Continuous
 62
     7
370
    25
100
AcDbPolyline
 90
        5
 70
   128
 43
0.0
 10
6495.846441025
 20
5303.7647500385
 10
6495.712628807
 20
5303.4497313198
 10
6495.5861241105
 20
5303.39525745
 10
6495.4588199623
 20
5303.5817477046
 10
6495.4517404516
 20
5303.5989287769
  0
LWPOLYLINE
  5
31E
330
1F
100
AcDbEntity
  8
0
  6
Continuous
 62
     7
370
    25
100
AcDbPolyline
 90
        3
 70
   128
 43
0.0
 10
6463.4901114057
 20
5304.8230833718
 10
6463.6239236237
 20
5304.5080646531
 10
6463.6787729645
 20
5304.4844461162
  0
ARC
  5
31F
330
1F
100
AcDbEntity
  8
0
  6
Continuous
 62
     7
370
    25
100
AcDbCircle
 10
6469.1889812818
 20
5224.335872254
 30
0.0
 40
80.6887121683278
100
AcDbArc
 50
91.1203523281
 51
94.0500493583
  0
ARC
  5
320
330
1F
100
AcDbEntity
  8
0
  6
Continuous
 62
     7
370
    25
100
AcDbCircle
 10
6470.5120366933
 20
5325.012858689
 30
0.0
 40
20.21292217535168
100
AcDbArc
 50
261.7490731666
 51
281.0544703703
  0
LWPOLYLINE
  5
321
330
1F
100
AcDbEntity
  8
0
  6
Continuous
 62
     7
370
    25
100
AcDbPolyline
 90
       11
 70
   128
 43
0.0
 10
6483.3947721424
 20
5305.361615406
 10
6482.8431363234
 20
5305.350286411
 10
6482.2877895147
 20
5305.3390090455
 10
6481.7293808429
 20
5305.3277833095
 10
6481.1685630136
 20
5305.316609203
 10
6480.3161845264
 20
5305.2993506697
 10
6479.9039350858
 20
5305.2909080103
 10
6479.427720701
 20
5305.2811204434
 10
6478.887949556
 20
5305.269987969
 10
6476.6082166461
 20
5305.2225292215
 10
6474.3877054349
 20
5305.1749804085
  0
ARC
  5
322
330
1F
100
AcDbEntity
  8
0
  6
Continuous
 62
     7
370
    25
100
AcDbCircle
 10
6486.4615538107
 20
5327.6755959876
 30
0.0
 40
22.52374034646449
100
AcDbArc
 50
262.1744280741
 51
280.4992000018
  0
ARC
  5
323
330
1F
100
AcDbEntity
  8
0
  6
Continuous
 62
     7
370
    25
100
AcDbCircle
 10
6487.8273017028
 20
5441.2675461371
 30
0.0
 40
135.7662086200145
100
AcDbArc
 50
271.1558035192
 51
273.2193438516
  0
LWPOLYLINE
  5
324
330
1F
100
AcDbEntity
  8
0
  6
Continuous
 62
     7
370
    25
100
AcDbPolyline
 90
        5
 70
   128
 43
0.0
 10
6495.846441025
 20
5305.8814167052
 10
6495.712628807
 20
5305.5663979865
 10
6495.5861241105
 20
5305.5119241167
 10
6495.4588199623
 20
5305.6984143713
 10
6495.4517404516
 20
5305.7155954436
  0
LWPOLYLINE
  5
325
330
1F
100
AcDbEntity
  8
0
  6
Continuous
 62
     7
370
    25
100
AcDbPolyline
 90
        3
 70
   128
 43
0.0
 10
6463.4901114057
 20
5306.9397500385
 10
6463.6239236237
 20
5306.6247313198
 10
6463.6785010265
 20
5306.6012298814
  0
ARC
  5
326
330
1F
100
AcDbEntity
  8
0
  6
Continuous
 62
     7
370
    25
100
AcDbCircle
 10
6469.1889812815
 20
5226.4525389264
 30
0.0
 40
80.6887121626218
100
AcDbArc
 50
91.120352328
 51
94.0500493584
  0
ARC
  5
327
330
1F
100
AcDbEntity
  8
0
  6
Continuous
 62
     7
370
    25
100
AcDbCircle
 10
6470.5120366933
 20
5327.129525356
 30
0.0
 40
20.2129221756717
100
AcDbArc
 50
261.7490731668
 51
281.0544703702
  0
LWPOLYLINE
  5
328
330
1F
100
AcDbEntity
  8
0
  6
Continuous
 62
     7
370
    25
100
AcDbPolyline
 90
       11
 70
   128
 43
0.0
 10
6483.3947721424
 20
5307.4782820727
 10
6482.8431363234
 20
5307.4669530777
 10
6482.2877895147
 20
5307.4556757122
 10
6481.7293808429
 20
5307.4444499762
 10
6481.1685630136
 20
5307.4332758697
 10
6480.3161845142
 20
5307.4160173361
 10
6479.903935075
 20
5307.4075746768
 10
6479.4277206943
 20
5307.3977871099
 10
6478.887949556
 20
5307.3866546356
 10
6476.6082166461
 20
5307.3391958882
 10
6474.3877054349
 20
5307.2916470752
  0
ARC
  5
329
330
1F
100
AcDbEntity
  8
0
  6
Continuous
 62
     7
370
    25
100
AcDbCircle
 10
6486.4615538107
 20
5329.7922626539
 30
0.0
 40
22.52374034613304
100
AcDbArc
 50
262.1744280739
 51
280.4992000019
  0
ARC
  5
32A
330
1F
100
AcDbEntity
  8
0
  6
Continuous
 62
     7
370
    25
100
AcDbCircle
 10
6487.8273017028
 20
5443.3842128038
 30
0.0
 40
135.7662086200136
100
AcDbArc
 50
271.1558035192
 51
273.2193438516
  0
LWPOLYLINE
  5
32B
330
1F
100
AcDbEntity
  8
0
  6
Continuous
 62
     7
370
    25
100
AcDbPolyline
 90
        5
 70
   128
 43
0.0
 10
6495.846441025
 20
5307.9980833718
 10
6495.712628807
 20
5307.6830646531
 10
6495.5861241105
 20
5307.6285907833
 10
6495.4588199623
 20
5307.815081038
 10
6495.4517404516
 20
5307.8322621103
  0
LWPOLYLINE
  5
32C
330
1F
100
AcDbEntity
  8
0
  6
Continuous
 62
     7
370
    25
100
AcDbPolyline
 90
        3
 70
   128
 43
0.0
 10
6463.4901114057
 20
5309.0564167052
 10
6463.6239236237
 20
5308.7413979865
 10
6463.6782291223
 20
5308.7180136321
  0
LWPOLYLINE
  5
32D
330
1F
100
AcDbEntity
  8
0
  6
Continuous
 62
     7
370
    25
100
AcDbPolyline
 90
        5
 70
   128
 43
0.0
 10
6495.4517404516
 20
5308.0968454494
 10
6495.5855643701
 20
5308.4101639828
 10
6495.7121082202
 20
5308.4645873537
 10
6495.8394378141
 20
5308.2796232084
 10
6495.846441025
 20
5308.2626667109
  0
ARC
  5
32E
330
1F
100
AcDbEntity
  8
0
  6
Continuous
 62
     7
370
    25
100
AcDbCircle
 10
6487.8273017031
 20
5443.6487961358
 30
0.0
 40
135.7662086128805
100
AcDbArc
 50
271.1558035192
 51
273.2193438516
  0
ARC
  5
32F
330
1F
100
AcDbEntity
  8
0
  6
Continuous
 62
     7
370
    25
100
AcDbCircle
 10
6487.4990885762
 20
5285.5962298704
 30
0.0
 40
22.52374034642407
100
AcDbArc
 50
82.1744280741
 51
100.4992000018
  0
LWPOLYLINE
  5
330
330
1F
100
AcDbEntity
  8
0
  6
Continuous
 62
     7
370
    25
100
AcDbPolyline
 90
       11
 70
   128
 43
0.0
 10
6483.3947721424
 20
5307.7428654118
 10
6482.8431363234
 20
5307.7315364168
 10
6482.2877895147
 20
5307.7202590513
 10
6481.7293808429
 20
5307.7090333153
 10
6481.1685630136
 20
5307.6978592088
 10
6480.3161845168
 20
5307.6806006753
 10
6479.9039350772
 20
5307.6721580159
 10
6479.4277206957
 20
5307.6623704491
 10
6478.887949556
 20
5307.6512379747
 10
6476.6082166461
 20
5307.6037792273
 10
6474.3877054349
 20
5307.5562304143
  0
ARC
  5
331
330
1F
100
AcDbEntity
  8
0
  6
Continuous
 62
     7
370
    25
100
AcDbCircle
 10
6471.4844425604
 20
5287.6560880561
 30
0.0
 40
20.11080806912863
100
AcDbArc
 50
81.6995882149
 51
101.1039553221
  0
ARC
  5
332
330
1F
100
AcDbEntity
  8
0
  6
Continuous
 62
     7
370
    25
100
AcDbCircle
 10
6469.1889812813
 20
5226.7171222698
 30
0.0
 40
80.68871215834793
100
AcDbArc
 50
91.1203523279
 51
94.0500493585
  0
LWPOLYLINE
  5
333
330
1F
100
AcDbEntity
  8
0
  6
Continuous
 62
     7
370
    25
100
AcDbPolyline
 90
        3
 70
   128
 43
0.0
 10
6463.6224726761
 20
5307.4033900893
 10
6463.4971146166
 20
5307.2212898751
 10
6463.4901114057
 20
5307.2043333776
  0
LWPOLYLINE
  5
334
330
1F
100
AcDbEntity
  8
0
  6
Continuous
 62
     7
370
    25
100
AcDbPolyline
 90
        5
 70
   128
 43
0.0
 10
6495.4517404516
 20
5305.9801787827
 10
6495.5855643701
 20
5306.2934973161
 10
6495.7121082202
 20
5306.3479206871
 10
6495.8394378141
 20
5306.1629565417
 10
6495.846441025
 20
5306.1460000443
  0
ARC
  5
335
330
1F
100
AcDbEntity
  8
0
  6
Continuous
 62
     7
370
    25
100
AcDbCircle
 10
6487.8273017028
 20
5441.5321294776
 30
0.0
 40
135.7662086213909
100
AcDbArc
 50
271.1558035193
 51
273.2193438516
  0
ARC
  5
336
330
1F
100
AcDbEntity
  8
0
  6
Continuous
 62
     7
370
    25
100
AcDbCircle
 10
6487.4990885762
 20
5283.479563204
 30
0.0
 40
22.52374034609263
100
AcDbArc
 50
82.1744280739
 51
100.499200002
  0
LWPOLYLINE
  5
337
330
1F
100
AcDbEntity
  8
0
  6
Continuous
 62
     7
370
    25
100
AcDbPolyline
 90
       11
 70
   128
 43
0.0
 10
6483.3947721424
 20
5305.6261987451
 10
6482.8431363234
 20
5305.6148697501
 10
6482.2877895147
 20
5305.6035923847
 10
6481.7293808429
 20
5305.5923666486
 10
6481.1685630136
 20
5305.5811925421
 10
6480.3161845249
 20
5305.5639340088
 10
6479.9039350845
 20
5305.5554913494
 10
6479.4277207002
 20
5305.5457037825
 10
6478.887949556
 20
5305.5345713081
 10
6476.6082166461
 20
5305.4871125606
 10
6474.3877054349
 20
5305.4395637476
  0
ARC
  5
338
330
1F
100
AcDbEntity
  8
0
  6
Continuous
 62
     7
370
    25
100
AcDbCircle
 10
6471.4844425604
 20
5285.5394213898
 30
0.0
 40
20.11080806878345
100
AcDbArc
 50
81.6995882147
 51
101.1039553223
  0
ARC
  5
339
330
1F
100
AcDbEntity
  8
0
  6
Continuous
 62
     7
370
    25
100
AcDbCircle
 10
6469.1889812814
 20
5224.6004555997
 30
0.0
 40
80.6887121617363
100
AcDbArc
 50
91.1203523279
 51
94.0500493584
  0
LWPOLYLINE
  5
33A
330
1F
100
AcDbEntity
  8
0
  6
Continuous
 62
     7
370
    25
100
AcDbPolyline
 90
        3
 70
   128
 43
0.0
 10
6463.6227227987
 20
5305.2870867609
 10
6463.4971146166
 20
5305.1046232084
 10
6463.4901114057
 20
5305.0876667109
  0
LWPOLYLINE
  5
33B
330
1F
100
AcDbEntity
  8
0
  6
Continuous
 62
     7
370
    25
100
AcDbPolyline
 90
        5
 70
   128
 43
0.0
 10
6495.4517404516
 20
5303.863512116
 10
6495.5855643701
 20
5304.1768306494
 10
6495.7121082202
 20
5304.2312540204
 10
6495.8394378141
 20
5304.0462898751
 10
6495.846441025
 20
5304.0293333776
  0
ARC
  5
33C
330
1F
100
AcDbEntity
  8
0
  6
Continuous
 62
     7
370
    25
100
AcDbCircle
 10
6487.8273017029
 20
5439.4154628076
 30
0.0
 40
135.7662086180989
100
AcDbArc
 50
271.1558035192
 51
273.2193438516
  0
ARC
  5
33D
330
1F
100
AcDbEntity
  8
0
  6
Continuous
 62
     7
370
    25
100
AcDbCircle
 10
6487.4990885762
 20
5281.362896537
 30
0.0
 40
22.5237403464434
100
AcDbArc
 50
82.1744280741
 51
100.4992000018
  0
LWPOLYLINE
  5
33E
330
1F
100
AcDbEntity
  8
0
  6
Continuous
 62
     7
370
    25
100
AcDbPolyline
 90
       11
 70
   128
 43
0.0
 10
6483.3947721424
 20
5303.5095320785
 10
6482.8431363234
 20
5303.4982030835
 10
6482.2877895147
 20
5303.486925718
 10
6481.7293808429
 20
5303.475699982
 10
6481.1685630136
 20
5303.4645258755
 10
6480.3161845142
 20
5303.4472673419
 10
6479.903935075
 20
5303.4388246825
 10
6479.4277206943
 20
5303.4290371157
 10
6478.887949556
 20
5303.4179046414
 10
6476.6082166461
 20
5303.370445894
 10
6474.3877054349
 20
5303.322897081
  0
ARC
  5
33F
330
1F
100
AcDbEntity
  8
0
  6
Continuous
 62
     7
370
    25
100
AcDbCircle
 10
6471.482402816
 20
5283.5061102524
 30
0.0
 40
20.02862510299536
100
AcDbArc
 50
81.6593901374
 51
101.1441533995
  0
ARC
  5
340
330
1F
100
AcDbEntity
  8
0
  6
Continuous
 62
     7
370
    25
100
AcDbCircle
 10
6469.1889812817
 20
5222.4837889284
 30
0.0
 40
80.68871216641706
100
AcDbArc
 50
91.120352328
 51
94.0500493583
  0
LWPOLYLINE
  5
341
330
1F
100
AcDbEntity
  8
0
  6
Continuous
 62
     7
370
    25
100
AcDbPolyline
 90
        3
 70
   128
 43
0.0
 10
6463.6229675768
 20
5303.1702289353
 10
6463.6209642552
 20
5303.1710384547
 10
6463.4901114057
 20
5302.9710000443
  0
LWPOLYLINE
  5
342
330
1F
100
AcDbEntity
  8
0
  6
Continuous
 62
     7
370
    25
100
AcDbPolyline
 90
        4
 70
   128
 43
0.0
 10
6495.4517404516
 20
5301.7468454494
 10
6495.5855643701
 20
5302.0601639828
 10
6495.7155881755
 20
5302.1127051214
 10
6495.846441025
 20
5301.9126667109
  0
ARC
  5
343
330
1F
100
AcDbEntity
  8
0
  6
Continuous
 62
     7
370
    25
100
AcDbCircle
 10
6487.4980779259
 20
5279.2895384316
 30
0.0
 40
22.4809737766725
100
AcDbArc
 50
82.1568475073
 51
100.5167805686
  0
LWPOLYLINE
  5
344
330
1F
100
AcDbEntity
  8
0
  6
Continuous
 62
     7
370
    25
100
AcDbPolyline
 90
       18
 70
   128
 43
0.0
 10
6495.0076659777
 20
5310.9728971632
 10
6494.7767031333
 20
5310.9138199271
 10
6493.9889881225
 20
5310.8501254767
 10
6492.6722633349
 20
5310.7846055132
 10
6490.8972529411
 20
5310.7208002912
 10
6488.7329243594
 20
5310.6581743627
 10
6486.2095021626
 20
5310.5928375435
 10
6483.456479204
 20
5310.5281426125
 10
6480.6039528023
 20
5310.4659547852
 10
6477.678665599
 20
5310.4011297165
 10
6474.8193799644
 20
5310.3358630016
 10
6472.173792013
 20
5310.2733737464
 10
6469.7765369179
 20
5310.2093805085
 10
6467.7213083834
 20
5310.1438694429
 10
6466.1176070345
 20
5310.0803792329
 10
6465.0023053016
 20
5310.0174890946
 10
6464.4051747611
 20
5309.9520652064
 10
6464.3896924807
 20
5309.9272578046
  0
LWPOLYLINE
  5
345
330
1F
100
AcDbEntity
  8
0
  6
Continuous
 62
     7
370
    25
100
AcDbPolyline
 90
       18
 70
   128
 43
0.0
 10
6495.0076658277
 20
5308.8562304581
 10
6494.7767031333
 20
5308.7971532604
 10
6493.9889881225
 20
5308.7334588101
 10
6492.6722633349
 20
5308.6679388466
 10
6490.8972529411
 20
5308.6041336245
 10
6488.7329243594
 20
5308.541507696
 10
6486.2095021626
 20
5308.4761708768
 10
6483.456479204
 20
5308.4114759459
 10
6480.6039528023
 20
5308.3492881185
 10
6477.678665599
 20
5308.2844630499
 10
6474.8193799644
 20
5308.2191963349
 10
6472.173792013
 20
5308.1567070798
 10
6469.7765369179
 20
5308.0927138418
 10
6467.7213083834
 20
5308.0272027762
 10
6466.1176070345
 20
5307.9637125662
 10
6465.0023053016
 20
5307.9008224279
 10
6464.4051747611
 20
5307.8353985397
 10
6464.3896901061
 20
5307.8105873332
  0
LWPOLYLINE
  5
346
330
1F
100
AcDbEntity
  8
0
  6
Continuous
 62
     7
370
    25
100
AcDbPolyline
 90
       18
 70
   128
 43
0.0
 10
6495.0076657975
 20
5306.7395637837
 10
6494.7767031333
 20
5306.6804865937
 10
6493.9889881225
 20
5306.6167921434
 10
6492.6722633349
 20
5306.5512721799
 10
6490.8972529411
 20
5306.4874669578
 10
6488.7329243594
 20
5306.4248410293
 10
6486.2095021626
 20
5306.3595042101
 10
6483.456479204
 20
5306.2948092792
 10
6480.6039528023
 20
5306.2326214518
 10
6477.678665599
 20
5306.1677963832
 10
6474.8193799644
 20
5306.1025296682
 10
6472.173792013
 20
5306.0400404131
 10
6469.7765369179
 20
5305.9760471751
 10
6467.7213083834
 20
5305.9105361096
 10
6466.1176070345
 20
5305.8470458996
 10
6465.0023053016
 20
5305.7841557613
 10
6464.4051747611
 20
5305.718731873
 10
6464.3896877326
 20
5305.6939168634
  0
LWPOLYLINE
  5
347
330
1F
100
AcDbEntity
  8
0
  6
Continuous
 62
     7
370
    25
100
AcDbPolyline
 90
       18
 70
   128
 43
0.0
 10
6495.0074629915
 20
5304.622845242
 10
6494.7767031333
 20
5304.5638199271
 10
6493.9889881225
 20
5304.5001254767
 10
6492.6722633349
 20
5304.4346055132
 10
6490.8972529411
 20
5304.3708002912
 10
6488.7329243594
 20
5304.3081743627
 10
6486.2095021626
 20
5304.2428375435
 10
6483.456479204
 20
5304.1781426125
 10
6480.6039528023
 20
5304.1159547852
 10
6477.678665599
 20
5304.0511297165
 10
6474.8193799644
 20
5303.9858630015
 10
6472.173792013
 20
5303.9233737464
 10
6469.7765369179
 20
5303.8593805085
 10
6467.7213083834
 20
5303.7938694429
 10
6466.1176070345
 20
5303.7303792329
 10
6465.0023053016
 20
5303.6674890946
 10
6464.4051747611
 20
5303.6020652064
 10
6464.38968536
 20
5303.5772463952
  0
ARC
  5
348
330
1F
100
AcDbEntity
  8
0
  6
Continuous
 62
     7
370
    25
100
AcDbCircle
 10
6482.4999887325
 20
5476.7514220443
 30
0.0
 40
174.6935831598122
100
AcDbArc
 50
270.2934712095
 51
274.1056664568
  0
LWPOLYLINE
  5
349
330
1F
100
AcDbEntity
  8
0
  6
Continuous
 62
     7
370
    25
100
AcDbPolyline
 90
        5
 70
   128
 43
0.0
 10
6495.4517404516
 20
5310.213512116
 10
6495.5855643701
 20
5310.5268306494
 10
6495.7121082202
 20
5310.5812540204
 10
6495.8394378141
 20
5310.3962898751
 10
6495.846441025
 20
5310.3793333776
  0
ARC
  5
34A
330
1F
100
AcDbEntity
  8
0
  6
Continuous
 62
     7
370
    25
100
AcDbCircle
 10
6487.827301703
 20
5445.7654628064
 30
0.0
 40
135.7662086168431
100
AcDbArc
 50
271.1558035192
 51
273.2193438516
  0
ARC
  5
34B
330
1F
100
AcDbEntity
  8
0
  6
Continuous
 62
     7
370
    25
100
AcDbCircle
 10
6487.4990885762
 20
5287.712896537
 30
0.0
 40
22.52374034642407
100
AcDbArc
 50
82.1744280741
 51
100.4992000018
  0
LWPOLYLINE
  5
34C
330
1F
100
AcDbEntity
  8
0
  6
Continuous
 62
     7
370
    25
100
AcDbPolyline
 90
       11
 70
   128
 43
0.0
 10
6483.3947721424
 20
5309.8595320785
 10
6482.8431363234
 20
5309.8482030835
 10
6482.2877895147
 20
5309.836925718
 10
6481.7293808429
 20
5309.825699982
 10
6481.1685630136
 20
5309.8145258755
 10
6480.3161845083
 20
5309.7972673418
 10
6479.9039350697
 20
5309.7888246824
 10
6479.427720691
 20
5309.7790371156
 10
6478.887949556
 20
5309.7679046414
 10
6476.6082166461
 20
5309.720445894
 10
6474.3877054349
 20
5309.672897081
  0
ARC
  5
34D
330
1F
100
AcDbEntity
  8
0
  6
Continuous
 62
     7
370
    25
100
AcDbCircle
 10
6471.4844425604
 20
5289.7727547228
 30
0.0
 40
20.11080806912953
100
AcDbArc
 50
81.6995882149
 51
101.1039553221
  0
ARC
  5
34E
330
1F
100
AcDbEntity
  8
0
  6
Continuous
 62
     7
370
    25
100
AcDbCircle
 10
6469.1889812815
 20
5228.8337889323
 30
0.0
 40
80.68871216253541
100
AcDbArc
 50
91.1203523279
 51
94.0500493584
  0
LWPOLYLINE
  5
34F
330
1F
100
AcDbEntity
  8
0
  6
Continuous
 62
     7
370
    25
100
AcDbPolyline
 90
        3
 70
   128
 43
0.0
 10
6463.6222231345
 20
5309.5196942617
 10
6463.4971146166
 20
5309.3379565417
 10
6463.4901114057
 20
5309.3210000443
  0
LINE
  5
350
330
1F
100
AcDbEntity
  8
0
  6
Continuous
 62
     7
370
    25
100
AcDbLine
 10
6463.5988583175
 20
5310.89742038
 30
0.0
 11
6463.6490738119
 21
5310.9606740861
 31
0.0
  0
LINE
  5
351
330
1F
100
AcDbEntity
  8
0
  6
Continuous
 62
     7
370
    25
100
AcDbLine
 10
6486.4319178201
 20
5312.1994545927
 30
0.0
 11
6464.8682762154
 21
5312.1994545927
 31
0.0
  0
LINE
  5
352
330
1F
100
AcDbEntity
  8
0
  6
Continuous
 62
     7
370
    25
100
AcDbLine
 10
6494.4682762154
 20
5312.1994545927
 30
0.0
 11
6486.4319178201
 21
5312.1994545927
 31
0.0
  0
LINE
  5
353
330
1F
100
AcDbEntity
  8
0
  6
Continuous
 62
     7
370
    25
100
AcDbLine
 10
6486.2682762153
 20
5290.2408509964
 30
0.0
 11
6486.9803211935
 21
5290.1994545927
 31
0.0
  0
LWPOLYLINE
  5
354
330
1F
100
AcDbEntity
  8
0
  6
Continuous
 62
     7
370
    25
100
AcDbPolyline
 90
        3
 70
   128
 43
0.0
 10
6470.9995066705
 20
5290.1994545927
 10
6471.4453988257
 20
5290.2056647565
 10
6473.0300544598
 20
5290.3781381219
  0
LINE
  5
355
330
1F
100
AcDbEntity
  8
0
  6
Continuous
 62
     7
370
    25
100
AcDbLine
 10
6474.3877054349
 20
5303.322897081
 30
0.0
 11
6474.3877054349
 21
5302.1994545927
 31
0.0
  0
LINE
  5
356
330
1F
100
AcDbEntity
  8
0
  6
Continuous
 62
     7
370
    25
100
AcDbLine
 10
6474.3877054349
 20
5302.1994545927
 30
0.0
 11
6476.5296449391
 21
5302.1994545927
 31
0.0
  0
LINE
  5
357
330
1F
100
AcDbEntity
  8
0
  6
Continuous
 62
     7
370
    25
100
AcDbLine
 10
6476.5296449391
 20
5291.8994545927
 30
0.0
 11
6476.5296449391
 21
5302.1994545927
 31
0.0
  0
LWPOLYLINE
  5
358
330
1F
100
AcDbEntity
  8
0
  6
Continuous
 62
     7
370
    25
100
AcDbPolyline
 90
        3
 70
   128
 43
0.0
 10
6465.469368402
 20
5291.1994545927
 10
6468.1684525756
 20
5290.4527395489
 10
6470.9995066705
 20
5290.1994545927
  0
LINE
  5
359
330
1F
100
AcDbEntity
  8
0
  6
Continuous
 62
     7
370
    25
100
AcDbLine
 10
6465.469368402
 20
5302.1994545927
 30
0.0
 11
6465.469368402
 21
5291.1994545927
 31
0.0
  0
LINE
  5
35A
330
1F
100
AcDbEntity
  8
0
  6
Continuous
 62
     7
370
    25
100
AcDbLine
 10
6465.469368402
 20
5302.1994545927
 30
0.0
 11
6467.6113079062
 21
5302.1994545927
 31
0.0
  0
LINE
  5
35B
330
1F
100
AcDbEntity
  8
0
  6
Continuous
 62
     7
370
    25
100
AcDbLine
 10
6467.6113079062
 20
5302.1994545927
 30
0.0
 11
6467.6113079062
 21
5303.1570758194
 31
0.0
  0
LINE
  5
35C
330
1F
100
AcDbEntity
  8
0
  6
Continuous
 62
     7
370
    25
100
AcDbLine
 10
6481.1709858187
 20
5302.1994545927
 30
0.0
 11
6481.170976865
 21
5303.1999915994
 31
0.0
  0
LINE
  5
35D
330
1F
100
AcDbEntity
  8
0
  6
Continuous
 62
     7
370
    25
100
AcDbLine
 10
6483.3947721424
 20
5303.2449487393
 30
0.0
 11
6483.3947721424
 21
5303.5095320785
 31
0.0
  0
LINE
  5
35E
330
1F
100
AcDbEntity
  8
0
  6
Continuous
 62
     7
370
    25
100
AcDbLine
 10
6474.3877054349
 20
5305.4395637476
 30
0.0
 11
6474.3877054349
 21
5305.1749804085
 31
0.0
  0
LINE
  5
35F
330
1F
100
AcDbEntity
  8
0
  6
Continuous
 62
     7
370
    25
100
AcDbLine
 10
6483.3947721424
 20
5305.361615406
 30
0.0
 11
6483.3947721424
 21
5305.6261987451
 31
0.0
  0
LINE
  5
360
330
1F
100
AcDbEntity
  8
0
  6
Continuous
 62
     7
370
    25
100
AcDbLine
 10
6474.3877054349
 20
5307.5562304143
 30
0.0
 11
6474.3877054349
 21
5307.2916470752
 31
0.0
  0
LINE
  5
361
330
1F
100
AcDbEntity
  8
0
  6
Continuous
 62
     7
370
    25
100
AcDbLine
 10
6483.3947721424
 20
5307.4782820727
 30
0.0
 11
6483.3947721424
 21
5307.7428654118
 31
0.0
  0
LINE
  5
362
330
1F
100
AcDbEntity
  8
0
  6
Continuous
 62
     7
370
    25
100
AcDbLine
 10
6474.3877054349
 20
5309.672897081
 30
0.0
 11
6474.3877054349
 21
5309.4083137419
 31
0.0
  0
LINE
  5
363
330
1F
100
AcDbEntity
  8
0
  6
Continuous
 62
     7
370
    25
100
AcDbLine
 10
6483.3947721424
 20
5309.5949487393
 30
0.0
 11
6483.3947721424
 21
5309.8595320785
 31
0.0
  0
LINE
  5
364
330
1F
100
AcDbEntity
  8
0
  6
Continuous
 62
     7
370
    25
100
AcDbLine
 10
6481.1280724324
 20
5302.1994545927
 30
0.0
 11
6481.1280724324
 21
5291.8994545927
 31
0.0
  0
LINE
  5
365
330
1F
100
AcDbEntity
  8
0
  6
Continuous
 62
     7
370
    25
100
AcDbLine
 10
6476.5296449391
 20
5302.1994545927
 30
0.0
 11
6481.1280724324
 21
5302.1994545927
 31
0.0
  0
LINE
  5
366
330
1F
100
AcDbEntity
  8
0
  6
Continuous
 62
     7
370
    25
100
AcDbLine
 10
6467.6113079062
 20
5307.1258258136
 30
0.0
 11
6467.6113079062
 21
5307.3904091527
 31
0.0
  0
LINE
  5
367
330
1F
100
AcDbEntity
  8
0
  6
Continuous
 62
     7
370
    25
100
AcDbLine
 10
6467.6113079062
 20
5305.0091591469
 30
0.0
 11
6467.6113079062
 21
5305.2737424861
 31
0.0
  0
LINE
  5
368
330
1F
100
AcDbEntity
  8
0
  6
Continuous
 62
     7
370
    25
100
AcDbLine
 10
6467.6113079062
 20
5309.2424924803
 30
0.0
 11
6467.6113079062
 21
5309.5070758194
 31
0.0
  0
LINE
  5
369
330
1F
100
AcDbEntity
  8
0
  6
Continuous
 62
     7
370
    25
100
AcDbLine
 10
6490.5658702445
 20
5302.1994545927
 30
0.0
 11
6492.8325699545
 21
5302.1994545927
 31
0.0
  0
LINE
  5
36A
330
1F
100
AcDbEntity
  8
0
  6
Continuous
 62
     7
370
    25
100
AcDbLine
 10
6492.8325699545
 20
5291.1994545927
 30
0.0
 11
6492.8325699545
 21
5302.1994545927
 31
0.0
  0
LWPOLYLINE
  5
36B
330
1F
100
AcDbEntity
  8
0
  6
Continuous
 62
     7
370
    25
100
AcDbPolyline
 90
        3
 70
   128
 43
0.0
 10
6486.9803211935
 20
5290.1994545927
 10
6489.906445574
 20
5290.4409367591
 10
6492.8325699545
 20
5291.1994545927
  0
LINE
  5
36C
330
1F
100
AcDbEntity
  8
0
  6
Continuous
 62
     7
370
    25
100
AcDbLine
 10
6483.3947721424
 20
5302.1994545927
 30
0.0
 11
6483.3947721424
 21
5301.3928654118
 31
0.0
  0
LINE
  5
36D
330
1F
100
AcDbEntity
  8
0
  6
Continuous
 62
     7
370
    25
100
AcDbLine
 10
6490.5658702445
 20
5301.5602104519
 30
0.0
 11
6490.5658702445
 21
5302.1994545927
 31
0.0
  0
LINE
  5
36E
330
1F
100
AcDbEntity
  8
0
  6
Continuous
 62
     7
370
    25
100
AcDbLine
 10
6481.1280724324
 20
5302.1994545927
 30
0.0
 11
6483.3947721424
 21
5302.1994545927
 31
0.0
  0
LINE
  5
36F
330
1F
100
AcDbEntity
  8
0
  6
Continuous
 62
     7
370
    25
100
AcDbLine
 10
6490.5658702445
 20
5303.6768771185
 30
0.0
 11
6490.5658702445
 21
5303.4122937794
 31
0.0
  0
LINE
  5
370
330
1F
100
AcDbEntity
  8
0
  6
Continuous
 62
     7
370
    25
100
AcDbLine
 10
6490.5658702445
 20
5307.9102104519
 30
0.0
 11
6490.5658702445
 21
5307.6456271128
 31
0.0
  0
LINE
  5
371
330
1F
100
AcDbEntity
  8
0
  6
Continuous
 62
     7
370
    25
100
AcDbLine
 10
6490.5658702445
 20
5305.7935437852
 30
0.0
 11
6490.5658702445
 21
5305.5289604461
 31
0.0
  0
LINE
  5
372
330
1F
100
AcDbEntity
  8
0
  6
Continuous
 62
     7
370
    25
100
AcDbLine
 10
6490.5658702445
 20
5310.0268771185
 30
0.0
 11
6490.5658702445
 21
5309.7622937794
 31
0.0
  0
LWPOLYLINE
  5
373
330
1F
100
AcDbEntity
  8
0
  6
Continuous
 62
     7
370
    25
100
AcDbPolyline
 90
        3
 70
   128
 43
0.0
 10
6463.6489687161
 20
5290.2290623024
 10
6463.5131687071
 20
5290.4828193164
 10
6463.3653511999
 20
5291.1994545927
  0
LINE
  5
374
330
1F
100
AcDbEntity
  8
0
  6
Continuous
 62
     7
370
    25
100
AcDbLine
 10
6465.469368402
 20
5291.1994545927
 30
0.0
 11
6463.3653511999
 21
5291.1994545927
 31
0.0
  0
LWPOLYLINE
  5
375
330
1F
100
AcDbEntity
  8
0
  6
Continuous
 62
     7
370
    25
100
AcDbPolyline
 90
        3
 70
   128
 43
0.0
 10
6495.3269802458
 20
5291.1994545927
 10
6495.4841921074
 20
5290.4527395489
 10
6495.6490907383
 20
5290.1994545927
  0
LINE
  5
376
330
1F
100
AcDbEntity
  8
0
  6
Continuous
 62
     7
370
    25
100
AcDbLine
 10
6495.3269802458
 20
5291.1994545927
 30
0.0
 11
6492.8325699545
 21
5291.1994545927
 31
0.0
  0
LINE
  5
377
330
1F
100
AcDbEntity
  8
0
  6
Continuous
 62
     7
370
    25
100
AcDbLine
 10
6495.4517404516
 20
5303.5989287769
 30
0.0
 11
6495.4517404516
 21
5303.863512116
 31
0.0
  0
LINE
  5
378
330
1F
100
AcDbEntity
  8
0
  6
Continuous
 62
     7
370
    25
100
AcDbLine
 10
6495.4517404516
 20
5307.8322621103
 30
0.0
 11
6495.4517404516
 21
5308.0968454494
 31
0.0
  0
LINE
  5
379
330
1F
100
AcDbEntity
  8
0
  6
Continuous
 62
     7
370
    25
100
AcDbLine
 10
6495.4517404516
 20
5309.9489287769
 30
0.0
 11
6495.4517404516
 21
5310.213512116
 31
0.0
  0
LINE
  5
37A
330
1F
100
AcDbEntity
  8
0
  6
Continuous
 62
     7
370
    25
100
AcDbLine
 10
6495.4517404516
 20
5305.7155954436
 30
0.0
 11
6495.4517404516
 21
5305.9801787827
 31
0.0
  0
LINE
  5
37B
330
1F
100
AcDbEntity
  8
0
  6
Continuous
 62
     7
370
    25
100
AcDbLine
 10
6463.4901114057
 20
5307.2043333776
 30
0.0
 11
6463.4901114057
 21
5306.9397500385
 31
0.0
  0
LINE
  5
37C
330
1F
100
AcDbEntity
  8
0
  6
Continuous
 62
     7
370
    25
100
AcDbLine
 10
6463.4901114057
 20
5305.0876667109
 30
0.0
 11
6463.4901114057
 21
5304.8230833718
 31
0.0
  0
LINE
  5
37D
330
1F
100
AcDbEntity
  8
0
  6
Continuous
 62
     7
370
    25
100
AcDbLine
 10
6463.4901114057
 20
5309.3210000443
 30
0.0
 11
6463.4901114057
 21
5309.0564167052
 31
0.0
  0
LINE
  5
37E
330
1F
100
AcDbEntity
  8
0
  6
Continuous
 62
     7
370
    25
100
AcDbLine
 10
6463.4901114057
 20
5302.9710000443
 30
0.0
 11
6463.4901114057
 21
5302.1994545927
 31
0.0
  0
LINE
  5
37F
330
1F
100
AcDbEntity
  8
0
  6
Continuous
 62
     7
370
    25
100
AcDbLine
 10
6495.3269802458
 20
5302.1994545927
 30
0.0
 11
6495.3269802458
 21
5291.1994545927
 31
0.0
  0
LINE
  5
380
330
1F
100
AcDbEntity
  8
0
  6
Continuous
 62
     7
370
    25
100
AcDbLine
 10
6492.8325699545
 20
5302.1994545927
 30
0.0
 11
6495.3269802458
 21
5302.1994545927
 31
0.0
  0
LINE
  5
381
330
1F
100
AcDbEntity
  8
0
  6
Continuous
 62
     7
370
    25
100
AcDbLine
 10
6463.3653511999
 20
5291.1994545927
 30
0.0
 11
6463.3653511999
 21
5302.1994545927
 31
0.0
  0
LINE
  5
382
330
1F
100
AcDbEntity
  8
0
  6
Continuous
 62
     7
370
    25
100
AcDbLine
 10
6463.3653511999
 20
5302.1994545927
 30
0.0
 11
6465.469368402
 21
5302.1994545927
 31
0.0
  0
LINE
  5
383
330
1F
100
AcDbEntity
  8
0
  6
Continuous
 62
     7
370
    25
100
AcDbLine
 10
6495.846441025
 20
5302.1994545927
 30
0.0
 11
6495.9712012308
 21
5302.1994545927
 31
0.0
  0
LINE
  5
384
330
1F
100
AcDbEntity
  8
0
  6
Continuous
 62
     7
370
    25
100
AcDbLine
 10
6495.9712012308
 20
5291.1994545927
 30
0.0
 11
6495.9712012308
 21
5302.1994545927
 31
0.0
  0
LWPOLYLINE
  5
385
330
1F
100
AcDbEntity
  8
0
  6
Continuous
 62
     7
370
    25
100
AcDbPolyline
 90
        3
 70
   128
 43
0.0
 10
6495.6875411066
 20
5290.2289826847
 10
6495.8233837236
 20
5290.4828193164
 10
6495.9712012308
 20
5291.1994545927
  0
LINE
  5
386
330
1F
100
AcDbEntity
  8
0
  6
Continuous
 62
     7
370
    25
100
AcDbLine
 10
6495.846441025
 20
5301.9126667109
 30
0.0
 11
6495.846441025
 21
5302.1994545927
 31
0.0
  0
LINE
  5
387
330
1F
100
AcDbEntity
  8
0
  6
Continuous
 62
     7
370
    25
100
AcDbLine
 10
6495.3269802458
 20
5302.1994545927
 30
0.0
 11
6495.4517404516
 21
5302.1994545927
 31
0.0
  0
LINE
  5
388
330
1F
100
AcDbEntity
  8
0
  6
Continuous
 62
     7
370
    25
100
AcDbLine
 10
6495.4517404516
 20
5302.1994545927
 30
0.0
 11
6495.4517404516
 21
5301.7468454494
 31
0.0
  0
LINE
  5
389
330
1F
100
AcDbEntity
  8
0
  6
Continuous
 62
     7
370
    25
100
AcDbLine
 10
6495.846441025
 20
5310.3793333776
 30
0.0
 11
6495.846441025
 21
5310.1147500385
 31
0.0
  0
LINE
  5
38A
330
1F
100
AcDbEntity
  8
0
  6
Continuous
 62
     7
370
    25
100
AcDbLine
 10
6495.846441025
 20
5308.2626667109
 30
0.0
 11
6495.846441025
 21
5307.9980833718
 31
0.0
  0
LINE
  5
38B
330
1F
100
AcDbEntity
  8
0
  6
Continuous
 62
     7
370
    25
100
AcDbLine
 10
6495.846441025
 20
5304.0293333776
 30
0.0
 11
6495.846441025
 21
5303.7647500385
 31
0.0
  0
LINE
  5
38C
330
1F
100
AcDbEntity
  8
0
  6
Continuous
 62
     7
370
    25
100
AcDbLine
 10
6495.846441025
 20
5306.1460000443
 30
0.0
 11
6495.846441025
 21
5305.8814167052
 31
0.0
  0
LINE
  5
38D
330
1F
100
AcDbEntity
  8
0
  6
Continuous
 62
     7
370
    25
100
AcDbLine
 10
6495.846441025
 20
5302.1994545927
 30
0.0
 11
6495.6371219901
 21
5302.1994545927
 31
0.0
  0
LINE
  5
38E
330
1F
100
AcDbEntity
  8
0
  6
Continuous
 62
     7
370
    25
100
AcDbLine
 10
6444.6682762153
 20
5287.1894545927
 30
0.0
 11
6444.6682762153
 21
5289.1894545927
 31
0.0
  0
LINE
  5
38F
330
1F
100
AcDbEntity
  8
0
  6
Continuous
 62
     7
370
    25
100
AcDbLine
 10
6541.9611694341
 20
5289.1894545927
 30
0.0
 11
6444.6682762153
 21
5289.1894545927
 31
0.0
  0
ARC
  5
390
330
1F
100
AcDbEntity
  8
0
  6
Continuous
 62
     7
370
    25
100
AcDbCircle
 10
6537.9926592052
 20
5286.6613743457
 30
0.0
 40
4.705344107757287
100
AcDbArc
 50
6.4438749229
 51
32.4985663461
  0
LINE
  5
391
330
1F
100
AcDbEntity
  8
0
  6
Continuous
 62
     7
370
    25
100
AcDbLine
 10
6542.6682762153
 20
5287.1894545927
 30
0.0
 11
6444.6682762153
 21
5287.1894545927
 31
0.0
  0
LINE
  5
392
330
1F
100
AcDbEntity
  8
0
  6
Continuous
 62
     7
370
    25
100
AcDbLine
 10
6542.6682762153
 20
5140.2094545927
 30
0.0
 11
6542.6682762153
 21
5287.1894545927
 31
0.0
  0
LINE
  5
393
330
1F
100
AcDbEntity
  8
0
  6
Continuous
 62
     7
370
    25
100
AcDbLine
 10
6444.6682762153
 20
5140.2094545927
 30
0.0
 11
6542.6682762153
 21
5140.2094545927
 31
0.0
  0
LINE
  5
394
330
1F
100
AcDbEntity
  8
0
  6
Continuous
 62
     7
370
    25
100
AcDbLine
 10
6444.6682762153
 20
5140.2094545927
 30
0.0
 11
6444.6682762153
 21
5287.1894545927
 31
0.0
  0
LINE
  5
395
330
1F
100
AcDbEntity
  8
0
  6
Continuous
 62
     7
370
    25
100
AcDbLine
 10
6544.6682762153
 20
5245.1994545927
 30
0.0
 11
6544.6682762153
 21
5287.1894545927
 31
0.0
  0
LINE
  5
396
330
1F
100
AcDbEntity
  8
0
  6
Continuous
 62
     7
370
    25
100
AcDbLine
 10
6544.6682762153
 20
5245.1994545927
 30
0.0
 11
6544.6682762153
 21
5182.1994545927
 31
0.0
  0
LINE
  5
397
330
1F
100
AcDbEntity
  8
0
  6
Continuous
 62
     7
370
    25
100
AcDbLine
 10
6544.6682762153
 20
5140.2094545927
 30
0.0
 11
6544.6682762153
 21
5182.1994545927
 31
0.0
  0
LINE
  5
398
330
1F
100
AcDbEntity
  8
0
  6
Continuous
 62
     7
370
    25
100
AcDbLine
 10
6544.6682762153
 20
5140.2094545927
 30
0.0
 11
6542.6682762153
 21
5140.2094545927
 31
0.0
  0
LINE
  5
399
330
1F
100
AcDbEntity
  8
0
  6
Continuous
 62
     7
370
    25
100
AcDbLine
 10
6542.6682762153
 20
5287.1894545927
 30
0.0
 11
6544.6682762153
 21
5287.1894545927
 31
0.0
  0
LINE
  5
39A
330
1F
100
AcDbEntity
  8
0
  6
Continuous
 62
     7
370
    25
100
AcDbLine
 10
6444.6682762153
 20
5140.2094545927
 30
0.0
 11
6442.6682762153
 21
5140.2094545927
 31
0.0
  0
LINE
  5
39B
330
1F
100
AcDbEntity
  8
0
  6
Continuous
 62
     7
370
    25
100
AcDbLine
 10
6442.6682762153
 20
5140.2094545927
 30
0.0
 11
6442.6682762153
 21
5287.1894545927
 31
0.0
  0
LINE
  5
39C
330
1F
100
AcDbEntity
  8
0
  6
Continuous
 62
     7
370
    25
100
AcDbLine
 10
6442.6682762153
 20
5287.1894545927
 30
0.0
 11
6444.6682762153
 21
5287.1894545927
 31
0.0
  0
ARC
  5
39D
330
1F
100
AcDbEntity
  8
0
  6
Continuous
 62
     7
370
    25
100
AcDbCircle
 10
6539.3919847002
 20
5140.2427985665
 30
0.0
 40
3.276461187406986
100
AcDbArc
 50
321.640657946
 51
359.416900785
  0
LINE
  5
39E
330
1F
100
AcDbEntity
  8
0
  6
Continuous
 62
     7
370
    25
100
AcDbLine
 10
6444.6682762153
 20
5138.2094545927
 30
0.0
 11
6541.9611694341
 21
5138.2094545927
 31
0.0
  0
LINE
  5
39F
330
1F
100
AcDbEntity
  8
0
  6
Continuous
 62
     7
370
    25
100
AcDbLine
 10
6444.6682762153
 20
5138.2094545927
 30
0.0
 11
6444.6682762153
 21
5140.2094545927
 31
0.0
  0
ARC
  5
3A0
330
1F
100
AcDbEntity
  8
0
  6
Continuous
 62
     7
370
    25
100
AcDbCircle
 10
6542.6682762153
 20
5287.1894545927
 30
0.0
 40
2.000000000001819
100
AcDbArc
 50
0.0
 51
90.0
  0
ARC
  5
3A1
330
1F
100
AcDbEntity
  8
0
  6
Continuous
 62
     7
370
    25
100
AcDbCircle
 10
6542.6682762153
 20
5287.1894545927
 30
0.0
 40
0.999999999998181
100
AcDbArc
 50
359.9999999999
 51
90.0000000001
  0
LINE
  5
3A2
330
1F
100
AcDbEntity
  8
0
  6
Continuous
 62
     7
370
    25
100
AcDbLine
 10
6542.6682762153
 20
5289.1894545927
 30
0.0
 11
6542.6682762153
 21
5288.1894545927
 31
0.0
  0
LINE
  5
3A3
330
1F
100
AcDbEntity
  8
0
  6
Continuous
 62
     7
370
    25
100
AcDbLine
 10
6542.6682762153
 20
5138.2094545927
 30
0.0
 11
6542.6682762153
 21
5139.2094545927
 31
0.0
  0
ARC
  5
3A4
330
1F
100
AcDbEntity
  8
0
  6
Continuous
 62
     7
370
    25
100
AcDbCircle
 10
6542.6682762153
 20
5140.2094545927
 30
0.0
 40
0.999999999998181
100
AcDbArc
 50
269.9999999999
 51
0.0000000001
  0
ARC
  5
3A5
330
1F
100
AcDbEntity
  8
0
  6
Continuous
 62
     7
370
    25
100
AcDbCircle
 10
6542.6682762153
 20
5140.2094545927
 30
0.0
 40
2.000000000003638
100
AcDbArc
 50
270.0000000001
 51
359.9999999999
  0
LINE
  5
3A6
330
1F
100
AcDbEntity
  8
0
  6
Continuous
 62
     7
370
    25
100
AcDbLine
 10
6442.6682762153
 20
5288.1994545927
 30
0.0
 11
6443.6682762153
 21
5288.1994545927
 31
0.0
  0
ARC
  5
3A7
330
1F
100
AcDbEntity
  8
0
  6
Continuous
 62
     7
370
    25
100
AcDbCircle
 10
6444.6682762153
 20
5288.1994545927
 30
0.0
 40
2.0
100
AcDbArc
 50
90.0
 51
180.0
  0
LINE
  5
3A8
330
1F
100
AcDbEntity
  8
0
  6
Continuous
 62
     7
370
    25
100
AcDbLine
 10
6444.6682762153
 20
5289.1994545927
 30
0.0
 11
6444.6682762153
 21
5290.1994545927
 31
0.0
  0
ARC
  5
3A9
330
1F
100
AcDbEntity
  8
0
  6
Continuous
 62
     7
370
    25
100
AcDbCircle
 10
6444.6682762153
 20
5288.1994545927
 30
0.0
 40
1.0
100
AcDbArc
 50
90.0
 51
180.0
  0
LINE
  5
3AA
330
1F
100
AcDbEntity
  8
0
  6
Continuous
 62
     7
370
    25
100
AcDbLine
 10
6442.6682762153
 20
5288.1994545927
 30
0.0
 11
6442.6682762153
 21
5287.1894545927
 31
0.0
  0
LINE
  5
3AB
330
1F
100
AcDbEntity
  8
0
  6
Continuous
 62
     7
370
    25
100
AcDbLine
 10
6443.6682762153
 20
5288.1994545927
 30
0.0
 11
6443.6682762153
 21
5287.1894545927
 31
0.0
  0
LINE
  5
3AC
330
1F
100
AcDbEntity
  8
0
  6
Continuous
 62
     7
370
    25
100
AcDbLine
 10
6444.6682762153
 20
5290.1994545927
 30
0.0
 11
6542.6682762153
 21
5290.1994545927
 31
0.0
  0
LINE
  5
3AD
330
1F
100
AcDbEntity
  8
0
  6
Continuous
 62
     7
370
    25
100
AcDbLine
 10
6542.6682762153
 20
5290.1994545927
 30
0.0
 11
6542.6682762153
 21
5289.1994545927
 31
0.0
  0
LINE
  5
3AE
330
1F
100
AcDbEntity
  8
0
  6
Continuous
 62
     7
370
    25
100
AcDbLine
 10
6444.6682762153
 20
5289.1994545927
 30
0.0
 11
6542.6682762153
 21
5289.1994545927
 31
0.0
  0
LINE
  5
3AF
330
1F
100
AcDbEntity
  8
0
  6
Continuous
 62
     7
370
    25
100
AcDbLine
 10
6442.6682762153
 20
5139.1994545927
 30
0.0
 11
6443.6682762153
 21
5139.1994545927
 31
0.0
  0
LINE
  5
3B0
330
1F
100
AcDbEntity
  8
0
  6
Continuous
 62
     7
370
    25
100
AcDbLine
 10
6442.6682762153
 20
5140.2094545927
 30
0.0
 11
6442.6682762153
 21
5139.1994545927
 31
0.0
  0
LINE
  5
3B1
330
1F
100
AcDbEntity
  8
0
  6
Continuous
 62
     7
370
    25
100
AcDbLine
 10
6443.6682762153
 20
5140.2094545927
 30
0.0
 11
6443.6682762153
 21
5139.1994545927
 31
0.0
  0
ARC
  5
3B2
330
1F
100
AcDbEntity
  8
0
  6
Continuous
 62
     7
370
    25
100
AcDbCircle
 10
6444.6682762153
 20
5139.1994545927
 30
0.0
 40
2.0
100
AcDbArc
 50
180.0
 51
270.0
  0
ARC
  5
3B3
330
1F
100
AcDbEntity
  8
0
  6
Continuous
 62
     7
370
    25
100
AcDbCircle
 10
6444.6682762153
 20
5139.1994545927
 30
0.0
 40
0.9999999999990905
100
AcDbArc
 50
180.0
 51
270.0
  0
LINE
  5
3B4
330
1F
100
AcDbEntity
  8
0
  6
Continuous
 62
     7
370
    25
100
AcDbLine
 10
6444.6682762153
 20
5138.1994545927
 30
0.0
 11
6444.6682762153
 21
5137.1994545927
 31
0.0
  0
LINE
  5
3B5
330
1F
100
AcDbEntity
  8
0
  6
Continuous
 62
     7
370
    25
100
AcDbLine
 10
6542.6682762153
 20
5138.1994545927
 30
0.0
 11
6444.6682762153
 21
5138.1994545927
 31
0.0
  0
LINE
  5
3B6
330
1F
100
AcDbEntity
  8
0
  6
Continuous
 62
     7
370
    25
100
AcDbLine
 10
6542.6682762153
 20
5137.1994545927
 30
0.0
 11
6542.6682762153
 21
5138.1994545927
 31
0.0
  0
LINE
  5
3B7
330
1F
100
AcDbEntity
  8
0
  6
Continuous
 62
     7
370
    25
100
AcDbLine
 10
6542.6682762153
 20
5137.1994545927
 30
0.0
 11
6444.6682762153
 21
5137.1994545927
 31
0.0
  0
LINE
  5
3B8
330
1F
100
AcDbEntity
  8
0
  6
Continuous
 62
     7
370
    25
100
AcDbLine
 10
6542.6682762153
 20
5289.1894545927
 30
0.0
 11
6541.9611694341
 21
5289.1894545927
 31
0.0
  0
LINE
  5
3B9
330
1F
100
AcDbEntity
  8
0
  6
Continuous
 62
     7
370
    25
100
AcDbLine
 10
6542.6682762153
 20
5288.1894545927
 30
0.0
 11
6542.4322584994
 21
5288.1894545927
 31
0.0
  0
LINE
  5
3BA
330
1F
100
AcDbEntity
  8
0
  6
Continuous
 62
     7
370
    25
100
AcDbLine
 10
6541.9611694341
 20
5138.2094545927
 30
0.0
 11
6542.6682762153
 21
5138.2094545927
 31
0.0
  0
LINE
  5
3BB
330
1F
100
AcDbEntity
  8
0
  6
Continuous
 62
     7
370
    25
100
AcDbLine
 10
6542.4287144058
 20
5139.2094545927
 30
0.0
 11
6542.6682762153
 21
5139.2094545927
 31
0.0
  0
LINE
  5
3BC
330
1F
100
AcDbEntity
  8
0
  6
Continuous
 62
     7
370
    25
100
AcDbLine
 10
6556.1682762153
 20
5187.2001236508
 30
0.0
 11
6556.1682762153
 21
5215.2001236508
 31
0.0
  0
LINE
  5
3BD
330
1F
100
AcDbEntity
  8
0
  6
Continuous
 62
     7
370
    25
100
AcDbLine
 10
6557.6682762153
 20
5213.7001236508
 30
0.0
 11
6557.6682762153
 21
5188.7001236508
 31
0.0
  0
LINE
  5
3BE
330
1F
100
AcDbEntity
  8
0
  6
Continuous
 62
     8
370
    25
100
AcDbLine
 10
6473.0881350981
 20
5291.0994545927
 30
0.0
 11
6473.0682762153
 21
5291.0994545927
 31
0.0
  0
LINE
  5
3BF
330
1F
100
AcDbEntity
  8
0
  6
Continuous
 62
     8
370
    25
100
AcDbLine
 10
6486.2682762153
 20
5291.0994545927
 30
0.0
 11
6473.0881350981
 21
5291.0994545927
 31
0.0
  0
LINE
  5
3C0
330
1F
100
AcDbEntity
  8
0
  6
Continuous
 62
     7
370
    25
100
AcDbLine
 10
6260.0187553361
 20
4918.3528986443
 30
0.0
 11
6260.0187553361
 21
4917.8528986443
 31
0.0
  0
LINE
  5
3C1
330
1F
100
AcDbEntity
  8
0
  6
Continuous
 62
     7
370
    25
100
AcDbLine
 10
6288.0187553361
 20
4917.8528986443
 30
0.0
 11
6288.0187553361
 21
4918.3528986443
 31
0.0
  0
LINE
  5
3C2
330
1F
100
AcDbEntity
  8
0
  6
Continuous
 62
     7
370
    25
100
AcDbLine
 10
6260.0187553361
 20
4917.8528986443
 30
0.0
 11
6261.5187553361
 21
4916.3528986443
 31
0.0
  0
LINE
  5
3C3
330
1F
100
AcDbEntity
  8
0
  6
Continuous
 62
     7
370
    25
100
AcDbLine
 10
6286.5187553361
 20
4916.3528986443
 30
0.0
 11
6288.0187553361
 21
4917.8528986443
 31
0.0
  0
LINE
  5
3C4
330
1F
100
AcDbEntity
  8
0
  6
Continuous
 62
     7
370
    25
100
AcDbLine
 10
6285.2187553361
 20
4928.3528986443
 30
0.0
 11
6285.2187553361
 21
4929.3528986443
 31
0.0
  0
LINE
  5
3C5
330
1F
100
AcDbEntity
  8
0
  6
Continuous
 62
     7
370
    25
100
AcDbLine
 10
6262.8187553361
 20
4929.3528986443
 30
0.0
 11
6262.8187553361
 21
4928.3528986443
 31
0.0
  0
LINE
  5
3C6
330
1F
100
AcDbEntity
  8
0
  6
Continuous
 62
     7
370
    25
100
AcDbLine
 10
6349.0187553361
 20
4928.3528986443
 30
0.0
 11
6349.0187553361
 21
4918.3528986443
 31
0.0
  0
LINE
  5
3C7
330
1F
100
AcDbEntity
  8
0
  6
Continuous
 62
     7
370
    25
100
AcDbLine
 10
6359.0187553361
 20
4928.3528986443
 30
0.0
 11
6349.0187553361
 21
4928.3528986443
 31
0.0
  0
ARC
  5
3C8
330
1F
100
AcDbEntity
  8
0
  6
Continuous
 62
     7
370
    25
100
AcDbCircle
 10
6349.0187553361
 20
4928.3528986443
 30
0.0
 40
10.0
100
AcDbArc
 50
270.0
 51
0.0
  0
LINE
  5
3C9
330
1F
100
AcDbEntity
  8
0
  6
Continuous
 62
     7
370
    25
100
AcDbLine
 10
6349.0187553361
 20
4928.3528986443
 30
0.0
 11
6199.0187553361
 21
4928.3528986443
 31
0.0
  0
LINE
  5
3CA
330
1F
100
AcDbEntity
  8
0
  6
Continuous
 62
     7
370
    25
100
AcDbLine
 10
6349.0187553361
 20
4918.3528986443
 30
0.0
 11
6199.0187553361
 21
4918.3528986443
 31
0.0
  0
LINE
  5
3CB
330
1F
100
AcDbEntity
  8
0
  6
Continuous
 62
     7
370
    25
100
AcDbLine
 10
6199.0187553361
 20
4928.3528986443
 30
0.0
 11
6199.0187553361
 21
4918.3528986443
 31
0.0
  0
ARC
  5
3CC
330
1F
100
AcDbEntity
  8
0
  6
Continuous
 62
     7
370
    25
100
AcDbCircle
 10
6199.0187553361
 20
4928.3528986443
 30
0.0
 40
10.0
100
AcDbArc
 50
180.0
 51
270.0
  0
LINE
  5
3CD
330
1F
100
AcDbEntity
  8
0
  6
Continuous
 62
     7
370
    25
100
AcDbLine
 10
6199.0187553361
 20
4928.3528986443
 30
0.0
 11
6189.0187553361
 21
4928.3528986443
 31
0.0
  0
CIRCLE
  5
3CE
330
1F
100
AcDbEntity
  8
0
  6
Continuous
 62
     7
370
    25
100
AcDbCircle
 10
6221.0187553361
 20
4994.3528986443
 30
0.0
 40
3.999999999999945
  0
CIRCLE
  5
3CF
330
1F
100
AcDbEntity
  8
0
  6
Continuous
 62
     7
370
    25
100
AcDbCircle
 10
6221.0187553361
 20
4994.3528986443
 30
0.0
 40
5.799999999999866
  0
CIRCLE
  5
3D0
330
1F
100
AcDbEntity
  8
0
  6
Continuous
 62
     7
370
    25
100
AcDbCircle
 10
6221.0187553361
 20
4994.3528986443
 30
0.0
 40
6.600000000000217
  0
LINE
  5
3D1
330
1F
100
AcDbEntity
  8
0
  6
Continuous
 62
     7
370
    25
100
AcDbLine
 10
6312.8098439845
 20
5004.4683093756
 30
0.0
 11
6315.8889756349
 21
4998.4753908729
 31
0.0
  0
ARC
  5
3D2
330
1F
100
AcDbEntity
  8
0
  6
Continuous
 62
     7
370
    25
100
AcDbCircle
 10
6299.9998699242
 20
4994.1370073657
 30
0.0
 40
16.47073925914454
100
AcDbArc
 50
347.6142964755
 51
15.2718689673
  0
ARC
  5
3D3
330
1F
100
AcDbEntity
  8
0
  6
Continuous
 62
     7
370
    25
100
AcDbCircle
 10
6300.0187553361
 20
4994.3528986442
 30
0.0
 40
16.5
100
AcDbArc
 50
341.3349830795
 51
346.8679809997
  0
LINE
  5
3D4
330
1F
100
AcDbEntity
  8
0
  6
Continuous
 62
     7
370
    25
100
AcDbLine
 10
6315.6509519902
 20
4989.0723278637
 30
0.0
 11
6314.2864484453
 21
4986.9555299909
 31
0.0
  0
ARC
  5
3D5
330
1F
100
AcDbEntity
  8
0
  6
Continuous
 62
     7
370
    25
100
AcDbCircle
 10
6300.039974537
 20
4993.5304848134
 30
0.0
 40
15.69050826891169
100
AcDbArc
 50
335.2259894525
 51
26.9762419206
  0
ARC
  5
3D6
330
1F
100
AcDbEntity
  8
0
  6
Continuous
 62
     7
370
    25
100
AcDbCircle
 10
6300.0171141646
 20
4994.3535240001
 30
0.0
 40
15.3555611202729
100
AcDbArc
 50
294.0824588703
 51
24.1996181129
  0
LWPOLYLINE
  5
3D7
330
1F
100
AcDbEntity
  8
0
  6
Continuous
 62
     7
370
    25
100
AcDbPolyline
 90
       22
 70
   128
 43
0.0
 10
6306.2829658766
 20
4980.3345240486
 10
6303.6854545305
 20
4979.4032704485
 10
6301.1637206813
 20
4978.9666591279
 10
6298.5676804122
 20
4978.9581477371
 10
6296.006217416
 20
4979.3814071215
 10
6293.5460547153
 20
4980.2311246431
 10
6291.2607322629
 20
4981.4768015396
 10
6289.205697619
 20
4983.0996789856
 10
6287.4486285886
 20
4985.0414398672
 10
6286.0535154265
 20
4987.2251367502
 10
6285.0270502439
 20
4989.6447561026
 10
6284.4160060495
 20
4992.201137732
 10
6284.2417102671
 20
4994.83759707
 10
6284.5058491828
 20
4997.4665664447
 10
6285.2148681062
 20
5000.0344368592
 10
6286.3414642057
 20
5002.4485675145
 10
6287.8348104805
 20
5004.6138077502
 10
6289.6637856586
 20
5006.5040905996
 10
6291.8115291772
 20
5008.0862145317
 10
6294.1911923463
 20
5009.2919731416
 10
6296.5494359582
 20
5010.0413926082
 10
6298.9943949447
 20
5010.4223165421
  0
LINE
  5
3D8
330
1F
100
AcDbEntity
  8
0
  6
Continuous
 62
     7
370
    25
100
AcDbLine
 10
6298.9943949447
 20
5010.4223165421
 30
0.0
 11
6303.0333493765
 21
5010.2243457576
 31
0.0
  0
ARC
  5
3D9
330
1F
100
AcDbEntity
  8
0
  6
Continuous
 62
     7
370
    25
100
AcDbCircle
 10
6300.2058156575
 20
4994.2412520315
 30
0.0
 40
16.23127327069827
100
AcDbArc
 50
39.0562827024
 51
79.9677289809
  0
CIRCLE
  5
3DA
330
1F
100
AcDbEntity
  8
0
  6
Continuous
 62
     7
370
    25
100
AcDbCircle
 10
6300.0187553361
 20
4994.3528986442
 30
0.0
 40
14.80000000000064
  0
CIRCLE
  5
3DB
330
1F
100
AcDbEntity
  8
0
  6
Continuous
 62
     7
370
    25
100
AcDbCircle
 10
6300.0187553361
 20
4994.3528986442
 30
0.0
 40
13.09999999999964
  0
CIRCLE
  5
3DC
330
1F
100
AcDbEntity
  8
0
  6
Continuous
 62
     7
370
    25
100
AcDbCircle
 10
6300.0187553361
 20
4994.3528986442
 30
0.0
 40
12.1
  0
ARC
  5
3DD
330
1F
100
AcDbEntity
  8
0
  6
Continuous
 62
     7
370
    25
100
AcDbCircle
 10
6300.0187553361
 20
4994.3528986442
 30
0.0
 40
16.49999999998384
100
AcDbArc
 50
41.3349830795
 51
73.0527626117
  0
LINE
  5
3DE
330
1F
100
AcDbEntity
  8
0
  6
Continuous
 62
     7
370
    25
100
AcDbLine
 10
6316.0924365606
 20
4998.0793945713
 30
0.0
 11
6315.9778546434
 21
4998.3024055268
 31
0.0
  0
LINE
  5
3DF
330
1F
100
AcDbEntity
  8
0
  6
Continuous
 62
     7
370
    25
100
AcDbLine
 10
6312.720960406
 20
5004.6413036164
 30
0.0
 11
6312.4079621055
 21
5005.2504926734
 31
0.0
  0
ARC
  5
3E0
330
1F
100
AcDbEntity
  8
0
  6
Continuous
 62
     7
370
    25
100
AcDbCircle
 10
6300.4711964668
 20
4994.4102253815
 30
0.0
 40
16.04636858018393
100
AcDbArc
 50
347.2939219537
 51
13.2182172067
  0
LINE
  5
3E1
330
1F
100
AcDbEntity
  8
0
  6
Continuous
 62
     7
370
    25
100
AcDbLine
 10
6308.7963758251
 20
4980.3896143991
 30
0.0
 11
6308.7091212568
 21
4980.3303011846
 31
0.0
  0
LINE
  5
3E2
330
1F
100
AcDbEntity
  8
0
  6
Continuous
 62
     7
370
    25
100
AcDbLine
 10
6311.7816032638
 20
4983.0696837637
 30
0.0
 11
6314.2864484453
 21
4986.9555299909
 31
0.0
  0
LWPOLYLINE
  5
3E3
330
1F
100
AcDbEntity
  8
0
  6
Continuous
 62
     7
370
    25
100
AcDbPolyline
 90
        3
 70
   128
 43
0.0
 10
6308.7381002151
 20
4980.3449357345
 10
6310.8644875808
 20
4982.0969179631
 10
6311.7816032638
 20
4983.0696837637
  0
ARC
  5
3E4
330
1F
100
AcDbEntity
  8
0
  6
Continuous
 62
     7
370
    25
100
AcDbCircle
 10
6300.0187553361
 20
4994.3528986442
 30
0.0
 40
16.49999999999972
100
AcDbArc
 50
281.3349830792
 51
301.900459561
  0
LINE
  5
3E5
330
1F
100
AcDbEntity
  8
0
  6
Continuous
 62
     7
370
    25
100
AcDbLine
 10
6295.2091548638
 20
4978.569434408
 30
0.0
 11
6303.2617452208
 21
4978.1747338346
 31
0.0
  0
ARC
  5
3E6
330
1F
100
AcDbEntity
  8
0
  6
Continuous
 62
     7
370
    25
100
AcDbCircle
 10
6300.0187553361
 20
4994.3528986442
 30
0.0
 40
16.49999999998731
100
AcDbArc
 50
221.3349830795
 51
253.0527626117
  0
LINE
  5
3E7
330
1F
100
AcDbEntity
  8
0
  6
Continuous
 62
     7
370
    25
100
AcDbLine
 10
6283.9450741116
 20
4990.6264027172
 30
0.0
 11
6287.6295485667
 21
4983.4553046151
 31
0.0
  0
ARC
  5
3E8
330
1F
100
AcDbEntity
  8
0
  6
Continuous
 62
     7
370
    25
100
AcDbCircle
 10
6300.0187553361
 20
4994.3528986442
 30
0.0
 40
16.49999999999997
100
AcDbArc
 50
161.3349830795
 51
193.0527626117
  0
LINE
  5
3E9
330
1F
100
AcDbEntity
  8
0
  6
Continuous
 62
     7
370
    25
100
AcDbLine
 10
6288.7546745839
 20
5006.4098669534
 30
0.0
 11
6284.386558682
 21
4999.6334694247
 31
0.0
  0
ARC
  5
3EA
330
1F
100
AcDbEntity
  8
0
  6
Continuous
 62
     7
370
    25
100
AcDbCircle
 10
6300.0187553361
 20
4994.3528986442
 30
0.0
 40
16.50000000000889
100
AcDbArc
 50
101.3349830795
 51
133.0527626117
  0
LINE
  5
3EB
330
1F
100
AcDbEntity
  8
0
  6
Continuous
 62
     7
370
    25
100
AcDbLine
 10
6304.8283558084
 20
5010.1363628805
 30
0.0
 11
6303.2275985849
 21
5010.2148245637
 31
0.0
  0
LINE
  5
3EC
330
1F
100
AcDbEntity
  8
0
  6
Continuous
 62
     7
370
    25
100
AcDbLine
 10
6298.8001357483
 20
5010.4318382255
 30
0.0
 11
6296.7757654514
 21
5010.5310634539
 31
0.0
  0
ARC
  5
3ED
330
1F
100
AcDbEntity
  8
0
  6
Continuous
 62
     7
370
    25
100
AcDbCircle
 10
6300.0187553361
 20
4994.3528986442
 30
0.0
 40
16.5000000000002
100
AcDbArc
 50
301.900459561
 51
313.0527626117
  0
LINE
  5
3EE
330
1F
100
AcDbEntity
  8
0
  6
Continuous
 62
     7
370
    25
100
AcDbLine
 10
6311.7816032638
 20
4983.0696837637
 30
0.0
 11
6311.2828360882
 21
4982.295930335
 31
0.0
  0
LINE
  5
3EF
330
1F
100
AcDbEntity
  8
0
  6
Continuous
 62
     7
370
    25
100
AcDbLine
 10
6283.587326188
 20
4992.8501890409
 30
0.0
 11
6283.5873253692
 21
4992.8501979945
 31
0.0
  0
LINE
  5
3F0
330
1F
100
AcDbEntity
  8
0
  6
Continuous
 62
     7
370
    25
100
AcDbLine
 10
6282.7804551007
 20
4992.8931024272
 30
0.0
 11
6283.9450741116
 21
4990.6264027172
 31
0.0
  0
ARC
  5
3F1
330
1F
100
AcDbEntity
  8
0
  6
Continuous
 62
     7
370
    25
100
AcDbCircle
 10
6300.0187553361
 20
4994.3528986442
 30
0.0
 40
17.30000000000018
100
AcDbArc
 50
169.5472984449
 51
184.8404472463
  0
LINE
  5
3F2
330
1F
100
AcDbEntity
  8
0
  6
Continuous
 62
     7
370
    25
100
AcDbLine
 10
6284.386558682
 20
4999.6334694247
 30
0.0
 11
6283.0058486558
 21
4997.4915299205
 31
0.0
  0
ARC
  5
3F3
330
1F
100
AcDbEntity
  8
0
  6
Continuous
 62
     7
370
    25
100
AcDbCircle
 10
6300.0187553361
 20
4994.3528986442
 30
0.0
 40
17.29999999999999
100
AcDbArc
 50
109.5472984449
 51
124.8404472463
  0
LINE
  5
3F4
330
1F
100
AcDbEntity
  8
0
  6
Continuous
 62
     7
370
    25
100
AcDbLine
 10
6296.7757654514
 20
5010.5310634539
 30
0.0
 11
6294.2304364143
 21
5010.6558236597
 31
0.0
  0
LINE
  5
3F5
330
1F
100
AcDbEntity
  8
0
  6
Continuous
 62
     7
370
    25
100
AcDbLine
 10
6290.1353846101
 20
5008.5518064576
 30
0.0
 11
6288.7546745839
 21
5006.4098669534
 31
0.0
  0
ARC
  5
3F6
330
1F
100
AcDbEntity
  8
0
  6
Continuous
 62
     7
370
    25
100
AcDbCircle
 10
6300.0187553361
 20
4994.3528986442
 30
0.0
 40
17.30000000000006
100
AcDbArc
 50
49.5472984449
 51
64.8404472463
  0
LINE
  5
3F7
330
1F
100
AcDbEntity
  8
0
  6
Continuous
 62
     7
370
    25
100
AcDbLine
 10
6312.4079621055
 20
5005.2504926734
 30
0.0
 11
6311.2433430946
 21
5007.5171923834
 31
0.0
  0
LINE
  5
3F8
330
1F
100
AcDbEntity
  8
0
  6
Continuous
 62
     7
370
    25
100
AcDbLine
 10
6307.3736848455
 20
5010.0116026746
 30
0.0
 11
6304.8283558084
 21
5010.1363628805
 31
0.0
  0
ARC
  5
3F9
330
1F
100
AcDbEntity
  8
0
  6
Continuous
 62
     7
370
    25
100
AcDbCircle
 10
6300.0187553361
 20
4994.3528986442
 30
0.0
 40
17.30000000000018
100
AcDbArc
 50
349.5472984449
 51
4.8404472463
  0
LINE
  5
3FA
330
1F
100
AcDbEntity
  8
0
  6
Continuous
 62
     7
370
    25
100
AcDbLine
 10
6315.6509519902
 20
4989.0723278637
 30
0.0
 11
6317.0316620164
 21
4991.2142673679
 31
0.0
  0
LINE
  5
3FB
330
1F
100
AcDbEntity
  8
0
  6
Continuous
 62
     7
370
    25
100
AcDbLine
 10
6317.2570555715
 20
4995.8126948613
 30
0.0
 11
6316.0924365606
 21
4998.0793945713
 31
0.0
  0
ARC
  5
3FC
330
1F
100
AcDbEntity
  8
0
  6
Continuous
 62
     7
370
    25
100
AcDbCircle
 10
6300.0187553361
 20
4994.3528986442
 30
0.0
 40
17.30000000000006
100
AcDbArc
 50
229.5472984449
 51
244.8404472463
  0
LINE
  5
3FD
330
1F
100
AcDbEntity
  8
0
  6
Continuous
 62
     7
370
    25
100
AcDbLine
 10
6287.6295485667
 20
4983.4553046151
 30
0.0
 11
6288.7941675776
 21
4981.1886049051
 31
0.0
  0
LINE
  5
3FE
330
1F
100
AcDbEntity
  8
0
  6
Continuous
 62
     7
370
    25
100
AcDbLine
 10
6292.6638258267
 20
4978.6941946138
 30
0.0
 11
6295.2091548638
 21
4978.569434408
 31
0.0
  0
ARC
  5
3FF
330
1F
100
AcDbEntity
  8
0
  6
Continuous
 62
     7
370
    25
100
AcDbCircle
 10
6300.0187553361
 20
4994.3528986442
 30
0.0
 40
17.29999999999999
100
AcDbArc
 50
289.5472984449
 51
304.8404472463
  0
LINE
  5
400
330
1F
100
AcDbEntity
  8
0
  6
Continuous
 62
     7
370
    25
100
AcDbLine
 10
6303.2617452208
 20
4978.1747338346
 30
0.0
 11
6305.8070742578
 21
4978.0499736288
 31
0.0
  0
LINE
  5
401
330
1F
100
AcDbEntity
  8
0
  6
Continuous
 62
     7
370
    25
100
AcDbLine
 10
6309.9021260621
 20
4980.1539908309
 30
0.0
 11
6311.2828360882
 21
4982.295930335
 31
0.0
  0
LINE
  5
402
330
1F
100
AcDbEntity
  8
0
  6
Continuous
 62
     7
370
    25
100
AcDbLine
 10
6345.0187553361
 20
4931.3528986443
 30
0.0
 11
6345.0187553361
 21
5029.3528986443
 31
0.0
  0
LINE
  5
403
330
1F
100
AcDbEntity
  8
0
  6
Continuous
 62
     7
370
    25
100
AcDbLine
 10
6203.0187553361
 20
4931.3528986443
 30
0.0
 11
6345.0187553361
 21
4931.3528986443
 31
0.0
  0
LINE
  5
404
330
1F
100
AcDbEntity
  8
0
  6
Continuous
 62
     7
370
    25
100
AcDbLine
 10
6203.0187553361
 20
5029.3528986443
 30
0.0
 11
6203.0187553361
 21
4931.3528986443
 31
0.0
  0
LINE
  5
405
330
1F
100
AcDbEntity
  8
0
  6
Continuous
 62
     7
370
    25
100
AcDbLine
 10
6203.0187553361
 20
5029.3528986443
 30
0.0
 11
6345.0187553361
 21
5029.3528986443
 31
0.0
  0
LINE
  5
406
330
1F
100
AcDbEntity
  8
0
  6
Continuous
 62
     7
370
    25
100
AcDbLine
 10
6345.0187553361
 20
5031.3528986443
 30
0.0
 11
6345.0187553361
 21
5029.3528986443
 31
0.0
  0
LINE
  5
407
330
1F
100
AcDbEntity
  8
0
  6
Continuous
 62
     7
370
    25
100
AcDbLine
 10
6203.0187553361
 20
5029.3528986443
 30
0.0
 11
6203.0187553361
 21
5031.3528986443
 31
0.0
  0
LINE
  5
408
330
1F
100
AcDbEntity
  8
0
  6
Continuous
 62
     7
370
    25
100
AcDbLine
 10
6345.0187553361
 20
5031.3528986443
 30
0.0
 11
6203.0187553361
 21
5031.3528986443
 31
0.0
  0
ARC
  5
409
330
1F
100
AcDbEntity
  8
0
  6
Continuous
 62
     7
370
    25
100
AcDbCircle
 10
6344.4906750891
 20
4927.3843884154
 30
0.0
 40
4.705344107755019
100
AcDbArc
 50
57.5014336539
 51
83.556125077
  0
LINE
  5
40A
330
1F
100
AcDbEntity
  8
0
  6
Continuous
 62
     7
370
    25
100
AcDbLine
 10
6347.0187553361
 20
5029.3528986443
 30
0.0
 11
6347.0187553361
 21
4931.3528986443
 31
0.0
  0
LINE
  5
40B
330
1F
100
AcDbEntity
  8
0
  6
Continuous
 62
     7
370
    25
100
AcDbLine
 10
6345.0187553361
 20
5029.3528986443
 30
0.0
 11
6347.0187553361
 21
5029.3528986443
 31
0.0
  0
LINE
  5
40C
330
1F
100
AcDbEntity
  8
0
  6
Continuous
 62
     7
370
    25
100
AcDbLine
 10
6347.0187553361
 20
4931.3528986443
 30
0.0
 11
6346.0187553361
 21
4931.3528986443
 31
0.0
  0
ARC
  5
40D
330
1F
100
AcDbEntity
  8
0
  6
Continuous
 62
     7
370
    25
100
AcDbCircle
 10
6344.4232966702
 20
4930.1572395326
 30
0.0
 40
1.99376253996467
100
AcDbArc
 50
36.848404566
 51
72.6228160684
  0
LINE
  5
40E
330
1F
100
AcDbEntity
  8
0
  6
Continuous
 62
     7
370
    25
100
AcDbLine
 10
6318.0187553361
 20
4929.3528986443
 30
0.0
 11
6318.0187553361
 21
4931.3528986443
 31
0.0
  0
ARC
  5
40F
330
1F
100
AcDbEntity
  8
0
  6
Continuous
 62
     7
370
    25
100
AcDbCircle
 10
6347.58794007
 20
4931.386242618
 30
0.0
 40
3.276461187364436
100
AcDbArc
 50
180.5830992147
 51
218.3593420543
  0
LINE
  5
410
330
1F
100
AcDbEntity
  8
0
  6
Continuous
 62
     7
370
    25
100
AcDbLine
 10
6318.0187553361
 20
4929.3528986443
 30
0.0
 11
6345.0187553361
 21
4929.3528986443
 31
0.0
  0
LINE
  5
411
330
1F
100
AcDbEntity
  8
0
  6
Continuous
 62
     7
370
    25
100
AcDbLine
 10
6345.0187553361
 20
4930.3528986443
 30
0.0
 11
6345.0187553361
 21
4929.3528986443
 31
0.0
  0
LWPOLYLINE
  5
412
330
1F
100
AcDbEntity
  8
0
  6
Continuous
 62
     7
370
    25
100
AcDbPolyline
 90
        6
 70
   128
 43
0.0
 10
6344.3116485549
 20
4931.3528986443
 10
6344.4783725216
 20
4930.990940219
 10
6344.6450963048
 20
4930.6780674952
 10
6344.8117518259
 20
4930.456776961
 10
6344.9784073771
 20
4930.3569125439
 10
6345.0187553361
 20
4930.3528986443
  0
LINE
  5
413
330
1F
100
AcDbEntity
  8
0
  6
Continuous
 62
     7
370
    25
100
AcDbLine
 10
6201.0187553361
 20
5029.3528986443
 30
0.0
 11
6203.0187553361
 21
5029.3528986443
 31
0.0
  0
ARC
  5
414
330
1F
100
AcDbEntity
  8
0
  6
Continuous
 62
     7
370
    25
100
AcDbCircle
 10
6203.0520993098
 20
4928.7837139104
 30
0.0
 40
3.276461187364766
100
AcDbArc
 50
90.5830992147
 51
128.3593420543
  0
LINE
  5
415
330
1F
100
AcDbEntity
  8
0
  6
Continuous
 62
     7
370
    25
100
AcDbLine
 10
6201.0187553361
 20
4931.3528986443
 30
0.0
 11
6201.0187553361
 21
5029.3528986443
 31
0.0
  0
ARC
  5
416
330
1F
100
AcDbEntity
  8
0
  6
Continuous
 62
     7
370
    25
100
AcDbCircle
 10
6199.0502451071
 20
4931.8809788913
 30
0.0
 40
4.705344107807875
100
AcDbArc
 50
327.5014336541
 51
353.5561250769
  0
LINE
  5
417
330
1F
100
AcDbEntity
  8
0
  6
Continuous
 62
     7
370
    25
100
AcDbLine
 10
6203.0187553361
 20
4929.3528986443
 30
0.0
 11
6230.0187553361
 21
4929.3528986443
 31
0.0
  0
LINE
  5
418
330
1F
100
AcDbEntity
  8
0
  6
Continuous
 62
     7
370
    25
100
AcDbLine
 10
6230.0187553361
 20
4931.3528986443
 30
0.0
 11
6230.0187553361
 21
4929.3528986443
 31
0.0
  0
LINE
  5
419
330
1F
100
AcDbEntity
  8
0
  6
Continuous
 62
     7
370
    25
100
AcDbLine
 10
6203.0187553361
 20
4930.3528986443
 30
0.0
 11
6203.0187553361
 21
4929.3528986443
 31
0.0
  0
ARC
  5
41A
330
1F
100
AcDbEntity
  8
0
  6
Continuous
 62
     7
370
    25
100
AcDbCircle
 10
6201.8230962244
 20
4931.9483573102
 30
0.0
 40
1.993762540008406
100
AcDbArc
 50
306.8484045664
 51
342.622816068
  0
LINE
  5
41B
330
1F
100
AcDbEntity
  8
0
  6
Continuous
 62
     7
370
    25
100
AcDbLine
 10
6201.0187553361
 20
4931.3528986443
 30
0.0
 11
6202.0187553361
 21
4931.3528986443
 31
0.0
  0
LWPOLYLINE
  5
41C
330
1F
100
AcDbEntity
  8
0
  6
Continuous
 62
     7
370
    25
100
AcDbPolyline
 90
        6
 70
   128
 43
0.0
 10
6203.0187553361
 20
4932.0600054255
 10
6202.6567969108
 20
4931.8932814588
 10
6202.343924187
 20
4931.7265576756
 10
6202.1226336528
 20
4931.5599021545
 10
6202.0227692357
 20
4931.3932466033
 10
6202.0187553361
 20
4931.3528986443
  0
ARC
  5
41D
330
1F
100
AcDbEntity
  8
0
  6
Continuous
 62
     7
370
    25
100
AcDbCircle
 10
6345.0187553361
 20
5029.3528986443
 30
0.0
 40
2.0
100
AcDbArc
 50
0.0
 51
90.0
  0
ARC
  5
41E
330
1F
100
AcDbEntity
  8
0
  6
Continuous
 62
     7
370
    25
100
AcDbCircle
 10
6345.0187553361
 20
5029.3528986443
 30
0.0
 40
1.0
100
AcDbArc
 50
0.0
 51
90.0
  0
ARC
  5
41F
330
1F
100
AcDbEntity
  8
0
  6
Continuous
 62
     7
370
    25
100
AcDbCircle
 10
6345.0187553361
 20
4931.3528986443
 30
0.0
 40
2.0
100
AcDbArc
 50
270.0
 51
0.0
  0
ARC
  5
420
330
1F
100
AcDbEntity
  8
0
  6
Continuous
 62
     7
370
    25
100
AcDbCircle
 10
6345.0187553361
 20
4931.3528986443
 30
0.0
 40
0.9999999999990905
100
AcDbArc
 50
270.0
 51
0.0
  0
ARC
  5
421
330
1F
100
AcDbEntity
  8
0
  6
Continuous
 62
     7
370
    25
100
AcDbCircle
 10
6203.0187553361
 20
5029.3528986443
 30
0.0
 40
2.0
100
AcDbArc
 50
90.0
 51
180.0
  0
ARC
  5
422
330
1F
100
AcDbEntity
  8
0
  6
Continuous
 62
     7
370
    25
100
AcDbCircle
 10
6203.0187553361
 20
5029.3528986443
 30
0.0
 40
1.000000000000909
100
AcDbArc
 50
90.0
 51
180.0
  0
ARC
  5
423
330
1F
100
AcDbEntity
  8
0
  6
Continuous
 62
     7
370
    25
100
AcDbCircle
 10
6203.0187553361
 20
4931.3528986443
 30
0.0
 40
1.999999999999091
100
AcDbArc
 50
180.0
 51
270.0
  0
ARC
  5
424
330
1F
100
AcDbEntity
  8
0
  6
Continuous
 62
     7
370
    25
100
AcDbCircle
 10
6203.0187553361
 20
4931.3528986443
 30
0.0
 40
1.0
100
AcDbArc
 50
180.0
 51
270.0
  0
LINE
  5
425
330
1F
100
AcDbEntity
  8
0
  6
Continuous
 62
     7
370
    25
100
AcDbLine
 10
6260.0187553361
 20
4917.8528986443
 30
0.0
 11
6288.0187553361
 21
4917.8528986443
 31
0.0
  0
LINE
  5
426
330
1F
100
AcDbEntity
  8
0
  6
Continuous
 62
     7
370
    25
100
AcDbLine
 10
6286.5187553361
 20
4916.3528986443
 30
0.0
 11
6261.5187553361
 21
4916.3528986443
 31
0.0
  0
LINE
  5
427
330
1F
100
AcDbEntity
  8
0
  6
Continuous
 62
     7
370
    25
100
AcDbLine
 10
6262.8187553361
 20
4929.3528986443
 30
0.0
 11
6285.2187553361
 21
4929.3528986443
 31
0.0
  0
ENDSEC
  0
SECTION
  2
OBJECTS
  0
DICTIONARY
  5
C
330
0
100
AcDbDictionary
281
     1
  3
ACAD_GROUP
350
D
  3
ACAD_LAYOUT
350
1A
  3
ACAD_MLINESTYLE
350
17
  3
ACAD_PLOTSETTINGS
350
19
  3
ACAD_PLOTSTYLENAME
350
E
  3
ACAD_SCALELIST
350
47
  3
DWGPROPS
350
428
  0
DICTIONARY
  5
D
102
{ACAD_REACTORS
330
C
102
}
330
C
100
AcDbDictionary
281
     1
  0
DICTIONARY
  5
1A
102
{ACAD_REACTORS
330
C
102
}
330
C
100
AcDbDictionary
281
     1
  3
Layout1
350
1E
  3
Layout2
350
26
  3
Model
350
22
  0
DICTIONARY
  5
17
102
{ACAD_REACTORS
330
C
102
}
330
C
100
AcDbDictionary
281
     1
  3
Standard
350
18
  0
DICTIONARY
  5
19
102
{ACAD_REACTORS
330
C
102
}
330
C
100
AcDbDictionary
281
     1
  0
ACDBDICTIONARYWDFLT
  5
E
102
{ACAD_REACTORS
330
C
102
}
330
C
100
AcDbDictionary
281
     1
  3
Normal
350
F
100
AcDbDictionaryWithDefault
340
F
  0
DICTIONARY
  5
47
102
{ACAD_REACTORS
330
C
102
}
330
C
100
AcDbDictionary
281
     1
  3
A0
350
48
  3
A1
350
49
  3
A2
350
4A
  3
A3
350
4B
  3
A4
350
4C
  3
A5
350
4D
  3
A6
350
4E
  3
A7
350
4F
  3
A8
350
50
  3
A9
350
51
  3
B0
350
52
  3
B1
350
53
  3
B2
350
54
  3
B3
350
55
  3
B4
350
56
  3
B5
350
57
  3
B6
350
58
  3
B7
350
59
  3
B8
350
5A
  3
B9
350
5B
  3
C0
350
5C
  3
C1
350
5D
  3
C2
350
5E
  3
C3
350
5F
  3
C4
350
60
  3
C5
350
61
  3
C6
350
62
  3
C7
350
63
  3
C8
350
64
  3
C9
350
65
  3
D0
350
66
  3
D1
350
67
  3
D2
350
68
  0
XRECORD
  5
428
102
{ACAD_REACTORS
330
C
102
}
330
C
100
AcDbXrecord
280
     1
  1
DWGPROPS COOKIE
  2

  3

  4

  6

  7

  8
radek.stransky
  9

300
=
301
=
302
=
303
=
304
=
305
=
306
=
307
=
308
=
309
=
 40
0.0
 41
2459998.315236655
 42
2459998.315237419
  1

 90
        0
  0
LAYOUT
  5
1E
102
{ACAD_REACTORS
330
1A
102
}
330
1A
100
AcDbPlotSettings
  1

  2
none_device
  4

  6

 40
0.0
 41
0.0
 42
0.0
 43
0.0
 44
0.0
 45
0.0
 46
0.0
 47
0.0
 48
0.0
 49
0.0
140
0.0
141
0.0
142
1.0
143
1.0
 70
   688
 72
     1
 73
     0
 74
     5
  7

 75
    16
147
1.0
148
0.0
149
0.0
100
AcDbLayout
  1
Layout1
 70
     1
 71
     1
 10
0.0
 20
0.0
 11
420.0
 21
297.0
 12
0.0
 22
0.0
 32
0.0
 14
1.0000000000E+20
 24
1.0000000000E+20
 34
1.0000000000E+20
 15
-1.0000000000E+20
 25
-1.0000000000E+20
 35
-1.0000000000E+20
146
0.0
 13
0.0
 23
0.0
 33
0.0
 16
1.0
 26
0.0
 36
0.0
 17
0.0
 27
1.0
 37
0.0
 76
     0
330
1B
  0
LAYOUT
  5
26
102
{ACAD_REACTORS
330
1A
102
}
330
1A
100
AcDbPlotSettings
  1

  2
none_device
  4

  6

 40
0.0
 41
0.0
 42
0.0
 43
0.0
 44
0.0
 45
0.0
 46
0.0
 47
0.0
 48
0.0
 49
0.0
140
0.0
141
0.0
142
1.0
143
1.0
 70
   688
 72
     1
 73
     0
 74
     5
  7

 75
    16
147
1.0
148
0.0
149
0.0
100
AcDbLayout
  1
Layout2
 70
     1
 71
     2
 10
0.0
 20
0.0
 11
0.0
 21
0.0
 12
0.0
 22
0.0
 32
0.0
 14
0.0
 24
0.0
 34
0.0
 15
0.0
 25
0.0
 35
0.0
146
0.0
 13
0.0
 23
0.0
 33
0.0
 16
1.0
 26
0.0
 36
0.0
 17
0.0
 27
1.0
 37
0.0
 76
     0
330
23
  0
LAYOUT
  5
22
102
{ACAD_REACTORS
330
1A
102
}
330
1A
100
AcDbPlotSettings
  1

  2
none_device
  4
Letter_(8.50_x_11.00_Inches)
  6

 40
6.35
 41
6.35
 42
6.35000508
 43
6.35000508
 44
215.9
 45
279.4
 46
0.0
 47
0.0
 48
0.0
 49
0.0
140
0.0
141
0.0
142
1.0
143
1.0
 70
  1712
 72
     1
 73
     0
 74
     0
  7

 75
     0
147
1.0
148
0.0
149
0.0
100
AcDbLayout
  1
Model
 70
     1
 71
     0
 10
0.0
 20
0.0
 11
20000.0
 21
10000.0
 12
0.0
 22
0.0
 32
0.0
 14
0.0
 24
0.0
 34
0.0
 15
20000.0
 25
10000.0
 35
0.0
146
0.0
 13
0.0
 23
0.0
 33
0.0
 16
1.0
 26
0.0
 36
0.0
 17
0.0
 27
1.0
 37
0.0
 76
     0
330
1F
331
29
  0
MLINESTYLE
  5
18
102
{ACAD_REACTORS
330
17
102
}
330
17
100
AcDbMlineStyle
  2
Standard
 70
     0
  3

 62
   256
 51
90.0
 52
90.0
 71
     2
 49
0.5
 62
   256
  6
BYLAYER
 49
-0.5
 62
   256
  6
BYLAYER
  0
ACDBPLACEHOLDER
  5
F
102
{ACAD_REACTORS
330
E
102
}
330
E
  0
SCALE
  5
48
102
{ACAD_REACTORS
330
47
102
}
330
47
100
AcDbScale
 70
     0
300
1:1
140
1.0
141
1.0
290
     1
  0
SCALE
  5
49
102
{ACAD_REACTORS
330
47
102
}
330
47
100
AcDbScale
 70
     0
300
1:2
140
1.0
141
2.0
290
     0
  0
SCALE
  5
4A
102
{ACAD_REACTORS
330
47
102
}
330
47
100
AcDbScale
 70
     0
300
1:4
140
1.0
141
4.0
290
     0
  0
SCALE
  5
4B
102
{ACAD_REACTORS
330
47
102
}
330
47
100
AcDbScale
 70
     0
300
1:5
140
1.0
141
5.0
290
     0
  0
SCALE
  5
4C
102
{ACAD_REACTORS
330
47
102
}
330
47
100
AcDbScale
 70
     0
300
1:8
140
1.0
141
8.0
290
     0
  0
SCALE
  5
4D
102
{ACAD_REACTORS
330
47
102
}
330
47
100
AcDbScale
 70
     0
300
1:10
140
1.0
141
10.0
290
     0
  0
SCALE
  5
4E
102
{ACAD_REACTORS
330
47
102
}
330
47
100
AcDbScale
 70
     0
300
1:16
140
1.0
141
16.0
290
     0
  0
SCALE
  5
4F
102
{ACAD_REACTORS
330
47
102
}
330
47
100
AcDbScale
 70
     0
300
1:20
140
1.0
141
20.0
290
     0
  0
SCALE
  5
50
102
{ACAD_REACTORS
330
47
102
}
330
47
100
AcDbScale
 70
     0
300
1:30
140
1.0
141
30.0
290
     0
  0
SCALE
  5
51
102
{ACAD_REACTORS
330
47
102
}
330
47
100
AcDbScale
 70
     0
300
1:40
140
1.0
141
40.0
290
     0
  0
SCALE
  5
52
102
{ACAD_REACTORS
330
47
102
}
330
47
100
AcDbScale
 70
     0
300
1:50
140
1.0
141
50.0
290
     0
  0
SCALE
  5
53
102
{ACAD_REACTORS
330
47
102
}
330
47
100
AcDbScale
 70
     0
300
1:100
140
1.0
141
100.0
290
     0
  0
SCALE
  5
54
102
{ACAD_REACTORS
330
47
102
}
330
47
100
AcDbScale
 70
     0
300
2:1
140
2.0
141
1.0
290
     0
  0
SCALE
  5
55
102
{ACAD_REACTORS
330
47
102
}
330
47
100
AcDbScale
 70
     0
300
4:1
140
4.0
141
1.0
290
     0
  0
SCALE
  5
56
102
{ACAD_REACTORS
330
47
102
}
330
47
100
AcDbScale
 70
     0
300
8:1
140
8.0
141
1.0
290
     0
  0
SCALE
  5
57
102
{ACAD_REACTORS
330
47
102
}
330
47
100
AcDbScale
 70
     0
300
10:1
140
10.0
141
1.0
290
     0
  0
SCALE
  5
58
102
{ACAD_REACTORS
330
47
102
}
330
47
100
AcDbScale
 70
     0
300
100:1
140
100.0
141
1.0
290
     0
  0
SCALE
  5
59
102
{ACAD_REACTORS
330
47
102
}
330
47
100
AcDbScale
 70
     0
300
1/128" = 1'-0"
140
0.0078125
141
12.0
290
     0
  0
SCALE
  5
5A
102
{ACAD_REACTORS
330
47
102
}
330
47
100
AcDbScale
 70
     0
300
1/64" = 1'-0"
140
0.015625
141
12.0
290
     0
  0
SCALE
  5
5B
102
{ACAD_REACTORS
330
47
102
}
330
47
100
AcDbScale
 70
     0
300
1/32" = 1'-0"
140
0.03125
141
12.0
290
     0
  0
SCALE
  5
5C
102
{ACAD_REACTORS
330
47
102
}
330
47
100
AcDbScale
 70
     0
300
1/16" = 1'-0"
140
0.0625
141
12.0
290
     0
  0
SCALE
  5
5D
102
{ACAD_REACTORS
330
47
102
}
330
47
100
AcDbScale
 70
     0
300
3/32" = 1'-0"
140
0.09375
141
12.0
290
     0
  0
SCALE
  5
5E
102
{ACAD_REACTORS
330
47
102
}
330
47
100
AcDbScale
 70
     0
300
1/8" = 1'-0"
140
0.125
141
12.0
290
     0
  0
SCALE
  5
5F
102
{ACAD_REACTORS
330
47
102
}
330
47
100
AcDbScale
 70
     0
300
3/16" = 1'-0"
140
0.1875
141
12.0
290
     0
  0
SCALE
  5
60
102
{ACAD_REACTORS
330
47
102
}
330
47
100
AcDbScale
 70
     0
300
1/4" = 1'-0"
140
0.25
141
12.0
290
     0
  0
SCALE
  5
61
102
{ACAD_REACTORS
330
47
102
}
330
47
100
AcDbScale
 70
     0
300
3/8" = 1'-0"
140
0.375
141
12.0
290
     0
  0
SCALE
  5
62
102
{ACAD_REACTORS
330
47
102
}
330
47
100
AcDbScale
 70
     0
300
1/2" = 1'-0"
140
0.5
141
12.0
290
     0
  0
SCALE
  5
63
102
{ACAD_REACTORS
330
47
102
}
330
47
100
AcDbScale
 70
     0
300
3/4" = 1'-0"
140
0.75
141
12.0
290
     0
  0
SCALE
  5
64
102
{ACAD_REACTORS
330
47
102
}
330
47
100
AcDbScale
 70
     0
300
1" = 1'-0"
140
1.0
141
12.0
290
     0
  0
SCALE
  5
65
102
{ACAD_REACTORS
330
47
102
}
330
47
100
AcDbScale
 70
     0
300
1-1/2" = 1'-0"
140
1.5
141
12.0
290
     0
  0
SCALE
  5
66
102
{ACAD_REACTORS
330
47
102
}
330
47
100
AcDbScale
 70
     0
300
3" = 1'-0"
140
3.0
141
12.0
290
     0
  0
SCALE
  5
67
102
{ACAD_REACTORS
330
47
102
}
330
47
100
AcDbScale
 70
     0
300
6" = 1'-0"
140
6.0
141
12.0
290
     0
  0
SCALE
  5
68
102
{ACAD_REACTORS
330
47
102
}
330
47
100
AcDbScale
 70
     0
300
1'-0" = 1'-0"
140
12.0
141
12.0
290
     0
  0
ENDSEC
  0
EOF
